0
SECTION
  2
HEADER
  9
$ACADVER
  1
AC1027
  9
$ACADMAINTVER
 70
     8
  9
$DWGCODEPAGE
  3
ANSI_1252
  9
$REQUIREDVERSIONS
160
                 0
  9
$COMMENTS
  1
File was created by Cadenas
  9
$CUSTOMPROPERTYTAG
  1
NN
  9
$CUSTOMPROPERTY
  1
Set Screw Tapped Base Inch Bore - Stainless Housing, Corrosion Resistant Insert
  9
$CUSTOMPROPERTYTAG
  1
NT
  9
$CUSTOMPROPERTY
  1
SC Pillow Block Bearings -(Normal Duty) -Corrosion Resistant Insert -Polymer Housed -Tapped Base Housing -E-Z KLEEN
  9
$CUSTOMPROPERTYTAG
  1
NB
  9
$CUSTOMPROPERTY
  1
136915
  9
$CUSTOMPROPERTYTAG
  1
NBSYN
  9
$CUSTOMPROPERTY
  1
$PN.
  9
$CUSTOMPROPERTYTAG
  1
LINA
  9
$CUSTOMPROPERTY
  1
136915
  9
$CUSTOMPROPERTYTAG
  1
SERIES
  9
$CUSTOMPROPERTY
  1
206
  9
$CUSTOMPROPERTYTAG
  1
SS
  9
$CUSTOMPROPERTY
  1
1-1/4
  9
$CUSTOMPROPERTYTAG
  1
PN
  9
$CUSTOMPROPERTY
  1
136915
  9
$CUSTOMPROPERTYTAG
  1
DESCRIPTION
  9
$CUSTOMPROPERTY
  1
TB-SCEZ-104S-SHCR
  9
$CUSTOMPROPERTYTAG
  1
W
  9
$CUSTOMPROPERTY
  1
3.55
  9
$CUSTOMPROPERTYTAG
  1
A
  9
$CUSTOMPROPERTY
  1
1.52
  9
$CUSTOMPROPERTYTAG
  1
B
  9
$CUSTOMPROPERTY
  1
3.84
  9
$CUSTOMPROPERTYTAG
  1
C
  9
$CUSTOMPROPERTY
  1
1.50
  9
$CUSTOMPROPERTYTAG
  1
D
  9
$CUSTOMPROPERTY
  1
3.00
  9
$CUSTOMPROPERTYTAG
  1
J
  9
$CUSTOMPROPERTY
  1
3.22
  9
$CUSTOMPROPERTYTAG
  1
L
  9
$CUSTOMPROPERTY
  1
1.57
  9
$CUSTOMPROPERTYTAG
  1
M
  9
$CUSTOMPROPERTY
  1
1.69
  9
$CUSTOMPROPERTYTAG
  1
N
  9
$CUSTOMPROPERTY
  1
0.88
  9
$CUSTOMPROPERTYTAG
  1
R
  9
$CUSTOMPROPERTY
  1
7/16-14
  9
$CUSTOMPROPERTYTAG
  1
S
  9
$CUSTOMPROPERTY
  1
0.94
  9
$CUSTOMPROPERTYTAG
  1
COMPANY
  9
$CUSTOMPROPERTY
  1
baldor
  9
$INSBASE
 10
0.0
 20
0.0
 30
0.0
  9
$EXTMIN
 10
1.000000000000000E+20
 20
1.000000000000000E+20
 30
1.000000000000000E+20
  9
$EXTMAX
 10
-1.000000000000000E+20
 20
-1.000000000000000E+20
 30
-1.000000000000000E+20
  9
$LIMMIN
 10
0.0
 20
0.0
  9
$LIMMAX
 10
12.0
 20
9.0
  9
$ORTHOMODE
 70
     0
  9
$REGENMODE
 70
     1
  9
$FILLMODE
 70
     1
  9
$QTEXTMODE
 70
     0
  9
$MIRRTEXT
 70
     1
  9
$LTSCALE
 40
1.0
  9
$ATTMODE
 70
     1
  9
$TEXTSIZE
 40
0.2
  9
$TRACEWID
 40
0.05
  9
$TEXTSTYLE
  7
Standard
  9
$CLAYER
  8
0
  9
$CELTYPE
  6
ByLayer
  9
$CECOLOR
 62
   256
  9
$CELTSCALE
 40
1.0
  9
$DISPSILH
 70
     0
  9
$DIMSCALE
 40
1.0
  9
$DIMASZ
 40
0.18
  9
$DIMEXO
 40
0.0625
  9
$DIMDLI
 40
0.38
  9
$DIMRND
 40
0.0
  9
$DIMDLE
 40
0.0
  9
$DIMEXE
 40
0.18
  9
$DIMTP
 40
0.0
  9
$DIMTM
 40
0.0
  9
$DIMTXT
 40
0.18
  9
$DIMCEN
 40
0.09
  9
$DIMTSZ
 40
0.0
  9
$DIMTOL
 70
     0
  9
$DIMLIM
 70
     0
  9
$DIMTIH
 70
     1
  9
$DIMTOH
 70
     1
  9
$DIMSE1
 70
     0
  9
$DIMSE2
 70
     0
  9
$DIMTAD
 70
     0
  9
$DIMZIN
 70
     0
  9
$DIMBLK
  1

  9
$DIMASO
 70
     1
  9
$DIMSHO
 70
     1
  9
$DIMPOST
  1

  9
$DIMAPOST
  1

  9
$DIMALT
 70
     0
  9
$DIMALTD
 70
     2
  9
$DIMALTF
 40
25.4
  9
$DIMLFAC
 40
1.0
  9
$DIMTOFL
 70
     0
  9
$DIMTVP
 40
0.0
  9
$DIMTIX
 70
     0
  9
$DIMSOXD
 70
     0
  9
$DIMSAH
 70
     0
  9
$DIMBLK1
  1

  9
$DIMBLK2
  1

  9
$DIMSTYLE
  2
Standard
  9
$DIMCLRD
 70
     0
  9
$DIMCLRE
 70
     0
  9
$DIMCLRT
 70
     0
  9
$DIMTFAC
 40
1.0
  9
$DIMGAP
 40
0.09
  9
$DIMJUST
 70
     0
  9
$DIMSD1
 70
     0
  9
$DIMSD2
 70
     0
  9
$DIMTOLJ
 70
     1
  9
$DIMTZIN
 70
     0
  9
$DIMALTZ
 70
     0
  9
$DIMALTTZ
 70
     0
  9
$DIMUPT
 70
     0
  9
$DIMDEC
 70
     4
  9
$DIMTDEC
 70
     4
  9
$DIMALTU
 70
     2
  9
$DIMALTTD
 70
     2
  9
$DIMTXSTY
  7
Standard
  9
$DIMAUNIT
 70
     0
  9
$DIMADEC
 70
     0
  9
$DIMALTRND
 40
0.0
  9
$DIMAZIN
 70
     0
  9
$DIMDSEP
 70
    46
  9
$DIMATFIT
 70
     3
  9
$DIMFRAC
 70
     0
  9
$DIMLDRBLK
  1

  9
$DIMLUNIT
 70
     2
  9
$DIMLWD
 70
    -2
  9
$DIMLWE
 70
    -2
  9
$DIMTMOVE
 70
     0
  9
$DIMFXL
 40
1.0
  9
$DIMFXLON
 70
     0
  9
$DIMJOGANG
 40
0.7853981633974483
  9
$DIMTFILL
 70
     0
  9
$DIMTFILLCLR
 70
     0
  9
$DIMARCSYM
 70
     0
  9
$DIMLTYPE
  6

  9
$DIMLTEX1
  6

  9
$DIMLTEX2
  6

  9
$DIMTXTDIRECTION
 70
     0
  9
$LUNITS
 70
     2
  9
$LUPREC
 70
     4
  9
$SKETCHINC
 40
0.1
  9
$FILLETRAD
 40
0.5
  9
$AUNITS
 70
     0
  9
$AUPREC
 70
     0
  9
$MENU
  1
.
  9
$ELEVATION
 40
0.0
  9
$PELEVATION
 40
0.0
  9
$THICKNESS
 40
0.0
  9
$LIMCHECK
 70
     0
  9
$CHAMFERA
 40
0.0
  9
$CHAMFERB
 40
0.0
  9
$CHAMFERC
 40
0.0
  9
$CHAMFERD
 40
0.0
  9
$SKPOLY
 70
     0
  9
$TDCREATE
 40
2458168.890672454
  9
$TDUCREATE
 40
2458168.849005787
  9
$TDUPDATE
 40
2458168.890672454
  9
$TDUUPDATE
 40
2458168.849005787
  9
$TDINDWG
 40
0.0000000116
  9
$TDUSRTIMER
 40
0.0000000116
  9
$USRTIMER
 70
     1
  9
$ANGBASE
 50
0.0
  9
$ANGDIR
 70
     0
  9
$PDMODE
 70
     0
  9
$PDSIZE
 40
0.0
  9
$PLINEWID
 40
0.0
  9
$SPLFRAME
 70
     0
  9
$SPLINETYPE
 70
     6
  9
$SPLINESEGS
 70
     8
  9
$HANDSEED
  5
195
  9
$SURFTAB1
 70
     6
  9
$SURFTAB2
 70
     6
  9
$SURFTYPE
 70
     6
  9
$SURFU
 70
     6
  9
$SURFV
 70
     6
  9
$UCSBASE
  2

  9
$UCSNAME
  2

  9
$UCSORG
 10
0.0
 20
0.0
 30
0.0
  9
$UCSXDIR
 10
1.0
 20
0.0
 30
0.0
  9
$UCSYDIR
 10
0.0
 20
1.0
 30
0.0
  9
$UCSORTHOREF
  2

  9
$UCSORTHOVIEW
 70
     0
  9
$UCSORGTOP
 10
0.0
 20
0.0
 30
0.0
  9
$UCSORGBOTTOM
 10
0.0
 20
0.0
 30
0.0
  9
$UCSORGLEFT
 10
0.0
 20
0.0
 30
0.0
  9
$UCSORGRIGHT
 10
0.0
 20
0.0
 30
0.0
  9
$UCSORGFRONT
 10
0.0
 20
0.0
 30
0.0
  9
$UCSORGBACK
 10
0.0
 20
0.0
 30
0.0
  9
$PUCSBASE
  2

  9
$PUCSNAME
  2

  9
$PUCSORG
 10
0.0
 20
0.0
 30
0.0
  9
$PUCSXDIR
 10
1.0
 20
0.0
 30
0.0
  9
$PUCSYDIR
 10
0.0
 20
1.0
 30
0.0
  9
$PUCSORTHOREF
  2

  9
$PUCSORTHOVIEW
 70
     0
  9
$PUCSORGTOP
 10
0.0
 20
0.0
 30
0.0
  9
$PUCSORGBOTTOM
 10
0.0
 20
0.0
 30
0.0
  9
$PUCSORGLEFT
 10
0.0
 20
0.0
 30
0.0
  9
$PUCSORGRIGHT
 10
0.0
 20
0.0
 30
0.0
  9
$PUCSORGFRONT
 10
0.0
 20
0.0
 30
0.0
  9
$PUCSORGBACK
 10
0.0
 20
0.0
 30
0.0
  9
$USERI1
 70
     0
  9
$USERI2
 70
     0
  9
$USERI3
 70
     0
  9
$USERI4
 70
     0
  9
$USERI5
 70
     0
  9
$USERR1
 40
0.0
  9
$USERR2
 40
0.0
  9
$USERR3
 40
0.0
  9
$USERR4
 40
0.0
  9
$USERR5
 40
0.0
  9
$WORLDVIEW
 70
     1
  9
$SHADEDGE
 70
     3
  9
$SHADEDIF
 70
    70
  9
$TILEMODE
 70
     1
  9
$MAXACTVP
 70
    64
  9
$PINSBASE
 10
0.0
 20
0.0
 30
0.0
  9
$PLIMCHECK
 70
     0
  9
$PEXTMIN
 10
1.000000000000000E+20
 20
1.000000000000000E+20
 30
1.000000000000000E+20
  9
$PEXTMAX
 10
-1.000000000000000E+20
 20
-1.000000000000000E+20
 30
-1.000000000000000E+20
  9
$PLIMMIN
 10
0.0
 20
0.0
  9
$PLIMMAX
 10
12.0
 20
9.0
  9
$UNITMODE
 70
     0
  9
$VISRETAIN
 70
     1
  9
$PLINEGEN
 70
     0
  9
$PSLTSCALE
 70
     1
  9
$TREEDEPTH
 70
  3020
  9
$CMLSTYLE
  2
Standard
  9
$CMLJUST
 70
     0
  9
$CMLSCALE
 40
1.0
  9
$PROXYGRAPHICS
 70
     1
  9
$MEASUREMENT
 70
     0
  9
$CELWEIGHT
370
    -1
  9
$ENDCAPS
280
     0
  9
$JOINSTYLE
280
     0
  9
$LWDISPLAY
290
     0
  9
$INSUNITS
 70
     1
  9
$HYPERLINKBASE
  1

  9
$STYLESHEET
  1

  9
$XEDIT
290
     1
  9
$CEPSNTYPE
380
     0
  9
$PSTYLEMODE
290
     1
  9
$FINGERPRINTGUID
  2
{C3F5624C-C8B6-46F4-AC1B-B5561E1F39D8}
  9
$VERSIONGUID
  2
{FAEB1C32-E019-11D5-929B-00C0DF256EC4}
  9
$EXTNAMES
290
     1
  9
$PSVPSCALE
 40
0.0
  9
$OLESTARTUP
290
     0
  9
$SORTENTS
280
   127
  9
$INDEXCTL
280
     0
  9
$HIDETEXT
280
     1
  9
$XCLIPFRAME
280
     2
  9
$HALOGAP
280
     0
  9
$OBSCOLOR
 70
   257
  9
$OBSLTYPE
280
     0
  9
$INTERSECTIONDISPLAY
280
     0
  9
$INTERSECTIONCOLOR
 70
   257
  9
$DIMASSOC
280
     2
  9
$PROJECTNAME
  1

  9
$CAMERADISPLAY
290
     0
  9
$LENSLENGTH
 40
50.0
  9
$CAMERAHEIGHT
 40
0.0
  9
$STEPSPERSEC
 40
2.0
  9
$STEPSIZE
 40
6.0
  9
$3DDWFPREC
 40
2.0
  9
$PSOLWIDTH
 40
0.25
  9
$PSOLHEIGHT
 40
4.0
  9
$LOFTANG1
 40
1.570796326794897
  9
$LOFTANG2
 40
1.570796326794897
  9
$LOFTMAG1
 40
0.0
  9
$LOFTMAG2
 40
0.0
  9
$LOFTPARAM
 70
     7
  9
$LOFTNORMALS
280
     1
  9
$LATITUDE
 40
37.795
  9
$LONGITUDE
 40
-122.394
  9
$NORTHDIRECTION
 40
0.0
  9
$TIMEZONE
 70
 -8000
  9
$LIGHTGLYPHDISPLAY
280
     1
  9
$TILEMODELIGHTSYNCH
280
     1
  9
$CMATERIAL
347
44
  9
$SOLIDHIST
280
     0
  9
$SHOWHIST
280
     1
  9
$DWFFRAME
280
     2
  9
$DGNFRAME
280
     2
  9
$REALWORLDSCALE
290
     1
  9
$INTERFERECOLOR
 62
   256
  9
$CSHADOW
280
     0
  9
$SHADOWPLANELOCATION
 40
0.0
  0
ENDSEC
  0
SECTION
  2
CLASSES
  0
CLASS
  1
ACDBDICTIONARYWDFLT
  2
AcDbDictionaryWithDefault
  3
ObjectDBX Classes
 90
        0
 91
        4
280
     0
281
     0
  0
CLASS
  1
VISUALSTYLE
  2
AcDbVisualStyle
  3
ObjectDBX Classes
 90
     4095
 91
        4
280
     0
281
     0
  0
CLASS
  1
MATERIAL
  2
AcDbMaterial
  3
ObjectDBX Classes
 90
     1153
 91
        4
280
     0
281
     0
  0
CLASS
  1
SCALE
  2
AcDbScale
  3
ObjectDBX Classes
 90
     1153
 91
        4
280
     0
281
     0
  0
CLASS
  1
TABLESTYLE
  2
AcDbTableStyle
  3
ObjectDBX Classes
 90
     4095
 91
        4
280
     0
281
     0
  0
CLASS
  1
MLEADERSTYLE
  2
AcDbMLeaderStyle
  3
ACDB_MLEADERSTYLE_CLASS
 90
     4095
 91
        4
280
     0
281
     0
  0
CLASS
  1
SUN
  2
AcDbSun
  3
SCENEOE
 90
     1153
 91
        4
280
     0
281
     0
  0
CLASS
  1
DICTIONARYVAR
  2
AcDbDictionaryVar
  3
ObjectDBX Classes
 90
        0
 91
        4
280
     0
281
     0
  0
CLASS
  1
CELLSTYLEMAP
  2
AcDbCellStyleMap
  3
ObjectDBX Classes
 90
     1152
 91
        4
280
     0
281
     0
  0
ENDSEC
  0
SECTION
  2
TABLES
  0
TABLE
  2
VPORT
  5
8
330
0
100
AcDbSymbolTable
 70
     1
  0
VPORT
  5
29
330
8
100
AcDbSymbolTableRecord
100
AcDbViewportTableRecord
  2
*Active
 70
     0
 10
0.0
 20
0.0
 11
1.0
 21
1.0
 12
0.0
 22
-0.0955000000000004
 13
0.0
 23
0.0
 14
0.5
 24
0.5
 15
0.5
 25
0.5
 16
0.0
 26
0.0
 36
1.0
 17
0.0
 27
0.0
 37
0.0
 40
1.877819999999999
 41
2.085822922324824
 42
50.0
 43
0.0
 44
0.0
 50
0.0
 51
0.0
 71
     0
 72
   100
 73
     1
 74
     3
 75
     0
 76
     0
 77
     0
 78
     0
281
     0
 65
     1
110
0.0
120
0.0
130
0.0
111
1.0
121
0.0
131
0.0
112
0.0
122
1.0
132
0.0
 79
     0
146
0.0
348
2F
 60
     3
 61
     5
292
     1
282
     1
141
0.0
142
0.0
 63
   250
361
6D
  0
ENDTAB
  0
TABLE
  2
LTYPE
  5
5
330
0
100
AcDbSymbolTable
 70
     3
  0
LTYPE
  5
14
330
5
100
AcDbSymbolTableRecord
100
AcDbLinetypeTableRecord
  2
ByBlock
 70
     0
  3

 72
    65
 73
     0
 40
0.0
  0
LTYPE
  5
15
330
5
100
AcDbSymbolTableRecord
100
AcDbLinetypeTableRecord
  2
ByLayer
 70
     0
  3

 72
    65
 73
     0
 40
0.0
  0
LTYPE
  5
16
330
5
100
AcDbSymbolTableRecord
100
AcDbLinetypeTableRecord
  2
Continuous
 70
     0
  3
Solid line
 72
    65
 73
     0
 40
0.0
  0
LTYPE
  5
9A
330
5
100
AcDbSymbolTableRecord
100
AcDbLinetypeTableRecord
  2
Dashed
 70
     0
  3

 72
    65
 73
     2
 40
2.0
 49
1.0
 74
     0
 49
-1.0
 74
     0
  0
LTYPE
  5
119
330
5
100
AcDbSymbolTableRecord
100
AcDbLinetypeTableRecord
  2
Center
 70
     0
  3

 72
    65
 73
     4
 40
1.5
 49
0.45
 74
     0
 49
-0.5
 74
     0
 49
0.05
 74
     0
 49
-0.5
 74
     0
  0
ENDTAB
  0
TABLE
  2
LAYER
  5
2
330
0
100
AcDbSymbolTable
 70
     7
  0
LAYER
  5
10
330
2
100
AcDbSymbolTableRecord
100
AcDbLayerTableRecord
  2
0
 70
     0
 62
     7
  6
Continuous
370
    -3
390
F
347
46
348
0
  0
LAYER
  5
72
330
2
100
AcDbSymbolTableRecord
100
AcDbLayerTableRecord
  2
AM_6
 70
     0
 62
    -2
  6
Continuous
370
    35
390
F
347
46
348
0
  0
LAYER
  5
9B
330
2
100
AcDbSymbolTableRecord
100
AcDbLayerTableRecord
  2
AM_9
 70
     0
 62
     6
  6
Dashed
370
    25
390
F
347
46
348
0
  0
LAYER
  5
B7
330
2
100
AcDbSymbolTableRecord
100
AcDbLayerTableRecord
  2
AM_4
 70
     0
 62
     7
  6
Continuous
370
    50
390
F
347
46
348
0
  0
LAYER
  5
11A
330
2
100
AcDbSymbolTableRecord
100
AcDbLayerTableRecord
  2
AM_7
 70
     0
 62
     7
  6
Center
370
    25
390
F
347
46
348
0
  0
LAYER
  5
12F
330
2
100
AcDbSymbolTableRecord
100
AcDbLayerTableRecord
  2
AM_5
 70
     0
 62
     3
  6
Continuous
370
    25
390
F
347
46
348
0
  0
LAYER
  5
187
330
2
100
AcDbSymbolTableRecord
100
AcDbLayerTableRecord
  2
ConnectionPoints
 70
     0
 62
     7
  6
Continuous
370
    50
390
F
347
46
348
0
  0
ENDTAB
  0
TABLE
  2
STYLE
  5
3
330
0
100
AcDbSymbolTable
 70
     1
  0
STYLE
  5
11
330
3
100
AcDbSymbolTableRecord
100
AcDbTextStyleTableRecord
  2
Standard
 70
     0
 40
0.0
 41
1.0
 50
0.0
 71
     0
 42
0.2
  3
txt
  4

  0
ENDTAB
  0
TABLE
  2
VIEW
  5
6
330
0
100
AcDbSymbolTable
 70
     0
  0
ENDTAB
  0
TABLE
  2
UCS
  5
7
330
0
100
AcDbSymbolTable
 70
     0
  0
ENDTAB
  0
TABLE
  2
APPID
  5
9
330
0
100
AcDbSymbolTable
 70
     1
  0
APPID
  5
12
330
9
100
AcDbSymbolTableRecord
100
AcDbRegAppTableRecord
  2
ACAD
 70
     0
  0
ENDTAB
  0
TABLE
  2
DIMSTYLE
  5
A
330
0
100
AcDbSymbolTable
 70
     1
100
AcDbDimStyleTable
  0
DIMSTYLE
105
27
330
A
100
AcDbSymbolTableRecord
100
AcDbDimStyleTableRecord
  2
Standard
 70
     0
178
     0
340
11
  0
ENDTAB
  0
TABLE
  2
BLOCK_RECORD
  5
1
330
0
100
AcDbSymbolTable
 70
     5
  0
BLOCK_RECORD
  5
1F
330
1
100
AcDbSymbolTableRecord
100
AcDbBlockTableRecord
  2
*Model_Space
340
22
 70
     0
280
     1
281
     0
  0
BLOCK_RECORD
  5
1B
330
1
100
AcDbSymbolTableRecord
100
AcDbBlockTableRecord
  2
*Paper_Space
340
1E
 70
     0
280
     1
281
     0
  0
BLOCK_RECORD
  5
23
330
1
100
AcDbSymbolTableRecord
100
AcDbBlockTableRecord
  2
*Paper_Space0
340
26
 70
     0
280
     1
281
     0
  0
BLOCK_RECORD
  5
6E
330
1
100
AcDbSymbolTableRecord
100
AcDbBlockTableRecord
  2
1_136915_4
340
0
102
{BLKREFS
331
6F
102
}
 70
     0
280
     1
281
     0
  0
BLOCK_RECORD
  5
88
330
1
100
AcDbSymbolTableRecord
100
AcDbBlockTableRecord
  2
2_405020c_Inch_0_in_136915_4
340
0
102
{BLKREFS
331
89
102
}
 70
     0
280
     1
281
     0
  0
BLOCK_RECORD
  5
D3
330
1
100
AcDbSymbolTableRecord
100
AcDbBlockTableRecord
  2
3_045603_0_in_136915_4
340
0
102
{BLKREFS
331
D4
102
}
 70
     0
280
     1
281
     0
  0
BLOCK_RECORD
  5
132
330
1
100
AcDbSymbolTableRecord
100
AcDbBlockTableRecord
  2
4_136915H_0_in_136915_4
340
0
102
{BLKREFS
331
133
102
}
 70
     0
280
     1
281
     0
  0
ENDTAB
  0
ENDSEC
  0
SECTION
  2
BLOCKS
  0
BLOCK
  5
20
330
1F
100
AcDbEntity
  8
0
100
AcDbBlockBegin
  2
*Model_Space
 70
     0
 10
0.0
 20
0.0
 30
0.0
  3
*Model_Space
  1

  0
ENDBLK
  5
21
330
1F
100
AcDbEntity
  8
0
100
AcDbBlockEnd
  0
BLOCK
  5
1C
330
1B
100
AcDbEntity
 67
     1
  8
0
100
AcDbBlockBegin
  2
*Paper_Space
 70
     0
 10
0.0
 20
0.0
 30
0.0
  3
*Paper_Space
  1

  0
ENDBLK
  5
1D
330
1B
100
AcDbEntity
 67
     1
  8
0
100
AcDbBlockEnd
  0
BLOCK
  5
24
330
23
100
AcDbEntity
  8
0
100
AcDbBlockBegin
  2
*Paper_Space0
 70
     0
 10
0.0
 20
0.0
 30
0.0
  3
*Paper_Space0
  1

  0
ENDBLK
  5
25
330
23
100
AcDbEntity
  8
0
100
AcDbBlockEnd
  0
BLOCK
  5
70
330
6E
100
AcDbEntity
  8
0
100
AcDbBlockBegin
  2
1_136915_4
 70
     2
 10
0.0
 20
0.0
 30
0.0
  3
1_136915_4
  1

  0
ATTDEF
  5
73
330
6E
100
AcDbEntity
  8
AM_6
100
AcDbText
 10
6.92
 20
0.8249999999999998
 30
0.0
 40
0.5
  1
Set Screw Tapped Base Inch Bore - Stainless Housing, Corrosion Resistant Insert
100
AcDbAttributeDefinition
  3

  2
NN
 70
     8
280
     0
  0
ATTDEF
  5
74
330
6E
100
AcDbEntity
  8
AM_6
100
AcDbText
 10
6.92
 20
0.3249999999999998
 30
0.0
 40
0.5
  1
SC Pillow Block Bearings -(Normal Duty) -Corrosion Resistant Insert -Polymer Housed -Tapped Base Housing -E-Z KLEEN
100
AcDbAttributeDefinition
  3

  2
NT
 70
     8
280
     0
  0
ATTDEF
  5
75
330
6E
100
AcDbEntity
  8
AM_6
100
AcDbText
 10
6.92
 20
-0.1750000000000002
 30
0.0
 40
0.5
  1
136915
100
AcDbAttributeDefinition
  3

  2
NB
 70
     8
280
     0
  0
ATTDEF
  5
76
330
6E
100
AcDbEntity
  8
AM_6
100
AcDbText
 10
6.92
 20
-0.6750000000000002
 30
0.0
 40
0.5
  1
$PN.
100
AcDbAttributeDefinition
  3

  2
NBSYN
 70
     8
280
     0
  0
ATTDEF
  5
77
330
6E
100
AcDbEntity
  8
AM_6
100
AcDbText
 10
6.92
 20
-1.175
 30
0.0
 40
0.5
  1
136915
100
AcDbAttributeDefinition
  3

  2
LINA
 70
     8
280
     0
  0
ATTDEF
  5
78
330
6E
100
AcDbEntity
  8
AM_6
100
AcDbText
 10
6.92
 20
-1.675
 30
0.0
 40
0.5
  1
206
100
AcDbAttributeDefinition
  3

  2
SERIES
 70
     8
280
     0
  0
ATTDEF
  5
79
330
6E
100
AcDbEntity
  8
AM_6
100
AcDbText
 10
6.92
 20
-2.175
 30
0.0
 40
0.5
  1
1-1/4
100
AcDbAttributeDefinition
  3

  2
SS
 70
     8
280
     0
  0
ATTDEF
  5
7A
330
6E
100
AcDbEntity
  8
AM_6
100
AcDbText
 10
6.92
 20
-2.675
 30
0.0
 40
0.5
  1
136915
100
AcDbAttributeDefinition
  3

  2
PN
 70
     8
280
     0
  0
ATTDEF
  5
7B
330
6E
100
AcDbEntity
  8
AM_6
100
AcDbText
 10
6.92
 20
-3.175
 30
0.0
 40
0.5
  1
TB-SCEZ-104S-SHCR
100
AcDbAttributeDefinition
  3

  2
DESCRIPTION
 70
     8
280
     0
  0
ATTDEF
  5
7C
330
6E
100
AcDbEntity
  8
AM_6
100
AcDbText
 10
6.92
 20
-3.675
 30
0.0
 40
0.5
  1
3.55
100
AcDbAttributeDefinition
  3

  2
W
 70
     8
280
     0
  0
ATTDEF
  5
7D
330
6E
100
AcDbEntity
  8
AM_6
100
AcDbText
 10
6.92
 20
-4.175000000000001
 30
0.0
 40
0.5
  1
1.52
100
AcDbAttributeDefinition
  3

  2
A
 70
     8
280
     0
  0
ATTDEF
  5
7E
330
6E
100
AcDbEntity
  8
AM_6
100
AcDbText
 10
6.92
 20
-4.675000000000001
 30
0.0
 40
0.5
  1
3.84
100
AcDbAttributeDefinition
  3

  2
B
 70
     8
280
     0
  0
ATTDEF
  5
7F
330
6E
100
AcDbEntity
  8
AM_6
100
AcDbText
 10
6.92
 20
-5.175000000000001
 30
0.0
 40
0.5
  1
1.50
100
AcDbAttributeDefinition
  3

  2
C
 70
     8
280
     0
  0
ATTDEF
  5
80
330
6E
100
AcDbEntity
  8
AM_6
100
AcDbText
 10
6.92
 20
-5.675000000000001
 30
0.0
 40
0.5
  1
3.00
100
AcDbAttributeDefinition
  3

  2
D
 70
     8
280
     0
  0
ATTDEF
  5
81
330
6E
100
AcDbEntity
  8
AM_6
100
AcDbText
 10
6.92
 20
-6.175000000000001
 30
0.0
 40
0.5
  1
3.22
100
AcDbAttributeDefinition
  3

  2
J
 70
     8
280
     0
  0
ATTDEF
  5
82
330
6E
100
AcDbEntity
  8
AM_6
100
AcDbText
 10
6.92
 20
-6.675000000000001
 30
0.0
 40
0.5
  1
1.57
100
AcDbAttributeDefinition
  3

  2
L
 70
     8
280
     0
  0
ATTDEF
  5
83
330
6E
100
AcDbEntity
  8
AM_6
100
AcDbText
 10
6.92
 20
-7.175000000000001
 30
0.0
 40
0.5
  1
1.69
100
AcDbAttributeDefinition
  3

  2
M
 70
     8
280
     0
  0
ATTDEF
  5
84
330
6E
100
AcDbEntity
  8
AM_6
100
AcDbText
 10
6.92
 20
-7.675000000000001
 30
0.0
 40
0.5
  1
0.88
100
AcDbAttributeDefinition
  3

  2
N
 70
     8
280
     0
  0
ATTDEF
  5
85
330
6E
100
AcDbEntity
  8
AM_6
100
AcDbText
 10
6.92
 20
-8.175
 30
0.0
 40
0.5
  1
7/16-14
100
AcDbAttributeDefinition
  3

  2
R
 70
     8
280
     0
  0
ATTDEF
  5
86
330
6E
100
AcDbEntity
  8
AM_6
100
AcDbText
 10
6.92
 20
-8.675
 30
0.0
 40
0.5
  1
0.94
100
AcDbAttributeDefinition
  3

  2
S
 70
     8
280
     0
  0
ATTDEF
  5
87
330
6E
100
AcDbEntity
  8
AM_6
100
AcDbText
 10
6.92
 20
-9.175
 30
0.0
 40
0.5
  1
baldor
100
AcDbAttributeDefinition
  3

  2
COMPANY
 70
     8
280
     0
  0
INSERT
  5
89
330
6E
100
AcDbEntity
  8
0
100
AcDbBlockReference
  2
2_405020c_Inch_0_in_136915_4
 10
0.0
 20
0.0
 30
0.0
  0
INSERT
  5
D4
330
6E
100
AcDbEntity
  8
0
100
AcDbBlockReference
  2
3_045603_0_in_136915_4
 10
0.0
 20
0.0
 30
0.0
  0
INSERT
  5
133
330
6E
100
AcDbEntity
  8
0
100
AcDbBlockReference
  2
4_136915H_0_in_136915_4
 10
0.0
 20
0.0
 30
0.0
  0
ENDBLK
  5
71
330
6E
100
AcDbEntity
  8
0
100
AcDbBlockEnd
  0
BLOCK
  5
8A
330
88
100
AcDbEntity
  8
0
100
AcDbBlockBegin
  2
2_405020c_Inch_0_in_136915_4
 70
     2
 10
0.0
 20
0.0
 30
0.0
  3
2_405020c_Inch_0_in_136915_4
  1

  0
ATTDEF
  5
8C
330
88
100
AcDbEntity
  8
AM_6
100
AcDbText
 10
6.459019105584521
 20
0.1406500000000019
 30
0.0
 40
0.5
  1
405020C -Inch
100
AcDbAttributeDefinition
  3

  2
NN
 70
     8
280
     0
  0
ATTDEF
  5
8D
330
88
100
AcDbEntity
  8
AM_6
100
AcDbText
 10
6.459019105584521
 20
-0.3593499999999981
 30
0.0
 40
0.5
  1
Grease fitting
100
AcDbAttributeDefinition
  3

  2
NT
 70
     8
280
     0
  0
ATTDEF
  5
8E
330
88
100
AcDbEntity
  8
AM_6
100
AcDbText
 10
6.459019105584521
 20
-0.8593499999999981
 30
0.0
 40
0.5
  1
405020c-Inch
100
AcDbAttributeDefinition
  3

  2
NB
 70
     8
280
     0
  0
ATTDEF
  5
8F
330
88
100
AcDbEntity
  8
AM_6
100
AcDbText
 10
6.459019105584521
 20
-1.359349999999998
 30
0.0
 40
0.5
  1
$MN.-Inch
100
AcDbAttributeDefinition
  3

  2
NBSYN
 70
     8
280
     0
  0
ATTDEF
  5
90
330
88
100
AcDbEntity
  8
AM_6
100
AcDbText
 10
6.459019105584521
 20
-1.859349999999998
 30
0.0
 40
0.5
  1
405020c
100
AcDbAttributeDefinition
  3

  2
LINA
 70
     8
280
     0
  0
ATTDEF
  5
91
330
88
100
AcDbEntity
  8
AM_6
100
AcDbText
 10
6.459019105584521
 20
-2.359349999999998
 30
0.0
 40
0.5
  1
405020c
100
AcDbAttributeDefinition
  3

  2
MN
 70
     8
280
     0
  0
ATTDEF
  5
92
330
88
100
AcDbEntity
  8
AM_6
100
AcDbText
 10
6.459019105584521
 20
-2.859349999999998
 30
0.0
 40
0.5
  1
0.230
100
AcDbAttributeDefinition
  3

  2
NDR
 70
     8
280
     0
  0
ATTDEF
  5
93
330
88
100
AcDbEntity
  8
AM_6
100
AcDbText
 10
6.459019105584521
 20
-3.359349999999998
 30
0.0
 40
0.5
  1
0.210
100
AcDbAttributeDefinition
  3

  2
KDR
 70
     8
280
     0
  0
ATTDEF
  5
94
330
88
100
AcDbEntity
  8
AM_6
100
AcDbText
 10
6.459019105584521
 20
-3.859349999999998
 30
0.0
 40
0.5
  1
0.157
100
AcDbAttributeDefinition
  3

  2
BZE
 70
     8
280
     0
  0
ATTDEF
  5
95
330
88
100
AcDbEntity
  8
AM_6
100
AcDbText
 10
6.459019105584521
 20
-4.359349999999998
 30
0.0
 40
0.5
  1
9/32
100
AcDbAttributeDefinition
  3

  2
WAF
 70
     8
280
     0
  0
ATTDEF
  5
96
330
88
100
AcDbEntity
  8
AM_6
100
AcDbText
 10
6.459019105584521
 20
-4.859349999999998
 30
0.0
 40
0.5
  1
0.2813
100
AcDbAttributeDefinition
  3

  2
WAF1
 70
     8
280
     0
  0
ATTDEF
  5
97
330
88
100
AcDbEntity
  8
AM_6
100
AcDbText
 10
6.459019105584521
 20
-5.359349999999998
 30
0.0
 40
0.5
  1
0.545
100
AcDbAttributeDefinition
  3

  2
BL
 70
     8
280
     0
  0
ATTDEF
  5
98
330
88
100
AcDbEntity
  8
AM_6
100
AcDbText
 10
6.459019105584521
 20
-5.859349999999998
 30
0.0
 40
0.5
  1
0.200
100
AcDbAttributeDefinition
  3

  2
TL
 70
     8
280
     0
  0
ATTDEF
  5
99
330
88
100
AcDbEntity
  8
AM_6
100
AcDbText
 10
6.459019105584521
 20
-6.359349999999998
 30
0.0
 40
0.5
  1
baldor
100
AcDbAttributeDefinition
  3

  2
COMPANY
 70
     8
280
     0
  0
LWPOLYLINE
  5
9C
330
88
100
AcDbEntity
  8
AM_9
100
AcDbPolyline
 90
        3
 70
     0
 43
0.0
 10
1.236781477879443
 20
0.070325
 10
1.252224657667792
 20
0.0351625
 10
1.269614118186958
 20
0.0000000000000001
  0
LWPOLYLINE
  5
9D
330
88
100
AcDbEntity
  8
AM_9
100
AcDbPolyline
 90
        3
 70
     0
 43
0.0
 10
1.269614118186958
 20
0.0000000000000001
 10
1.252298814933351
 20
-0.0350043999316989
 10
1.236781477879443
 20
-0.070325
  0
ELLIPSE
  5
9E
330
88
100
AcDbEntity
  8
AM_9
100
AcDbEllipse
 10
1.00922993856152
 20
0.0000000000000001
 30
0.0
 11
-1.838598171376523E-17
 21
-0.1000886227036577
 31
0.0
210
0.0
220
0.0
230
1.0
 40
0.7071067811865474
 41
0.0
 42
6.283185307179586
  0
LWPOLYLINE
  5
9F
330
88
100
AcDbEntity
  8
AM_9
100
AcDbPolyline
 90
        3
 70
     0
 43
0.0
 10
1.308509411704772
 20
0.0000000000000001
 10
1.297243742096721
 20
0.035004399931699
 10
1.283921929958546
 20
0.0703250000000001
  0
LWPOLYLINE
  5
A0
330
88
100
AcDbEntity
  8
AM_9
100
AcDbPolyline
 90
        3
 70
     0
 43
0.0
 10
1.283921929958546
 20
-0.0703249999999999
 10
1.297188811197068
 20
-0.0351624999999999
 10
1.308509411704772
 20
0.0000000000000001
  0
LWPOLYLINE
  5
A1
330
88
100
AcDbEntity
  8
AM_9
100
AcDbPolyline
 90
        3
 70
     0
 43
0.0
 10
1.236781477879443
 20
-0.070325
 10
1.223514596640921
 20
-0.1054875
 10
1.212193996133216
 20
-0.1406499999999999
  0
LINE
  5
A2
330
88
100
AcDbEntity
  8
AM_9
100
AcDbLine
 10
1.308509411704772
 20
0.0000000000000001
 30
0.0
 11
1.269614118186958
 21
0.0000000000000001
 31
0.0
  0
LWPOLYLINE
  5
A3
330
88
100
AcDbEntity
  8
AM_9
100
AcDbPolyline
 90
        3
 70
     0
 43
0.0
 10
1.212193996133216
 20
0.1406500000000001
 10
1.223459665741267
 20
0.1056456000683011
 10
1.236781477879443
 20
0.070325
  0
LWPOLYLINE
  5
A4
330
88
100
AcDbEntity
  8
AM_9
100
AcDbPolyline
 90
        3
 70
     0
 43
0.0
 10
1.283921929958546
 20
0.0703250000000001
 10
1.268478750170197
 20
0.1054875000000001
 10
1.26385589390441
 20
0.1151895236091905
  0
LWPOLYLINE
  5
A5
330
88
100
AcDbEntity
  8
AM_9
100
AcDbPolyline
 90
        3
 70
     0
 43
0.0
 10
1.263855279235529
 20
-0.1151907939395562
 10
1.268404592904638
 20
-0.105645600068301
 10
1.283921929958546
 20
-0.0703249999999999
  0
LINE
  5
A6
330
88
100
AcDbEntity
  8
AM_9
100
AcDbLine
 10
1.014092681023805
 20
-0.1103623268442186
 30
0.0
 11
1.148080306882013
 21
-0.1162869890918943
 31
0.0
  0
LINE
  5
A7
330
88
100
AcDbEntity
  8
AM_9
100
AcDbLine
 10
1.148080306882013
 20
0.1162869890918944
 30
0.0
 11
1.014092681023805
 21
0.1103623268442187
 31
0.0
  0
ELLIPSE
  5
A8
330
88
100
AcDbEntity
  8
AM_9
100
AcDbEllipse
 10
1.197791746877936
 20
0.0000000000000005
 30
0.0
 11
8.612328615003712E-18
 21
0.1406499999999992
 31
0.0
210
0.0
220
0.0
230
1.0
 40
0.7071067811865327
 41
3.798906696793599
 42
5.625871263975776
  0
ELLIPSE
  5
A9
330
88
100
AcDbEntity
  8
AM_9
100
AcDbEllipse
 10
1.219938719763466
 20
0.0000000000000005
 30
0.0
 11
6.694498085252761E-18
 21
0.1093294505797709
 31
0.0
210
0.0
220
0.0
230
1.0
 40
0.7071067811865375
 41
5.356180657691251
 42
5.92898666616589
  0
ELLIPSE
  5
AA
330
88
100
AcDbEntity
  8
AM_9
100
AcDbEllipse
 10
1.219938719763467
 20
-0.0000000000000003
 30
0.0
 11
6.694498085252758E-18
 21
0.1093294505797709
 31
0.0
210
0.0
220
0.0
230
1.0
 40
0.7071067811865318
 41
3.495791294603482
 42
4.113449555846547
  0
ELLIPSE
  5
AB
330
88
100
AcDbEntity
  8
AM_9
100
AcDbEllipse
 10
1.21993871976349
 20
-0.0000000000001899
 30
0.0
 11
6.694498085221770E-18
 21
0.1093294505792648
 31
0.0
210
0.0
220
0.0
230
1.0
 40
0.7071067811891569
 41
4.306210995891105
 42
5.167132024070284
  0
LWPOLYLINE
  5
AC
330
88
100
AcDbEntity
  8
AM_9
100
AcDbPolyline
 90
       17
 70
     0
 43
0.0
 10
1.231295710396791
 20
0.0906655988889761
 10
1.233161069375944
 20
0.0916708434172159
 10
1.23726618832723
 20
0.0933873489064886
 10
1.241291782336195
 20
0.0943883179307708
 10
1.245554154912571
 20
0.0946763143611396
 10
1.25005650372189
 20
0.0941030042591393
 10
1.254200513943347
 20
0.0928044746940995
 10
1.258376840426031
 20
0.09078283900589
 10
1.262650740609935
 20
0.0879870388245243
 10
1.26744361602206
 20
0.0839531627104215
 10
1.272162530379939
 20
0.0789731038204611
 10
1.276729423775768
 20
0.0730514571638826
 10
1.281053802434779
 20
0.0662123876532257
 10
1.285038154402955
 20
0.0585076699213039
 10
1.288584719574553
 20
0.0500215780986102
 10
1.291609105905066
 20
0.0408514318899886
 10
1.292360448202021
 20
0.0381452070560166
  0
LWPOLYLINE
  5
AD
330
88
100
AcDbEntity
  8
AM_9
100
AcDbPolyline
 90
        3
 70
     0
 43
0.0
 10
1.227336912160288
 20
0.0880684463446385
 10
1.228877823561046
 20
0.0891546711661812
 10
1.231295710396791
 20
0.0906655988889761
  0
LWPOLYLINE
  5
AE
330
88
100
AcDbEntity
  8
AM_9
100
AcDbPolyline
 90
        3
 70
     0
 43
0.0
 10
1.230398946519301
 20
-0.0901326407774073
 10
1.229198945150395
 20
-0.0893688984989101
 10
1.227307081583298
 20
-0.0880464616086484
  0
LWPOLYLINE
  5
AF
330
88
100
AcDbEntity
  8
AM_9
100
AcDbPolyline
 90
       16
 70
     0
 43
0.0
 10
1.292554465729099
 20
-0.0374087888438153
 10
1.291495285642437
 20
-0.0412430784810703
 10
1.288446908465803
 20
-0.0503893307600084
 10
1.284887830899438
 20
-0.0588288054719507
 10
1.280912522232916
 20
-0.0664582529691003
 10
1.276627747115041
 20
-0.0731966749794196
 10
1.272149759318094
 20
-0.0789880530511002
 10
1.267602541233926
 20
-0.0838023744239832
 10
1.263099389647177
 20
-0.0876504937010845
 10
1.258731510378212
 20
-0.0905788266817185
 10
1.254545413756197
 20
-0.0926642702333062
 10
1.25050463534386
 20
-0.0939975080535735
 10
1.24641481622204
 20
-0.0946360616391734
 10
1.241782595191774
 20
-0.0944625348081594
 10
1.237572220131565
 20
-0.0934875725740011
 10
1.236464503416586
 20
-0.0931063512245402
  0
ELLIPSE
  5
B0
330
88
100
AcDbEntity
  8
AM_9
100
AcDbEllipse
 10
1.259880531699971
 20
0.0000000000000001
 30
0.0
 11
6.084620899749625E-18
 21
0.09936940028726608
 31
0.0
210
0.0
220
0.0
230
1.0
 40
0.7071067811865486
 41
2.65648040711601
 42
6.768297553653369
  0
ELLIPSE
  5
B1
330
88
100
AcDbEntity
  8
AM_9
100
AcDbEllipse
 10
1.308211860404446
 20
0.0000000000000001
 30
0.0
 11
8.036249332247516E-18
 21
0.1312419113468906
 31
0.0
210
0.0
220
0.0
230
1.0
 40
0.7071067811865483
 41
2.656480407116018
 42
6.768297553653362
  0
ELLIPSE
  5
B2
330
88
100
AcDbEntity
  8
AM_9
100
AcDbEllipse
 10
1.383832680542911
 20
0.0000000000000001
 30
0.0
 11
6.357083428130988E-18
 21
0.1038190510530389
 31
0.0
210
0.0
220
0.0
230
1.0
 40
0.7071067811865474
 41
3.589653703986158
 42
5.835958228710879
  0
ELLIPSE
  5
B3
330
88
100
AcDbEntity
  8
AM_9
100
AcDbEllipse
 10
1.336968103869724
 20
0.0000000000000001
 30
0.0
 11
8.079715312105961E-18
 21
0.1319517646676801
 31
0.0
210
0.0
220
0.0
230
1.0
 40
0.7071067811865483
 41
3.579974428543798
 42
5.844803532225582
  0
ELLIPSE
  5
B4
330
88
100
AcDbEntity
  8
AM_9
100
AcDbEllipse
 10
1.150651294798829
 20
-0.0000000000000004
 30
0.0
 11
7.124004163867324E-18
 21
0.1163438171532777
 31
0.0
210
0.0
220
0.0
230
1.0
 40
0.7071067811865456
 41
0.0
 42
6.283185307179586
  0
ELLIPSE
  5
B5
330
88
100
AcDbEntity
  8
AM_9
100
AcDbEllipse
 10
1.016532680640305
 20
0.0000000000000003
 30
0.0
 11
6.761045944280087E-18
 21
0.1104162595939889
 31
0.0
210
0.0
220
0.0
230
1.0
 40
0.7071067811865487
 41
0.0
 42
6.283185307179586
  0
ELLIPSE
  5
B6
330
88
100
AcDbEntity
  8
AM_9
100
AcDbEllipse
 10
1.150651294798832
 20
0.0
 30
0.0
 11
8.612328615003878E-18
 21
0.1406500000000019
 31
0.0
210
0.0
220
0.0
230
1.0
 40
0.7071067811865538
 41
0.0
 42
6.283185307179586
  0
LINE
  5
B8
330
88
100
AcDbEntity
  8
AM_4
100
AcDbLine
 10
1.26385589390441
 20
0.1151895236091905
 30
0.0
 11
1.25108928965103
 21
0.1406500000000001
 31
0.0
  0
LINE
  5
B9
330
88
100
AcDbEntity
  8
AM_4
100
AcDbLine
 10
1.25108928965103
 20
-0.1406499999999999
 30
0.0
 11
1.263855279235529
 21
-0.1151907939395562
 31
0.0
  0
LWPOLYLINE
  5
BA
330
88
100
AcDbEntity
  8
AM_4
100
AcDbPolyline
 90
        3
 70
     0
 43
0.0
 10
1.064521111718216
 20
-0.070325
 10
1.051254230479694
 20
-0.0351624999999999
 10
1.039933629971989
 20
0.0000000000000001
  0
LWPOLYLINE
  5
BB
330
88
100
AcDbEntity
  8
AM_4
100
AcDbPolyline
 90
        3
 70
     0
 43
0.0
 10
1.097353752025732
 20
-0.1406499999999999
 10
1.080038448772124
 20
-0.105645600068301
 10
1.064521111718216
 20
-0.070325
  0
LINE
  5
BC
330
88
100
AcDbEntity
  8
AM_4
100
AcDbLine
 10
1.25108928965103
 20
-0.1406499999999999
 30
0.0
 11
1.097353752025732
 21
-0.1406499999999999
 31
0.0
  0
LWPOLYLINE
  5
BD
330
88
100
AcDbEntity
  8
AM_4
100
AcDbPolyline
 90
        3
 70
     0
 43
0.0
 10
1.111661563797319
 20
-0.0703249999999999
 10
1.124928445035841
 20
-0.1054874999999999
 10
1.136249045543545
 20
-0.1406499999999999
  0
LINE
  5
BE
330
88
100
AcDbEntity
  8
AM_4
100
AcDbLine
 10
1.25108928965103
 20
0.1406500000000001
 30
0.0
 11
1.097353752025732
 21
0.1406500000000001
 31
0.0
  0
LWPOLYLINE
  5
BF
330
88
100
AcDbEntity
  8
AM_4
100
AcDbPolyline
 90
        3
 70
     0
 43
0.0
 10
1.064521111718216
 20
0.070325
 10
1.079964291506565
 20
0.1054875000000001
 10
1.097353752025732
 20
0.1406500000000001
  0
LWPOLYLINE
  5
C0
330
88
100
AcDbEntity
  8
AM_4
100
AcDbPolyline
 90
        3
 70
     0
 43
0.0
 10
1.039933629971989
 20
0.0000000000000001
 10
1.05119929958004
 20
0.035004399931699
 10
1.064521111718216
 20
0.070325
  0
LINE
  5
C1
330
88
100
AcDbEntity
  8
AM_4
100
AcDbLine
 10
1.078828923489803
 20
0.0000000000000001
 30
0.0
 11
1.039933629971989
 21
0.0000000000000001
 31
0.0
  0
LWPOLYLINE
  5
C2
330
88
100
AcDbEntity
  8
AM_4
100
AcDbPolyline
 90
        3
 70
     0
 43
0.0
 10
1.136249045543545
 20
0.1406500000000001
 10
1.124983375935494
 20
0.1056456000683011
 10
1.111661563797319
 20
0.0703250000000001
  0
LWPOLYLINE
  5
C3
330
88
100
AcDbEntity
  8
AM_4
100
AcDbPolyline
 90
        3
 70
     0
 43
0.0
 10
1.111661563797319
 20
0.0703250000000001
 10
1.09621838400897
 20
0.0351625000000001
 10
1.078828923489803
 20
0.0000000000000001
  0
LWPOLYLINE
  5
C4
330
88
100
AcDbEntity
  8
AM_4
100
AcDbPolyline
 90
        3
 70
     0
 43
0.0
 10
1.078828923489803
 20
0.0000000000000001
 10
1.096144226743411
 20
-0.0350043999316988
 10
1.111661563797319
 20
-0.0703249999999999
  0
ELLIPSE
  5
C5
330
88
100
AcDbEntity
  8
AM_4
100
AcDbEllipse
 10
1.197791746877933
 20
0.0000000000000001
 30
0.0
 11
8.612328615003744E-18
 21
0.1406499999999997
 31
0.0
210
0.0
220
0.0
230
1.0
 40
0.7071067811865537
 41
5.62587126397577
 42
10.08209200397319
  0
ELLIPSE
  5
C6
330
88
100
AcDbEntity
  8
AM_4
100
AcDbEllipse
 10
1.219938719763464
 20
0.0000000000000002
 30
0.0
 11
6.694498085252775E-18
 21
0.1093294505797712
 31
0.0
210
0.0
220
0.0
230
1.0
 40
0.7071067811865461
 41
5.928986666165874
 42
9.778976601783091
  0
ELLIPSE
  5
C7
330
88
100
AcDbEntity
  8
AM_4
100
AcDbEllipse
 10
1.25988053169997
 20
0.0
 30
0.0
 11
6.084620899749644E-18
 21
0.0993694002872664
 31
0.0
210
0.0
220
0.0
230
1.0
 40
0.7071067811865441
 41
0.4851122464737756
 42
2.656480407116017
  0
LINE
  5
C8
330
88
100
AcDbEntity
  8
AM_4
100
AcDbLine
 10
1.227115528186309
 20
-0.0879044185632922
 30
0.0
 11
1.264937555900351
 21
-0.116099562589007
 31
0.0
  0
LINE
  5
C9
330
88
100
AcDbEntity
  8
AM_4
100
AcDbLine
 10
1.264937555900351
 20
0.1160995625890071
 30
0.0
 11
1.227115528186309
 21
0.0879044185632924
 31
0.0
  0
ELLIPSE
  5
CA
330
88
100
AcDbEntity
  8
AM_4
100
AcDbEllipse
 10
1.308211860404447
 20
-0.0000000000000003
 30
0.0
 11
8.036249332247545E-18
 21
0.1312419113468911
 31
0.0
210
0.0
220
0.0
230
1.0
 40
0.7071067811865491
 41
0.4913944804820352
 42
2.647492798425124
  0
LWPOLYLINE
  5
CB
330
88
100
AcDbEntity
  8
AM_4
100
AcDbPolyline
 90
       13
 70
     0
 43
0.0
 10
1.264016984526994
 20
-0.115405623408724
 10
1.266542168996331
 20
-0.117272808394942
 10
1.276338978583784
 20
-0.1235079240127455
 10
1.286549974846798
 20
-0.1284932339828883
 10
1.297049451249782
 20
-0.1322043572221953
 10
1.307718386639488
 20
-0.1346382563784812
 10
1.318446195624464
 20
-0.1358072745110113
 10
1.329131424188853
 20
-0.1357341774094354
 10
1.339681148145007
 20
-0.134448328130714
 10
1.349999830913466
 20
-0.1319861797642698
 10
1.360015193754208
 20
-0.1283847029699532
 10
1.369662127044053
 20
-0.1236787945277998
 10
1.37684016916101
 20
-0.1192968519737112
  0
LWPOLYLINE
  5
CC
330
88
100
AcDbEntity
  8
AM_4
100
AcDbPolyline
 90
       13
 70
     0
 43
0.0
 10
1.376854018628545
 20
0.1192876074277114
 10
1.375978084259665
 20
0.1198660910846499
 10
1.366003449318674
 20
0.1256152621098858
 10
1.355664566201061
 20
0.1301021127644042
 10
1.345084841529021
 20
0.133311387348276
 10
1.334380113866692
 20
0.1352467475736052
 10
1.323657437574969
 20
0.1359251570427056
 10
1.31301459570561
 20
0.1353723411863421
 10
1.302546327430201
 20
0.1336205395806929
 10
1.292338479862471
 20
0.1307070991179883
 10
1.28246020000455
 20
0.1266683269324537
 10
1.272974566647162
 20
0.1215381075750974
 10
1.264308400207539
 20
0.1156269656984233
  0
ELLIPSE
  5
CD
330
88
100
AcDbEntity
  8
AM_4
100
AcDbEllipse
 10
1.394603134308188
 20
0.0000000000000001
 30
0.0
 11
-1.484390032546748E-17
 21
-0.08080642971672804
 31
0.0
210
0.0
220
0.0
230
1.0
 40
0.7071067811865461
 41
0.0
 42
6.283185307179586
  0
LWPOLYLINE
  5
CE
330
88
100
AcDbEntity
  8
AM_4
100
AcDbPolyline
 90
       22
 70
     0
 43
0.0
 10
1.415746532008028
 20
-0.0934964787505515
 10
1.421284848371732
 20
-0.0893627980388815
 10
1.428419084663275
 20
-0.0828177766032888
 10
1.43498206974219
 20
-0.0752852948009915
 10
1.440889982351906
 20
-0.0668416370642727
 10
1.446062960209177
 20
-0.0575867891081555
 10
1.450432310967502
 20
-0.0476394309617729
 10
1.45394454050246
 20
-0.0371287496440204
 10
1.456560895030449
 20
-0.0261902151278774
 10
1.458257225228426
 20
-0.0149536874963519
 10
1.459019105584521
 20
-0.0035452064603923
 10
1.458839217962791
 20
0.0079112984371695
 10
1.457716132672155
 20
0.0192928996932837
 10
1.455654076277809
 20
0.0304760486440683
 10
1.452662196551033
 20
0.0413399069152127
 10
1.44875497864527
 20
0.0517629061713954
 10
1.443953969037235
 20
0.0616210476601798
 10
1.438294003356248
 20
0.0707825046529724
 10
1.431828449716311
 20
0.0791119346155476
 10
1.424633951892283
 20
0.0864770932861847
 10
1.41681405064698
 20
0.0927573533677934
 10
1.415677083070767
 20
0.0935436532570836
  0
ELLIPSE
  5
CF
330
88
100
AcDbEntity
  8
AM_4
100
AcDbEllipse
 10
1.336968103869724
 20
0.0000000000000002
 30
0.0
 11
8.079715312105955E-18
 21
0.13195176466768
 31
0.0
210
0.0
220
0.0
230
1.0
 40
0.7071067811865471
 41
5.844803532225582
 42
9.863159735723382
  0
ELLIPSE
  5
D0
330
88
100
AcDbEntity
  8
AM_4
100
AcDbEllipse
 10
1.383832680542911
 20
-0.0000000000000002
 30
0.0
 11
6.357083428131010E-18
 21
0.1038190510530393
 31
0.0
210
0.0
220
0.0
230
1.0
 40
0.7071067811865492
 41
5.844803532225585
 42
9.863159735723384
  0
LINE
  5
D1
330
88
100
AcDbEntity
  8
AM_4
100
AcDbLine
 10
1.414993867076043
 20
0.0940018950300905
 30
0.0
 11
1.376573296851935
 21
0.1194743720494001
 31
0.0
  0
LINE
  5
D2
330
88
100
AcDbEntity
  8
AM_4
100
AcDbLine
 10
1.376573296851935
 20
-0.1194743720493999
 30
0.0
 11
1.414993867076043
 21
-0.0940018950300903
 31
0.0
  0
ENDBLK
  5
8B
330
88
100
AcDbEntity
  8
0
100
AcDbBlockEnd
  0
BLOCK
  5
D5
330
D3
100
AcDbEntity
  8
0
100
AcDbBlockBegin
  2
3_045603_0_in_136915_4
 70
     2
 10
0.0
 20
0.0
 30
0.0
  3
3_045603_0_in_136915_4
  1

  0
ATTDEF
  5
D7
330
D3
100
AcDbEntity
  8
AM_6
100
AcDbText
 10
6.219872827573636
 20
0.58
 30
0.0
 40
0.5
  1
Set Screw Insert Inch Bore - Corrosion Resistant
100
AcDbAttributeDefinition
  3

  2
NN
 70
     8
280
     0
  0
ATTDEF
  5
D8
330
D3
100
AcDbEntity
  8
AM_6
100
AcDbText
 10
6.219872827573636
 20
0.08
 30
0.0
 40
0.5
  1
SC Normal Duty Bearing Inserts
100
AcDbAttributeDefinition
  3

  2
NT
 70
     8
280
     0
  0
ATTDEF
  5
D9
330
D3
100
AcDbEntity
  8
AM_6
100
AcDbText
 10
6.219872827573636
 20
-0.42
 30
0.0
 40
0.5
  1
045603
100
AcDbAttributeDefinition
  3

  2
NB
 70
     8
280
     0
  0
ATTDEF
  5
DA
330
D3
100
AcDbEntity
  8
AM_6
100
AcDbText
 10
6.219872827573636
 20
-0.92
 30
0.0
 40
0.5
  1
$PN.
100
AcDbAttributeDefinition
  3

  2
NBSYN
 70
     8
280
     0
  0
ATTDEF
  5
DB
330
D3
100
AcDbEntity
  8
AM_6
100
AcDbText
 10
6.219872827573636
 20
-1.42
 30
0.0
 40
0.5
  1
045603
100
AcDbAttributeDefinition
  3

  2
LINA
 70
     8
280
     0
  0
ATTDEF
  5
DC
330
D3
100
AcDbEntity
  8
AM_6
100
AcDbText
 10
6.219872827573636
 20
-1.92
 30
0.0
 40
0.5
  1
206
100
AcDbAttributeDefinition
  3

  2
SERIES
 70
     8
280
     0
  0
ATTDEF
  5
DD
330
D3
100
AcDbEntity
  8
AM_6
100
AcDbText
 10
6.219872827573636
 20
-2.42
 30
0.0
 40
0.5
  1
1-1/4
100
AcDbAttributeDefinition
  3

  2
SS
 70
     8
280
     0
  0
ATTDEF
  5
DE
330
D3
100
AcDbEntity
  8
AM_6
100
AcDbText
 10
6.219872827573636
 20
-2.92
 30
0.0
 40
0.5
  1
045603
100
AcDbAttributeDefinition
  3

  2
PN
 70
     8
280
     0
  0
ATTDEF
  5
DF
330
D3
100
AcDbEntity
  8
AM_6
100
AcDbText
 10
6.219872827573636
 20
-3.42
 30
0.0
 40
0.5
  1
INS-SC-104S-CR
100
AcDbAttributeDefinition
  3

  2
DESCRIPTION
 70
     8
280
     0
  0
ATTDEF
  5
E0
330
D3
100
AcDbEntity
  8
AM_6
100
AcDbText
 10
6.219872827573636
 20
-3.92
 30
0.0
 40
0.5
  1
1.52
100
AcDbAttributeDefinition
  3

  2
A
 70
     8
280
     0
  0
ATTDEF
  5
E1
330
D3
100
AcDbEntity
  8
AM_6
100
AcDbText
 10
6.219872827573636
 20
-4.42
 30
0.0
 40
0.5
  1
0.69
100
AcDbAttributeDefinition
  3

  2
C
 70
     8
280
     0
  0
ATTDEF
  5
E2
330
D3
100
AcDbEntity
  8
AM_6
100
AcDbText
 10
6.219872827573636
 20
-4.92
 30
0.0
 40
0.5
  1
2.4409
100
AcDbAttributeDefinition
  3

  2
D
 70
     8
280
     0
  0
ATTDEF
  5
E3
330
D3
100
AcDbEntity
  8
AM_6
100
AcDbText
 10
6.219872827573636
 20
-5.42
 30
0.0
 40
0.5
  1
0.16
100
AcDbAttributeDefinition
  3

  2
J
 70
     8
280
     0
  0
ATTDEF
  5
E4
330
D3
100
AcDbEntity
  8
AM_6
100
AcDbText
 10
6.219872827573636
 20
-5.92
 30
0.0
 40
0.5
  1
1.57
100
AcDbAttributeDefinition
  3

  2
L
 70
     8
280
     0
  0
ATTDEF
  5
E5
330
D3
100
AcDbEntity
  8
AM_6
100
AcDbText
 10
6.219872827573636
 20
-6.42
 30
0.0
 40
0.5
  1
5/16 - 24
100
AcDbAttributeDefinition
  3

  2
N
 70
     8
280
     0
  0
ATTDEF
  5
E6
330
D3
100
AcDbEntity
  8
AM_6
100
AcDbText
 10
6.219872827573636
 20
-6.92
 30
0.0
 40
0.5
  1
0.58
100
AcDbAttributeDefinition
  3

  2
W
 70
     8
280
     0
  0
ATTDEF
  5
E7
330
D3
100
AcDbEntity
  8
AM_6
100
AcDbText
 10
6.219872827573636
 20
-7.42
 30
0.0
 40
0.5
  1
0.94
100
AcDbAttributeDefinition
  3

  2
Y
 70
     8
280
     0
  0
ATTDEF
  5
E8
330
D3
100
AcDbEntity
  8
AM_6
100
AcDbText
 10
6.219872827573636
 20
-7.92
 30
0.0
 40
0.5
  1
baldor
100
AcDbAttributeDefinition
  3

  2
COMPANY
 70
     8
280
     0
  0
LINE
  5
E9
330
D3
100
AcDbEntity
  8
AM_9
100
AcDbLine
 10
-1.28295
 20
0.2014393939393896
 30
0.0
 11
-1.28295
 21
0.1185606060606104
 31
0.0
  0
ARC
  5
EA
330
D3
100
AcDbEntity
  8
AM_9
100
AcDbCircle
 10
-1.220222727272728
 20
0.1185606060606096
 30
0.0
 40
0.0627272727272719
100
AcDbArc
 50
180.0
 51
270.0
  0
ARC
  5
EB
330
D3
100
AcDbEntity
  8
AM_9
100
AcDbCircle
 10
-1.220222727272728
 20
0.2014393939393904
 30
0.0
 40
0.0627272727272717
100
AcDbArc
 50
90.0
 51
180.0
  0
LINE
  5
EC
330
D3
100
AcDbEntity
  8
AM_9
100
AcDbLine
 10
-1.220222727272728
 20
0.2641666666666621
 30
0.0
 11
-1.220222727272728
 21
0.055833333333338
 31
0.0
  0
LINE
  5
ED
330
D3
100
AcDbEntity
  8
AM_9
100
AcDbLine
 10
-1.220222727272728
 20
0.055833333333338
 30
0.0
 11
-1.219130951855174
 21
0.055833333333338
 31
0.0
  0
LINE
  5
EE
330
D3
100
AcDbEntity
  8
AM_9
100
AcDbLine
 10
-1.191559697387255
 20
0.2641666666666621
 30
0.0
 11
-1.220222727272728
 21
0.2641666666666621
 31
0.0
  0
ELLIPSE
  5
EF
330
D3
100
AcDbEntity
  8
AM_9
100
AcDbEllipse
 10
0.5552527717982496
 20
-0.6425
 30
0.0
 11
-2.318256390785925E-17
 21
-0.1261999999999992
 31
0.0
210
0.0
220
0.0
230
1.0
 40
0.4226182617407064
 41
1.368021328389942
 42
1.77357132519985
  0
ELLIPSE
  5
F0
330
D3
100
AcDbEntity
  8
AM_9
100
AcDbEllipse
 10
0.5552527717982467
 20
-0.6425000000000001
 30
0.0
 11
-2.318256390785943E-17
 21
-0.1262000000000002
 31
0.0
210
0.0
220
0.0
230
1.0
 40
0.4226182617406715
 41
4.509613981979758
 42
4.915163978789622
  0
LINE
  5
F1
330
D3
100
AcDbEntity
  8
AM_9
100
AcDbLine
 10
0.5664102693971269
 20
-0.7687
 30
0.0
 11
0.6904184671652965
 21
-0.7687
 31
0.0
  0
LINE
  5
F2
330
D3
100
AcDbEntity
  8
AM_9
100
AcDbLine
 10
0.6904184671652965
 20
-0.5163
 30
0.0
 11
0.5664102693971271
 21
-0.5163
 31
0.0
  0
LWPOLYLINE
  5
F3
330
D3
100
AcDbEntity
  8
AM_9
100
AcDbPolyline
 90
       10
 70
     0
 43
0.0
 10
0.566437701442074
 20
-0.7686999995171794
 10
0.5738765698891236
 20
-0.7673870740621924
 10
0.5817588447497503
 20
-0.7625773561359294
 10
0.588446314475845
 20
-0.7546793532437344
 10
0.5942632466702886
 20
-0.7434776435541934
 10
0.5989469890933599
 20
-0.7296396881102434
 10
0.6026909811408598
 20
-0.7129301315904253
 10
0.6053673784033562
 20
-0.6945172486791602
 10
0.6071545506709888
 20
-0.6740096937774567
 10
0.6074944539597599
 20
-0.6679151965893113
  0
LWPOLYLINE
  5
F4
330
D3
100
AcDbEntity
  8
AM_9
100
AcDbPolyline
 90
       10
 70
     0
 43
0.0
 10
0.5664470321770245
 20
-0.5163000004828207
 10
0.5585300273657189
 20
-0.5176129259378079
 10
0.5489372260612003
 20
-0.5224226438640716
 10
0.5395814613843039
 20
-0.5303206467562669
 10
0.5302818259085427
 20
-0.5415223564458082
 10
0.5217888159583653
 20
-0.5553603118897587
 10
0.5141787883836263
 20
-0.572069868409577
 10
0.5081811808036893
 20
-0.5904827513208425
 10
0.5038640910798805
 20
-0.6109903062225461
 10
0.50301108963674
 20
-0.6170848034106915
  0
ELLIPSE
  5
F5
330
D3
100
AcDbEntity
  8
AM_9
100
AcDbEllipse
 10
0.6904184671652963
 20
-0.6425000000000001
 30
0.0
 11
-2.318256390785937E-17
 21
-0.1261999999999999
 31
0.0
210
0.0
220
0.0
230
1.0
 40
0.4226182617406989
 41
3.504058592037998
 42
5.94376914786944
  0
LINE
  5
F6
330
D3
100
AcDbEntity
  8
AM_9
100
AcDbLine
 10
0.6655482165162552
 20
-0.7541393737973385
 30
0.0
 11
0.6797588080477008
 21
-0.7718640539893343
 31
0.0
  0
LINE
  5
F7
330
D3
100
AcDbEntity
  8
AM_9
100
AcDbLine
 10
0.6798046264373148
 20
-0.513078797347922
 30
0.0
 11
0.6655482165162552
 21
-0.5308606262026614
 31
0.0
  0
LWPOLYLINE
  5
F8
330
D3
100
AcDbEntity
  8
AM_9
100
AcDbPolyline
 90
        4
 70
     0
 43
0.0
 10
0.1236143510371138
 20
-0.6679151965893085
 10
0.1265019076379265
 20
-0.6510379875331828
 10
0.1264495858882467
 20
-0.6333681535052116
 10
0.1236143510371138
 20
-0.6170848034106915
  0
LWPOLYLINE
  5
F9
330
D3
100
AcDbEntity
  8
AM_9
100
AcDbPolyline
 90
        5
 70
     0
 43
0.0
 10
0.6074944539597597
 20
-0.6679151965893114
 10
0.6079335657027943
 20
-0.6592849788341041
 10
0.6082651758518465
 20
-0.6418789650441733
 10
0.6078579523601162
 20
-0.6239225829019895
 10
0.6074944539597597
 20
-0.6170848034106885
  0
LWPOLYLINE
  5
FA
330
D3
100
AcDbEntity
  8
AM_9
100
AcDbPolyline
 90
       10
 70
     0
 43
0.0
 10
0.6074944539597597
 20
-0.6170848034106885
 10
0.606055613112601
 20
-0.5970307475057149
 10
0.603645302592236
 20
-0.5777253300447553
 10
0.6003412838015536
 20
-0.560789060822088
 10
0.5958899040343142
 20
-0.5457045241987685
 10
0.5904333634087706
 20
-0.5335915300904733
 10
0.583690148958344
 20
-0.5242791247001599
 10
0.5761536479071571
 20
-0.5185962314344937
 10
0.5674723001431372
 20
-0.5163237316359914
 10
0.5664470321770245
 20
-0.5163000004828207
  0
LWPOLYLINE
  5
FB
330
D3
100
AcDbEntity
  8
AM_9
100
AcDbPolyline
 90
        4
 70
     0
 43
0.0
 10
0.5030110896367405
 20
-0.6170848034106913
 10
0.5010755558929061
 20
-0.638837750294389
 10
0.5013917278724976
 20
-0.6533357105273544
 10
0.5030110896367405
 20
-0.6679151965893089
  0
LWPOLYLINE
  5
FC
330
D3
100
AcDbEntity
  8
AM_9
100
AcDbPolyline
 90
       10
 70
     0
 43
0.0
 10
0.5030110896367405
 20
-0.6679151965893089
 10
0.5065508202499773
 20
-0.6879692524942829
 10
0.5120991939425862
 20
-0.7072746699552426
 10
0.5190500820217483
 20
-0.7242109391779101
 10
0.5274462229089713
 20
-0.7392954758012299
 10
0.5365407672865765
 20
-0.7514084699095255
 10
0.546362982042243
 20
-0.7607208752998392
 10
0.5558979970795
 20
-0.7664037685655057
 10
0.5654037485781026
 20
-0.7686762683640086
 10
0.566437701442074
 20
-0.7686999995171794
  0
LINE
  5
FD
330
D3
100
AcDbEntity
  8
AM_9
100
AcDbLine
 10
0.625
 20
-0.9086000000000001
 30
0.0
 11
0.625
 21
0.5485999999999999
 31
0.0
  0
LINE
  5
FE
330
D3
100
AcDbEntity
  8
AM_9
100
AcDbLine
 10
-0.625
 20
0.5485999999999999
 30
0.0
 11
-0.625
 21
-0.9086000000000001
 31
0.0
  0
LINE
  5
FF
330
D3
100
AcDbEntity
  8
AM_9
100
AcDbLine
 10
-0.625
 20
-0.9086000000000001
 30
0.0
 11
-0.6564
 21
-0.9400000000000002
 31
0.0
  0
LINE
  5
100
330
D3
100
AcDbEntity
  8
AM_9
100
AcDbLine
 10
0.6564
 20
-0.9400000000000002
 30
0.0
 11
0.625
 21
-0.9086000000000001
 31
0.0
  0
LINE
  5
101
330
D3
100
AcDbEntity
  8
AM_9
100
AcDbLine
 10
0.625
 20
0.5485999999999999
 30
0.0
 11
0.6564
 21
0.58
 31
0.0
  0
LINE
  5
102
330
D3
100
AcDbEntity
  8
AM_9
100
AcDbLine
 10
-0.6564
 20
0.58
 30
0.0
 11
-0.625
 21
0.5485999999999999
 31
0.0
  0
LINE
  5
103
330
D3
100
AcDbEntity
  8
AM_9
100
AcDbLine
 10
0.7850000000000003
 20
-0.4575256070956058
 30
0.0
 11
0.7850000000000003
 21
-0.3449999999999999
 31
0.0
  0
LINE
  5
104
330
D3
100
AcDbEntity
  8
AM_9
100
AcDbLine
 10
-0.7850000000000003
 20
-0.3449999999999999
 30
0.0
 11
-0.7850000000000003
 21
-0.4575256070956058
 31
0.0
  0
LINE
  5
105
330
D3
100
AcDbEntity
  8
AM_9
100
AcDbLine
 10
0.7850000000000003
 20
0.3449999999999999
 30
0.0
 11
0.7850000000000003
 21
0.4575256070956061
 31
0.0
  0
LINE
  5
106
330
D3
100
AcDbEntity
  8
AM_9
100
AcDbLine
 10
-0.7850000000000003
 20
0.4575256070956061
 30
0.0
 11
-0.7850000000000003
 21
0.3449999999999999
 31
0.0
  0
LINE
  5
107
330
D3
100
AcDbEntity
  8
AM_9
100
AcDbLine
 10
1.167116666666667
 20
-0.1919999999999999
 30
0.0
 11
1.167116666666667
 21
-0.128
 31
0.0
  0
LINE
  5
108
330
D3
100
AcDbEntity
  8
AM_9
100
AcDbLine
 10
-1.167116666666667
 20
-0.128
 30
0.0
 11
-1.167116666666667
 21
-0.1919999999999999
 31
0.0
  0
LINE
  5
109
330
D3
100
AcDbEntity
  8
AM_9
100
AcDbLine
 10
-1.146492216502145
 20
0.3449999999999999
 30
0.0
 11
1.14649221649858
 21
0.3449999999999999
 31
0.0
  0
ARC
  5
10A
330
D3
100
AcDbEntity
  8
AM_9
100
AcDbCircle
 10
1.146492216502145
 20
0.3130000000000001
 30
0.0
 40
0.0319999999999998
100
AcDbArc
 50
15.27001663184375
 51
90.0
  0
ARC
  5
10B
330
D3
100
AcDbEntity
  8
AM_9
100
AcDbCircle
 10
-1.146492216502145
 20
0.3130000000000001
 30
0.0
 40
0.0319999999999999
100
AcDbArc
 50
90.0
 51
164.7299833681563
  0
LINE
  5
10C
330
D3
100
AcDbEntity
  8
AM_9
100
AcDbLine
 10
-1.146492216502144
 20
-0.345
 30
0.0
 11
1.14649221649858
 21
-0.345
 31
0.0
  0
ARC
  5
10D
330
D3
100
AcDbEntity
  8
AM_9
100
AcDbCircle
 10
1.146492216502144
 20
-0.3129999999999998
 30
0.0
 40
0.0320000000000003
100
AcDbArc
 50
270.0
 51
344.7299833681562
  0
ARC
  5
10E
330
D3
100
AcDbEntity
  8
AM_9
100
AcDbCircle
 10
-1.146492216502144
 20
-0.3129999999999997
 30
0.0
 40
0.0320000000000003
100
AcDbArc
 50
195.2700166318439
 51
270.0
  0
LINE
  5
10F
330
D3
100
AcDbEntity
  8
AM_9
100
AcDbLine
 10
-1.177362468450538
 20
-0.3214277840885185
 30
0.0
 11
1.177362468450545
 21
-0.3214277840885185
 31
0.0
  0
LINE
  5
110
330
D3
100
AcDbEntity
  8
AM_9
100
AcDbLine
 10
-1.205252754612077
 20
-0.192
 30
0.0
 11
1.205252754612084
 21
-0.192
 31
0.0
  0
ARC
  5
111
330
D3
100
AcDbEntity
  8
AM_9
100
AcDbCircle
 10
0.0000000000040554
 20
-0.000000000000873
 30
0.0
 40
1.220449999995864
100
AcDbArc
 50
344.7299833681456
 51
350.948683242034
  0
ARC
  5
112
330
D3
100
AcDbEntity
  8
AM_9
100
AcDbCircle
 10
-0.0000000000041387
 20
-0.000000000000891
 30
0.0
 40
1.220449999995779
100
AcDbArc
 50
189.0513167579657
 51
195.2700166318546
  0
LINE
  5
113
330
D3
100
AcDbEntity
  8
AM_9
100
AcDbLine
 10
-1.213719161297209
 20
-0.1279999999999997
 30
0.0
 11
1.213719161297201
 21
-0.1279999999999997
 31
0.0
  0
LINE
  5
114
330
D3
100
AcDbEntity
  8
AM_9
100
AcDbLine
 10
-1.177362468450538
 20
0.3214277840885186
 30
0.0
 11
1.17736246845053
 21
0.3214277840885187
 31
0.0
  0
ARC
  5
115
330
D3
100
AcDbEntity
  8
AM_9
100
AcDbCircle
 10
-0.0000000000004723
 20
-0.0000000000000373
 30
0.0
 40
1.220450000000458
100
AcDbArc
 50
353.9797846834528
 51
15.27001663183976
  0
ARC
  5
116
330
D3
100
AcDbEntity
  8
AM_9
100
AcDbCircle
 10
0.0000000000131837
 20
-0.0000000000030885
 30
0.0
 40
1.220450000013524
100
AcDbArc
 50
164.7299833681792
 51
167.5142005410586
  0
ARC
  5
117
330
D3
100
AcDbEntity
  8
AM_9
100
AcDbCircle
 10
0.0000000000014932
 20
-0.0000000000000074
 30
0.0
 40
1.220450000001476
100
AcDbArc
 50
177.362996937117
 51
186.0202153165436
  0
LINE
  5
118
330
D3
100
AcDbEntity
  8
AM_9
100
AcDbLine
 10
-1.191517593124841
 20
0.2641666666547011
 30
0.0
 11
-1.219172195133981
 21
0.0558333333365878
 31
0.0
  0
LINE
  5
11B
330
D3
100
AcDbEntity
  8
AM_7
100
AcDbLine
 10
-0.13251
 20
-0.6425000000000001
 30
0.0
 11
0.13251
 21
-0.6425000000000001
 31
0.0
  0
LINE
  5
11C
330
D3
100
AcDbEntity
  8
AM_7
100
AcDbLine
 10
-1.3078475
 20
0.16
 30
0.0
 11
-0.7601024999999999
 21
0.16
 31
0.0
  0
ELLIPSE
  5
11D
330
D3
100
AcDbEntity
  8
AM_4
100
AcDbEllipse
 10
0.6904184671652964
 20
-0.6425000000000001
 30
0.0
 11
-2.318256390785939E-17
 21
-0.1262
 31
0.0
210
0.0
220
0.0
230
1.0
 40
0.4226182617407003
 41
5.943769147869437
 42
9.787243899217584
  0
LWPOLYLINE
  5
11E
330
D3
100
AcDbEntity
  8
AM_4
100
AcDbPolyline
 90
       14
 70
     0
 43
0.0
 10
0.6798835022309109
 20
-0.7720195791501157
 10
0.67707592384444
 20
-0.7683456256369642
 10
0.6682337437258293
 20
-0.7543060333513064
 10
0.6603419029849585
 20
-0.7378068480233552
 10
0.6531624336978935
 20
-0.7176111549687214
 10
0.6476680082411794
 20
-0.6956185019686556
 10
0.6439080686157626
 20
-0.6706856909133797
 10
0.6424672674059304
 20
-0.6450103370751255
 10
0.6435201660047403
 20
-0.6183945441782901
 10
0.647069222368877
 20
-0.5924568094243535
 10
0.6530118180801278
 20
-0.5679039386886983
 10
0.6610350757548009
 20
-0.5455496247713345
 10
0.6704838677817108
 20
-0.5267468388265585
 10
0.6798927260099045
 20
-0.5129689124380642
  0
LWPOLYLINE
  5
11F
330
D3
100
AcDbEntity
  8
AM_4
100
AcDbPolyline
 90
        6
 70
     0
 43
0.0
 10
0.6798927260099045
 20
-0.5129689124380642
 10
0.681124681145968
 20
-0.5114640287792639
 10
0.6916123561140156
 20
-0.5011276317032022
 10
0.702257509964613
 20
-0.4948839598915226
 10
0.7082822669485951
 20
-0.493314918574031
 10
0.7141288361145189
 20
-0.4932552651677147
  0
LINE
  5
120
330
D3
100
AcDbEntity
  8
AM_4
100
AcDbLine
 10
-0.7535999999999999
 20
0.58
 30
0.0
 11
0.7535999999999999
 21
0.58
 31
0.0
  0
LINE
  5
121
330
D3
100
AcDbEntity
  8
AM_4
100
AcDbLine
 10
-0.7535999999999999
 20
0.58
 30
0.0
 11
-0.7849999999999999
 21
0.5486
 31
0.0
  0
LINE
  5
122
330
D3
100
AcDbEntity
  8
AM_4
100
AcDbLine
 10
0.7849999999999999
 20
0.5486
 30
0.0
 11
0.7535999999999999
 21
0.58
 31
0.0
  0
LINE
  5
123
330
D3
100
AcDbEntity
  8
AM_4
100
AcDbLine
 10
-0.7535999999999999
 20
-0.9400000000000002
 30
0.0
 11
0.7535999999999999
 21
-0.9400000000000002
 31
0.0
  0
LINE
  5
124
330
D3
100
AcDbEntity
  8
AM_4
100
AcDbLine
 10
0.7535999999999999
 20
-0.9400000000000002
 30
0.0
 11
0.7849999999999999
 21
-0.9086000000000001
 31
0.0
  0
LINE
  5
125
330
D3
100
AcDbEntity
  8
AM_4
100
AcDbLine
 10
-0.7849999999999999
 20
-0.9086000000000001
 30
0.0
 11
-0.7535999999999999
 21
-0.9400000000000002
 31
0.0
  0
CIRCLE
  5
126
330
D3
100
AcDbEntity
  8
AM_4
100
AcDbCircle
 10
0.0
 20
-0.6425000000000001
 30
0.0
 40
0.1262
  0
LINE
  5
127
330
D3
100
AcDbEntity
  8
AM_4
100
AcDbLine
 10
-0.7849999999999999
 20
-0.9086000000000001
 30
0.0
 11
0.7850000000000003
 21
-0.9086000000000001
 31
0.0
  0
LWPOLYLINE
  5
128
330
D3
100
AcDbEntity
  8
AM_4
100
AcDbPolyline
 90
       39
 70
     0
 43
0.0
 10
-0.0999276449278747
 20
-0.5401791154839144
 10
-0.0851230071579829
 20
-0.5253892710878251
 10
-0.0678727447565569
 20
-0.5127074529787556
 10
-0.0469808987878562
 20
-0.5021543234539815
 10
-0.0237193237918159
 20
-0.4953503430699628
 10
-0.0022725532062696
 20
-0.4931130656520867
 10
0.0199225440785353
 20
-0.4946818518635572
 10
0.0399683904026653
 20
-0.4995946923603398
 10
0.0594589184821158
 20
-0.507895099120408
 10
0.0774334466141278
 20
-0.5192225210658168
 10
0.0938187571673219
 20
-0.5335458029877105
 10
0.1085265366873161
 20
-0.5511275909243666
 10
0.1206281099261564
 20
-0.571279517092963
 10
0.1299254127559685
 20
-0.5942916659045818
 10
0.135610043383428
 20
-0.619151531618249
 10
0.1372840204660611
 20
-0.6451654734933285
 10
0.134619679652629
 20
-0.6718330944034944
 10
0.127693060024685
 20
-0.6972923068760201
 10
0.1162282094493
 20
-0.7218919248966661
 10
0.1013995489959877
 20
-0.7430923749599118
 10
0.0824218687922674
 20
-0.7618797088138634
 10
0.0622836769112924
 20
-0.7755788290158652
 10
0.0391551872594439
 20
-0.7856727997217134
 10
0.0175184594971844
 20
-0.790680049672804
 10
-0.0054158968240908
 20
-0.7917906200868995
 10
-0.0260318502725275
 20
-0.7891837418441834
 10
-0.0464913705468205
 20
-0.7830393514398176
 10
-0.0652577343548838
 20
-0.7738753549410519
 10
-0.0827767646521629
 20
-0.7615881729748183
 10
-0.0987992426813484
 20
-0.746109917185921
 10
-0.1125675292362412
 20
-0.727897394924442
 10
-0.1239866034546582
 20
-0.7065521981090018
 10
-0.1321225363013175
 20
-0.6830628268600961
 10
-0.1365893209310044
 20
-0.6577045207778288
 10
-0.1369130471996715
 20
-0.6312350495451327
 10
-0.1329277906164438
 20
-0.6051663113996827
 10
-0.1244096438524794
 20
-0.5794231600078139
 10
-0.1138171788874646
 20
-0.559083044128707
 10
-0.0999276450167128
 20
-0.5401791154251758
  0
LWPOLYLINE
  5
129
330
D3
100
AcDbEntity
  8
AM_4
100
AcDbPolyline
 90
       23
 70
     0
 43
0.0
 10
0.7141288361145189
 20
-0.4932552651677147
 10
0.7230143806215945
 20
-0.4963759991159
 10
0.7310207538191336
 20
-0.5032632547473496
 10
0.7376717786815778
 20
-0.5130863324833893
 10
0.7433464534131019
 20
-0.5256979295555659
 10
0.748338681899073
 20
-0.5418999152718718
 10
0.7522628857323058
 20
-0.560367113579667
 10
0.7553826334964447
 20
-0.5824276316625745
 10
0.7574058464539329
 20
-0.6059759683212381
 10
0.7584199619495908
 20
-0.6318876458581847
 10
0.7583145394936364
 20
-0.6580863516528261
 10
0.7570414853051516
 20
-0.6844225963661292
 10
0.7545431385221542
 20
-0.7095599557620527
 10
0.7507545303404238
 20
-0.7325513244550143
 10
0.7455658063556974
 20
-0.7528495414996794
 10
0.7391985186722896
 20
-0.7689597213874071
 10
0.7314418311389533
 20
-0.7812401908680116
 10
0.7231649186008782
 20
-0.7885304752549189
 10
0.7139380655968276
 20
-0.7917672936869923
 10
0.7048117691453124
 20
-0.7909466961716145
 10
0.695374295356426
 20
-0.7865808666760421
 10
0.6860745144466279
 20
-0.7789477028294344
 10
0.6798835022309109
 20
-0.7720195791501157
  0
LINE
  5
12A
330
D3
100
AcDbEntity
  8
AM_4
100
AcDbLine
 10
0.7850000000000003
 20
-0.9086000000000001
 30
0.0
 11
0.7850000000000003
 21
-0.4575256070956058
 31
0.0
  0
LINE
  5
12B
330
D3
100
AcDbEntity
  8
AM_4
100
AcDbLine
 10
-0.7850000000000003
 20
-0.4575256070956058
 30
0.0
 11
-0.7850000000000003
 21
-0.9086000000000001
 31
0.0
  0
LINE
  5
12C
330
D3
100
AcDbEntity
  8
AM_4
100
AcDbLine
 10
-0.7849999999999999
 20
0.5486
 30
0.0
 11
0.7850000000000003
 21
0.5486
 31
0.0
  0
LINE
  5
12D
330
D3
100
AcDbEntity
  8
AM_4
100
AcDbLine
 10
0.7850000000000003
 20
0.4575256070956061
 30
0.0
 11
0.7850000000000003
 21
0.5486
 31
0.0
  0
LINE
  5
12E
330
D3
100
AcDbEntity
  8
AM_4
100
AcDbLine
 10
-0.7850000000000003
 20
0.5486
 30
0.0
 11
-0.7850000000000003
 21
0.4575256070956061
 31
0.0
  0
ARC
  5
130
330
D3
100
AcDbEntity
  8
AM_5
100
AcDbCircle
 10
0.0000000000000001
 20
-0.6425
 30
0.0
 40
0.1562499999999999
100
AcDbArc
 50
75.0
 51
14.99999999999994
  0
ARC
  5
131
330
D3
100
AcDbEntity
  8
AM_5
100
AcDbCircle
 10
0.0
 20
-0.6275
 30
0.0
 40
0.15625
100
AcDbArc
 50
75.00000000000001
 51
15.0
  0
ENDBLK
  5
D6
330
D3
100
AcDbEntity
  8
0
100
AcDbBlockEnd
  0
BLOCK
  5
134
330
132
100
AcDbEntity
  8
0
100
AcDbBlockBegin
  2
4_136915H_0_in_136915_4
 70
     2
 10
0.0
 20
0.0
 30
0.0
  3
4_136915H_0_in_136915_4
  1

  0
ATTDEF
  5
136
330
132
100
AcDbEntity
  8
AM_6
100
AcDbText
 10
6.92
 20
0.8249999999999998
 30
0.0
 40
0.5
  1
TB-SCEZ-SHCR -Inch-Housing
100
AcDbAttributeDefinition
  3

  2
NN
 70
     8
280
     0
  0
ATTDEF
  5
137
330
132
100
AcDbEntity
  8
AM_6
100
AcDbText
 10
6.92
 20
0.3249999999999998
 30
0.0
 40
0.5
  1
SC Pillow Block Bearings -(Normal Duty) -Corrosion Resistant Insert -Polymer Housed -Tapped Base Housing -E-Z KLEEN
100
AcDbAttributeDefinition
  3

  2
NT
 70
     8
280
     0
  0
ATTDEF
  5
138
330
132
100
AcDbEntity
  8
AM_6
100
AcDbText
 10
6.92
 20
-0.1750000000000002
 30
0.0
 40
0.5
  1
136915H
100
AcDbAttributeDefinition
  3

  2
NB
 70
     8
280
     0
  0
ATTDEF
  5
139
330
132
100
AcDbEntity
  8
AM_6
100
AcDbText
 10
6.92
 20
-0.6750000000000002
 30
0.0
 40
0.5
  1
$PN.H
100
AcDbAttributeDefinition
  3

  2
NBSYN
 70
     8
280
     0
  0
ATTDEF
  5
13A
330
132
100
AcDbEntity
  8
AM_6
100
AcDbText
 10
6.92
 20
-1.175
 30
0.0
 40
0.5
  1
136915
100
AcDbAttributeDefinition
  3

  2
LINA
 70
     8
280
     0
  0
ATTDEF
  5
13B
330
132
100
AcDbEntity
  8
AM_6
100
AcDbText
 10
6.92
 20
-1.675
 30
0.0
 40
0.5
  1
206
100
AcDbAttributeDefinition
  3

  2
SERIES
 70
     8
280
     0
  0
ATTDEF
  5
13C
330
132
100
AcDbEntity
  8
AM_6
100
AcDbText
 10
6.92
 20
-2.175
 30
0.0
 40
0.5
  1
1-1/4
100
AcDbAttributeDefinition
  3

  2
SS
 70
     8
280
     0
  0
ATTDEF
  5
13D
330
132
100
AcDbEntity
  8
AM_6
100
AcDbText
 10
6.92
 20
-2.675
 30
0.0
 40
0.5
  1
136915
100
AcDbAttributeDefinition
  3

  2
PN
 70
     8
280
     0
  0
ATTDEF
  5
13E
330
132
100
AcDbEntity
  8
AM_6
100
AcDbText
 10
6.92
 20
-3.175
 30
0.0
 40
0.5
  1
TB-SCEZ-104S-SHCR
100
AcDbAttributeDefinition
  3

  2
DESCRIPTION
 70
     8
280
     0
  0
ATTDEF
  5
13F
330
132
100
AcDbEntity
  8
AM_6
100
AcDbText
 10
6.92
 20
-3.675
 30
0.0
 40
0.5
  1
0.690
100
AcDbAttributeDefinition
  3

  2
BW
 70
     8
280
     0
  0
ATTDEF
  5
140
330
132
100
AcDbEntity
  8
AM_6
100
AcDbText
 10
6.92
 20
-4.175000000000001
 30
0.0
 40
0.5
  1
1.52
100
AcDbAttributeDefinition
  3

  2
A
 70
     8
280
     0
  0
ATTDEF
  5
141
330
132
100
AcDbEntity
  8
AM_6
100
AcDbText
 10
6.92
 20
-4.675000000000001
 30
0.0
 40
0.5
  1
3.84
100
AcDbAttributeDefinition
  3

  2
B
 70
     8
280
     0
  0
ATTDEF
  5
142
330
132
100
AcDbEntity
  8
AM_6
100
AcDbText
 10
6.92
 20
-5.175000000000001
 30
0.0
 40
0.5
  1
1.50
100
AcDbAttributeDefinition
  3

  2
C
 70
     8
280
     0
  0
ATTDEF
  5
143
330
132
100
AcDbEntity
  8
AM_6
100
AcDbText
 10
6.92
 20
-5.675000000000001
 30
0.0
 40
0.5
  1
3.00
100
AcDbAttributeDefinition
  3

  2
D
 70
     8
280
     0
  0
ATTDEF
  5
144
330
132
100
AcDbEntity
  8
AM_6
100
AcDbText
 10
6.92
 20
-6.175000000000001
 30
0.0
 40
0.5
  1
3.22
100
AcDbAttributeDefinition
  3

  2
J
 70
     8
280
     0
  0
ATTDEF
  5
145
330
132
100
AcDbEntity
  8
AM_6
100
AcDbText
 10
6.92
 20
-6.675000000000001
 30
0.0
 40
0.5
  1
1.57
100
AcDbAttributeDefinition
  3

  2
L
 70
     8
280
     0
  0
ATTDEF
  5
146
330
132
100
AcDbEntity
  8
AM_6
100
AcDbText
 10
6.92
 20
-7.175000000000001
 30
0.0
 40
0.5
  1
1.69
100
AcDbAttributeDefinition
  3

  2
M
 70
     8
280
     0
  0
ATTDEF
  5
147
330
132
100
AcDbEntity
  8
AM_6
100
AcDbText
 10
6.92
 20
-7.675000000000001
 30
0.0
 40
0.5
  1
0.88
100
AcDbAttributeDefinition
  3

  2
N
 70
     8
280
     0
  0
ATTDEF
  5
148
330
132
100
AcDbEntity
  8
AM_6
100
AcDbText
 10
6.92
 20
-8.175
 30
0.0
 40
0.5
  1
7/16-14
100
AcDbAttributeDefinition
  3

  2
R
 70
     8
280
     0
  0
ATTDEF
  5
149
330
132
100
AcDbEntity
  8
AM_6
100
AcDbText
 10
6.92
 20
-8.675
 30
0.0
 40
0.5
  1
0.4375
100
AcDbAttributeDefinition
  3

  2
NDM
 70
     8
280
     0
  0
ATTDEF
  5
14A
330
132
100
AcDbEntity
  8
AM_6
100
AcDbText
 10
6.92
 20
-9.175
 30
0.0
 40
0.5
  1
0.94
100
AcDbAttributeDefinition
  3

  2
S
 70
     8
280
     0
  0
ATTDEF
  5
14B
330
132
100
AcDbEntity
  8
AM_6
100
AcDbText
 10
6.92
 20
-9.675
 30
0.0
 40
0.5
  1
2250
100
AcDbAttributeDefinition
  3

  2
CAPS
 70
     8
280
     0
  0
ATTDEF
  5
14C
330
132
100
AcDbEntity
  8
AM_6
100
AcDbText
 10
6.92
 20
-10.175
 30
0.0
 40
0.5
  1
4368
100
AcDbAttributeDefinition
  3

  2
CAPD
 70
     8
280
     0
  0
ATTDEF
  5
14D
330
132
100
AcDbEntity
  8
AM_6
100
AcDbText
 10
6.92
 20
-10.675
 30
0.0
 40
0.5
  1
baldor
100
AcDbAttributeDefinition
  3

  2
COMPANY
 70
     8
280
     0
  0
CIRCLE
  5
14E
330
132
100
AcDbEntity
  8
AM_9
100
AcDbCircle
 10
-1.5
 20
0.0
 30
0.0
 40
0.1849
  0
CIRCLE
  5
14F
330
132
100
AcDbEntity
  8
AM_9
100
AcDbCircle
 10
1.5
 20
0.0
 30
0.0
 40
0.1849
  0
LINE
  5
150
330
132
100
AcDbEntity
  8
AM_9
100
AcDbLine
 10
1.120417646460462
 20
-0.2250000000000002
 30
0.0
 11
1.120417646460462
 21
0.3794999999999999
 31
0.0
  0
LINE
  5
151
330
132
100
AcDbEntity
  8
AM_9
100
AcDbLine
 10
1.28295
 20
-0.2250000000000002
 30
0.0
 11
1.28295
 21
0.3794999999999999
 31
0.0
  0
LINE
  5
152
330
132
100
AcDbEntity
  8
AM_9
100
AcDbLine
 10
1.28295
 20
-0.2250000000000002
 30
0.0
 11
1.04827153090218
 21
-0.2250000000000002
 31
0.0
  0
LINE
  5
153
330
132
100
AcDbEntity
  8
AM_9
100
AcDbLine
 10
-1.04827153090218
 20
-0.2250000000000002
 30
0.0
 11
-1.28295
 21
-0.2250000000000002
 31
0.0
  0
LINE
  5
154
330
132
100
AcDbEntity
  8
AM_9
100
AcDbLine
 10
-1.120417646460461
 20
-0.2250000000000002
 30
0.0
 11
-1.120417646460461
 21
0.3794999999999999
 31
0.0
  0
LINE
  5
155
330
132
100
AcDbEntity
  8
AM_9
100
AcDbLine
 10
-1.28295
 20
0.1185606060606104
 30
0.0
 11
-1.28295
 21
-0.2250000000000002
 31
0.0
  0
LINE
  5
156
330
132
100
AcDbEntity
  8
AM_9
100
AcDbLine
 10
-1.28295
 20
0.3794999999999999
 30
0.0
 11
-1.28295
 21
0.2014393939393896
 31
0.0
  0
LINE
  5
157
330
132
100
AcDbEntity
  8
AM_9
100
AcDbLine
 10
-1.04827153090218
 20
-0.2250000000000002
 30
0.0
 11
-1.04827153090218
 21
0.3794999999999999
 31
0.0
  0
LINE
  5
158
330
132
100
AcDbEntity
  8
AM_9
100
AcDbLine
 10
1.04827153090218
 20
0.3794999999999999
 30
0.0
 11
1.04827153090218
 21
-0.2250000000000002
 31
0.0
  0
LINE
  5
159
330
132
100
AcDbEntity
  8
AM_9
100
AcDbLine
 10
1.22045
 20
-0.3795
 30
0.0
 11
1.22045
 21
-0.2250000000000002
 31
0.0
  0
LINE
  5
15A
330
132
100
AcDbEntity
  8
AM_9
100
AcDbLine
 10
-1.22045
 20
-0.2250000000000002
 30
0.0
 11
-1.22045
 21
-0.3795
 31
0.0
  0
LINE
  5
15B
330
132
100
AcDbEntity
  8
AM_9
100
AcDbLine
 10
-1.34545
 20
0.3794999999999999
 30
0.0
 11
1.34545
 21
0.3794999999999999
 31
0.0
  0
LINE
  5
15C
330
132
100
AcDbEntity
  8
AM_9
100
AcDbLine
 10
1.34545
 20
0.3794999999999999
 30
0.0
 11
1.34545
 21
0.5723738424010066
 31
0.0
  0
LINE
  5
15D
330
132
100
AcDbEntity
  8
AM_9
100
AcDbLine
 10
-1.34545
 20
0.5723738424010066
 30
0.0
 11
-1.34545
 21
0.3794999999999999
 31
0.0
  0
LINE
  5
15E
330
132
100
AcDbEntity
  8
AM_9
100
AcDbLine
 10
-1.34545
 20
-0.3795
 30
0.0
 11
1.34545
 21
-0.3795
 31
0.0
  0
LINE
  5
15F
330
132
100
AcDbEntity
  8
AM_9
100
AcDbLine
 10
1.34545
 20
-0.5723738424010065
 30
0.0
 11
1.34545
 21
-0.3795
 31
0.0
  0
LINE
  5
160
330
132
100
AcDbEntity
  8
AM_9
100
AcDbLine
 10
-1.34545
 20
-0.3795
 30
0.0
 11
-1.34545
 21
-0.5723738424010065
 31
0.0
  0
LINE
  5
161
330
132
100
AcDbEntity
  8
AM_9
100
AcDbLine
 10
0.6048341844159757
 20
-0.6986919634768378
 30
0.0
 11
0.7849999999999998
 21
-0.6872220777064072
 31
0.0
  0
LWPOLYLINE
  5
162
330
132
100
AcDbEntity
  8
AM_9
100
AcDbPolyline
 90
        6
 70
     0
 43
0.0
 10
0.1044286232775811
 20
-0.713359739205958
 10
0.2209411876344863
 20
-0.7118666334071696
 10
0.3357722561455564
 20
-0.7093119032407744
 10
0.4480478950425275
 20
-0.7057149917459266
 10
0.556913618919509
 20
-0.7011032735909767
 10
0.6048341844159757
 20
-0.6986919634768378
  0
LINE
  5
163
330
132
100
AcDbEntity
  8
AM_9
100
AcDbLine
 10
-0.1044286232775815
 20
-0.713359739205958
 30
0.0
 11
0.1044286232775811
 21
-0.713359739205958
 31
0.0
  0
LWPOLYLINE
  5
164
330
132
100
AcDbEntity
  8
AM_9
100
AcDbPolyline
 90
        8
 70
     0
 43
0.0
 10
-0.7849999999999996
 20
-0.6872220777064072
 10
-0.686777063477824
 20
-0.693975989084486
 10
-0.5833273388152533
 20
-0.6998044347009199
 10
-0.4754381408816213
 20
-0.704663056565256
 10
-0.3639305716184816
 20
-0.7085148776313908
 10
-0.2496532709580381
 20
-0.7113305832152178
 10
-0.1334759581608374
 20
-0.7130887440970743
 10
-0.1044286232775815
 20
-0.713359739205958
  0
LINE
  5
165
330
132
100
AcDbEntity
  8
AM_9
100
AcDbLine
 10
-0.7850000000000004
 20
-0.7500000000000001
 30
0.0
 11
0.7850000000000001
 21
-0.7500000000000001
 31
0.0
  0
LINE
  5
166
330
132
100
AcDbEntity
  8
AM_7
100
AcDbLine
 10
-1.7296875
 20
-0.0000000000000001
 30
0.0
 11
-1.2703125
 21
-0.0000000000000001
 31
0.0
  0
LINE
  5
167
330
132
100
AcDbEntity
  8
AM_7
100
AcDbLine
 10
-1.5
 20
-0.2296875000000001
 30
0.0
 11
-1.5
 21
0.2296874999999999
 31
0.0
  0
LINE
  5
168
330
132
100
AcDbEntity
  8
AM_7
100
AcDbLine
 10
1.2703125
 20
-0.0000000000000001
 30
0.0
 11
1.7296875
 21
-0.0000000000000001
 31
0.0
  0
LINE
  5
169
330
132
100
AcDbEntity
  8
AM_7
100
AcDbLine
 10
1.5
 20
-0.2296875000000001
 30
0.0
 11
1.5
 21
0.2296874999999999
 31
0.0
  0
LINE
  5
16A
330
132
100
AcDbEntity
  8
AM_7
100
AcDbLine
 10
0.0
 20
-1.016
 30
0.0
 11
0.0
 21
0.8249999999999998
 31
0.0
  0
LINE
  5
16B
330
132
100
AcDbEntity
  8
AM_4
100
AcDbLine
 10
1.919999999999999
 20
-0.7500000000000001
 30
0.0
 11
1.919999999999999
 21
0.7499999999999998
 31
0.0
  0
LINE
  5
16C
330
132
100
AcDbEntity
  8
AM_4
100
AcDbLine
 10
-1.92
 20
-0.7500000000000001
 30
0.0
 11
-1.92
 21
0.7499999999999998
 31
0.0
  0
LWPOLYLINE
  5
16D
330
132
100
AcDbEntity
  8
AM_4
100
AcDbPolyline
 90
       37
 70
     0
 43
0.0
 10
-1.34545
 20
0.5723738424010066
 10
-1.340330156547539
 20
0.5600489315103172
 10
-1.325009591290276
 20
0.5478178206334905
 10
-1.299604902980627
 20
0.535773595909646
 10
-1.264309436636401
 20
0.5240079211614339
 10
-1.219391812068461
 20
0.5126103402779965
 10
-1.165193879521774
 20
0.5016675957319046
 10
-1.102128117988625
 20
0.4912629684165634
 10
-1.03067449599443
 20
0.4814756438283286
 10
-0.9513768187474416
 20
0.4723801094170649
 10
-0.8648385894527556
 20
0.4640455876916758
 10
-0.7717184162885163
 20
0.4565355093950132
 10
-0.6727250000000017
 20
0.449907030757624
 10
-0.5686117402590259
 20
0.4442105985043237
 10
-0.460171001837523
 20
0.4394895659241596
 10
-0.3482280842331887
 20
0.4357798629257042
 10
-0.2336349406419737
 20
0.4331097225887557
 10
-0.1172636940798392
 20
0.4314994662935531
 10
-0.0000000000000026
 20
0.4309613490628023
 10
0.117263694079834
 20
0.4314994662935531
 10
0.2336349406419687
 20
0.4331097225887556
 10
0.3482280842331837
 20
0.4357798629257041
 10
0.4601710018375181
 20
0.4394895659241594
 10
0.5686117402590213
 20
0.4442105985043235
 10
0.6727249999999972
 20
0.4499070307576237
 10
0.7717184162885122
 20
0.4565355093950128
 10
0.8648385894527516
 20
0.4640455876916754
 10
0.9513768187474381
 20
0.4723801094170645
 10
1.030674495994427
 20
0.4814756438283282
 10
1.102128117988622
 20
0.491262968416563
 10
1.165193879521771
 20
0.5016675957319041
 10
1.219391812068459
 20
0.512610340277996
 10
1.264309436636399
 20
0.5240079211614334
 10
1.299604902980626
 20
0.5357735959096456
 10
1.325009591290275
 20
0.54781782063349
 10
1.340330156547539
 20
0.5600489315103166
 10
1.34545
 20
0.5723738424010061
  0
LWPOLYLINE
  5
16E
330
132
100
AcDbEntity
  8
AM_4
100
AcDbPolyline
 90
       19
 70
     0
 43
0.0
 10
1.34545
 20
0.5723738424010066
 10
1.340330156547539
 20
0.5846987532916961
 10
1.325009591290276
 20
0.5969298641685228
 10
1.299604902980627
 20
0.6089740888923673
 10
1.264309436636401
 20
0.6207397636405794
 10
1.219391812068461
 20
0.6321373445240167
 10
1.165193879521774
 20
0.6430800890701088
 10
1.102128117988625
 20
0.6534847163854498
 10
1.03067449599443
 20
0.6632720409736845
 10
0.9513768187474417
 20
0.6723675753849484
 10
0.8648385894527557
 20
0.6807020971103376
 10
0.7717184162885166
 20
0.6882121754070002
 10
0.6727250000000018
 20
0.6948406540443892
 10
0.568611740259026
 20
0.7005370862976895
 10
0.4601710018375231
 20
0.7052581188778537
 10
0.3482280842331888
 20
0.7089678218763091
 10
0.2336349406419739
 20
0.7116379622132576
 10
0.1172636940798393
 20
0.7132482185084601
 10
0.0000000000000027
 20
0.713786335739211
  0
LWPOLYLINE
  5
16F
330
132
100
AcDbEntity
  8
AM_4
100
AcDbPolyline
 90
       12
 70
     0
 43
0.0
 10
0.7849999999999998
 20
-0.6872220777064072
 10
0.8772486125262159
 20
-0.6795941019103936
 10
0.9628208334139129
 20
-0.6711501151981512
 10
1.041065406392216
 20
-0.6619543814071779
 10
1.111386843015395
 20
-0.6520768856241594
 10
1.173249954689503
 20
-0.6415928015561996
 10
1.226183925780731
 20
-0.6305819194135184
 10
1.269785896806672
 20
-0.619128038657774
 10
1.303724030440226
 20
-0.6073183302375602
 10
1.327740036992037
 20
-0.5952426731648516
 10
1.341651140150986
 20
-0.5829929704814525
 10
1.34545
 20
-0.5723738424010065
  0
LWPOLYLINE
  5
170
330
132
100
AcDbEntity
  8
AM_4
100
AcDbPolyline
 90
       12
 70
     0
 43
0.0
 10
-1.34545
 20
-0.5723738424010065
 10
-1.340330156547539
 20
-0.584698753291696
 10
-1.325009591290276
 20
-0.5969298641685226
 10
-1.299604902980627
 20
-0.6089740888923671
 10
-1.264309436636401
 20
-0.6207397636405794
 10
-1.219391812068461
 20
-0.6321373445240166
 10
-1.165193879521774
 20
-0.6430800890701086
 10
-1.102128117988625
 20
-0.6534847163854497
 10
-1.03067449599443
 20
-0.6632720409736845
 10
-0.9513768187474415
 20
-0.6723675753849483
 10
-0.8648385894527556
 20
-0.6807020971103375
 10
-0.7849999999999996
 20
-0.6872220777064072
  0
LWPOLYLINE
  5
171
330
132
100
AcDbEntity
  8
AM_4
100
AcDbPolyline
 90
       19
 70
     0
 43
0.0
 10
1.34545
 20
-0.5723738424010065
 10
1.340330156547539
 20
-0.5600489315103171
 10
1.325009591290276
 20
-0.5478178206334904
 10
1.299604902980627
 20
-0.5357735959096459
 10
1.264309436636401
 20
-0.5240079211614337
 10
1.219391812068461
 20
-0.5126103402779963
 10
1.165193879521774
 20
-0.5016675957319043
 10
1.102128117988625
 20
-0.4912629684165633
 10
1.03067449599443
 20
-0.4814756438283285
 10
0.9513768187474416
 20
-0.4723801094170648
 10
0.8648385894527557
 20
-0.4640455876916755
 10
0.7717184162885166
 20
-0.456535509395013
 10
0.6727250000000018
 20
-0.4499070307576238
 10
0.568611740259026
 20
-0.4442105985043235
 10
0.4601710018375231
 20
-0.4394895659241594
 10
0.3482280842331888
 20
-0.435779862925704
 10
0.2336349406419739
 20
-0.4331097225887555
 10
0.1172636940798393
 20
-0.431499466293553
 10
0.0000000000000027
 20
-0.430961349062802
  0
LINE
  5
172
330
132
100
AcDbEntity
  8
AM_4
100
AcDbLine
 10
1.476587962451991
 20
-0.4856928422024438
 30
0.0
 11
1.476587962451991
 21
0.4856928422024436
 31
0.0
  0
LWPOLYLINE
  5
173
330
132
100
AcDbEntity
  8
AM_4
100
AcDbPolyline
 90
       19
 70
     0
 43
0.0
 10
0.0
 20
-0.430961349062802
 10
-0.1172636940798367
 20
-0.431499466293553
 10
-0.2336349406419715
 20
-0.4331097225887555
 10
-0.3482280842331866
 20
-0.435779862925704
 10
-0.460171001837521
 20
-0.4394895659241593
 10
-0.5686117402590242
 20
-0.4442105985043234
 10
-0.672725
 20
-0.4499070307576237
 10
-0.7717184162885151
 20
-0.4565355093950129
 10
-0.8648385894527544
 20
-0.4640455876916755
 10
-0.9513768187474405
 20
-0.4723801094170646
 10
-1.030674495994429
 20
-0.4814756438283284
 10
-1.102128117988624
 20
-0.4912629684165631
 10
-1.165193879521773
 20
-0.5016675957319042
 10
-1.219391812068461
 20
-0.5126103402779962
 10
-1.264309436636401
 20
-0.5240079211614336
 10
-1.299604902980627
 20
-0.5357735959096458
 10
-1.325009591290276
 20
-0.5478178206334903
 10
-1.340330156547539
 20
-0.560048931510317
 10
-1.34545
 20
-0.5723738424010064
  0
LINE
  5
174
330
132
100
AcDbEntity
  8
AM_4
100
AcDbLine
 10
0.7850000000000001
 20
-0.7500000000000001
 30
0.0
 11
1.919999999999999
 21
-0.7500000000000001
 31
0.0
  0
LINE
  5
175
330
132
100
AcDbEntity
  8
AM_4
100
AcDbLine
 10
-1.92
 20
-0.7500000000000001
 30
0.0
 11
-0.7850000000000004
 21
-0.7500000000000001
 31
0.0
  0
LINE
  5
176
330
132
100
AcDbEntity
  8
AM_4
100
AcDbLine
 10
1.476587962451991
 20
-0.4856928422024438
 30
0.0
 11
1.919999999999999
 21
-0.7500000000000001
 31
0.0
  0
LINE
  5
177
330
132
100
AcDbEntity
  8
AM_4
100
AcDbLine
 10
0.7713025895976584
 20
-0.4115643624445217
 30
0.0
 11
1.476587962451991
 21
-0.4856928422024438
 31
0.0
  0
LINE
  5
178
330
132
100
AcDbEntity
  8
AM_4
100
AcDbLine
 10
-1.92
 20
-0.7500000000000001
 30
0.0
 11
-1.476587962451991
 21
-0.4856928422024437
 31
0.0
  0
LWPOLYLINE
  5
179
330
132
100
AcDbEntity
  8
AM_4
100
AcDbPolyline
 90
       19
 70
     0
 43
0.0
 10
0.0
 20
0.713786335739211
 10
-0.1172636940798367
 20
0.7132482185084602
 10
-0.2336349406419715
 20
0.7116379622132576
 10
-0.3482280842331866
 20
0.7089678218763091
 10
-0.460171001837521
 20
0.7052581188778538
 10
-0.5686117402590242
 20
0.7005370862976897
 10
-0.672725
 20
0.6948406540443893
 10
-0.7717184162885151
 20
0.6882121754070002
 10
-0.8648385894527544
 20
0.6807020971103376
 10
-0.9513768187474405
 20
0.6723675753849485
 10
-1.030674495994429
 20
0.6632720409736848
 10
-1.102128117988624
 20
0.65348471638545
 10
-1.165193879521773
 20
0.6430800890701089
 10
-1.219391812068461
 20
0.6321373445240168
 10
-1.264309436636401
 20
0.6207397636405795
 10
-1.299604902980627
 20
0.6089740888923674
 10
-1.325009591290276
 20
0.5969298641685228
 10
-1.340330156547539
 20
0.5846987532916962
 10
-1.34545
 20
0.5723738424010067
  0
LINE
  5
17A
330
132
100
AcDbEntity
  8
AM_4
100
AcDbLine
 10
1.476587962451991
 20
0.4856928422024436
 30
0.0
 11
0.7713025895976584
 21
0.4115643624445216
 31
0.0
  0
LINE
  5
17B
330
132
100
AcDbEntity
  8
AM_4
100
AcDbLine
 10
1.919999999999999
 20
0.7499999999999998
 30
0.0
 11
1.476587962451991
 21
0.4856928422024436
 31
0.0
  0
LINE
  5
17C
330
132
100
AcDbEntity
  8
AM_4
100
AcDbLine
 10
-1.92
 20
0.7499999999999998
 30
0.0
 11
1.919999999999999
 21
0.7499999999999998
 31
0.0
  0
LINE
  5
17D
330
132
100
AcDbEntity
  8
AM_4
100
AcDbLine
 10
-1.476587962451991
 20
0.4856928422024437
 30
0.0
 11
-1.92
 21
0.7499999999999998
 31
0.0
  0
LINE
  5
17E
330
132
100
AcDbEntity
  8
AM_4
100
AcDbLine
 10
-1.476587962451991
 20
-0.4856928422024437
 30
0.0
 11
-1.476587962451991
 21
0.4856928422024437
 31
0.0
  0
LINE
  5
17F
330
132
100
AcDbEntity
  8
AM_4
100
AcDbLine
 10
-1.476587962451991
 20
-0.4856928422024437
 30
0.0
 11
-0.7713025895976583
 21
-0.4115643624445217
 31
0.0
  0
LINE
  5
180
330
132
100
AcDbEntity
  8
AM_4
100
AcDbLine
 10
-0.7713025895976582
 20
0.4115643624445215
 30
0.0
 11
-1.476587962451991
 21
0.4856928422024437
 31
0.0
  0
LINE
  5
181
330
132
100
AcDbEntity
  8
AM_4
100
AcDbLine
 10
-0.7713025895976583
 20
-0.4115643624445217
 30
0.0
 11
-0.7713025895976582
 21
0.4115643624445215
 31
0.0
  0
LINE
  5
182
330
132
100
AcDbEntity
  8
AM_4
100
AcDbLine
 10
-0.7713025895976583
 20
-0.4115643624445217
 30
0.0
 11
0.7713025895976584
 21
-0.4115643624445217
 31
0.0
  0
LINE
  5
183
330
132
100
AcDbEntity
  8
AM_4
100
AcDbLine
 10
0.7713025895976584
 20
-0.4115643624445217
 30
0.0
 11
0.7713025895976584
 21
0.4115643624445216
 31
0.0
  0
LINE
  5
184
330
132
100
AcDbEntity
  8
AM_4
100
AcDbLine
 10
0.7713025895976584
 20
0.4115643624445216
 30
0.0
 11
-0.7713025895976582
 21
0.4115643624445215
 31
0.0
  0
ARC
  5
185
330
132
100
AcDbEntity
  8
AM_5
100
AcDbCircle
 10
1.5
 20
0.0
 30
0.0
 40
0.2187499999999999
100
AcDbArc
 50
75.0
 51
15.0
  0
ARC
  5
186
330
132
100
AcDbEntity
  8
AM_5
100
AcDbCircle
 10
-1.5
 20
0.0
 30
0.0
 40
0.2187499999999999
100
AcDbArc
 50
75.0
 51
15.0
  0
ENDBLK
  5
135
330
132
100
AcDbEntity
  8
0
100
AcDbBlockEnd
  0
ENDSEC
  0
SECTION
  2
ENTITIES
  0
INSERT
  5
6F
330
1F
100
AcDbEntity
  8
0
100
AcDbBlockReference
  2
1_136915_4
 10
0.0
 20
0.0
 30
0.0
  0
POINT
  5
188
330
1F
100
AcDbEntity
  8
ConnectionPoints
100
AcDbPoint
 10
0.0
 20
0.58
 30
0.0
  0
POINT
  5
189
330
1F
100
AcDbEntity
  8
ConnectionPoints
100
AcDbPoint
 10
0.0
 20
-0.94
 30
0.0000000000000001
  0
POINT
  5
18A
330
1F
100
AcDbEntity
  8
ConnectionPoints
100
AcDbPoint
 10
1.150651294798829
 20
0.0000000000000001
 30
1.150651294798829
  0
POINT
  5
18B
330
1F
100
AcDbEntity
  8
ConnectionPoints
100
AcDbPoint
 10
0.0
 20
-0.94
 30
0.0000000000000001
  0
ENDSEC
  0
SECTION
  2
OBJECTS
  0
DICTIONARY
  5
C
330
0
100
AcDbDictionary
281
     1
  3
ACAD_DETAILVIEWSTYLE
350
193
  3
ACAD_GROUP
350
D
  3
ACAD_LAYOUT
350
1A
  3
ACAD_MATERIAL
350
43
  3
ACAD_MLEADERSTYLE
350
6B
  3
ACAD_MLINESTYLE
350
17
  3
ACAD_PLOTSETTINGS
350
19
  3
ACAD_PLOTSTYLENAME
350
E
  3
ACAD_SCALELIST
350
47
  3
ACAD_SECTIONVIEWSTYLE
350
194
  3
ACAD_TABLESTYLE
350
69
  3
ACAD_VISUALSTYLE
350
2A
  3
ACDB_RECOMPOSE_DATA
350
190
  3
AcDbVariableDictionary
350
18C
  0
SUN
  5
6D
330
29
100
AcDbSun
 90
        1
290
     0
 63
     7
421
 16777215
 40
1.0
291
     1
 91
  2455826
 92
 54000000
292
     0
 70
     2
 71
   256
280
     1
  0
DICTIONARY
  5
193
102
{ACAD_REACTORS
330
C
102
}
330
C
100
AcDbDictionary
281
     1
  0
DICTIONARY
  5
D
102
{ACAD_REACTORS
330
C
102
}
330
C
100
AcDbDictionary
281
     1
  0
DICTIONARY
  5
1A
102
{ACAD_REACTORS
330
C
102
}
330
C
100
AcDbDictionary
281
     1
  3
Layout1
350
1E
  3
Layout2
350
26
  3
Model
350
22
  0
DICTIONARY
  5
43
102
{ACAD_REACTORS
330
C
102
}
330
C
100
AcDbDictionary
281
     1
  3
ByBlock
350
45
  3
ByLayer
350
44
  3
Global
350
46
  0
DICTIONARY
  5
6B
102
{ACAD_REACTORS
330
C
102
}
330
C
100
AcDbDictionary
281
     1
  3
Standard
350
6C
  0
DICTIONARY
  5
17
102
{ACAD_REACTORS
330
C
102
}
330
C
100
AcDbDictionary
281
     1
  3
Standard
350
18
  0
DICTIONARY
  5
19
102
{ACAD_REACTORS
330
C
102
}
330
C
100
AcDbDictionary
281
     1
  0
ACDBDICTIONARYWDFLT
  5
E
102
{ACAD_REACTORS
330
C
102
}
330
C
100
AcDbDictionary
281
     1
  3
Normal
350
F
100
AcDbDictionaryWithDefault
340
F
  0
DICTIONARY
  5
47
102
{ACAD_REACTORS
330
C
102
}
330
C
100
AcDbDictionary
281
     1
  3
A0
350
48
  3
A1
350
49
  3
A2
350
4A
  3
A3
350
4B
  3
A4
350
4C
  3
A5
350
4D
  3
A6
350
4E
  3
A7
350
4F
  3
A8
350
50
  3
A9
350
51
  3
B0
350
52
  3
B1
350
53
  3
B2
350
54
  3
B3
350
55
  3
B4
350
56
  3
B5
350
57
  3
B6
350
58
  3
B7
350
59
  3
B8
350
5A
  3
B9
350
5B
  3
C0
350
5C
  3
C1
350
5D
  3
C2
350
5E
  3
C3
350
5F
  3
C4
350
60
  3
C5
350
61
  3
C6
350
62
  3
C7
350
63
  3
C8
350
64
  3
C9
350
65
  3
D0
350
66
  3
D1
350
67
  3
D2
350
68
  0
DICTIONARY
  5
194
102
{ACAD_REACTORS
330
C
102
}
330
C
100
AcDbDictionary
281
     1
  0
DICTIONARY
  5
69
102
{ACAD_REACTORS
330
C
102
}
330
C
100
AcDbDictionary
281
     1
  3
Standard
350
6A
  0
DICTIONARY
  5
2A
102
{ACAD_REACTORS
330
C
102
}
330
C
100
AcDbDictionary
281
     1
  3
2dWireframe
350
2F
  3
Basic
350
32
  3
Brighten
350
36
  3
ColorChange
350
3A
  3
Conceptual
350
34
  3
Dim
350
35
  3
EdgeColorOff
350
3D
  3
Facepattern
350
39
  3
Flat
350
2B
  3
FlatWithEdges
350
2C
  3
Gouraud
350
2D
  3
GouraudWithEdges
350
2E
  3
Hidden
350
31
  3
JitterOff
350
3B
  3
Linepattern
350
38
  3
OverhangOff
350
3C
  3
Realistic
350
33
  3
Shaded
350
42
  3
Shaded with edges
350
41
  3
Shades of Gray
350
3E
  3
Sketchy
350
3F
  3
Thicken
350
37
  3
Wireframe
350
30
  3
X-Ray
350
40
  0
XRECORD
  5
190
102
{ACAD_REACTORS
330
C
102
}
330
C
100
AcDbXrecord
280
     1
 90
        1
330
6A
  0
DICTIONARY
  5
18C
102
{ACAD_REACTORS
330
C
102
}
330
C
100
AcDbDictionary
281
     1
  3
CANNOSCALE
350
18D
  3
CMLEADERSTYLE
350
192
  3
CTABLESTYLE
350
191
  0
LAYOUT
  5
1E
102
{ACAD_REACTORS
330
1A
102
}
330
1A
100
AcDbPlotSettings
  1

  2
none_device
  4

  6

 40
0.0
 41
0.0
 42
0.0
 43
0.0
 44
0.0
 45
0.0
 46
0.0
 47
0.0
 48
0.0
 49
0.0
140
0.0
141
0.0
142
1.0
143
1.0
 70
   688
 72
     0
 73
     0
 74
     5
  7

 75
    16
 76
     0
 77
     2
 78
   300
147
1.0
148
0.0
149
0.0
100
AcDbLayout
  1
Layout1
 70
     1
 71
     1
 10
0.0
 20
0.0
 11
12.0
 21
9.0
 12
0.0
 22
0.0
 32
0.0
 14
1.000000000000000E+20
 24
1.000000000000000E+20
 34
1.000000000000000E+20
 15
-1.000000000000000E+20
 25
-1.000000000000000E+20
 35
-1.000000000000000E+20
146
0.0
 13
0.0
 23
0.0
 33
0.0
 16
1.0
 26
0.0
 36
0.0
 17
0.0
 27
1.0
 37
0.0
 76
     0
330
1B
  0
LAYOUT
  5
26
102
{ACAD_REACTORS
330
1A
102
}
330
1A
100
AcDbPlotSettings
  1

  2
none_device
  4

  6

 40
0.0
 41
0.0
 42
0.0
 43
0.0
 44
0.0
 45
0.0
 46
0.0
 47
0.0
 48
0.0
 49
0.0
140
0.0
141
0.0
142
1.0
143
1.0
 70
   688
 72
     0
 73
     0
 74
     5
  7

 75
    16
 76
     0
 77
     2
 78
   300
147
1.0
148
0.0
149
0.0
100
AcDbLayout
  1
Layout2
 70
     1
 71
     2
 10
0.0
 20
0.0
 11
0.0
 21
0.0
 12
0.0
 22
0.0
 32
0.0
 14
0.0
 24
0.0
 34
0.0
 15
0.0
 25
0.0
 35
0.0
146
0.0
 13
0.0
 23
0.0
 33
0.0
 16
1.0
 26
0.0
 36
0.0
 17
0.0
 27
1.0
 37
0.0
 76
     0
330
23
  0
LAYOUT
  5
22
102
{ACAD_REACTORS
330
1A
102
}
330
1A
100
AcDbPlotSettings
  1

  2
none_device
  4
Letter_(8.50_x_11.00_Inches)
  6

 40
6.35
 41
6.35
 42
6.35000508
 43
6.35000508
 44
215.9
 45
279.4
 46
0.0
 47
0.0
 48
0.0
 49
0.0
140
0.0
141
0.0
142
1.0
143
1.0
 70
  1712
 72
     0
 73
     0
 74
     0
  7

 75
     0
 76
     0
 77
     2
 78
   300
147
1.0
148
0.0
149
0.0
100
AcDbLayout
  1
Model
 70
     1
 71
     0
 10
0.0
 20
0.0
 11
12.0
 21
9.0
 12
0.0
 22
0.0
 32
0.0
 14
1.000000000000000E+20
 24
1.000000000000000E+20
 34
1.000000000000000E+20
 15
-1.000000000000000E+20
 25
-1.000000000000000E+20
 35
-1.000000000000000E+20
146
0.0
 13
0.0
 23
0.0
 33
0.0
 16
1.0
 26
0.0
 36
0.0
 17
0.0
 27
1.0
 37
0.0
 76
     0
330
1F
331
29
  0
MATERIAL
  5
45
102
{ACAD_REACTORS
330
43
102
}
330
43
100
AcDbMaterial
  1
ByBlock
 72
     1
 94
      127
  0
MATERIAL
  5
44
102
{ACAD_REACTORS
330
43
102
}
330
43
100
AcDbMaterial
  1
ByLayer
 72
     1
 94
      127
  0
MATERIAL
  5
46
102
{ACAD_REACTORS
330
43
102
}
330
43
100
AcDbMaterial
  1
Global
 72
     1
 94
      127
  0
MLEADERSTYLE
  5
6C
102
{ACAD_REACTORS
330
6B
102
}
330
6B
100
AcDbMLeaderStyle
179
     2
170
     2
171
     1
172
     0
 90
        2
 40
0.0
 41
0.0
173
     1
 91
-1056964608
340
14
 92
       -2
290
     1
 42
0.09
291
     1
 43
0.36
  3
Standard
341
0
 44
0.18
300

342
11
174
     1
178
     6
175
     1
176
     0
 93
-1056964608
 45
0.18
292
     0
297
     0
 46
0.18
343
0
 94
-1056964608
 47
1.0
 49
1.0
140
1.0
293
     1
141
0.0
294
     1
177
     0
142
1.0
295
     0
296
     0
143
0.125
271
     0
272
     9
273
     9
298
     0
  0
MLINESTYLE
  5
18
102
{ACAD_REACTORS
330
17
102
}
330
17
100
AcDbMlineStyle
  2
Standard
 70
     0
  3

 62
   256
 51
90.0
 52
90.0
 71
     2
 49
0.5
 62
   256
  6
BYLAYER
 49
-0.5
 62
   256
  6
BYLAYER
  0
ACDBPLACEHOLDER
  5
F
102
{ACAD_REACTORS
330
E
102
}
330
E
  0
SCALE
  5
48
102
{ACAD_REACTORS
330
47
102
}
330
47
100
AcDbScale
 70
     0
300
1:1
140
1.0
141
1.0
290
     1
  0
SCALE
  5
49
102
{ACAD_REACTORS
330
47
102
}
330
47
100
AcDbScale
 70
     0
300
1:2
140
1.0
141
2.0
290
     0
  0
SCALE
  5
4A
102
{ACAD_REACTORS
330
47
102
}
330
47
100
AcDbScale
 70
     0
300
1:4
140
1.0
141
4.0
290
     0
  0
SCALE
  5
4B
102
{ACAD_REACTORS
330
47
102
}
330
47
100
AcDbScale
 70
     0
300
1:5
140
1.0
141
5.0
290
     0
  0
SCALE
  5
4C
102
{ACAD_REACTORS
330
47
102
}
330
47
100
AcDbScale
 70
     0
300
1:8
140
1.0
141
8.0
290
     0
  0
SCALE
  5
4D
102
{ACAD_REACTORS
330
47
102
}
330
47
100
AcDbScale
 70
     0
300
1:10
140
1.0
141
10.0
290
     0
  0
SCALE
  5
4E
102
{ACAD_REACTORS
330
47
102
}
330
47
100
AcDbScale
 70
     0
300
1:16
140
1.0
141
16.0
290
     0
  0
SCALE
  5
4F
102
{ACAD_REACTORS
330
47
102
}
330
47
100
AcDbScale
 70
     0
300
1:20
140
1.0
141
20.0
290
     0
  0
SCALE
  5
50
102
{ACAD_REACTORS
330
47
102
}
330
47
100
AcDbScale
 70
     0
300
1:30
140
1.0
141
30.0
290
     0
  0
SCALE
  5
51
102
{ACAD_REACTORS
330
47
102
}
330
47
100
AcDbScale
 70
     0
300
1:40
140
1.0
141
40.0
290
     0
  0
SCALE
  5
52
102
{ACAD_REACTORS
330
47
102
}
330
47
100
AcDbScale
 70
     0
300
1:50
140
1.0
141
50.0
290
     0
  0
SCALE
  5
53
102
{ACAD_REACTORS
330
47
102
}
330
47
100
AcDbScale
 70
     0
300
1:100
140
1.0
141
100.0
290
     0
  0
SCALE
  5
54
102
{ACAD_REACTORS
330
47
102
}
330
47
100
AcDbScale
 70
     0
300
2:1
140
2.0
141
1.0
290
     0
  0
SCALE
  5
55
102
{ACAD_REACTORS
330
47
102
}
330
47
100
AcDbScale
 70
     0
300
4:1
140
4.0
141
1.0
290
     0
  0
SCALE
  5
56
102
{ACAD_REACTORS
330
47
102
}
330
47
100
AcDbScale
 70
     0
300
8:1
140
8.0
141
1.0
290
     0
  0
SCALE
  5
57
102
{ACAD_REACTORS
330
47
102
}
330
47
100
AcDbScale
 70
     0
300
10:1
140
10.0
141
1.0
290
     0
  0
SCALE
  5
58
102
{ACAD_REACTORS
330
47
102
}
330
47
100
AcDbScale
 70
     0
300
100:1
140
100.0
141
1.0
290
     0
  0
SCALE
  5
59
102
{ACAD_REACTORS
330
47
102
}
330
47
100
AcDbScale
 70
     0
300
1/128" = 1'-0"
140
0.0078125
141
12.0
290
     0
  0
SCALE
  5
5A
102
{ACAD_REACTORS
330
47
102
}
330
47
100
AcDbScale
 70
     0
300
1/64" = 1'-0"
140
0.015625
141
12.0
290
     0
  0
SCALE
  5
5B
102
{ACAD_REACTORS
330
47
102
}
330
47
100
AcDbScale
 70
     0
300
1/32" = 1'-0"
140
0.03125
141
12.0
290
     0
  0
SCALE
  5
5C
102
{ACAD_REACTORS
330
47
102
}
330
47
100
AcDbScale
 70
     0
300
1/16" = 1'-0"
140
0.0625
141
12.0
290
     0
  0
SCALE
  5
5D
102
{ACAD_REACTORS
330
47
102
}
330
47
100
AcDbScale
 70
     0
300
3/32" = 1'-0"
140
0.09375
141
12.0
290
     0
  0
SCALE
  5
5E
102
{ACAD_REACTORS
330
47
102
}
330
47
100
AcDbScale
 70
     0
300
1/8" = 1'-0"
140
0.125
141
12.0
290
     0
  0
SCALE
  5
5F
102
{ACAD_REACTORS
330
47
102
}
330
47
100
AcDbScale
 70
     0
300
3/16" = 1'-0"
140
0.1875
141
12.0
290
     0
  0
SCALE
  5
60
102
{ACAD_REACTORS
330
47
102
}
330
47
100
AcDbScale
 70
     0
300
1/4" = 1'-0"
140
0.25
141
12.0
290
     0
  0
SCALE
  5
61
102
{ACAD_REACTORS
330
47
102
}
330
47
100
AcDbScale
 70
     0
300
3/8" = 1'-0"
140
0.375
141
12.0
290
     0
  0
SCALE
  5
62
102
{ACAD_REACTORS
330
47
102
}
330
47
100
AcDbScale
 70
     0
300
1/2" = 1'-0"
140
0.5
141
12.0
290
     0
  0
SCALE
  5
63
102
{ACAD_REACTORS
330
47
102
}
330
47
100
AcDbScale
 70
     0
300
3/4" = 1'-0"
140
0.75
141
12.0
290
     0
  0
SCALE
  5
64
102
{ACAD_REACTORS
330
47
102
}
330
47
100
AcDbScale
 70
     0
300
1" = 1'-0"
140
1.0
141
12.0
290
     0
  0
SCALE
  5
65
102
{ACAD_REACTORS
330
47
102
}
330
47
100
AcDbScale
 70
     0
300
1-1/2" = 1'-0"
140
1.5
141
12.0
290
     0
  0
SCALE
  5
66
102
{ACAD_REACTORS
330
47
102
}
330
47
100
AcDbScale
 70
     0
300
3" = 1'-0"
140
3.0
141
12.0
290
     0
  0
SCALE
  5
67
102
{ACAD_REACTORS
330
47
102
}
330
47
100
AcDbScale
 70
     0
300
6" = 1'-0"
140
6.0
141
12.0
290
     0
  0
SCALE
  5
68
102
{ACAD_REACTORS
330
47
102
}
330
47
100
AcDbScale
 70
     0
300
1'-0" = 1'-0"
140
12.0
141
12.0
290
     0
  0
TABLESTYLE
  5
6A
102
{ACAD_REACTORS
330
69
102
}
102
{ACAD_XDICTIONARY
360
18E
102
}
330
69
100
AcDbTableStyle
  3
Standard
 70
     0
 71
     0
 40
0.06
 41
0.06
280
     0
281
     0
  7
Standard
140
0.18
170
     2
 62
     0
 63
   257
283
     0
 90
        4
 91
        0
  1

274
    -2
284
     1
 64
     0
275
    -2
285
     1
 65
     0
276
    -2
286
     1
 66
     0
277
    -2
287
     1
 67
     0
278
    -2
288
     1
 68
     0
279
    -2
289
     1
 69
     0
  7
Standard
140
0.25
170
     5
 62
     0
 63
   257
283
     0
 90
        4
 91
        0
  1

274
    -2
284
     1
 64
     0
275
    -2
285
     1
 65
     0
276
    -2
286
     1
 66
     0
277
    -2
287
     1
 67
     0
278
    -2
288
     1
 68
     0
279
    -2
289
     1
 69
     0
  7
Standard
140
0.18
170
     5
 62
     0
 63
   257
283
     0
 90
        4
 91
        0
  1

274
    -2
284
     1
 64
     0
275
    -2
285
     1
 65
     0
276
    -2
286
     1
 66
     0
277
    -2
287
     1
 67
     0
278
    -2
288
     1
 68
     0
279
    -2
289
     1
 69
     0
  0
VISUALSTYLE
  5
2F
102
{ACAD_REACTORS
330
2A
102
}
330
2A
100
AcDbVisualStyle
  2
2dWireframe
 70
     4
177
     3
291
     0
 70
    58
 90
        0
176
     1
 90
        2
176
     1
 90
        0
176
     1
 90
        0
176
     1
 40
0.6
176
     1
 40
30.0
176
     1
 62
     7
420
 16777215
176
     1
 90
        1
176
     1
 90
        4
176
     1
 62
     7
176
     1
 62
   257
176
     1
 90
        1
176
     1
 90
        1
176
     1
 40
1.0
176
     1
 90
        0
176
     1
 62
   257
176
     1
 40
1.0
176
     1
 90
        1
176
     1
 90
        6
176
     1
 90
        2
176
     1
 62
     7
176
     1
 90
        5
176
     1
 90
        0
176
     1
 90
        0
176
     1
290
     0
176
     1
 90
        1
176
     1
 40
0.0
176
     1
 90
        0
176
     1
290
     1
176
     1
290
     1
176
     1
290
     0
176
     1
290
     0
176
     1
290
     0
176
     1
290
     0
176
     1
290
     0
176
     1
290
     0
176
     1
290
     0
176
     1
 90
       50
176
     1
 40
0.0
176
     1
 40
1.0
176
     1
 90
        0
176
     1
 62
    18
420
        0
176
     1
 90
       50
176
     1
 90
        3
176
     1
 62
     5
420
      255
176
     1
290
     0
176
     1
 90
       50
176
     1
 90
       50
176
     1
 90
       50
176
     1
290
     0
176
     1
 90
       50
176
     1
 62
   256
176
     0
 40
1.0
176
     0
 90
        2
176
     1
  1
strokes_ogs.tif
176
     1
290
     0
176
     1
 40
1.0
176
     1
 40
1.0
176
     1
  0
VISUALSTYLE
  5
32
102
{ACAD_REACTORS
330
2A
102
}
330
2A
100
AcDbVisualStyle
  2
Basic
 70
     7
177
     3
291
     1
 70
    58
 90
        1
176
     1
 90
        0
176
     1
 90
        1
176
     1
 90
        0
176
     1
 40
0.6
176
     1
 40
30.0
176
     1
 62
     7
420
 16777215
176
     1
 90
        0
176
     1
 90
        4
176
     1
 62
     7
176
     1
 62
   257
176
     1
 90
        1
176
     1
 90
        1
176
     1
 40
1.0
176
     1
 90
        8
176
     1
 62
     7
176
     1
 40
1.0
176
     1
 90
        1
176
     1
 90
        6
176
     1
 90
        2
176
     1
 62
     7
176
     1
 90
        5
176
     1
 90
        0
176
     1
 90
        0
176
     1
290
     0
176
     1
 90
        1
176
     1
 40
0.0
176
     1
 90
        0
176
     1
290
     0
176
     1
290
     1
176
     1
290
     1
176
     1
290
     0
176
     1
290
     0
176
     1
290
     0
176
     1
290
     0
176
     1
290
     0
176
     1
290
     0
176
     1
 90
       50
176
     1
 40
0.0
176
     1
 40
1.0
176
     1
 90
        0
176
     1
 62
    18
420
        0
176
     1
 90
       50
176
     1
 90
        3
176
     1
 62
     5
420
      255
176
     1
290
     0
176
     1
 90
       50
176
     1
 90
       50
176
     1
 90
       50
176
     1
290
     0
176
     1
 90
       50
176
     1
 62
   256
176
     0
 40
1.0
176
     0
 90
        2
176
     1
  1
strokes_ogs.tif
176
     1
290
     0
176
     1
 40
1.0
176
     1
 40
1.0
176
     1
  0
VISUALSTYLE
  5
36
102
{ACAD_REACTORS
330
2A
102
}
330
2A
100
AcDbVisualStyle
  2
Brighten
 70
    12
177
     3
291
     1
 70
    58
 90
        2
176
     1
 90
        2
176
     1
 90
        0
176
     1
 90
        0
176
     1
 40
0.6
176
     1
 40
30.0
176
     1
 62
     7
420
 16777215
176
     1
 90
        1
176
     1
 90
        4
176
     1
 62
     7
176
     1
 62
   257
176
     1
 90
        1
176
     1
 90
        1
176
     1
 40
1.0
176
     1
 90
        8
176
     1
 62
     7
176
     1
 40
1.0
176
     1
 90
        1
176
     1
 90
        6
176
     1
 90
        2
176
     1
 62
     7
176
     1
 90
        5
176
     1
 90
        0
176
     1
 90
        0
176
     1
290
     0
176
     1
 90
        1
176
     1
 40
50.0
176
     1
 90
        0
176
     1
290
     0
176
     1
290
     1
176
     1
290
     1
176
     1
290
     0
176
     1
290
     0
176
     1
290
     0
176
     1
290
     0
176
     1
290
     0
176
     1
290
     0
176
     1
 90
       50
176
     1
 40
0.0
176
     1
 40
1.0
176
     1
 90
        0
176
     1
 62
    18
420
        0
176
     1
 90
       50
176
     1
 90
        3
176
     1
 62
     5
420
      255
176
     1
290
     0
176
     1
 90
       50
176
     1
 90
       50
176
     1
 90
       50
176
     1
290
     0
176
     1
 90
       50
176
     1
 62
   256
176
     0
 40
1.0
176
     0
 90
        2
176
     1
  1
strokes_ogs.tif
176
     1
290
     0
176
     1
 40
1.0
176
     1
 40
1.0
176
     1
  0
VISUALSTYLE
  5
3A
102
{ACAD_REACTORS
330
2A
102
}
330
2A
100
AcDbVisualStyle
  2
ColorChange
 70
    16
177
     3
291
     1
 70
    58
 90
        2
176
     1
 90
        2
176
     1
 90
        3
176
     1
 90
        0
176
     1
 40
0.6
176
     1
 40
30.0
176
     1
 62
     8
420
  8421504
176
     1
 90
        1
176
     1
 90
        4
176
     1
 62
     7
176
     1
 62
   257
176
     1
 90
        1
176
     1
 90
        1
176
     1
 40
1.0
176
     1
 90
        8
176
     1
 62
     8
420
  8421504
176
     1
 40
1.0
176
     1
 90
        1
176
     1
 90
        6
176
     1
 90
        2
176
     1
 62
     7
176
     1
 90
        5
176
     1
 90
        0
176
     1
 90
        0
176
     1
290
     0
176
     1
 90
        1
176
     1
 40
0.0
176
     1
 90
        0
176
     1
290
     0
176
     1
290
     1
176
     1
290
     1
176
     1
290
     0
176
     1
290
     0
176
     1
290
     0
176
     1
290
     0
176
     1
290
     0
176
     1
290
     0
176
     1
 90
       50
176
     1
 40
0.0
176
     1
 40
1.0
176
     1
 90
        0
176
     1
 62
    18
420
        0
176
     1
 90
       50
176
     1
 90
        3
176
     1
 62
     5
420
      255
176
     1
290
     0
176
     1
 90
       50
176
     1
 90
       50
176
     1
 90
       50
176
     1
290
     0
176
     1
 90
       50
176
     1
 62
   256
176
     0
 40
1.0
176
     0
 90
        2
176
     1
  1
strokes_ogs.tif
176
     1
290
     0
176
     1
 40
1.0
176
     1
 40
1.0
176
     1
  0
VISUALSTYLE
  5
34
102
{ACAD_REACTORS
330
2A
102
}
330
2A
100
AcDbVisualStyle
  2
Conceptual
 70
     9
177
     3
291
     0
 70
    58
 90
        3
176
     1
 90
        2
176
     1
 90
        0
176
     1
 90
        0
176
     1
 40
0.6
176
     1
 40
30.0
176
     1
 62
     7
420
 16777215
176
     1
 90
        2
176
     1
 90
        2
176
     1
 62
     7
176
     1
 62
   257
176
     1
 90
        1
176
     1
 90
        1
176
     1
 40
179.0
176
     1
 90
        8
176
     1
 62
     7
176
     1
 40
1.0
176
     1
 90
        1
176
     1
 90
        6
176
     1
 90
        2
176
     1
 62
     7
176
     1
 90
        3
176
     1
 90
        0
176
     1
 90
        0
176
     1
290
     0
176
     1
 90
        1
176
     1
 40
0.0
176
     1
 90
        0
176
     1
290
     0
176
     1
290
     1
176
     1
290
     1
176
     1
290
     0
176
     1
290
     0
176
     1
290
     0
176
     1
290
     0
176
     1
290
     0
176
     1
290
     0
176
     1
 90
       50
176
     1
 40
0.0
176
     1
 40
1.0
176
     1
 90
        0
176
     1
 62
    18
420
        0
176
     1
 90
       50
176
     1
 90
        3
176
     1
 62
     5
420
      255
176
     1
290
     0
176
     1
 90
       50
176
     1
 90
       50
176
     1
 90
       50
176
     1
290
     0
176
     1
 90
       50
176
     1
 62
   256
176
     0
 40
1.0
176
     0
 90
        2
176
     1
  1
strokes_ogs.tif
176
     1
290
     0
176
     1
 40
1.0
176
     1
 40
1.0
176
     1
  0
VISUALSTYLE
  5
35
102
{ACAD_REACTORS
330
2A
102
}
330
2A
100
AcDbVisualStyle
  2
Dim
 70
    11
177
     3
291
     1
 70
    58
 90
        2
176
     1
 90
        2
176
     1
 90
        0
176
     1
 90
        0
176
     1
 40
0.6
176
     1
 40
30.0
176
     1
 62
     7
420
 16777215
176
     1
 90
        1
176
     1
 90
        4
176
     1
 62
     7
176
     1
 62
   257
176
     1
 90
        1
176
     1
 90
        1
176
     1
 40
1.0
176
     1
 90
        8
176
     1
 62
     7
176
     1
 40
1.0
176
     1
 90
        1
176
     1
 90
        6
176
     1
 90
        2
176
     1
 62
     7
176
     1
 90
        5
176
     1
 90
        0
176
     1
 90
        0
176
     1
290
     0
176
     1
 90
        1
176
     1
 40
-50.0
176
     1
 90
        0
176
     1
290
     0
176
     1
290
     1
176
     1
290
     1
176
     1
290
     0
176
     1
290
     0
176
     1
290
     0
176
     1
290
     0
176
     1
290
     0
176
     1
290
     0
176
     1
 90
       50
176
     1
 40
0.0
176
     1
 40
1.0
176
     1
 90
        0
176
     1
 62
    18
420
        0
176
     1
 90
       50
176
     1
 90
        3
176
     1
 62
     5
420
      255
176
     1
290
     0
176
     1
 90
       50
176
     1
 90
       50
176
     1
 90
       50
176
     1
290
     0
176
     1
 90
       50
176
     1
 62
   256
176
     0
 40
1.0
176
     0
 90
        2
176
     1
  1
strokes_ogs.tif
176
     1
290
     0
176
     1
 40
1.0
176
     1
 40
1.0
176
     1
  0
VISUALSTYLE
  5
3D
102
{ACAD_REACTORS
330
2A
102
}
330
2A
100
AcDbVisualStyle
  2
EdgeColorOff
 70
    22
177
     3
291
     1
 70
    58
 90
        2
176
     0
 90
        2
176
     0
 90
        0
176
     0
 90
        0
176
     0
 40
0.6
176
     0
 40
30.0
176
     0
 62
     7
420
 16777215
176
     0
 90
        1
176
     0
 90
        4
176
     0
 62
     7
176
     0
 62
   257
176
     0
 90
        1
176
     0
 90
        1
176
     0
 40
1.0
176
     0
 90
        8
176
     2
 62
     7
176
     0
 40
1.0
176
     0
 90
        1
176
     0
 90
        6
176
     0
 90
        2
176
     0
 62
     7
176
     0
 90
        5
176
     0
 90
        0
176
     0
 90
        0
176
     0
290
     0
176
     0
 90
        1
176
     0
 40
0.0
176
     0
 90
        0
176
     0
290
     0
176
     0
290
     1
176
     0
290
     1
176
     0
290
     0
176
     0
290
     0
176
     0
290
     0
176
     0
290
     0
176
     0
290
     0
176
     0
290
     0
176
     0
 90
       50
176
     0
 40
0.0
176
     0
 40
1.0
176
     0
 90
        0
176
     0
 62
    18
420
        0
176
     0
 90
       50
176
     0
 90
        3
176
     0
 62
     5
420
      255
176
     0
290
     0
176
     0
 90
       50
176
     0
 90
       50
176
     0
 90
       50
176
     0
290
     0
176
     0
 90
       50
176
     0
 62
   256
176
     0
 40
1.0
176
     0
 90
        2
176
     0
  1
strokes_ogs.tif
176
     0
290
     0
176
     0
 40
1.0
176
     0
 40
1.0
176
     0
  0
VISUALSTYLE
  5
39
102
{ACAD_REACTORS
330
2A
102
}
330
2A
100
AcDbVisualStyle
  2
Facepattern
 70
    15
177
     3
291
     1
 70
    58
 90
        2
176
     1
 90
        2
176
     1
 90
        0
176
     1
 90
        0
176
     1
 40
0.6
176
     1
 40
30.0
176
     1
 62
     7
420
 16777215
176
     1
 90
        1
176
     1
 90
        4
176
     1
 62
     7
176
     1
 62
   257
176
     1
 90
        1
176
     1
 90
        1
176
     1
 40
1.0
176
     1
 90
        8
176
     1
 62
     7
176
     1
 40
1.0
176
     1
 90
        1
176
     1
 90
        6
176
     1
 90
        2
176
     1
 62
     7
176
     1
 90
        5
176
     1
 90
        0
176
     1
 90
        0
176
     1
290
     0
176
     1
 90
        1
176
     1
 40
0.0
176
     1
 90
        0
176
     1
290
     0
176
     1
290
     1
176
     1
290
     1
176
     1
290
     0
176
     1
290
     0
176
     1
290
     0
176
     1
290
     0
176
     1
290
     0
176
     1
290
     0
176
     1
 90
       50
176
     1
 40
0.0
176
     1
 40
1.0
176
     1
 90
        0
176
     1
 62
    18
420
        0
176
     1
 90
       50
176
     1
 90
        3
176
     1
 62
     5
420
      255
176
     1
290
     0
176
     1
 90
       50
176
     1
 90
       50
176
     1
 90
       50
176
     1
290
     0
176
     1
 90
       50
176
     1
 62
   256
176
     0
 40
1.0
176
     0
 90
        2
176
     1
  1
strokes_ogs.tif
176
     1
290
     0
176
     1
 40
1.0
176
     1
 40
1.0
176
     1
  0
VISUALSTYLE
  5
2B
102
{ACAD_REACTORS
330
2A
102
}
330
2A
100
AcDbVisualStyle
  2
Flat
 70
     0
177
     3
291
     1
 70
    58
 90
        2
176
     1
 90
        1
176
     1
 90
        1
176
     1
 90
        2
176
     1
 40
0.6
176
     1
 40
30.0
176
     1
 62
     7
420
 16777215
176
     1
 90
        0
176
     1
 90
        0
176
     1
 62
     7
176
     1
 62
   257
176
     1
 90
        1
176
     1
 90
        1
176
     1
 40
1.0
176
     1
 90
        8
176
     1
 62
     7
176
     1
 40
1.0
176
     1
 90
        1
176
     1
 90
        6
176
     1
 90
        2
176
     1
 62
     7
176
     1
 90
        5
176
     1
 90
        0
176
     1
 90
        0
176
     1
290
     0
176
     1
 90
       13
176
     1
 40
0.0
176
     1
 90
        0
176
     1
290
     0
176
     1
290
     1
176
     1
290
     1
176
     1
290
     0
176
     1
290
     0
176
     1
290
     0
176
     1
290
     0
176
     1
290
     0
176
     1
290
     0
176
     1
 90
       50
176
     1
 40
0.0
176
     1
 40
1.0
176
     1
 90
        0
176
     1
 62
    18
420
        0
176
     1
 90
       50
176
     1
 90
        3
176
     1
 62
     5
420
      255
176
     1
290
     0
176
     1
 90
       50
176
     1
 90
       50
176
     1
 90
       50
176
     1
290
     0
176
     1
 90
       50
176
     1
 62
   256
176
     0
 40
1.0
176
     0
 90
        2
176
     1
  1
strokes_ogs.tif
176
     1
290
     0
176
     1
 40
1.0
176
     1
 40
1.0
176
     1
  0
VISUALSTYLE
  5
2C
102
{ACAD_REACTORS
330
2A
102
}
330
2A
100
AcDbVisualStyle
  2
FlatWithEdges
 70
     1
177
     3
291
     1
 70
    58
 90
        2
176
     1
 90
        1
176
     1
 90
        1
176
     1
 90
        2
176
     1
 40
0.6
176
     1
 40
30.0
176
     1
 62
     7
420
 16777215
176
     1
 90
        1
176
     1
 90
        0
176
     1
 62
     7
176
     1
 62
   257
176
     1
 90
        1
176
     1
 90
        1
176
     1
 40
1.0
176
     1
 90
        0
176
     1
 62
   257
176
     1
 40
1.0
176
     1
 90
        1
176
     1
 90
        6
176
     1
 90
        2
176
     1
 62
     7
176
     1
 90
        5
176
     1
 90
        0
176
     1
 90
        0
176
     1
290
     0
176
     1
 90
       13
176
     1
 40
0.0
176
     1
 90
        0
176
     1
290
     0
176
     1
290
     1
176
     1
290
     1
176
     1
290
     0
176
     1
290
     0
176
     1
290
     0
176
     1
290
     0
176
     1
290
     0
176
     1
290
     0
176
     1
 90
       50
176
     1
 40
0.0
176
     1
 40
1.0
176
     1
 90
        0
176
     1
 62
    18
420
        0
176
     1
 90
       50
176
     1
 90
        3
176
     1
 62
     5
420
      255
176
     1
290
     0
176
     1
 90
       50
176
     1
 90
       50
176
     1
 90
       50
176
     1
290
     0
176
     1
 90
       50
176
     1
 62
   256
176
     0
 40
1.0
176
     0
 90
        2
176
     1
  1
strokes_ogs.tif
176
     1
290
     0
176
     1
 40
1.0
176
     1
 40
1.0
176
     1
  0
VISUALSTYLE
  5
2D
102
{ACAD_REACTORS
330
2A
102
}
330
2A
100
AcDbVisualStyle
  2
Gouraud
 70
     2
177
     3
291
     1
 70
    58
 90
        2
176
     1
 90
        2
176
     1
 90
        1
176
     1
 90
        2
176
     1
 40
0.6
176
     1
 40
30.0
176
     1
 62
     7
420
 16777215
176
     1
 90
        0
176
     1
 90
        0
176
     1
 62
     7
176
     1
 62
   257
176
     1
 90
        1
176
     1
 90
        1
176
     1
 40
1.0
176
     1
 90
        0
176
     1
 62
     7
176
     1
 40
1.0
176
     1
 90
        1
176
     1
 90
        6
176
     1
 90
        2
176
     1
 62
     7
176
     1
 90
        5
176
     1
 90
        0
176
     1
 90
        0
176
     1
290
     0
176
     1
 90
       13
176
     1
 40
0.0
176
     1
 90
        0
176
     1
290
     0
176
     1
290
     1
176
     1
290
     1
176
     1
290
     0
176
     1
290
     0
176
     1
290
     0
176
     1
290
     0
176
     1
290
     0
176
     1
290
     0
176
     1
 90
       50
176
     1
 40
0.0
176
     1
 40
1.0
176
     1
 90
        0
176
     1
 62
    18
420
        0
176
     1
 90
       50
176
     1
 90
        3
176
     1
 62
     5
420
      255
176
     1
290
     0
176
     1
 90
       50
176
     1
 90
       50
176
     1
 90
       50
176
     1
290
     0
176
     1
 90
       50
176
     1
 62
   256
176
     0
 40
1.0
176
     0
 90
        2
176
     1
  1
strokes_ogs.tif
176
     1
290
     0
176
     1
 40
1.0
176
     1
 40
1.0
176
     1
  0
VISUALSTYLE
  5
2E
102
{ACAD_REACTORS
330
2A
102
}
330
2A
100
AcDbVisualStyle
  2
GouraudWithEdges
 70
     3
177
     3
291
     1
 70
    58
 90
        2
176
     1
 90
        2
176
     1
 90
        1
176
     1
 90
        2
176
     1
 40
0.6
176
     1
 40
30.0
176
     1
 62
     7
420
 16777215
176
     1
 90
        1
176
     1
 90
        0
176
     1
 62
     7
176
     1
 62
   257
176
     1
 90
        1
176
     1
 90
        1
176
     1
 40
1.0
176
     1
 90
        0
176
     1
 62
   257
176
     1
 40
1.0
176
     1
 90
        1
176
     1
 90
        6
176
     1
 90
        2
176
     1
 62
     7
176
     1
 90
        5
176
     1
 90
        0
176
     1
 90
        0
176
     1
290
     0
176
     1
 90
       13
176
     1
 40
0.0
176
     1
 90
        0
176
     1
290
     0
176
     1
290
     1
176
     1
290
     1
176
     1
290
     0
176
     1
290
     0
176
     1
290
     0
176
     1
290
     0
176
     1
290
     0
176
     1
290
     0
176
     1
 90
       50
176
     1
 40
0.0
176
     1
 40
1.0
176
     1
 90
        0
176
     1
 62
    18
420
        0
176
     1
 90
       50
176
     1
 90
        3
176
     1
 62
     5
420
      255
176
     1
290
     0
176
     1
 90
       50
176
     1
 90
       50
176
     1
 90
       50
176
     1
290
     0
176
     1
 90
       50
176
     1
 62
   256
176
     0
 40
1.0
176
     0
 90
        2
176
     1
  1
strokes_ogs.tif
176
     1
290
     0
176
     1
 40
1.0
176
     1
 40
1.0
176
     1
  0
VISUALSTYLE
  5
31
102
{ACAD_REACTORS
330
2A
102
}
330
2A
100
AcDbVisualStyle
  2
Hidden
 70
     6
177
     3
291
     0
 70
    58
 90
        1
176
     1
 90
        2
176
     1
 90
        2
176
     1
 90
        0
176
     1
 40
0.6
176
     1
 40
30.0
176
     1
 62
     7
420
 16777215
176
     1
 90
        2
176
     1
 90
        2
176
     1
 62
     7
176
     1
 62
   257
176
     1
 90
        2
176
     1
 90
        1
176
     1
 40
40.0
176
     1
 90
        0
176
     1
 62
   257
176
     1
 40
1.0
176
     1
 90
        1
176
     1
 90
        6
176
     1
 90
        2
176
     1
 62
     7
176
     1
 90
        3
176
     1
 90
        0
176
     1
 90
        0
176
     1
290
     0
176
     1
 90
        1
176
     1
 40
0.0
176
     1
 90
        0
176
     1
290
     0
176
     1
290
     1
176
     1
290
     1
176
     1
290
     0
176
     1
290
     0
176
     1
290
     0
176
     1
290
     0
176
     1
290
     0
176
     1
290
     0
176
     1
 90
       50
176
     1
 40
0.0
176
     1
 40
1.0
176
     1
 90
        0
176
     1
 62
    18
420
        0
176
     1
 90
       50
176
     1
 90
        3
176
     1
 62
     5
420
      255
176
     1
290
     0
176
     1
 90
       50
176
     1
 90
       50
176
     1
 90
       50
176
     1
290
     0
176
     1
 90
       50
176
     1
 62
   256
176
     0
 40
1.0
176
     0
 90
        2
176
     1
  1
strokes_ogs.tif
176
     1
290
     0
176
     1
 40
1.0
176
     1
 40
1.0
176
     1
  0
VISUALSTYLE
  5
3B
102
{ACAD_REACTORS
330
2A
102
}
330
2A
100
AcDbVisualStyle
  2
JitterOff
 70
    20
177
     3
291
     1
 70
    58
 90
        2
176
     0
 90
        2
176
     0
 90
        0
176
     0
 90
        0
176
     0
 40
0.6
176
     0
 40
30.0
176
     0
 62
     7
420
 16777215
176
     0
 90
        1
176
     0
 90
        4
176
     0
 62
     7
176
     0
 62
   257
176
     0
 90
        1
176
     0
 90
        1
176
     0
 40
1.0
176
     0
 90
       10
176
     2
 62
     7
176
     0
 40
1.0
176
     0
 90
        1
176
     0
 90
        6
176
     0
 90
        2
176
     0
 62
     7
176
     0
 90
        5
176
     0
 90
        0
176
     0
 90
        0
176
     0
290
     0
176
     0
 90
        1
176
     0
 40
0.0
176
     0
 90
        0
176
     0
290
     0
176
     0
290
     1
176
     0
290
     1
176
     0
290
     0
176
     0
290
     0
176
     0
290
     0
176
     0
290
     0
176
     0
290
     0
176
     0
290
     0
176
     0
 90
       50
176
     0
 40
0.0
176
     0
 40
1.0
176
     0
 90
        0
176
     0
 62
    18
420
        0
176
     0
 90
       50
176
     0
 90
        3
176
     0
 62
     5
420
      255
176
     0
290
     0
176
     0
 90
       50
176
     0
 90
       50
176
     0
 90
       50
176
     0
290
     0
176
     0
 90
       50
176
     0
 62
   256
176
     0
 40
1.0
176
     0
 90
        2
176
     0
  1
strokes_ogs.tif
176
     0
290
     0
176
     0
 40
1.0
176
     0
 40
1.0
176
     0
  0
VISUALSTYLE
  5
38
102
{ACAD_REACTORS
330
2A
102
}
330
2A
100
AcDbVisualStyle
  2
Linepattern
 70
    14
177
     3
291
     1
 70
    58
 90
        2
176
     1
 90
        2
176
     1
 90
        0
176
     1
 90
        0
176
     1
 40
0.6
176
     1
 40
30.0
176
     1
 62
     7
420
 16777215
176
     1
 90
        1
176
     1
 90
        4
176
     1
 62
     7
176
     1
 62
   257
176
     1
 90
        7
176
     1
 90
        7
176
     1
 40
1.0
176
     1
 90
        8
176
     1
 62
     7
176
     1
 40
1.0
176
     1
 90
        1
176
     1
 90
        6
176
     1
 90
        2
176
     1
 62
     7
176
     1
 90
        5
176
     1
 90
        0
176
     1
 90
        0
176
     1
290
     0
176
     1
 90
        1
176
     1
 40
0.0
176
     1
 90
        0
176
     1
290
     0
176
     1
290
     1
176
     1
290
     1
176
     1
290
     0
176
     1
290
     0
176
     1
290
     0
176
     1
290
     0
176
     1
290
     0
176
     1
290
     0
176
     1
 90
       50
176
     1
 40
0.0
176
     1
 40
1.0
176
     1
 90
        0
176
     1
 62
    18
420
        0
176
     1
 90
       50
176
     1
 90
        3
176
     1
 62
     5
420
      255
176
     1
290
     0
176
     1
 90
       50
176
     1
 90
       50
176
     1
 90
       50
176
     1
290
     0
176
     1
 90
       50
176
     1
 62
   256
176
     0
 40
1.0
176
     0
 90
        2
176
     1
  1
strokes_ogs.tif
176
     1
290
     0
176
     1
 40
1.0
176
     1
 40
1.0
176
     1
  0
VISUALSTYLE
  5
3C
102
{ACAD_REACTORS
330
2A
102
}
330
2A
100
AcDbVisualStyle
  2
OverhangOff
 70
    21
177
     3
291
     1
 70
    58
 90
        2
176
     0
 90
        2
176
     0
 90
        0
176
     0
 90
        0
176
     0
 40
0.6
176
     0
 40
30.0
176
     0
 62
     7
420
 16777215
176
     0
 90
        1
176
     0
 90
        4
176
     0
 62
     7
176
     0
 62
   257
176
     0
 90
        1
176
     0
 90
        1
176
     0
 40
1.0
176
     0
 90
        9
176
     2
 62
     7
176
     0
 40
1.0
176
     0
 90
        1
176
     0
 90
        6
176
     0
 90
        2
176
     0
 62
     7
176
     0
 90
        5
176
     0
 90
        0
176
     0
 90
        0
176
     0
290
     0
176
     0
 90
        1
176
     0
 40
0.0
176
     0
 90
        0
176
     0
290
     0
176
     0
290
     1
176
     0
290
     1
176
     0
290
     0
176
     0
290
     0
176
     0
290
     0
176
     0
290
     0
176
     0
290
     0
176
     0
290
     0
176
     0
 90
       50
176
     0
 40
0.0
176
     0
 40
1.0
176
     0
 90
        0
176
     0
 62
    18
420
        0
176
     0
 90
       50
176
     0
 90
        3
176
     0
 62
     5
420
      255
176
     0
290
     0
176
     0
 90
       50
176
     0
 90
       50
176
     0
 90
       50
176
     0
290
     0
176
     0
 90
       50
176
     0
 62
   256
176
     0
 40
1.0
176
     0
 90
        2
176
     0
  1
strokes_ogs.tif
176
     0
290
     0
176
     0
 40
1.0
176
     0
 40
1.0
176
     0
  0
VISUALSTYLE
  5
33
102
{ACAD_REACTORS
330
2A
102
}
330
2A
100
AcDbVisualStyle
  2
Realistic
 70
     8
177
     3
291
     0
 70
    58
 90
        2
176
     1
 90
        3
176
     1
 90
        0
176
     1
 90
        2
176
     1
 40
0.6
176
     1
 40
30.0
176
     1
 62
     7
420
 16777215
176
     1
 90
        0
176
     1
 90
        0
176
     1
 62
     7
176
     1
 62
   257
176
     1
 90
        1
176
     1
 90
        1
176
     1
 40
1.0
176
     1
 90
        8
176
     1
 62
   257
176
     1
 40
1.0
176
     1
 90
        1
176
     1
 90
        6
176
     1
 90
        2
176
     1
 62
     7
176
     1
 90
        3
176
     1
 90
        0
176
     1
 90
        0
176
     1
290
     0
176
     1
 90
       13
176
     1
 40
0.0
176
     1
 90
        0
176
     1
290
     0
176
     1
290
     1
176
     1
290
     1
176
     1
290
     0
176
     1
290
     0
176
     1
290
     0
176
     1
290
     0
176
     1
290
     0
176
     1
290
     0
176
     1
 90
       50
176
     1
 40
0.0
176
     1
 40
1.0
176
     1
 90
        0
176
     1
 62
    18
420
        0
176
     1
 90
       50
176
     1
 90
        3
176
     1
 62
     5
420
      255
176
     1
290
     0
176
     1
 90
       50
176
     1
 90
       50
176
     1
 90
       50
176
     1
290
     0
176
     1
 90
       50
176
     1
 62
   256
176
     0
 40
1.0
176
     0
 90
        2
176
     1
  1
strokes_ogs.tif
176
     1
290
     0
176
     1
 40
1.0
176
     1
 40
1.0
176
     1
  0
VISUALSTYLE
  5
42
102
{ACAD_REACTORS
330
2A
102
}
330
2A
100
AcDbVisualStyle
  2
Shaded
 70
    27
177
     3
291
     0
 70
    58
 90
        2
176
     1
 90
        2
176
     1
 90
        1
176
     1
 90
        2
176
     1
 40
0.6
176
     1
 40
30.0
176
     1
 62
     7
420
 16777215
176
     1
 90
        0
176
     1
 90
        4
176
     1
 62
     7
176
     1
 62
   257
176
     1
 90
        1
176
     1
 90
        1
176
     1
 40
1.0
176
     1
 90
        8
176
     1
 62
   257
176
     1
 40
1.0
176
     1
 90
        1
176
     1
 90
        6
176
     1
 90
        2
176
     1
 62
     8
420
  7895160
176
     1
 90
        3
176
     1
 90
        0
176
     1
 90
        0
176
     1
290
     0
176
     1
 90
        5
176
     1
 40
0.0
176
     1
 90
        0
176
     1
290
     0
176
     1
290
     1
176
     1
290
     1
176
     1
290
     0
176
     1
290
     0
176
     1
290
     0
176
     1
290
     0
176
     1
290
     0
176
     1
290
     0
176
     1
 90
       50
176
     1
 40
0.0
176
     1
 40
1.0
176
     1
 90
        0
176
     1
 62
    18
420
        0
176
     1
 90
       50
176
     1
 90
        3
176
     1
 62
     5
420
      255
176
     1
290
     0
176
     1
 90
       50
176
     1
 90
       50
176
     1
 90
       50
176
     1
290
     0
176
     1
 90
       50
176
     1
 62
   256
176
     0
 40
1.0
176
     0
 90
        2
176
     1
  1
strokes_ogs.tif
176
     1
290
     0
176
     1
 40
1.0
176
     1
 40
1.0
176
     1
  0
VISUALSTYLE
  5
41
102
{ACAD_REACTORS
330
2A
102
}
330
2A
100
AcDbVisualStyle
  2
Shaded with edges
 70
    26
177
     3
291
     0
 70
    58
 90
        2
176
     1
 90
        2
176
     1
 90
        1
176
     1
 90
        2
176
     1
 40
0.6
176
     1
 40
30.0
176
     1
 62
     7
420
 16777215
176
     1
 90
        1
176
     1
 90
       10
176
     1
 62
     7
176
     1
 62
   257
176
     1
 90
        2
176
     1
 90
        1
176
     1
 40
1.0
176
     1
 90
        8
176
     1
 62
   257
176
     1
 40
1.0
176
     1
 90
        1
176
     1
 90
        6
176
     1
 90
        2
176
     1
 62
     7
176
     1
 90
        3
176
     1
 90
        0
176
     1
 90
        0
176
     1
290
     0
176
     1
 90
        5
176
     1
 40
0.0
176
     1
 90
        0
176
     1
290
     0
176
     1
290
     1
176
     1
290
     1
176
     1
290
     0
176
     1
290
     0
176
     1
290
     0
176
     1
290
     0
176
     1
290
     0
176
     1
290
     0
176
     1
 90
       50
176
     1
 40
0.0
176
     1
 40
1.0
176
     1
 90
        0
176
     1
 62
    18
420
        0
176
     1
 90
       50
176
     1
 90
        3
176
     1
 62
     5
420
      255
176
     1
290
     0
176
     1
 90
       50
176
     1
 90
       50
176
     1
 90
       50
176
     1
290
     0
176
     1
 90
       50
176
     1
 62
   256
176
     0
 40
1.0
176
     0
 90
        2
176
     1
  1
strokes_ogs.tif
176
     1
290
     0
176
     1
 40
1.0
176
     1
 40
1.0
176
     1
  0
VISUALSTYLE
  5
3E
102
{ACAD_REACTORS
330
2A
102
}
330
2A
100
AcDbVisualStyle
  2
Shades of Gray
 70
    23
177
     3
291
     0
 70
    58
 90
        2
176
     1
 90
        2
176
     1
 90
        3
176
     1
 90
        0
176
     1
 40
0.6
176
     1
 40
30.0
176
     1
 62
     7
420
 16777215
176
     1
 90
        2
176
     1
 90
        2
176
     1
 62
     7
176
     1
 62
     7
176
     1
 90
        1
176
     1
 90
        1
176
     1
 40
40.0
176
     1
 90
        8
176
     1
 62
     7
176
     1
 40
1.0
176
     1
 90
        1
176
     1
 90
        6
176
     1
 90
        2
176
     1
 62
     7
176
     1
 90
        3
176
     1
 90
        0
176
     1
 90
        0
176
     1
290
     0
176
     1
 90
        1
176
     1
 40
0.0
176
     1
 90
        0
176
     1
290
     0
176
     1
290
     1
176
     1
290
     1
176
     1
290
     0
176
     1
290
     0
176
     1
290
     0
176
     1
290
     0
176
     1
290
     0
176
     1
290
     0
176
     1
 90
       50
176
     1
 40
0.0
176
     1
 40
1.0
176
     1
 90
        0
176
     1
 62
    18
420
        0
176
     1
 90
       50
176
     1
 90
        3
176
     1
 62
     5
420
      255
176
     1
290
     0
176
     1
 90
       50
176
     1
 90
       50
176
     1
 90
       50
176
     1
290
     0
176
     1
 90
       50
176
     1
 62
   256
176
     0
 40
1.0
176
     0
 90
        2
176
     1
  1
strokes_ogs.tif
176
     1
290
     0
176
     1
 40
1.0
176
     1
 40
1.0
176
     1
  0
VISUALSTYLE
  5
3F
102
{ACAD_REACTORS
330
2A
102
}
330
2A
100
AcDbVisualStyle
  2
Sketchy
 70
    24
177
     3
291
     0
 70
    58
 90
        1
176
     1
 90
        2
176
     1
 90
        2
176
     1
 90
        0
176
     1
 40
0.6
176
     1
 40
30.0
176
     1
 62
     7
420
 16777215
176
     1
 90
        2
176
     1
 90
        2
176
     1
 62
     7
176
     1
 62
     7
176
     1
 90
        1
176
     1
 90
        1
176
     1
 40
40.0
176
     1
 90
       11
176
     1
 62
     7
176
     1
 40
1.0
176
     1
 90
        1
176
     1
 90
        6
176
     1
 90
        2
176
     1
 62
     7
176
     1
 90
        6
176
     1
 90
        0
176
     1
 90
        0
176
     1
290
     0
176
     1
 90
        1
176
     1
 40
0.0
176
     1
 90
        0
176
     1
290
     0
176
     1
290
     1
176
     1
290
     1
176
     1
290
     0
176
     1
290
     0
176
     1
290
     0
176
     1
290
     0
176
     1
290
     0
176
     1
290
     0
176
     1
 90
       50
176
     1
 40
0.0
176
     1
 40
1.0
176
     1
 90
        0
176
     1
 62
    18
420
        0
176
     1
 90
       50
176
     1
 90
        3
176
     1
 62
     5
420
      255
176
     1
290
     0
176
     1
 90
       50
176
     1
 90
       50
176
     1
 90
       50
176
     1
290
     0
176
     1
 90
       50
176
     1
 62
   256
176
     0
 40
1.0
176
     0
 90
        2
176
     1
  1
strokes_ogs.tif
176
     1
290
     0
176
     1
 40
1.0
176
     1
 40
1.0
176
     1
  0
VISUALSTYLE
  5
37
102
{ACAD_REACTORS
330
2A
102
}
330
2A
100
AcDbVisualStyle
  2
Thicken
 70
    13
177
     3
291
     1
 70
    58
 90
        2
176
     1
 90
        2
176
     1
 90
        0
176
     1
 90
        0
176
     1
 40
0.6
176
     1
 40
30.0
176
     1
 62
     7
420
 16777215
176
     1
 90
        1
176
     1
 90
        4
176
     1
 62
     7
176
     1
 62
   257
176
     1
 90
        1
176
     1
 90
        1
176
     1
 40
1.0
176
     1
 90
       12
176
     1
 62
     7
176
     1
 40
1.0
176
     1
 90
        1
176
     1
 90
        6
176
     1
 90
        2
176
     1
 62
     7
176
     1
 90
        5
176
     1
 90
        0
176
     1
 90
        0
176
     1
290
     0
176
     1
 90
        1
176
     1
 40
0.0
176
     1
 90
        0
176
     1
290
     0
176
     1
290
     1
176
     1
290
     1
176
     1
290
     0
176
     1
290
     0
176
     1
290
     0
176
     1
290
     0
176
     1
290
     0
176
     1
290
     0
176
     1
 90
       50
176
     1
 40
0.0
176
     1
 40
1.0
176
     1
 90
        0
176
     1
 62
    18
420
        0
176
     1
 90
       50
176
     1
 90
        3
176
     1
 62
     5
420
      255
176
     1
290
     0
176
     1
 90
       50
176
     1
 90
       50
176
     1
 90
       50
176
     1
290
     0
176
     1
 90
       50
176
     1
 62
   256
176
     0
 40
1.0
176
     0
 90
        2
176
     1
  1
strokes_ogs.tif
176
     1
290
     0
176
     1
 40
1.0
176
     1
 40
1.0
176
     1
  0
VISUALSTYLE
  5
30
102
{ACAD_REACTORS
330
2A
102
}
330
2A
100
AcDbVisualStyle
  2
Wireframe
 70
     5
177
     3
291
     0
 70
    58
 90
        0
176
     1
 90
        2
176
     1
 90
        0
176
     1
 90
        0
176
     1
 40
0.6
176
     1
 40
30.0
176
     1
 62
     7
420
 16777215
176
     1
 90
        1
176
     1
 90
        4
176
     1
 62
     7
176
     1
 62
   257
176
     1
 90
        1
176
     1
 90
        1
176
     1
 40
1.0
176
     1
 90
        0
176
     1
 62
   257
176
     1
 40
1.0
176
     1
 90
        1
176
     1
 90
        6
176
     1
 90
        2
176
     1
 62
     7
176
     1
 90
        3
176
     1
 90
        0
176
     1
 90
        0
176
     1
290
     0
176
     1
 90
        1
176
     1
 40
0.0
176
     1
 90
        0
176
     1
290
     0
176
     1
290
     1
176
     1
290
     1
176
     1
290
     0
176
     1
290
     0
176
     1
290
     0
176
     1
290
     0
176
     1
290
     0
176
     1
290
     0
176
     1
 90
       50
176
     1
 40
0.0
176
     1
 40
1.0
176
     1
 90
        0
176
     1
 62
    18
420
        0
176
     1
 90
       50
176
     1
 90
        3
176
     1
 62
     5
420
      255
176
     1
290
     0
176
     1
 90
       50
176
     1
 90
       50
176
     1
 90
       50
176
     1
290
     0
176
     1
 90
       50
176
     1
 62
   256
176
     0
 40
1.0
176
     0
 90
        2
176
     1
  1
strokes_ogs.tif
176
     1
290
     0
176
     1
 40
1.0
176
     1
 40
1.0
176
     1
  0
VISUALSTYLE
  5
40
102
{ACAD_REACTORS
330
2A
102
}
330
2A
100
AcDbVisualStyle
  2
X-Ray
 70
    25
177
     3
291
     0
 70
    58
 90
        2
176
     1
 90
        2
176
     1
 90
        1
176
     1
 90
        1
176
     1
 40
0.5
176
     1
 40
30.0
176
     1
 62
     7
420
 16777215
176
     1
 90
        1
176
     1
 90
        0
176
     1
 62
     7
176
     1
 62
   257
176
     1
 90
        1
176
     1
 90
        1
176
     1
 40
1.0
176
     1
 90
        8
176
     1
 62
     7
176
     1
 40
1.0
176
     1
 90
        1
176
     1
 90
        6
176
     1
 90
        2
176
     1
 62
     7
176
     1
 90
        3
176
     1
 90
        0
176
     1
 90
        0
176
     1
290
     0
176
     1
 90
       13
176
     1
 40
0.0
176
     1
 90
        0
176
     1
290
     0
176
     1
290
     1
176
     1
290
     1
176
     1
290
     0
176
     1
290
     0
176
     1
290
     0
176
     1
290
     0
176
     1
290
     0
176
     1
290
     0
176
     1
 90
       50
176
     1
 40
0.0
176
     1
 40
1.0
176
     1
 90
        0
176
     1
 62
    18
420
        0
176
     1
 90
       50
176
     1
 90
        3
176
     1
 62
     5
420
      255
176
     1
290
     0
176
     1
 90
       50
176
     1
 90
       50
176
     1
 90
       50
176
     1
290
     0
176
     1
 90
       50
176
     1
 62
   256
176
     0
 40
1.0
176
     0
 90
        2
176
     1
  1
strokes_ogs.tif
176
     1
290
     0
176
     1
 40
1.0
176
     1
 40
1.0
176
     1
  0
DICTIONARYVAR
  5
18D
102
{ACAD_REACTORS
330
18C
102
}
330
18C
100
DictionaryVariables
280
     0
  1
1:1
  0
DICTIONARYVAR
  5
192
102
{ACAD_REACTORS
330
18C
102
}
330
18C
100
DictionaryVariables
280
     0
  1
Standard
  0
DICTIONARYVAR
  5
191
102
{ACAD_REACTORS
330
18C
102
}
330
18C
100
DictionaryVariables
280
     0
  1
Standard
  0
DICTIONARY
  5
18E
330
6A
100
AcDbDictionary
280
     1
281
     1
  3
ACAD_ROUNDTRIP_2008_TABLESTYLE_CELLSTYLEMAP
360
18F
  0
CELLSTYLEMAP
  5
18F
102
{ACAD_REACTORS
330
18E
102
}
330
18E
100
AcDbCellStyleMap
 90
        3
300
CELLSTYLE
  1
TABLEFORMAT_BEGIN
 90
        5
170
     1
 91
        0
 92
    32768
 62
   257
 93
        1
300
CONTENTFORMAT
  1
CONTENTFORMAT_BEGIN
 90
        0
 91
        0
 92
        4
 93
        0
300

 40
0.0
140
1.0
 94
        5
 62
     0
340
11
144
0.25
309
CONTENTFORMAT_END
171
     1
301
MARGIN
  1
CELLMARGIN_BEGIN
 40
0.06
 40
0.06
 40
0.06
 40
0.06
 40
0.06
 40
0.06
309
CELLMARGIN_END
 94
        6
 95
        1
302
GRIDFORMAT
  1
GRIDFORMAT_BEGIN
 90
        0
 91
        1
 62
     0
 92
       -2
340
14
 93
        0
 40
0.045
309
GRIDFORMAT_END
 95
        2
302
GRIDFORMAT
  1
GRIDFORMAT_BEGIN
 90
        0
 91
        1
 62
     0
 92
       -2
340
14
 93
        0
 40
0.045
309
GRIDFORMAT_END
 95
        4
302
GRIDFORMAT
  1
GRIDFORMAT_BEGIN
 90
        0
 91
        1
 62
     0
 92
       -2
340
14
 93
        0
 40
0.045
309
GRIDFORMAT_END
 95
        8
302
GRIDFORMAT
  1
GRIDFORMAT_BEGIN
 90
        0
 91
        1
 62
     0
 92
       -2
340
14
 93
        0
 40
0.045
309
GRIDFORMAT_END
 95
       16
302
GRIDFORMAT
  1
GRIDFORMAT_BEGIN
 90
        0
 91
        1
 62
     0
 92
       -2
340
14
 93
        0
 40
0.045
309
GRIDFORMAT_END
 95
       32
302
GRIDFORMAT
  1
GRIDFORMAT_BEGIN
 90
        0
 91
        1
 62
     0
 92
       -2
340
14
 93
        0
 40
0.045
309
GRIDFORMAT_END
309
TABLEFORMAT_END
  1
CELLSTYLE_BEGIN
 90
        1
 91
        1
300
_TITLE
309
CELLSTYLE_END
300
CELLSTYLE
  1
TABLEFORMAT_BEGIN
 90
        5
170
     1
 91
        0
 92
        0
 62
   257
 93
        1
300
CONTENTFORMAT
  1
CONTENTFORMAT_BEGIN
 90
        0
 91
        0
 92
        4
 93
        0
300

 40
0.0
140
1.0
 94
        5
 62
     0
340
11
144
0.18
309
CONTENTFORMAT_END
171
     1
301
MARGIN
  1
CELLMARGIN_BEGIN
 40
0.06
 40
0.06
 40
0.06
 40
0.06
 40
0.06
 40
0.06
309
CELLMARGIN_END
 94
        6
 95
        1
302
GRIDFORMAT
  1
GRIDFORMAT_BEGIN
 90
        0
 91
        1
 62
     0
 92
       -2
340
14
 93
        0
 40
0.045
309
GRIDFORMAT_END
 95
        2
302
GRIDFORMAT
  1
GRIDFORMAT_BEGIN
 90
        0
 91
        1
 62
     0
 92
       -2
340
14
 93
        0
 40
0.045
309
GRIDFORMAT_END
 95
        4
302
GRIDFORMAT
  1
GRIDFORMAT_BEGIN
 90
        0
 91
        1
 62
     0
 92
       -2
340
14
 93
        0
 40
0.045
309
GRIDFORMAT_END
 95
        8
302
GRIDFORMAT
  1
GRIDFORMAT_BEGIN
 90
        0
 91
        1
 62
     0
 92
       -2
340
14
 93
        0
 40
0.045
309
GRIDFORMAT_END
 95
       16
302
GRIDFORMAT
  1
GRIDFORMAT_BEGIN
 90
        0
 91
        1
 62
     0
 92
       -2
340
14
 93
        0
 40
0.045
309
GRIDFORMAT_END
 95
       32
302
GRIDFORMAT
  1
GRIDFORMAT_BEGIN
 90
        0
 91
        1
 62
     0
 92
       -2
340
14
 93
        0
 40
0.045
309
GRIDFORMAT_END
309
TABLEFORMAT_END
  1
CELLSTYLE_BEGIN
 90
        2
 91
        1
300
_HEADER
309
CELLSTYLE_END
300
CELLSTYLE
  1
TABLEFORMAT_BEGIN
 90
        5
170
     1
 91
        0
 92
        0
 62
   257
 93
        1
300
CONTENTFORMAT
  1
CONTENTFORMAT_BEGIN
 90
        0
 91
        0
 92
        4
 93
        0
300

 40
0.0
140
1.0
 94
        2
 62
     0
340
11
144
0.18
309
CONTENTFORMAT_END
171
     1
301
MARGIN
  1
CELLMARGIN_BEGIN
 40
0.06
 40
0.06
 40
0.06
 40
0.06
 40
0.06
 40
0.06
309
CELLMARGIN_END
 94
        6
 95
        1
302
GRIDFORMAT
  1
GRIDFORMAT_BEGIN
 90
        0
 91
        1
 62
     0
 92
       -2
340
14
 93
        0
 40
0.045
309
GRIDFORMAT_END
 95
        2
302
GRIDFORMAT
  1
GRIDFORMAT_BEGIN
 90
        0
 91
        1
 62
     0
 92
       -2
340
14
 93
        0
 40
0.045
309
GRIDFORMAT_END
 95
        4
302
GRIDFORMAT
  1
GRIDFORMAT_BEGIN
 90
        0
 91
        1
 62
     0
 92
       -2
340
14
 93
        0
 40
0.045
309
GRIDFORMAT_END
 95
        8
302
GRIDFORMAT
  1
GRIDFORMAT_BEGIN
 90
        0
 91
        1
 62
     0
 92
       -2
340
14
 93
        0
 40
0.045
309
GRIDFORMAT_END
 95
       16
302
GRIDFORMAT
  1
GRIDFORMAT_BEGIN
 90
        0
 91
        1
 62
     0
 92
       -2
340
14
 93
        0
 40
0.045
309
GRIDFORMAT_END
 95
       32
302
GRIDFORMAT
  1
GRIDFORMAT_BEGIN
 90
        0
 91
        1
 62
     0
 92
       -2
340
14
 93
        0
 40
0.045
309
GRIDFORMAT_END
309
TABLEFORMAT_END
  1
CELLSTYLE_BEGIN
 90
        3
 91
        2
300
_DATA
309
CELLSTYLE_END
  0
ENDSEC
  0
EOF