0
SECTION
  2
HEADER
  9
$ACADVER
  1
AC1027
  9
$ACADMAINTVER
 70
     8
  9
$DWGCODEPAGE
  3
ANSI_1252
  9
$REQUIREDVERSIONS
160
                 0
  9
$COMMENTS
  1
File was created by Cadenas
  9
$CUSTOMPROPERTYTAG
  1
NN
  9
$CUSTOMPROPERTY
  1
Set Screw Narrow Slot Take Up Metric Bore - Stainless Housing, Stainless Steel Insert
  9
$CUSTOMPROPERTYTAG
  1
NT
  9
$CUSTOMPROPERTY
  1
SC Take-Up Bearings -Wide Slot -(Normal Duty) -Polymer Housed -Corrosion Resistant Insert -E-Z KLEEN
  9
$CUSTOMPROPERTYTAG
  1
NB
  9
$CUSTOMPROPERTY
  1
136893
  9
$CUSTOMPROPERTYTAG
  1
NBSYN
  9
$CUSTOMPROPERTY
  1
$PN.
  9
$CUSTOMPROPERTYTAG
  1
LINA
  9
$CUSTOMPROPERTY
  1
136893
  9
$CUSTOMPROPERTYTAG
  1
SERIES
  9
$CUSTOMPROPERTY
  1
206
  9
$CUSTOMPROPERTYTAG
  1
SS
  9
$CUSTOMPROPERTY
  1
30
  9
$CUSTOMPROPERTYTAG
  1
PN
  9
$CUSTOMPROPERTY
  1
136893
  9
$CUSTOMPROPERTYTAG
  1
DESCRIPTION
  9
$CUSTOMPROPERTY
  1
NSTU-SCEZ-30M-SHSS
  9
$CUSTOMPROPERTYTAG
  1
W
  9
$CUSTOMPROPERTY
  1
1.14
  9
$CUSTOMPROPERTYTAG
  1
FS
  9
$CUSTOMPROPERTY
  1
NS308
  9
$CUSTOMPROPERTYTAG
  1
A
  9
$CUSTOMPROPERTY
  1
38.6
  9
$CUSTOMPROPERTYTAG
  1
B
  9
$CUSTOMPROPERTY
  1
114.3
  9
$CUSTOMPROPERTYTAG
  1
C
  9
$CUSTOMPROPERTY
  1
6.73
  9
$CUSTOMPROPERTYTAG
  1
D
  9
$CUSTOMPROPERTY
  1
63.5
  9
$CUSTOMPROPERTYTAG
  1
E
  9
$CUSTOMPROPERTY
  1
68.3
  9
$CUSTOMPROPERTYTAG
  1
F
  9
$CUSTOMPROPERTY
  1
19.1
  9
$CUSTOMPROPERTYTAG
  1
G
  9
$CUSTOMPROPERTY
  1
12.7
  9
$CUSTOMPROPERTYTAG
  1
H
  9
$CUSTOMPROPERTY
  1
23.9
  9
$CUSTOMPROPERTYTAG
  1
J
  9
$CUSTOMPROPERTY
  1
30.5
  9
$CUSTOMPROPERTYTAG
  1
L
  9
$CUSTOMPROPERTY
  1
39.9
  9
$CUSTOMPROPERTYTAG
  1
M
  9
$CUSTOMPROPERTY
  1
89.15 / 88.39
  9
$CUSTOMPROPERTYTAG
  1
N
  9
$CUSTOMPROPERTY
  1
104.9
  9
$CUSTOMPROPERTYTAG
  1
P
  9
$CUSTOMPROPERTY
  1
8.1
  9
$CUSTOMPROPERTYTAG
  1
R
  9
$CUSTOMPROPERTY
  1
14.7
  9
$CUSTOMPROPERTYTAG
  1
S
  9
$CUSTOMPROPERTY
  1
23.9
  9
$CUSTOMPROPERTYTAG
  1
COMPANY
  9
$CUSTOMPROPERTY
  1
baldor
  9
$INSBASE
 10
0.0
 20
0.0
 30
0.0
  9
$EXTMIN
 10
1.000000000000000E+20
 20
1.000000000000000E+20
 30
1.000000000000000E+20
  9
$EXTMAX
 10
-1.000000000000000E+20
 20
-1.000000000000000E+20
 30
-1.000000000000000E+20
  9
$LIMMIN
 10
0.0
 20
0.0
  9
$LIMMAX
 10
420.0
 20
297.0
  9
$ORTHOMODE
 70
     0
  9
$REGENMODE
 70
     1
  9
$FILLMODE
 70
     1
  9
$QTEXTMODE
 70
     0
  9
$MIRRTEXT
 70
     1
  9
$LTSCALE
 40
1.0
  9
$ATTMODE
 70
     1
  9
$TEXTSIZE
 40
2.5
  9
$TRACEWID
 40
1.0
  9
$TEXTSTYLE
  7
Standard
  9
$CLAYER
  8
0
  9
$CELTYPE
  6
ByLayer
  9
$CECOLOR
 62
   256
  9
$CELTSCALE
 40
1.0
  9
$DISPSILH
 70
     0
  9
$DIMSCALE
 40
1.0
  9
$DIMASZ
 40
2.5
  9
$DIMEXO
 40
0.625
  9
$DIMDLI
 40
3.75
  9
$DIMRND
 40
0.0
  9
$DIMDLE
 40
0.0
  9
$DIMEXE
 40
1.25
  9
$DIMTP
 40
0.0
  9
$DIMTM
 40
0.0
  9
$DIMTXT
 40
2.5
  9
$DIMCEN
 40
2.5
  9
$DIMTSZ
 40
0.0
  9
$DIMTOL
 70
     0
  9
$DIMLIM
 70
     0
  9
$DIMTIH
 70
     0
  9
$DIMTOH
 70
     0
  9
$DIMSE1
 70
     0
  9
$DIMSE2
 70
     0
  9
$DIMTAD
 70
     1
  9
$DIMZIN
 70
     8
  9
$DIMBLK
  1

  9
$DIMASO
 70
     1
  9
$DIMSHO
 70
     1
  9
$DIMPOST
  1

  9
$DIMAPOST
  1

  9
$DIMALT
 70
     0
  9
$DIMALTD
 70
     3
  9
$DIMALTF
 40
0.03937007874016
  9
$DIMLFAC
 40
1.0
  9
$DIMTOFL
 70
     1
  9
$DIMTVP
 40
0.0
  9
$DIMTIX
 70
     0
  9
$DIMSOXD
 70
     0
  9
$DIMSAH
 70
     0
  9
$DIMBLK1
  1

  9
$DIMBLK2
  1

  9
$DIMSTYLE
  2
ISO-25
  9
$DIMCLRD
 70
     0
  9
$DIMCLRE
 70
     0
  9
$DIMCLRT
 70
     0
  9
$DIMTFAC
 40
1.0
  9
$DIMGAP
 40
0.625
  9
$DIMJUST
 70
     0
  9
$DIMSD1
 70
     0
  9
$DIMSD2
 70
     0
  9
$DIMTOLJ
 70
     0
  9
$DIMTZIN
 70
     8
  9
$DIMALTZ
 70
     0
  9
$DIMALTTZ
 70
     0
  9
$DIMUPT
 70
     0
  9
$DIMDEC
 70
     2
  9
$DIMTDEC
 70
     2
  9
$DIMALTU
 70
     2
  9
$DIMALTTD
 70
     3
  9
$DIMTXSTY
  7
Standard
  9
$DIMAUNIT
 70
     0
  9
$DIMADEC
 70
     0
  9
$DIMALTRND
 40
0.0
  9
$DIMAZIN
 70
     0
  9
$DIMDSEP
 70
    44
  9
$DIMATFIT
 70
     3
  9
$DIMFRAC
 70
     0
  9
$DIMLDRBLK
  1

  9
$DIMLUNIT
 70
     2
  9
$DIMLWD
 70
    -2
  9
$DIMLWE
 70
    -2
  9
$DIMTMOVE
 70
     0
  9
$DIMFXL
 40
1.0
  9
$DIMFXLON
 70
     0
  9
$DIMJOGANG
 40
0.7853981633974483
  9
$DIMTFILL
 70
     0
  9
$DIMTFILLCLR
 70
     0
  9
$DIMARCSYM
 70
     0
  9
$DIMLTYPE
  6

  9
$DIMLTEX1
  6

  9
$DIMLTEX2
  6

  9
$DIMTXTDIRECTION
 70
     0
  9
$LUNITS
 70
     2
  9
$LUPREC
 70
     4
  9
$SKETCHINC
 40
1.0
  9
$FILLETRAD
 40
10.0
  9
$AUNITS
 70
     0
  9
$AUPREC
 70
     0
  9
$MENU
  1
.
  9
$ELEVATION
 40
0.0
  9
$PELEVATION
 40
0.0
  9
$THICKNESS
 40
0.0
  9
$LIMCHECK
 70
     0
  9
$CHAMFERA
 40
0.0
  9
$CHAMFERB
 40
0.0
  9
$CHAMFERC
 40
0.0
  9
$CHAMFERD
 40
0.0
  9
$SKPOLY
 70
     0
  9
$TDCREATE
 40
2458168.892511227
  9
$TDUCREATE
 40
2458168.85084456
  9
$TDUPDATE
 40
2458168.892511412
  9
$TDUUPDATE
 40
2458168.850844746
  9
$TDINDWG
 40
0.0000000116
  9
$TDUSRTIMER
 40
0.0000000116
  9
$USRTIMER
 70
     1
  9
$ANGBASE
 50
0.0
  9
$ANGDIR
 70
     0
  9
$PDMODE
 70
     0
  9
$PDSIZE
 40
0.0
  9
$PLINEWID
 40
0.0
  9
$SPLFRAME
 70
     0
  9
$SPLINETYPE
 70
     6
  9
$SPLINESEGS
 70
     8
  9
$HANDSEED
  5
1A7
  9
$SURFTAB1
 70
     6
  9
$SURFTAB2
 70
     6
  9
$SURFTYPE
 70
     6
  9
$SURFU
 70
     6
  9
$SURFV
 70
     6
  9
$UCSBASE
  2

  9
$UCSNAME
  2

  9
$UCSORG
 10
0.0
 20
0.0
 30
0.0
  9
$UCSXDIR
 10
1.0
 20
0.0
 30
0.0
  9
$UCSYDIR
 10
0.0
 20
1.0
 30
0.0
  9
$UCSORTHOREF
  2

  9
$UCSORTHOVIEW
 70
     0
  9
$UCSORGTOP
 10
0.0
 20
0.0
 30
0.0
  9
$UCSORGBOTTOM
 10
0.0
 20
0.0
 30
0.0
  9
$UCSORGLEFT
 10
0.0
 20
0.0
 30
0.0
  9
$UCSORGRIGHT
 10
0.0
 20
0.0
 30
0.0
  9
$UCSORGFRONT
 10
0.0
 20
0.0
 30
0.0
  9
$UCSORGBACK
 10
0.0
 20
0.0
 30
0.0
  9
$PUCSBASE
  2

  9
$PUCSNAME
  2

  9
$PUCSORG
 10
0.0
 20
0.0
 30
0.0
  9
$PUCSXDIR
 10
1.0
 20
0.0
 30
0.0
  9
$PUCSYDIR
 10
0.0
 20
1.0
 30
0.0
  9
$PUCSORTHOREF
  2

  9
$PUCSORTHOVIEW
 70
     0
  9
$PUCSORGTOP
 10
0.0
 20
0.0
 30
0.0
  9
$PUCSORGBOTTOM
 10
0.0
 20
0.0
 30
0.0
  9
$PUCSORGLEFT
 10
0.0
 20
0.0
 30
0.0
  9
$PUCSORGRIGHT
 10
0.0
 20
0.0
 30
0.0
  9
$PUCSORGFRONT
 10
0.0
 20
0.0
 30
0.0
  9
$PUCSORGBACK
 10
0.0
 20
0.0
 30
0.0
  9
$USERI1
 70
     0
  9
$USERI2
 70
     0
  9
$USERI3
 70
     0
  9
$USERI4
 70
     0
  9
$USERI5
 70
     0
  9
$USERR1
 40
0.0
  9
$USERR2
 40
0.0
  9
$USERR3
 40
0.0
  9
$USERR4
 40
0.0
  9
$USERR5
 40
0.0
  9
$WORLDVIEW
 70
     1
  9
$SHADEDGE
 70
     3
  9
$SHADEDIF
 70
    70
  9
$TILEMODE
 70
     1
  9
$MAXACTVP
 70
    64
  9
$PINSBASE
 10
0.0
 20
0.0
 30
0.0
  9
$PLIMCHECK
 70
     0
  9
$PEXTMIN
 10
1.000000000000000E+20
 20
1.000000000000000E+20
 30
1.000000000000000E+20
  9
$PEXTMAX
 10
-1.000000000000000E+20
 20
-1.000000000000000E+20
 30
-1.000000000000000E+20
  9
$PLIMMIN
 10
0.0
 20
0.0
  9
$PLIMMAX
 10
420.0
 20
297.0
  9
$UNITMODE
 70
     0
  9
$VISRETAIN
 70
     1
  9
$PLINEGEN
 70
     0
  9
$PSLTSCALE
 70
     1
  9
$TREEDEPTH
 70
  3020
  9
$CMLSTYLE
  2
Standard
  9
$CMLJUST
 70
     0
  9
$CMLSCALE
 40
20.0
  9
$PROXYGRAPHICS
 70
     1
  9
$MEASUREMENT
 70
     1
  9
$CELWEIGHT
370
    -1
  9
$ENDCAPS
280
     0
  9
$JOINSTYLE
280
     0
  9
$LWDISPLAY
290
     0
  9
$INSUNITS
 70
     4
  9
$HYPERLINKBASE
  1

  9
$STYLESHEET
  1

  9
$XEDIT
290
     1
  9
$CEPSNTYPE
380
     0
  9
$PSTYLEMODE
290
     1
  9
$FINGERPRINTGUID
  2
{DC4C6DFD-E455-476D-A1E5-567F7C11B8BD}
  9
$VERSIONGUID
  2
{FAEB1C32-E019-11D5-929B-00C0DF256EC4}
  9
$EXTNAMES
290
     1
  9
$PSVPSCALE
 40
0.0
  9
$OLESTARTUP
290
     0
  9
$SORTENTS
280
   127
  9
$INDEXCTL
280
     0
  9
$HIDETEXT
280
     1
  9
$XCLIPFRAME
280
     2
  9
$HALOGAP
280
     0
  9
$OBSCOLOR
 70
   257
  9
$OBSLTYPE
280
     0
  9
$INTERSECTIONDISPLAY
280
     0
  9
$INTERSECTIONCOLOR
 70
   257
  9
$DIMASSOC
280
     2
  9
$PROJECTNAME
  1

  9
$CAMERADISPLAY
290
     0
  9
$LENSLENGTH
 40
50.0
  9
$CAMERAHEIGHT
 40
0.0
  9
$STEPSPERSEC
 40
2.0
  9
$STEPSIZE
 40
6.0
  9
$3DDWFPREC
 40
2.0
  9
$PSOLWIDTH
 40
5.0
  9
$PSOLHEIGHT
 40
80.0
  9
$LOFTANG1
 40
1.570796326794897
  9
$LOFTANG2
 40
1.570796326794897
  9
$LOFTMAG1
 40
0.0
  9
$LOFTMAG2
 40
0.0
  9
$LOFTPARAM
 70
     7
  9
$LOFTNORMALS
280
     1
  9
$LATITUDE
 40
37.795
  9
$LONGITUDE
 40
-122.394
  9
$NORTHDIRECTION
 40
0.0
  9
$TIMEZONE
 70
 -8000
  9
$LIGHTGLYPHDISPLAY
280
     1
  9
$TILEMODELIGHTSYNCH
280
     1
  9
$CMATERIAL
347
44
  9
$SOLIDHIST
280
     0
  9
$SHOWHIST
280
     1
  9
$DWFFRAME
280
     2
  9
$DGNFRAME
280
     2
  9
$REALWORLDSCALE
290
     1
  9
$INTERFERECOLOR
 62
   256
  9
$CSHADOW
280
     0
  9
$SHADOWPLANELOCATION
 40
0.0
  0
ENDSEC
  0
SECTION
  2
CLASSES
  0
CLASS
  1
ACDBDICTIONARYWDFLT
  2
AcDbDictionaryWithDefault
  3
ObjectDBX Classes
 90
        0
 91
        4
280
     0
281
     0
  0
CLASS
  1
VISUALSTYLE
  2
AcDbVisualStyle
  3
ObjectDBX Classes
 90
     4095
 91
        4
280
     0
281
     0
  0
CLASS
  1
MATERIAL
  2
AcDbMaterial
  3
ObjectDBX Classes
 90
     1153
 91
        4
280
     0
281
     0
  0
CLASS
  1
SCALE
  2
AcDbScale
  3
ObjectDBX Classes
 90
     1153
 91
        4
280
     0
281
     0
  0
CLASS
  1
TABLESTYLE
  2
AcDbTableStyle
  3
ObjectDBX Classes
 90
     4095
 91
        4
280
     0
281
     0
  0
CLASS
  1
MLEADERSTYLE
  2
AcDbMLeaderStyle
  3
ACDB_MLEADERSTYLE_CLASS
 90
     4095
 91
        4
280
     0
281
     0
  0
CLASS
  1
SUN
  2
AcDbSun
  3
SCENEOE
 90
     1153
 91
        4
280
     0
281
     0
  0
CLASS
  1
DICTIONARYVAR
  2
AcDbDictionaryVar
  3
ObjectDBX Classes
 90
        0
 91
        4
280
     0
281
     0
  0
CLASS
  1
CELLSTYLEMAP
  2
AcDbCellStyleMap
  3
ObjectDBX Classes
 90
     1152
 91
        4
280
     0
281
     0
  0
ENDSEC
  0
SECTION
  2
TABLES
  0
TABLE
  2
VPORT
  5
8
330
0
100
AcDbSymbolTable
 70
     1
  0
VPORT
  5
29
330
8
100
AcDbSymbolTableRecord
100
AcDbViewportTableRecord
  2
*Active
 70
     0
 10
0.0
 20
0.0
 11
1.0
 21
1.0
 12
10.4746770492265
 22
-4.324999809265137
 13
0.0
 23
0.0
 14
10.0
 24
10.0
 15
10.0
 25
10.0
 16
0.0
 26
0.0
 36
1.0
 17
0.0
 27
0.0
 37
0.0
 40
87.60660597050337
 41
1.37434223693264
 42
50.0
 43
0.0
 44
0.0
 50
0.0
 51
0.0
 71
     0
 72
   100
 73
     1
 74
     3
 75
     0
 76
     0
 77
     0
 78
     0
281
     0
 65
     1
110
0.0
120
0.0
130
0.0
111
1.0
121
0.0
131
0.0
112
0.0
122
1.0
132
0.0
 79
     0
146
0.0
348
2F
 60
     3
 61
     5
292
     1
282
     1
141
0.0
142
0.0
 63
   250
361
6D
  0
ENDTAB
  0
TABLE
  2
LTYPE
  5
5
330
0
100
AcDbSymbolTable
 70
     3
  0
LTYPE
  5
14
330
5
100
AcDbSymbolTableRecord
100
AcDbLinetypeTableRecord
  2
ByBlock
 70
     0
  3

 72
    65
 73
     0
 40
0.0
  0
LTYPE
  5
15
330
5
100
AcDbSymbolTableRecord
100
AcDbLinetypeTableRecord
  2
ByLayer
 70
     0
  3

 72
    65
 73
     0
 40
0.0
  0
LTYPE
  5
16
330
5
100
AcDbSymbolTableRecord
100
AcDbLinetypeTableRecord
  2
Continuous
 70
     0
  3
Solid line
 72
    65
 73
     0
 40
0.0
  0
LTYPE
  5
A0
330
5
100
AcDbSymbolTableRecord
100
AcDbLinetypeTableRecord
  2
Dashed
 70
     0
  3

 72
    65
 73
     2
 40
2.0
 49
1.0
 74
     0
 49
-1.0
 74
     0
  0
LTYPE
  5
128
330
5
100
AcDbSymbolTableRecord
100
AcDbLinetypeTableRecord
  2
Center
 70
     0
  3

 72
    65
 73
     4
 40
1.5
 49
0.45
 74
     0
 49
-0.5
 74
     0
 49
0.05
 74
     0
 49
-0.5
 74
     0
  0
ENDTAB
  0
TABLE
  2
LAYER
  5
2
330
0
100
AcDbSymbolTable
 70
     7
  0
LAYER
  5
10
330
2
100
AcDbSymbolTableRecord
100
AcDbLayerTableRecord
  2
0
 70
     0
 62
     7
  6
Continuous
370
    -3
390
F
347
46
348
0
  0
LAYER
  5
72
330
2
100
AcDbSymbolTableRecord
100
AcDbLayerTableRecord
  2
AM_6
 70
     0
 62
    -2
  6
Continuous
370
    35
390
F
347
46
348
0
  0
LAYER
  5
A1
330
2
100
AcDbSymbolTableRecord
100
AcDbLayerTableRecord
  2
AM_9
 70
     0
 62
     6
  6
Dashed
370
    25
390
F
347
46
348
0
  0
LAYER
  5
DF
330
2
100
AcDbSymbolTableRecord
100
AcDbLayerTableRecord
  2
AM_4
 70
     0
 62
     7
  6
Continuous
370
    50
390
F
347
46
348
0
  0
LAYER
  5
129
330
2
100
AcDbSymbolTableRecord
100
AcDbLayerTableRecord
  2
AM_7
 70
     0
 62
     7
  6
Center
370
    25
390
F
347
46
348
0
  0
LAYER
  5
13D
330
2
100
AcDbSymbolTableRecord
100
AcDbLayerTableRecord
  2
AM_5
 70
     0
 62
     3
  6
Continuous
370
    25
390
F
347
46
348
0
  0
LAYER
  5
199
330
2
100
AcDbSymbolTableRecord
100
AcDbLayerTableRecord
  2
ConnectionPoints
 70
     0
 62
     7
  6
Continuous
370
    50
390
F
347
46
348
0
  0
ENDTAB
  0
TABLE
  2
STYLE
  5
3
330
0
100
AcDbSymbolTable
 70
     1
  0
STYLE
  5
11
330
3
100
AcDbSymbolTableRecord
100
AcDbTextStyleTableRecord
  2
Standard
 70
     0
 40
0.0
 41
1.0
 50
0.0
 71
     0
 42
2.5
  3
txt
  4

  0
ENDTAB
  0
TABLE
  2
VIEW
  5
6
330
0
100
AcDbSymbolTable
 70
     0
  0
ENDTAB
  0
TABLE
  2
UCS
  5
7
330
0
100
AcDbSymbolTable
 70
     0
  0
ENDTAB
  0
TABLE
  2
APPID
  5
9
330
0
100
AcDbSymbolTable
 70
     1
  0
APPID
  5
12
330
9
100
AcDbSymbolTableRecord
100
AcDbRegAppTableRecord
  2
ACAD
 70
     0
  0
ENDTAB
  0
TABLE
  2
DIMSTYLE
  5
A
330
0
100
AcDbSymbolTable
 70
     1
100
AcDbDimStyleTable
  0
DIMSTYLE
105
27
330
A
100
AcDbSymbolTableRecord
100
AcDbDimStyleTableRecord
  2
ISO-25
 70
     0
 41
2.5
 42
0.625
 43
3.75
 44
1.25
 73
     0
 74
     0
 77
     1
 78
     8
140
2.5
141
2.5
143
0.03937007874016
147
0.625
171
     3
172
     1
178
     0
271
     2
272
     2
274
     3
278
    44
283
     0
284
     8
340
11
  0
ENDTAB
  0
TABLE
  2
BLOCK_RECORD
  5
1
330
0
100
AcDbSymbolTable
 70
     5
  0
BLOCK_RECORD
  5
1F
330
1
100
AcDbSymbolTableRecord
100
AcDbBlockTableRecord
  2
*Model_Space
340
22
 70
     0
280
     1
281
     0
  0
BLOCK_RECORD
  5
1B
330
1
100
AcDbSymbolTableRecord
100
AcDbBlockTableRecord
  2
*Paper_Space
340
1E
 70
     0
280
     1
281
     0
  0
BLOCK_RECORD
  5
23
330
1
100
AcDbSymbolTableRecord
100
AcDbBlockTableRecord
  2
*Paper_Space0
340
26
 70
     0
280
     1
281
     0
  0
BLOCK_RECORD
  5
6E
330
1
100
AcDbSymbolTableRecord
100
AcDbBlockTableRecord
  2
1_136893_4
340
0
102
{BLKREFS
331
6F
102
}
 70
     0
280
     1
281
     0
  0
BLOCK_RECORD
  5
8E
330
1
100
AcDbSymbolTableRecord
100
AcDbBlockTableRecord
  2
2_405020c_M_0_in_136893_4
340
0
102
{BLKREFS
331
8F
102
}
 70
     0
280
     1
281
     0
  0
BLOCK_RECORD
  5
E8
330
1
100
AcDbSymbolTableRecord
100
AcDbBlockTableRecord
  2
3_127863_0_in_136893_4
340
0
102
{BLKREFS
331
E9
102
}
 70
     0
280
     1
281
     0
  0
BLOCK_RECORD
  5
140
330
1
100
AcDbSymbolTableRecord
100
AcDbBlockTableRecord
  2
4_136893H_0_in_136893_4
340
0
102
{BLKREFS
331
141
102
}
 70
     0
280
     1
281
     0
  0
ENDTAB
  0
ENDSEC
  0
SECTION
  2
BLOCKS
  0
BLOCK
  5
20
330
1F
100
AcDbEntity
  8
0
100
AcDbBlockBegin
  2
*Model_Space
 70
     0
 10
0.0
 20
0.0
 30
0.0
  3
*Model_Space
  1

  0
ENDBLK
  5
21
330
1F
100
AcDbEntity
  8
0
100
AcDbBlockEnd
  0
BLOCK
  5
1C
330
1B
100
AcDbEntity
 67
     1
  8
0
100
AcDbBlockBegin
  2
*Paper_Space
 70
     0
 10
0.0
 20
0.0
 30
0.0
  3
*Paper_Space
  1

  0
ENDBLK
  5
1D
330
1B
100
AcDbEntity
 67
     1
  8
0
100
AcDbBlockEnd
  0
BLOCK
  5
24
330
23
100
AcDbEntity
  8
0
100
AcDbBlockBegin
  2
*Paper_Space0
 70
     0
 10
0.0
 20
0.0
 30
0.0
  3
*Paper_Space0
  1

  0
ENDBLK
  5
25
330
23
100
AcDbEntity
  8
0
100
AcDbBlockEnd
  0
BLOCK
  5
70
330
6E
100
AcDbEntity
  8
0
100
AcDbBlockBegin
  2
1_136893_4
 70
     2
 10
0.0
 20
0.0
 30
0.0
  3
1_136893_4
  1

  0
ATTDEF
  5
73
330
6E
100
AcDbEntity
  8
AM_6
100
AcDbText
 10
74.49499999999999
 20
38.6194148821581
 30
0.0
 40
0.5
  1
Set Screw Narrow Slot Take Up Metric Bore - Stainless Housing, Stainless Steel Insert
100
AcDbAttributeDefinition
  3

  2
NN
 70
     8
280
     0
  0
ATTDEF
  5
74
330
6E
100
AcDbEntity
  8
AM_6
100
AcDbText
 10
74.49499999999999
 20
38.1194148821581
 30
0.0
 40
0.5
  1
SC Take-Up Bearings -Wide Slot -(Normal Duty) -Polymer Housed -Corrosion Resistant Insert -E-Z KLEEN
100
AcDbAttributeDefinition
  3

  2
NT
 70
     8
280
     0
  0
ATTDEF
  5
75
330
6E
100
AcDbEntity
  8
AM_6
100
AcDbText
 10
74.49499999999999
 20
37.6194148821581
 30
0.0
 40
0.5
  1
136893
100
AcDbAttributeDefinition
  3

  2
NB
 70
     8
280
     0
  0
ATTDEF
  5
76
330
6E
100
AcDbEntity
  8
AM_6
100
AcDbText
 10
74.49499999999999
 20
37.1194148821581
 30
0.0
 40
0.5
  1
$PN.
100
AcDbAttributeDefinition
  3

  2
NBSYN
 70
     8
280
     0
  0
ATTDEF
  5
77
330
6E
100
AcDbEntity
  8
AM_6
100
AcDbText
 10
74.49499999999999
 20
36.6194148821581
 30
0.0
 40
0.5
  1
136893
100
AcDbAttributeDefinition
  3

  2
LINA
 70
     8
280
     0
  0
ATTDEF
  5
78
330
6E
100
AcDbEntity
  8
AM_6
100
AcDbText
 10
74.49499999999999
 20
36.1194148821581
 30
0.0
 40
0.5
  1
206
100
AcDbAttributeDefinition
  3

  2
SERIES
 70
     8
280
     0
  0
ATTDEF
  5
79
330
6E
100
AcDbEntity
  8
AM_6
100
AcDbText
 10
74.49499999999999
 20
35.6194148821581
 30
0.0
 40
0.5
  1
30
100
AcDbAttributeDefinition
  3

  2
SS
 70
     8
280
     0
  0
ATTDEF
  5
7A
330
6E
100
AcDbEntity
  8
AM_6
100
AcDbText
 10
74.49499999999999
 20
35.1194148821581
 30
0.0
 40
0.5
  1
136893
100
AcDbAttributeDefinition
  3

  2
PN
 70
     8
280
     0
  0
ATTDEF
  5
7B
330
6E
100
AcDbEntity
  8
AM_6
100
AcDbText
 10
74.49499999999999
 20
34.6194148821581
 30
0.0
 40
0.5
  1
NSTU-SCEZ-30M-SHSS
100
AcDbAttributeDefinition
  3

  2
DESCRIPTION
 70
     8
280
     0
  0
ATTDEF
  5
7C
330
6E
100
AcDbEntity
  8
AM_6
100
AcDbText
 10
74.49499999999999
 20
34.1194148821581
 30
0.0
 40
0.5
  1
1.14
100
AcDbAttributeDefinition
  3

  2
W
 70
     8
280
     0
  0
ATTDEF
  5
7D
330
6E
100
AcDbEntity
  8
AM_6
100
AcDbText
 10
74.49499999999999
 20
33.6194148821581
 30
0.0
 40
0.5
  1
NS308
100
AcDbAttributeDefinition
  3

  2
FS
 70
     8
280
     0
  0
ATTDEF
  5
7E
330
6E
100
AcDbEntity
  8
AM_6
100
AcDbText
 10
74.49499999999999
 20
33.1194148821581
 30
0.0
 40
0.5
  1
38.6
100
AcDbAttributeDefinition
  3

  2
A
 70
     8
280
     0
  0
ATTDEF
  5
7F
330
6E
100
AcDbEntity
  8
AM_6
100
AcDbText
 10
74.49499999999999
 20
32.6194148821581
 30
0.0
 40
0.5
  1
114.3
100
AcDbAttributeDefinition
  3

  2
B
 70
     8
280
     0
  0
ATTDEF
  5
80
330
6E
100
AcDbEntity
  8
AM_6
100
AcDbText
 10
74.49499999999999
 20
32.1194148821581
 30
0.0
 40
0.5
  1
6.73
100
AcDbAttributeDefinition
  3

  2
C
 70
     8
280
     0
  0
ATTDEF
  5
81
330
6E
100
AcDbEntity
  8
AM_6
100
AcDbText
 10
74.49499999999999
 20
31.6194148821581
 30
0.0
 40
0.5
  1
63.5
100
AcDbAttributeDefinition
  3

  2
D
 70
     8
280
     0
  0
ATTDEF
  5
82
330
6E
100
AcDbEntity
  8
AM_6
100
AcDbText
 10
74.49499999999999
 20
31.1194148821581
 30
0.0
 40
0.5
  1
68.3
100
AcDbAttributeDefinition
  3

  2
E
 70
     8
280
     0
  0
ATTDEF
  5
83
330
6E
100
AcDbEntity
  8
AM_6
100
AcDbText
 10
74.49499999999999
 20
30.6194148821581
 30
0.0
 40
0.5
  1
19.1
100
AcDbAttributeDefinition
  3

  2
F
 70
     8
280
     0
  0
ATTDEF
  5
84
330
6E
100
AcDbEntity
  8
AM_6
100
AcDbText
 10
74.49499999999999
 20
30.1194148821581
 30
0.0
 40
0.5
  1
12.7
100
AcDbAttributeDefinition
  3

  2
G
 70
     8
280
     0
  0
ATTDEF
  5
85
330
6E
100
AcDbEntity
  8
AM_6
100
AcDbText
 10
74.49499999999999
 20
29.6194148821581
 30
0.0
 40
0.5
  1
23.9
100
AcDbAttributeDefinition
  3

  2
H
 70
     8
280
     0
  0
ATTDEF
  5
86
330
6E
100
AcDbEntity
  8
AM_6
100
AcDbText
 10
74.49499999999999
 20
29.1194148821581
 30
0.0
 40
0.5
  1
30.5
100
AcDbAttributeDefinition
  3

  2
J
 70
     8
280
     0
  0
ATTDEF
  5
87
330
6E
100
AcDbEntity
  8
AM_6
100
AcDbText
 10
74.49499999999999
 20
28.6194148821581
 30
0.0
 40
0.5
  1
39.9
100
AcDbAttributeDefinition
  3

  2
L
 70
     8
280
     0
  0
ATTDEF
  5
88
330
6E
100
AcDbEntity
  8
AM_6
100
AcDbText
 10
74.49499999999999
 20
28.1194148821581
 30
0.0
 40
0.5
  1
89.15 / 88.39
100
AcDbAttributeDefinition
  3

  2
M
 70
     8
280
     0
  0
ATTDEF
  5
89
330
6E
100
AcDbEntity
  8
AM_6
100
AcDbText
 10
74.49499999999999
 20
27.6194148821581
 30
0.0
 40
0.5
  1
104.9
100
AcDbAttributeDefinition
  3

  2
N
 70
     8
280
     0
  0
ATTDEF
  5
8A
330
6E
100
AcDbEntity
  8
AM_6
100
AcDbText
 10
74.49499999999999
 20
27.1194148821581
 30
0.0
 40
0.5
  1
8.1
100
AcDbAttributeDefinition
  3

  2
P
 70
     8
280
     0
  0
ATTDEF
  5
8B
330
6E
100
AcDbEntity
  8
AM_6
100
AcDbText
 10
74.49499999999999
 20
26.6194148821581
 30
0.0
 40
0.5
  1
14.7
100
AcDbAttributeDefinition
  3

  2
R
 70
     8
280
     0
  0
ATTDEF
  5
8C
330
6E
100
AcDbEntity
  8
AM_6
100
AcDbText
 10
74.49499999999999
 20
26.1194148821581
 30
0.0
 40
0.5
  1
23.9
100
AcDbAttributeDefinition
  3

  2
S
 70
     8
280
     0
  0
ATTDEF
  5
8D
330
6E
100
AcDbEntity
  8
AM_6
100
AcDbText
 10
74.49499999999999
 20
25.6194148821581
 30
0.0
 40
0.5
  1
baldor
100
AcDbAttributeDefinition
  3

  2
COMPANY
 70
     8
280
     0
  0
INSERT
  5
8F
330
6E
100
AcDbEntity
  8
0
100
AcDbBlockReference
  2
2_405020c_M_0_in_136893_4
 10
0.0
 20
0.0
 30
0.0
  0
INSERT
  5
E9
330
6E
100
AcDbEntity
  8
0
100
AcDbBlockReference
  2
3_127863_0_in_136893_4
 10
0.0
 20
0.0
 30
0.0
  0
INSERT
  5
141
330
6E
100
AcDbEntity
  8
0
100
AcDbBlockReference
  2
4_136893H_0_in_136893_4
 10
0.0
 20
0.0
 30
0.0
  0
ENDBLK
  5
71
330
6E
100
AcDbEntity
  8
0
100
AcDbBlockEnd
  0
BLOCK
  5
90
330
8E
100
AcDbEntity
  8
0
100
AcDbBlockBegin
  2
2_405020c_M_0_in_136893_4
 70
     2
 10
0.0
 20
0.0
 30
0.0
  3
2_405020c_M_0_in_136893_4
  1

  0
ATTDEF
  5
92
330
8E
100
AcDbEntity
  8
AM_6
100
AcDbText
 10
-29.16057159773116
 20
4.041451884327379
 30
0.0
 40
0.5
  1
405020C -Metric
100
AcDbAttributeDefinition
  3

  2
NN
 70
     8
280
     0
  0
ATTDEF
  5
93
330
8E
100
AcDbEntity
  8
AM_6
100
AcDbText
 10
-29.16057159773116
 20
3.541451884327379
 30
0.0
 40
0.5
  1
Grease fitting
100
AcDbAttributeDefinition
  3

  2
NT
 70
     8
280
     0
  0
ATTDEF
  5
94
330
8E
100
AcDbEntity
  8
AM_6
100
AcDbText
 10
-29.16057159773116
 20
3.041451884327379
 30
0.0
 40
0.5
  1
405020c-M
100
AcDbAttributeDefinition
  3

  2
NB
 70
     8
280
     0
  0
ATTDEF
  5
95
330
8E
100
AcDbEntity
  8
AM_6
100
AcDbText
 10
-29.16057159773116
 20
2.541451884327379
 30
0.0
 40
0.5
  1
$MN.-M
100
AcDbAttributeDefinition
  3

  2
NBSYN
 70
     8
280
     0
  0
ATTDEF
  5
96
330
8E
100
AcDbEntity
  8
AM_6
100
AcDbText
 10
-29.16057159773116
 20
2.041451884327379
 30
0.0
 40
0.5
  1
405020c
100
AcDbAttributeDefinition
  3

  2
LINA
 70
     8
280
     0
  0
ATTDEF
  5
97
330
8E
100
AcDbEntity
  8
AM_6
100
AcDbText
 10
-29.16057159773116
 20
1.541451884327379
 30
0.0
 40
0.5
  1
405020c
100
AcDbAttributeDefinition
  3

  2
MN
 70
     8
280
     0
  0
ATTDEF
  5
98
330
8E
100
AcDbEntity
  8
AM_6
100
AcDbText
 10
-29.16057159773116
 20
1.041451884327379
 30
0.0
 40
0.5
  1
5.842
100
AcDbAttributeDefinition
  3

  2
NDR
 70
     8
280
     0
  0
ATTDEF
  5
99
330
8E
100
AcDbEntity
  8
AM_6
100
AcDbText
 10
-29.16057159773116
 20
0.5414518843273788
 30
0.0
 40
0.5
  1
5.359
100
AcDbAttributeDefinition
  3

  2
KDR
 70
     8
280
     0
  0
ATTDEF
  5
9A
330
8E
100
AcDbEntity
  8
AM_6
100
AcDbText
 10
-29.16057159773116
 20
0.0414518843273788
 30
0.0
 40
0.5
  1
4.000
100
AcDbAttributeDefinition
  3

  2
BZE
 70
     8
280
     0
  0
ATTDEF
  5
9B
330
8E
100
AcDbEntity
  8
AM_6
100
AcDbText
 10
-29.16057159773116
 20
-0.4585481156726212
 30
0.0
 40
0.5
  1
7
100
AcDbAttributeDefinition
  3

  2
WAF
 70
     8
280
     0
  0
ATTDEF
  5
9C
330
8E
100
AcDbEntity
  8
AM_6
100
AcDbText
 10
-29.16057159773116
 20
-0.9585481156726212
 30
0.0
 40
0.5
  1
7.0000
100
AcDbAttributeDefinition
  3

  2
WAF1
 70
     8
280
     0
  0
ATTDEF
  5
9D
330
8E
100
AcDbEntity
  8
AM_6
100
AcDbText
 10
-29.16057159773116
 20
-1.458548115672621
 30
0.0
 40
0.5
  1
13.843
100
AcDbAttributeDefinition
  3

  2
BL
 70
     8
280
     0
  0
ATTDEF
  5
9E
330
8E
100
AcDbEntity
  8
AM_6
100
AcDbText
 10
-29.16057159773116
 20
-1.958548115672621
 30
0.0
 40
0.5
  1
5.080
100
AcDbAttributeDefinition
  3

  2
TL
 70
     8
280
     0
  0
ATTDEF
  5
9F
330
8E
100
AcDbEntity
  8
AM_6
100
AcDbText
 10
-29.16057159773116
 20
-2.458548115672621
 30
0.0
 40
0.5
  1
baldor
100
AcDbAttributeDefinition
  3

  2
COMPANY
 70
     8
280
     0
  0
LINE
  5
A2
330
8E
100
AcDbEntity
  8
AM_9
100
AcDbLine
 10
-39.27788284081866
 20
2.020725942163689
 30
0.0
 11
-38.21281292110204
 21
2.020725942163689
 31
0.0
  0
LINE
  5
A3
330
8E
100
AcDbEntity
  8
AM_9
100
AcDbLine
 10
-39.27788284081866
 20
-2.020725942163692
 30
0.0
 11
-38.21281292110204
 21
-2.020725942163692
 31
0.0
  0
LWPOLYLINE
  5
A4
330
8E
100
AcDbEntity
  8
AM_9
100
AcDbPolyline
 90
        3
 70
     0
 43
0.0
 10
-39.40352718783652
 20
-0.0000000000000016
 10
-39.37036353086421
 20
-1.010362971081847
 10
-39.27788284081866
 20
-2.020725942163692
  0
LWPOLYLINE
  5
A5
330
8E
100
AcDbEntity
  8
AM_9
100
AcDbPolyline
 90
        4
 70
     0
 43
0.0
 10
-39.27788284081866
 20
2.020725942163689
 10
-39.32775822416207
 20
1.546688894797462
 10
-39.38382362972289
 20
0.7756181668408967
 10
-39.40352718783652
 20
-0.0000000000000016
  0
LWPOLYLINE
  5
A6
330
8E
100
AcDbEntity
  8
AM_9
100
AcDbPolyline
 90
        3
 70
     0
 43
0.0
 10
-40.27852718783652
 20
3.031088913245534
 10
-39.80786353086421
 20
2.525907427704612
 10
-39.27788284081866
 20
2.020725942163689
  0
LWPOLYLINE
  5
A7
330
8E
100
AcDbEntity
  8
AM_9
100
AcDbPolyline
 90
        3
 70
     0
 43
0.0
 10
-39.27788284081866
 20
-2.020725942163692
 10
-39.80560343091864
 20
-2.523635995714043
 10
-40.27852718783652
 20
-3.031088913245537
  0
ELLIPSE
  5
A8
330
8E
100
AcDbEntity
  8
AM_9
100
AcDbEllipse
 10
-47.42614918744721
 20
-0.0000000000000017
 30
0.0
 11
1.290698233790638E-16
 21
2.107870178878142
 31
0.0
210
0.0
220
0.0
230
1.0
 40
0.5000000000000006
 41
0.0
 42
6.283185307179586
  0
LINE
  5
A9
330
8E
100
AcDbEntity
  8
AM_9
100
AcDbLine
 10
-38.86793393736643
 20
2.920402115570625
 30
0.0
 11
-38.96216857408417
 21
3.031088913245534
 31
0.0
  0
LWPOLYLINE
  5
AA
330
8E
100
AcDbEntity
  8
AM_9
100
AcDbPolyline
 90
        3
 70
     0
 43
0.0
 10
-38.21281292110204
 20
2.020725942163689
 10
-38.55615809538845
 20
2.523635995714041
 10
-38.86793393736643
 20
2.920402115570625
  0
LWPOLYLINE
  5
AB
330
8E
100
AcDbEntity
  8
AM_9
100
AcDbPolyline
 90
        4
 70
     0
 43
0.0
 10
-38.08716857408417
 20
-0.0000000000000016
 10
-38.10675813810811
 20
0.7733444473987298
 10
-38.16293753775863
 20
1.546688894797461
 10
-38.21281292110204
 20
2.020725942163689
  0
LWPOLYLINE
  5
AC
330
8E
100
AcDbEntity
  8
AM_9
100
AcDbPolyline
 90
        3
 70
     0
 43
0.0
 10
-38.86793321748242
 20
-2.920401255216204
 10
-38.55783223105649
 20
-2.525907427704615
 10
-38.21281292110204
 20
-2.020725942163692
  0
LINE
  5
AD
330
8E
100
AcDbEntity
  8
AM_9
100
AcDbLine
 10
-38.96216857408417
 20
-3.031088913245537
 30
0.0
 11
-38.86793321748242
 21
-2.920401255216204
 31
0.0
  0
LWPOLYLINE
  5
AE
330
8E
100
AcDbEntity
  8
AM_9
100
AcDbPolyline
 90
        3
 70
     0
 43
0.0
 10
-38.21281292110204
 20
-2.020725942163692
 10
-38.12062521319525
 20
-1.014905835062989
 10
-38.08716857408417
 20
-0.0000000000000016
  0
ELLIPSE
  5
AF
330
8E
100
AcDbEntity
  8
AM_9
100
AcDbEllipse
 10
-47.16232802721535
 20
0.0000000000001705
 30
0.0
 11
-4.717564693156697E-16
 21
-2.56812260560419
 31
0.0
210
0.0
220
0.0
230
1.0
 40
0.5000000000000024
 41
3.141592653589793
 42
3.389185217058911
  0
LWPOLYLINE
  5
B0
330
8E
100
AcDbEntity
  8
AM_9
100
AcDbPolyline
 90
        3
 70
     0
 43
0.0
 10
-40.27852718783652
 20
-3.031088913245537
 10
-40.68286353086421
 20
-3.536270398786459
 10
-41.02788284081867
 20
-4.041451884327381
  0
LWPOLYLINE
  5
B1
330
8E
100
AcDbEntity
  8
AM_9
100
AcDbPolyline
 90
        3
 70
     0
 43
0.0
 10
-41.02788284081867
 20
4.041451884327379
 10
-40.68453766653225
 20
3.538541830777028
 10
-40.27852718783652
 20
3.031088913245534
  0
ELLIPSE
  5
B2
330
8E
100
AcDbEntity
  8
AM_9
100
AcDbEllipse
 10
-45.61601334286608
 20
0.000000000000028
 30
0.0
 11
-6.109827713784869E-16
 21
-3.326035293353572
 31
0.0
210
0.0
220
0.0
230
1.0
 40
0.5000000000000019
 41
6.060689387842706
 42
9.674639882881248
  0
LWPOLYLINE
  5
B3
330
8E
100
AcDbEntity
  8
AM_9
100
AcDbPolyline
 90
        5
 70
     0
 43
0.0
 10
-45.27763025954516
 20
3.405530439901159
 10
-45.459410636908
 20
3.395189114767022
 10
-45.66684784535521
 20
3.357720727054295
 10
-45.86677072573479
 20
3.294426274600768
 10
-46.00171603460225
 20
3.235468320460922
  0
LWPOLYLINE
  5
B4
330
8E
100
AcDbEntity
  8
AM_9
100
AcDbPolyline
 90
        9
 70
     0
 43
0.0
 10
-46.00301490328869
 20
-3.234833394514269
 10
-45.84061217605073
 20
-3.304297728497557
 10
-45.62402747378662
 20
-3.367746810760985
 10
-45.40673130670017
 20
-3.400320389587816
 10
-45.19184017828707
 20
-3.403231259701105
 10
-44.98153263038252
 20
-3.377986406281957
 10
-44.77807760584282
 20
-3.326214353717505
 10
-44.58265207717589
 20
-3.249352458129142
 10
-44.45303977235297
 20
-3.182344326653389
  0
LWPOLYLINE
  5
B5
330
8E
100
AcDbEntity
  8
AM_9
100
AcDbPolyline
 90
        6
 70
     0
 43
0.0
 10
-44.51222227924632
 20
3.21461513950447
 10
-44.61839931878412
 20
3.265513433709906
 10
-44.81143526978715
 20
3.336614212333092
 10
-45.02848361150512
 20
3.386064246011436
 10
-45.22921256671724
 20
3.404798366905215
 10
-45.27763025954516
 20
3.405530439901159
  0
LINE
  5
B6
330
8E
100
AcDbEntity
  8
AM_9
100
AcDbLine
 10
-44.46232763888499
 20
3.187600140582988
 30
0.0
 11
-44.48407753194266
 21
3.199627319694958
 31
0.0
  0
ELLIPSE
  5
B7
330
8E
100
AcDbEntity
  8
AM_9
100
AcDbEllipse
 10
-45.61601334294728
 20
0.0000000000266556
 30
0.0
 11
-6.109827713835362E-16
 21
-3.326035293381059
 31
0.0
210
0.0
220
0.0
230
1.0
 40
0.4999999999938745
 41
-0.2480741198048957
 42
-0.2344062329303549
  0
LWPOLYLINE
  5
B8
330
8E
100
AcDbEntity
  8
AM_9
100
AcDbPolyline
 90
        4
 70
     0
 43
0.0
 10
-42.64337655998013
 20
2.19388369025487
 10
-42.66294028632734
 20
2.194842460936233
 10
-42.69475836489556
 20
2.201002982590295
 10
-42.7034262749784
 20
2.204169692377133
  0
LWPOLYLINE
  5
B9
330
8E
100
AcDbEntity
  8
AM_9
100
AcDbPolyline
 90
        3
 70
     0
 43
0.0
 10
-42.70333486803951
 20
2.20412497448033
 10
-42.70327292968826
 20
2.20409414868028
 10
-42.70173740479236
 20
2.203278676554244
  0
LWPOLYLINE
  5
BA
330
8E
100
AcDbEntity
  8
AM_9
100
AcDbPolyline
 90
       11
 70
     0
 43
0.0
 10
-42.70168554380083
 20
-2.203249982860748
 10
-42.70336459134885
 20
-2.204139643154806
 10
-42.69408193432906
 20
-2.200796263840163
 10
-42.66316289379965
 20
-2.194864626415864
 10
-42.61497409776515
 20
-2.195927559354021
 10
-42.58851885341141
 20
-2.20214069897169
 10
-42.58438129308764
 20
-2.203624486072297
 10
-42.60048192795017
 20
-2.193193427555923
 10
-42.63670592546572
 20
-2.162885512439686
 10
-42.68664221795667
 20
-2.110494006836528
 10
-42.74104056298265
 20
-2.041397575618066
  0
LWPOLYLINE
  5
BB
330
8E
100
AcDbEntity
  8
AM_9
100
AcDbPolyline
 90
        4
 70
     0
 43
0.0
 10
-42.62156673422609
 20
2.176458267300872
 10
-42.61986266996225
 20
2.177910089734814
 10
-42.59185015137979
 20
2.199133348456999
 10
-42.58332684498188
 20
2.204169692377133
  0
LWPOLYLINE
  5
BC
330
8E
100
AcDbEntity
  8
AM_9
100
AcDbPolyline
 90
        4
 70
     0
 43
0.0
 10
-42.74413302424086
 20
2.037104325533769
 10
-42.72091841092701
 20
2.068374105793978
 10
-42.66421143631491
 20
2.13539403852264
 10
-42.62156673422609
 20
2.176458267300872
  0
ELLIPSE
  5
BD
330
8E
100
AcDbEntity
  8
AM_9
100
AcDbEllipse
 10
-44.91163210877454
 20
-0.0000000000000044
 30
0.0
 11
-6.083748125869854E-16
 21
-3.311838226937811
 31
0.0
210
0.0
220
0.0
230
1.0
 40
0.4999999999999931
 41
5.566009115005836
 42
10.14195415294313
  0
LINE
  5
BE
330
8E
100
AcDbEntity
  8
AM_9
100
AcDbLine
 10
-42.70144085638
 20
2.203113814198899
 30
0.0
 11
-44.46582084242971
 21
3.1895582296937
 31
0.0
  0
LINE
  5
BF
330
8E
100
AcDbEntity
  8
AM_9
100
AcDbLine
 10
-44.46582084242971
 20
-3.189558229693704
 30
0.0
 11
-42.70144085638
 21
-2.203113814198901
 31
0.0
  0
LWPOLYLINE
  5
C0
330
8E
100
AcDbEntity
  8
AM_9
100
AcDbPolyline
 90
        3
 70
     0
 43
0.0
 10
-38.96216857408417
 20
3.031088913245534
 10
-39.43283223105649
 20
3.536270398786457
 10
-39.96281292110204
 20
4.041451884327379
  0
LWPOLYLINE
  5
C1
330
8E
100
AcDbEntity
  8
AM_9
100
AcDbPolyline
 90
        3
 70
     0
 43
0.0
 10
-39.96281292110204
 20
-4.041451884327381
 10
-39.43509233100206
 20
-3.53854183077703
 10
-38.96216857408417
 20
-3.031088913245537
  0
LINE
  5
C2
330
8E
100
AcDbEntity
  8
AM_9
100
AcDbLine
 10
-42.74887478321691
 20
-2.030444843784307
 30
0.0
 11
-42.16389015891837
 21
-2.857738033247043
 31
0.0
  0
LINE
  5
C3
330
8E
100
AcDbEntity
  8
AM_9
100
AcDbLine
 10
-42.16389015891837
 20
2.857738033247041
 30
0.0
 11
-42.74887478321691
 21
2.030444843784304
 31
0.0
  0
LINE
  5
C4
330
8E
100
AcDbEntity
  8
AM_9
100
AcDbLine
 10
-41.02788284081867
 20
-4.041451884327381
 30
0.0
 11
-39.96281292110204
 21
-4.041451884327381
 31
0.0
  0
LWPOLYLINE
  5
C5
330
8E
100
AcDbEntity
  8
AM_9
100
AcDbPolyline
 90
        3
 70
     0
 43
0.0
 10
-40.71216857408417
 20
-3.031088913245537
 10
-40.30783223105649
 20
-3.536270398786459
 10
-39.96281292110204
 20
-4.041451884327381
  0
LWPOLYLINE
  5
C6
330
8E
100
AcDbEntity
  8
AM_9
100
AcDbPolyline
 90
        3
 70
     0
 43
0.0
 10
-42.02852718783652
 20
-3.031088913245537
 10
-42.43286353086421
 20
-2.525907427704615
 10
-42.77788284081866
 20
-2.020725942163692
  0
LWPOLYLINE
  5
C7
330
8E
100
AcDbEntity
  8
AM_9
100
AcDbPolyline
 90
        3
 70
     0
 43
0.0
 10
-41.02788284081867
 20
-4.041451884327381
 10
-41.55560343091864
 20
-3.53854183077703
 10
-42.02852718783652
 20
-3.031088913245537
  0
LINE
  5
C8
330
8E
100
AcDbEntity
  8
AM_9
100
AcDbLine
 10
-42.77788284081866
 20
-2.020725942163692
 30
0.0
 11
-41.71281292110203
 21
-2.020725942163692
 31
0.0
  0
LWPOLYLINE
  5
C9
330
8E
100
AcDbEntity
  8
AM_9
100
AcDbPolyline
 90
        4
 70
     0
 43
0.0
 10
-41.71281292110203
 20
2.020725942163689
 10
-41.66293753775863
 20
1.546688894797462
 10
-41.60687213219781
 20
0.775618166840897
 10
-41.58716857408417
 20
-0.0000000000000012
  0
LWPOLYLINE
  5
CA
330
8E
100
AcDbEntity
  8
AM_9
100
AcDbPolyline
 90
        4
 70
     0
 43
0.0
 10
-42.90352718783652
 20
-0.0000000000000013
 10
-42.88393762381259
 20
0.7733444473987302
 10
-42.82775822416207
 20
1.546688894797462
 10
-42.77788284081866
 20
2.020725942163689
  0
LWPOLYLINE
  5
CB
330
8E
100
AcDbEntity
  8
AM_9
100
AcDbPolyline
 90
        3
 70
     0
 43
0.0
 10
-42.77788284081866
 20
-2.020725942163692
 10
-42.87007054872544
 20
-1.014905835062988
 10
-42.90352718783652
 20
-0.0000000000000013
  0
LINE
  5
CC
330
8E
100
AcDbEntity
  8
AM_9
100
AcDbLine
 10
-42.77788284081866
 20
2.020725942163689
 30
0.0
 11
-41.71281292110203
 21
2.020725942163689
 31
0.0
  0
LWPOLYLINE
  5
CD
330
8E
100
AcDbEntity
  8
AM_9
100
AcDbPolyline
 90
        3
 70
     0
 43
0.0
 10
-40.71216857408417
 20
3.031088913245535
 10
-41.18283223105649
 20
2.525907427704612
 10
-41.71281292110203
 20
2.020725942163689
  0
LWPOLYLINE
  5
CE
330
8E
100
AcDbEntity
  8
AM_9
100
AcDbPolyline
 90
        3
 70
     0
 43
0.0
 10
-39.96281292110204
 20
4.041451884327379
 10
-40.30615809538845
 20
3.538541830777028
 10
-40.71216857408417
 20
3.031088913245535
  0
LINE
  5
CF
330
8E
100
AcDbEntity
  8
AM_9
100
AcDbLine
 10
-41.02788284081867
 20
4.041451884327379
 30
0.0
 11
-39.96281292110204
 21
4.041451884327379
 31
0.0
  0
LWPOLYLINE
  5
D0
330
8E
100
AcDbEntity
  8
AM_9
100
AcDbPolyline
 90
        3
 70
     0
 43
0.0
 10
-42.02852718783652
 20
3.031088913245534
 10
-41.55786353086421
 20
3.536270398786457
 10
-41.02788284081867
 20
4.041451884327379
  0
LWPOLYLINE
  5
D1
330
8E
100
AcDbEntity
  8
AM_9
100
AcDbPolyline
 90
        3
 70
     0
 43
0.0
 10
-42.77788284081866
 20
2.020725942163689
 10
-42.43453766653225
 20
2.523635995714041
 10
-42.02852718783652
 20
3.031088913245534
  0
LWPOLYLINE
  5
D2
330
8E
100
AcDbEntity
  8
AM_9
100
AcDbPolyline
 90
        3
 70
     0
 43
0.0
 10
-41.58716857408417
 20
-0.0000000000000012
 10
-41.62033223105649
 20
-1.010362971081846
 10
-41.71281292110203
 20
-2.020725942163692
  0
LWPOLYLINE
  5
D3
330
8E
100
AcDbEntity
  8
AM_9
100
AcDbPolyline
 90
        3
 70
     0
 43
0.0
 10
-41.71281292110203
 20
-2.020725942163692
 10
-41.18509233100205
 20
-2.523635995714044
 10
-40.71216857408417
 20
-3.031088913245537
  0
LINE
  5
D4
330
8E
100
AcDbEntity
  8
AM_9
100
AcDbLine
 10
-34.70037473048081
 20
2.085639148138468
 30
0.0
 11
-34.84437306460103
 21
2.289283545210417
 31
0.0
  0
LINE
  5
D5
330
8E
100
AcDbEntity
  8
AM_9
100
AcDbLine
 10
-34.84437306460103
 20
-2.28928354521042
 30
0.0
 11
-34.70037473048081
 21
-2.08563914813847
 31
0.0
  0
LINE
  5
D6
330
8E
100
AcDbEntity
  8
AM_9
100
AcDbLine
 10
-35.62846251128884
 20
2.80333185264527
 30
0.0
 11
-39.81048539120084
 21
2.954269717471958
 31
0.0
  0
LINE
  5
D7
330
8E
100
AcDbEntity
  8
AM_9
100
AcDbLine
 10
-39.81048539120084
 20
-2.954269717471961
 30
0.0
 11
-35.62846251128884
 21
-2.803331852645273
 31
0.0
  0
ELLIPSE
  5
D8
330
8E
100
AcDbEntity
  8
AM_9
100
AcDbEllipse
 10
-43.00937471075081
 20
-0.0000000000000029
 30
0.0
 11
-4.202208761524223E-16
 21
-2.287575903218226
 31
0.0
210
0.0
220
0.0
230
1.0
 40
0.5000000000000062
 41
0.0
 42
6.283185307179586
  0
ELLIPSE
  5
D9
330
8E
100
AcDbEntity
  8
AM_9
100
AcDbEllipse
 10
-41.15352718783658
 20
0.0000000000000062
 30
0.0
 11
-6.429395695523628E-16
 21
-3.500000000000013
 31
0.0
210
0.0
220
0.0
230
1.0
 40
0.4999999999999839
 41
0.0
 42
6.283185307179586
  0
ELLIPSE
  5
DA
330
8E
100
AcDbEntity
  8
AM_9
100
AcDbEllipse
 10
-42.03100412425547
 20
-0.0000000000049347
 30
0.0
 11
-4.568135072814862E-16
 21
-2.486776909062202
 31
0.0
210
0.0
220
0.0
230
1.0
 40
0.5000000000072943
 41
0.0
 42
6.283185307179586
  0
ELLIPSE
  5
DB
330
8E
100
AcDbEntity
  8
AM_9
100
AcDbEllipse
 10
-39.83716857407612
 20
-0.0000000000006257
 30
0.0
 11
-6.429395695524952E-16
 21
-3.500000000000734
 31
0.0
210
0.0
220
0.0
230
1.0
 40
0.4999999999987664
 41
0.0
 42
6.283185307179586
  0
ELLIPSE
  5
DC
330
8E
100
AcDbEntity
  8
AM_9
100
AcDbEllipse
 10
-35.43775952285922
 20
-0.0000000000000022
 30
0.0
 11
-4.692312313253168E-16
 21
-2.554375850256111
 31
0.0
210
0.0
220
0.0
230
1.0
 40
0.5000000000000021
 41
0.0
 42
6.283185307179586
  0
ELLIPSE
  5
DD
330
8E
100
AcDbEntity
  8
AM_9
100
AcDbEllipse
 10
-35.65375702403955
 20
-0.0000000000000036
 30
0.0
 11
-5.150475516009800E-16
 21
-2.803788281157616
 31
0.0
210
0.0
220
0.0
230
1.0
 40
0.5000000000000139
 41
0.0
 42
6.283185307179586
  0
ELLIPSE
  5
DE
330
8E
100
AcDbEntity
  8
AM_9
100
AcDbEllipse
 10
-39.83716857395575
 20
-0.0000000000107381
 30
0.0
 11
-5.427790792998927E-16
 21
-2.954751686651186
 31
0.0
210
0.0
220
0.0
230
1.0
 40
0.4999999999996524
 41
0.0
 42
6.283185307179586
  0
LWPOLYLINE
  5
E0
330
8E
100
AcDbEntity
  8
AM_4
100
AcDbPolyline
 90
       26
 70
     0
 43
0.0
 10
-47.48219591578297
 20
2.487172306553545
 10
-47.59417155004381
 20
2.42206322296329
 10
-47.73881324909929
 20
2.312660925191712
 10
-47.87611703388939
 20
2.177650669063078
 10
-48.00500273009717
 20
2.016602765483399
 10
-48.12345039247795
 20
1.830595531902824
 10
-48.22916051770363
 20
1.622623509587305
 10
-48.32031551678689
 20
1.397015536692135
 10
-48.39617868161855
 20
1.157572609394607
 10
-48.45663034843045
 20
0.9072029396573115
 10
-48.50167956383602
 20
0.6484942432020915
 10
-48.53134744400045
 20
0.3839169165051891
 10
-48.54564590154705
 20
0.1159255299186626
 10
-48.54458669409594
 20
-0.1530142953034024
 10
-48.52819113742901
 20
-0.4204274184132364
 10
-48.4965095187978
 20
-0.6837295217854539
 10
-48.44958018922135
 20
-0.9405678686988428
 10
-48.38738516551238
 20
-1.188688527208896
 10
-48.30978910366887
 20
-1.425937626170904
 10
-48.21646756070191
 20
-1.650206509341856
 10
-48.10686728769014
 20
-1.859265864056895
 10
-47.98032523750071
 20
-2.050418290755305
 10
-47.83701911573222
 20
-2.219565560065285
 10
-47.69697301201597
 20
-2.347488860199201
 10
-47.54998249676191
 20
-2.449661888353701
 10
-47.51411926762047
 20
-2.47021642322748
  0
LINE
  5
E1
330
8E
100
AcDbEntity
  8
AM_4
100
AcDbLine
 10
-47.4770137645663
 20
-2.489808278612661
 30
0.0
 11
-46.02357015750568
 21
-3.224608587719996
 31
0.0
  0
LINE
  5
E2
330
8E
100
AcDbEntity
  8
AM_4
100
AcDbLine
 10
-46.02357015750568
 20
3.224608587719993
 30
0.0
 11
-47.4770137645663
 21
2.489808278612657
 31
0.0
  0
ELLIPSE
  5
E3
330
8E
100
AcDbEntity
  8
AM_4
100
AcDbEllipse
 10
-47.16232802721552
 20
-0.000000000000002
 30
0.0
 11
-4.717564693157012E-16
 21
-2.568122605604361
 31
0.0
210
0.0
220
0.0
230
1.0
 40
0.4999999999999966
 41
3.389185217058763
 42
6.035592743710618
  0
LINE
  5
E4
330
8E
100
AcDbEntity
  8
AM_4
100
AcDbLine
 10
-46.00171603460225
 20
3.235468320460922
 30
0.0
 11
-46.02994422933035
 21
3.221369962703366
 31
0.0
  0
LINE
  5
E5
330
8E
100
AcDbEntity
  8
AM_4
100
AcDbLine
 10
-46.02499098141795
 20
-3.223889476457727
 30
0.0
 11
-46.00301490328869
 21
-3.234833394514269
 31
0.0
  0
ELLIPSE
  5
E6
330
8E
100
AcDbEntity
  8
AM_4
100
AcDbEllipse
 10
-45.61601334286624
 20
0.0
 30
0.0
 11
-6.109827713784917E-16
 21
-3.326035293353598
 31
0.0
210
0.0
220
0.0
230
1.0
 40
0.4999999999999937
 41
3.391454575701573
 42
6.035111187328398
  0
ELLIPSE
  5
E7
330
8E
100
AcDbEntity
  8
AM_4
100
AcDbEllipse
 10
-44.9116321087745
 20
-0.0000000000000018
 30
0.0
 11
-6.083748125869826E-16
 21
-3.311838226937796
 31
0.0
210
0.0
220
0.0
230
1.0
 40
0.4999999999999998
 41
3.858768845763549
 42
5.566009115005829
  0
ENDBLK
  5
91
330
8E
100
AcDbEntity
  8
0
100
AcDbBlockEnd
  0
BLOCK
  5
EA
330
E8
100
AcDbEntity
  8
0
100
AcDbBlockBegin
  2
3_127863_0_in_136893_4
 70
     2
 10
0.0
 20
0.0
 30
0.0
  3
3_127863_0_in_136893_4
  1

  0
ATTDEF
  5
EC
330
E8
100
AcDbEntity
  8
AM_6
100
AcDbText
 10
35.98141345364338
 20
14.7
 30
0.0
 40
0.5
  1
Set Screw Insert Metric Bore - Stainless Steel
100
AcDbAttributeDefinition
  3

  2
NN
 70
     8
280
     0
  0
ATTDEF
  5
ED
330
E8
100
AcDbEntity
  8
AM_6
100
AcDbText
 10
35.98141345364338
 20
14.2
 30
0.0
 40
0.5
  1
SC Medium Duty Bearing Inserts
100
AcDbAttributeDefinition
  3

  2
NT
 70
     8
280
     0
  0
ATTDEF
  5
EE
330
E8
100
AcDbEntity
  8
AM_6
100
AcDbText
 10
35.98141345364338
 20
13.7
 30
0.0
 40
0.5
  1
127863
100
AcDbAttributeDefinition
  3

  2
NB
 70
     8
280
     0
  0
ATTDEF
  5
EF
330
E8
100
AcDbEntity
  8
AM_6
100
AcDbText
 10
35.98141345364338
 20
13.2
 30
0.0
 40
0.5
  1
$PN.
100
AcDbAttributeDefinition
  3

  2
NBSYN
 70
     8
280
     0
  0
ATTDEF
  5
F0
330
E8
100
AcDbEntity
  8
AM_6
100
AcDbText
 10
35.98141345364338
 20
12.7
 30
0.0
 40
0.5
  1
127863
100
AcDbAttributeDefinition
  3

  2
LINA
 70
     8
280
     0
  0
ATTDEF
  5
F1
330
E8
100
AcDbEntity
  8
AM_6
100
AcDbText
 10
35.98141345364338
 20
12.2
 30
0.0
 40
0.5
  1
206
100
AcDbAttributeDefinition
  3

  2
SERIES
 70
     8
280
     0
  0
ATTDEF
  5
F2
330
E8
100
AcDbEntity
  8
AM_6
100
AcDbText
 10
35.98141345364338
 20
11.7
 30
0.0
 40
0.5
  1
30
100
AcDbAttributeDefinition
  3

  2
SS
 70
     8
280
     0
  0
ATTDEF
  5
F3
330
E8
100
AcDbEntity
  8
AM_6
100
AcDbText
 10
35.98141345364338
 20
11.2
 30
0.0
 40
0.5
  1
127863
100
AcDbAttributeDefinition
  3

  2
PN
 70
     8
280
     0
  0
ATTDEF
  5
F4
330
E8
100
AcDbEntity
  8
AM_6
100
AcDbText
 10
35.98141345364338
 20
10.7
 30
0.0
 40
0.5
  1
INS-SC-30M-SS
100
AcDbAttributeDefinition
  3

  2
DESCRIPTION
 70
     8
280
     0
  0
ATTDEF
  5
F5
330
E8
100
AcDbEntity
  8
AM_6
100
AcDbText
 10
35.98141345364338
 20
10.2
 30
0.0
 40
0.5
  1
0.27
100
AcDbAttributeDefinition
  3

  2
WEIGHT
 70
     8
280
     0
  0
ATTDEF
  5
F6
330
E8
100
AcDbEntity
  8
AM_6
100
AcDbText
 10
35.98141345364338
 20
9.7
 30
0.0
 40
0.5
  1
38.6
100
AcDbAttributeDefinition
  3

  2
A
 70
     8
280
     0
  0
ATTDEF
  5
F7
330
E8
100
AcDbEntity
  8
AM_6
100
AcDbText
 10
35.98141345364338
 20
9.2
 30
0.0
 40
0.5
  1
17.6
100
AcDbAttributeDefinition
  3

  2
C
 70
     8
280
     0
  0
ATTDEF
  5
F8
330
E8
100
AcDbEntity
  8
AM_6
100
AcDbText
 10
35.98141345364338
 20
8.7
 30
0.0
 40
0.5
  1
62
100
AcDbAttributeDefinition
  3

  2
D
 70
     8
280
     0
  0
ATTDEF
  5
F9
330
E8
100
AcDbEntity
  8
AM_6
100
AcDbText
 10
35.98141345364338
 20
8.2
 30
0.0
 40
0.5
  1
4.6
100
AcDbAttributeDefinition
  3

  2
J
 70
     8
280
     0
  0
ATTDEF
  5
FA
330
E8
100
AcDbEntity
  8
AM_6
100
AcDbText
 10
35.98141345364338
 20
7.699999999999999
 30
0.0
 40
0.5
  1
39.9
100
AcDbAttributeDefinition
  3

  2
L
 70
     8
280
     0
  0
ATTDEF
  5
FB
330
E8
100
AcDbEntity
  8
AM_6
100
AcDbText
 10
35.98141345364338
 20
7.199999999999999
 30
0.0
 40
0.5
  1
M8 x 1.25
100
AcDbAttributeDefinition
  3

  2
N
 70
     8
280
     0
  0
ATTDEF
  5
FC
330
E8
100
AcDbEntity
  8
AM_6
100
AcDbText
 10
35.98141345364338
 20
6.699999999999999
 30
0.0
 40
0.5
  1
14.7
100
AcDbAttributeDefinition
  3

  2
W
 70
     8
280
     0
  0
ATTDEF
  5
FD
330
E8
100
AcDbEntity
  8
AM_6
100
AcDbText
 10
35.98141345364338
 20
6.199999999999999
 30
0.0
 40
0.5
  1
23.9
100
AcDbAttributeDefinition
  3

  2
Y
 70
     8
280
     0
  0
ATTDEF
  5
FE
330
E8
100
AcDbEntity
  8
AM_6
100
AcDbText
 10
35.98141345364338
 20
5.699999999999999
 30
0.0
 40
0.5
  1
baldor
100
AcDbAttributeDefinition
  3

  2
COMPANY
 70
     8
280
     0
  0
LINE
  5
FF
330
E8
100
AcDbEntity
  8
AM_9
100
AcDbLine
 10
14.37041948604686
 20
-13.40995674472699
 30
0.0
 11
14.21343993292848
 21
-13.21415825389367
 31
0.0
  0
LINE
  5
100
330
E8
100
AcDbEntity
  8
AM_9
100
AcDbLine
 10
14.21232108014645
 20
-19.48723727617274
 30
0.0
 11
14.37041948604686
 21
-19.29004325527303
 31
0.0
  0
LWPOLYLINE
  5
101
330
E8
100
AcDbEntity
  8
AM_9
100
AcDbPolyline
 90
       29
 70
     0
 43
0.0
 10
14.21062308470053
 20
-13.21064500506803
 10
14.17127147548157
 20
-13.16424463611728
 10
13.93429233888369
 20
-12.97606857368325
 10
13.66050498619269
 20
-12.89593620843619
 10
13.34537709830126
 20
-12.92941313880888
 10
13.00689353833143
 20
-13.07837162471881
 10
12.77405816766606
 20
-13.24125609424732
 10
12.54012407124682
 20
-13.4536488890727
 10
12.31169642505224
 20
-13.71265659698523
 10
12.09659543761023
 20
-14.01335332555582
 10
11.89728854197942
 20
-14.35766781118582
 10
11.72254683570581
 20
-14.74015303843308
 10
11.56930321593748
 20
-15.19602324821207
 10
11.4635267466432
 20
-15.68522779184103
 10
11.414973233724
 20
-16.19870796962765
 10
11.42757987337022
 20
-16.71721088117558
 10
11.49285474894081
 20
-17.18008424628928
 10
11.60330558824241
 20
-17.62138162912771
 10
11.76048839786265
 20
-18.05160646219737
 10
11.95021891531931
 20
-18.44181314389587
 10
12.19959492448101
 20
-18.838441905413
 10
12.4686820830165
 20
-19.1712875730253
 10
12.79047155826426
 20
-19.47179306762447
 10
13.11103290541235
 20
-19.6788645428887
 10
13.4404779805403
 20
-19.79239156189939
 10
13.74392946509594
 20
-19.79216114123177
 10
13.92855539214028
 20
-19.72697051161828
 10
14.09632546842182
 20
-19.61039129108288
 10
14.21084441277729
 20
-19.48907909009015
  0
LWPOLYLINE
  5
102
330
E8
100
AcDbEntity
  8
AM_9
100
AcDbPolyline
 90
       16
 70
     0
 43
0.0
 10
14.29250410654225
 20
-19.37454632448702
 10
14.37454756601462
 20
-19.22867271475255
 10
14.48552932329552
 20
-18.96513322860471
 10
14.57779066355644
 20
-18.65709652195912
 10
14.649693689998
 20
-18.31862806263698
 10
14.70635629344083
 20
-17.94107391210869
 10
14.74812092044407
 20
-17.53167452131273
 10
14.77696694521848
 20
-17.06982116763096
 10
14.79112980920851
 20
-16.58769089234452
 10
14.79088615429621
 20
-16.09715830028492
 10
14.77626231668317
 20
-15.61412596149028
 10
14.74802416479104
 20
-15.16756447707271
 10
14.70535492373057
 20
-14.74972882618296
 10
14.64019016057433
 20
-14.32909059159244
 10
14.55512324047444
 20
-13.95683289300586
 10
14.52326939125898
 20
-13.84797019053512
  0
LWPOLYLINE
  5
103
330
E8
100
AcDbEntity
  8
AM_9
100
AcDbPolyline
 90
        3
 70
     0
 43
0.0
 10
14.21084441277729
 20
-19.48907909009015
 10
14.2451272072607
 20
-19.44418981133064
 10
14.29250410654225
 20
-19.37454632448702
  0
LINE
  5
104
330
E8
100
AcDbEntity
  8
AM_9
100
AcDbLine
 10
13.71545690259133
 20
-19.67350000000001
 30
0.0
 11
17.46772313345087
 21
-19.67350000000001
 31
0.0
  0
LINE
  5
105
330
E8
100
AcDbEntity
  8
AM_9
100
AcDbLine
 10
17.46772313345087
 20
-13.02650000000001
 30
0.0
 11
13.71545690259133
 21
-13.02650000000001
 31
0.0
  0
ELLIPSE
  5
106
330
E8
100
AcDbEntity
  8
AM_9
100
AcDbEllipse
 10
17.46772313345087
 20
-16.35
 30
0.0
 11
-6.105170455449347E-16
 21
-3.323500000000003
 31
0.0
210
0.0
220
0.0
230
1.0
 40
0.4226182617406982
 41
3.470912356768332
 42
5.945237009114501
  0
LINE
  5
107
330
E8
100
AcDbEntity
  8
AM_9
100
AcDbLine
 10
16.81276054999534
 20
-19.29004325527302
 30
0.0
 11
17.22940456826552
 21
-19.80971775027243
 31
0.0
  0
LINE
  5
108
330
E8
100
AcDbEntity
  8
AM_9
100
AcDbLine
 10
17.23111810332361
 20
-12.8881449804355
 30
0.0
 11
16.81276054999534
 21
-13.40995674472699
 31
0.0
  0
LWPOLYLINE
  5
109
330
E8
100
AcDbEntity
  8
AM_9
100
AcDbPolyline
 90
       25
 70
     0
 43
0.0
 10
3.007424034132539
 20
-18.60911819431496
 10
3.072526074731591
 20
-18.54298966235554
 10
3.298296572069322
 20
-18.28489909535279
 10
3.505483286775167
 20
-17.99475635375273
 10
3.681344886404889
 20
-17.68399862089807
 10
3.863886612990092
 20
-17.2308895724129
 10
3.973707996715164
 20
-16.73949469574129
 10
3.998236159007971
 20
-16.24898245849288
 10
3.936498008409946
 20
-15.7459091102055
 10
3.805091009244205
 20
-15.29933990308242
 10
3.603462144000999
 20
-14.86857517934773
 10
3.324318846909354
 20
-14.44826961178435
 10
2.981045555099438
 20
-14.0650087197023
 10
2.52846078969614
 20
-13.68793483428122
 10
2.012996202366624
 20
-13.37442774953513
 10
1.391610904844981
 20
-13.11510373351316
 10
0.7181885720925913
 20
-12.95101094697537
 10
0.0087699465605806
 20
-12.8931762661067
 10
-0.3574872312510666
 20
-12.90744393044044
 10
-0.7211562261707667
 20
-12.95149362950852
 10
-1.413489476226175
 20
-13.12236030580463
 10
-1.755720296393618
 20
-13.2531524178394
 10
-2.08500462001448
 20
-13.41224886013537
 10
-2.391580168874265
 20
-13.59437595986244
 10
-2.682895568680605
 20
-13.80391424514202
  0
LWPOLYLINE
  5
10A
330
E8
100
AcDbEntity
  8
AM_9
100
AcDbPolyline
 90
       24
 70
     0
 43
0.0
 10
-2.682895568680605
 20
-13.80391424514202
 10
-3.080522432449512
 20
-14.16532832022034
 10
-3.428443970136255
 20
-14.58980679557132
 10
-3.691761614563423
 20
-15.03720191171676
 10
-3.884143677983925
 20
-15.53638659927002
 10
-3.984386602345636
 20
-16.04967594578678
 10
-3.989842868840672
 20
-16.5923010773282
 10
-3.913045743724615
 20
-17.05598499512345
 10
-3.760040416238099
 20
-17.51282083354384
 10
-3.538792889109197
 20
-17.94161347184325
 10
-3.252365051816554
 20
-18.34153744223029
 10
-2.867539865086382
 20
-18.74082821415935
 10
-2.419123341955214
 20
-19.08745049663331
 10
-1.855808141094013
 20
-19.40216343079067
 10
-1.234190755787294
 20
-19.63339482782315
 10
-0.5446972347203547
 20
-19.77366614524545
 10
0.1792931068015869
 20
-19.80325254439478
 10
0.8885507579832365
 20
-19.71793268410971
 10
1.245149888987914
 20
-19.63020253682772
 10
1.592645850359271
 20
-19.51331631111928
 10
2.231888607260614
 20
-19.2049329499304
 10
2.537778940922869
 20
-19.00536710058189
 10
2.824036769416923
 20
-18.77918995503924
 10
3.007424034132539
 20
-18.60911819431496
  0
LINE
  5
10B
330
E8
100
AcDbEntity
  8
AM_9
100
AcDbLine
 10
14.26629863033343
 20
-13.2857818294708
 30
0.0
 11
14.21062308470053
 21
-13.21064500506803
 31
0.0
  0
LWPOLYLINE
  5
10C
330
E8
100
AcDbEntity
  8
AM_9
100
AcDbPolyline
 90
        3
 70
     0
 43
0.0
 10
14.52326939125898
 20
-13.84797019053512
 10
14.36700646274874
 20
-13.45652596150374
 10
14.26629863033343
 20
-13.2857818294708
  0
LINE
  5
10D
330
E8
100
AcDbEntity
  8
AM_9
100
AcDbLine
 10
15.0
 20
-23.102
 30
0.0
 11
15.0
 21
13.902
 31
0.0
  0
LINE
  5
10E
330
E8
100
AcDbEntity
  8
AM_9
100
AcDbLine
 10
-15.0
 20
13.902
 30
0.0
 11
-15.0
 21
-23.102
 31
0.0
  0
LINE
  5
10F
330
E8
100
AcDbEntity
  8
AM_9
100
AcDbLine
 10
-15.0
 20
-23.102
 30
0.0
 11
-15.798
 21
-23.90000000000001
 31
0.0
  0
LINE
  5
110
330
E8
100
AcDbEntity
  8
AM_9
100
AcDbLine
 10
15.798
 20
-23.90000000000001
 30
0.0
 11
15.0
 21
-23.102
 31
0.0
  0
LINE
  5
111
330
E8
100
AcDbEntity
  8
AM_9
100
AcDbLine
 10
15.0
 20
13.902
 30
0.0
 11
15.798
 21
14.7
 31
0.0
  0
LINE
  5
112
330
E8
100
AcDbEntity
  8
AM_9
100
AcDbLine
 10
-15.798
 20
14.7
 30
0.0
 11
-15.0
 21
13.902
 31
0.0
  0
LINE
  5
113
330
E8
100
AcDbEntity
  8
AM_9
100
AcDbLine
 10
19.95
 20
8.8
 30
0.0
 11
19.95
 21
9.55
 31
0.0
  0
LINE
  5
114
330
E8
100
AcDbEntity
  8
AM_9
100
AcDbLine
 10
-19.95
 20
9.55
 30
0.0
 11
-19.95
 21
8.8
 31
0.0
  0
LINE
  5
115
330
E8
100
AcDbEntity
  8
AM_9
100
AcDbLine
 10
19.95
 20
-9.550000000000004
 30
0.0
 11
19.95
 21
-8.8
 31
0.0
  0
LINE
  5
116
330
E8
100
AcDbEntity
  8
AM_9
100
AcDbLine
 10
-19.95
 20
-8.8
 30
0.0
 11
-19.95
 21
-9.550000000000004
 31
0.0
  0
LINE
  5
117
330
E8
100
AcDbEntity
  8
AM_9
100
AcDbLine
 10
29.466666682
 20
-5.519999999999999
 30
0.0
 11
29.466666682
 21
-3.680000000000001
 31
0.0
  0
LINE
  5
118
330
E8
100
AcDbEntity
  8
AM_9
100
AcDbLine
 10
-29.466666682
 20
-3.680000000000001
 30
0.0
 11
-29.466666682
 21
-5.519999999999999
 31
0.0
  0
LINE
  5
119
330
E8
100
AcDbEntity
  8
AM_9
100
AcDbLine
 10
-29.02950223479555
 20
8.8
 30
0.0
 11
29.02950223472321
 21
8.8
 31
0.0
  0
ARC
  5
11A
330
E8
100
AcDbEntity
  8
AM_9
100
AcDbCircle
 10
29.02950223479552
 20
7.879999999999951
 30
0.0
 40
0.9200000000000494
100
AcDbArc
 50
15.186873455177
 51
90.0
  0
ARC
  5
11B
330
E8
100
AcDbEntity
  8
AM_9
100
AcDbCircle
 10
-29.02950223479554
 20
7.879999999999979
 30
0.0
 40
0.9200000000000212
100
AcDbArc
 50
90.0
 51
164.8131265448244
  0
LINE
  5
11C
330
E8
100
AcDbEntity
  8
AM_9
100
AcDbLine
 10
-29.02950223479555
 20
-8.800000000000004
 30
0.0
 11
29.02950223472321
 21
-8.800000000000004
 31
0.0
  0
ARC
  5
11D
330
E8
100
AcDbEntity
  8
AM_9
100
AcDbCircle
 10
29.02950223479555
 20
-7.88
 30
0.0
 40
0.9200000000000044
100
AcDbArc
 50
270.0
 51
344.8131265448256
  0
ARC
  5
11E
330
E8
100
AcDbEntity
  8
AM_9
100
AcDbCircle
 10
-29.02950223479543
 20
-7.879999999999845
 30
0.0
 40
0.9200000000001619
100
AcDbArc
 50
195.1868734551816
 51
270.0
  0
LINE
  5
11F
330
E8
100
AcDbEntity
  8
AM_9
100
AcDbLine
 10
-30.50458326219193
 20
-5.519999999999999
 30
0.0
 11
30.50458326219135
 21
-5.519999999999999
 31
0.0
  0
LINE
  5
120
330
E8
100
AcDbEntity
  8
AM_9
100
AcDbLine
 10
-29.9173726488917
 20
-8.121010638297873
 30
0.0
 11
29.91737264889111
 21
-8.121010638297873
 31
0.0
  0
ARC
  5
121
330
E8
100
AcDbEntity
  8
AM_9
100
AcDbCircle
 10
-0.0000000006231247
 20
0.0000000001405116
 30
0.0
 40
31.00000000063762
100
AcDbArc
 50
344.8131265448764
 51
349.7429564040272
  0
ARC
  5
122
330
E8
100
AcDbEntity
  8
AM_9
100
AcDbCircle
 10
-0.0000000822810762
 20
-0.0000000185761548
 30
0.0
 40
30.99999991572555
100
AcDbArc
 50
190.257043589217
 51
195.1868734618794
  0
LINE
  5
123
330
E8
100
AcDbEntity
  8
AM_9
100
AcDbLine
 10
-30.78079920989707
 20
-3.67999999999999
 30
0.0
 11
30.780799209897
 21
-3.67999999999999
 31
0.0
  0
LINE
  5
124
330
E8
100
AcDbEntity
  8
AM_9
100
AcDbLine
 10
-29.9173726488917
 20
8.121010638297877
 30
0.0
 11
29.91737264889163
 21
8.121010638297877
 31
0.0
  0
ARC
  5
125
330
E8
100
AcDbEntity
  8
AM_9
100
AcDbCircle
 10
0.0000000024369911
 20
0.0000000001783226
 30
0.0
 40
30.99999999760134
100
AcDbArc
 50
353.1823597451813
 51
15.18687345603629
  0
ARC
  5
126
330
E8
100
AcDbEntity
  8
AM_9
100
AcDbCircle
 10
-0.000000011822447
 20
0.0000000008650121
 30
0.0
 40
30.99999998836376
100
AcDbArc
 50
164.8131265406443
 51
186.8176402581382
  0
ELLIPSE
  5
127
330
E8
100
AcDbEntity
  8
AM_9
100
AcDbEllipse
 10
13.71545690259133
 20
-16.35
 30
0.0
 11
-6.105170455449347E-16
 21
-3.323500000000003
 31
0.0
210
0.0
220
0.0
230
1.0
 40
0.4226182617406992
 41
0.0
 42
6.283185307179586
  0
LINE
  5
12A
330
E8
100
AcDbEntity
  8
AM_7
100
AcDbLine
 10
-3.489675
 20
-16.35000000000001
 30
0.0
 11
3.489675
 21
-16.35000000000001
 31
0.0
  0
ELLIPSE
  5
12B
330
E8
100
AcDbEntity
  8
AM_4
100
AcDbEllipse
 10
17.46772313345087
 20
-16.35000000000001
 30
0.0
 11
-6.105170455449347E-16
 21
-3.323500000000003
 31
0.0
210
0.0
220
0.0
230
1.0
 40
0.4226182617407004
 41
5.945237009114503
 42
9.754097663947912
  0
LWPOLYLINE
  5
12C
330
E8
100
AcDbEntity
  8
AM_4
100
AcDbPolyline
 90
       16
 70
     0
 43
0.0
 10
17.23275987190774
 20
-19.81390265263709
 10
17.15488284220508
 20
-19.71187542338027
 10
16.91803847540185
 20
-19.33559526618859
 10
16.70657271232541
 20
-18.89436310708496
 10
16.51338278328737
 20
-18.35276736436218
 10
16.36567229142643
 20
-17.76350348406404
 10
16.26469232539448
 20
-17.09424084029113
 10
16.22669127279295
 20
-16.40538127239773
 10
16.25645876388448
 20
-15.69140592434821
 10
16.3539565682825
 20
-14.99596412462942
 10
16.455324673279
 20
-14.55233860399912
 10
16.58336860724622
 20
-14.13060775407962
 10
16.73462579224123
 20
-13.73975385996241
 10
16.90112688756614
 20
-13.39572015326057
 10
17.08423165583305
 20
-13.08984887103643
 10
17.23299933584078
 20
-12.88579856353885
  0
LWPOLYLINE
  5
12D
330
E8
100
AcDbEntity
  8
AM_4
100
AcDbPolyline
 90
       11
 70
     0
 43
0.0
 10
17.23299933584078
 20
-12.88579856353885
 10
17.27882076858471
 20
-12.83026408439324
 10
17.46544976614164
 20
-12.6367961304827
 10
17.65609050016425
 20
-12.48991081606417
 10
17.84563109997752
 20
-12.39413076814834
 10
18.09622424362837
 20
-12.35067008097202
 10
18.33144851177629
 20
-12.40682115573537
 10
18.53597943327648
 20
-12.55315277819442
 10
18.71700477994852
 20
-12.78259647097314
 10
18.83835731994834
 20
-13.00987389669513
 10
18.94478106806154
 20
-13.2767470925896
  0
LINE
  5
12E
330
E8
100
AcDbEntity
  8
AM_4
100
AcDbLine
 10
-19.152
 20
-23.90000000000001
 30
0.0
 11
19.152
 21
-23.90000000000001
 31
0.0
  0
LINE
  5
12F
330
E8
100
AcDbEntity
  8
AM_4
100
AcDbLine
 10
19.152
 20
-23.90000000000001
 30
0.0
 11
19.95
 21
-23.102
 31
0.0
  0
LINE
  5
130
330
E8
100
AcDbEntity
  8
AM_4
100
AcDbLine
 10
-19.95
 20
-23.102
 30
0.0
 11
-19.152
 21
-23.90000000000001
 31
0.0
  0
LINE
  5
131
330
E8
100
AcDbEntity
  8
AM_4
100
AcDbLine
 10
-19.152
 20
14.7
 30
0.0
 11
19.152
 21
14.7
 31
0.0
  0
LINE
  5
132
330
E8
100
AcDbEntity
  8
AM_4
100
AcDbLine
 10
-19.152
 20
14.7
 30
0.0
 11
-19.95
 21
13.902
 31
0.0
  0
LINE
  5
133
330
E8
100
AcDbEntity
  8
AM_4
100
AcDbLine
 10
19.95
 20
13.902
 30
0.0
 11
19.152
 21
14.7
 31
0.0
  0
LINE
  5
134
330
E8
100
AcDbEntity
  8
AM_4
100
AcDbLine
 10
-19.95
 20
13.902
 30
0.0
 11
19.95
 21
13.902
 31
0.0
  0
LINE
  5
135
330
E8
100
AcDbEntity
  8
AM_4
100
AcDbLine
 10
19.95
 20
9.55
 30
0.0
 11
19.95
 21
13.902
 31
0.0
  0
LINE
  5
136
330
E8
100
AcDbEntity
  8
AM_4
100
AcDbLine
 10
-19.95
 20
13.902
 30
0.0
 11
-19.95
 21
9.55
 31
0.0
  0
CIRCLE
  5
137
330
E8
100
AcDbEntity
  8
AM_4
100
AcDbCircle
 10
0.0
 20
-16.35000000000001
 30
0.0
 40
3.3235
  0
LINE
  5
138
330
E8
100
AcDbEntity
  8
AM_4
100
AcDbLine
 10
-19.95
 20
-23.102
 30
0.0
 11
19.95
 21
-23.102
 31
0.0
  0
LWPOLYLINE
  5
139
330
E8
100
AcDbEntity
  8
AM_4
100
AcDbPolyline
 90
       44
 70
     0
 43
0.0
 10
-2.681926398977923
 20
-13.63129843282207
 10
-2.290399351210341
 20
-13.23292323588446
 10
-1.833268056008587
 20
-12.89009164431124
 10
-1.276733491594889
 20
-12.6024058461046
 10
-0.9705990242906127
 20
-12.49394365392581
 10
-0.6553748325989848
 20
-12.41497039462418
 10
-0.0845935414882502
 20
-12.35107399943407
 10
0.5070458228756598
 20
-12.38876411013966
 10
1.039580692359815
 20
-12.51552845753305
 10
1.557979094729022
 20
-12.73212872616878
 10
2.036876277558102
 20
-13.02916093879794
 10
2.47428965668622
 20
-13.405620839422
 10
2.869521183603613
 20
-13.87022245360271
 10
3.196232377506177
 20
-14.4034922186993
 10
3.450471263586502
 20
-15.01605868129793
 10
3.608971006393091
 20
-15.67882062129326
 10
3.661102925566741
 20
-16.37544249910879
 10
3.597477369739788
 20
-17.09081709563262
 10
3.419396780969409
 20
-17.77586535259919
 10
3.283941844160772
 20
-18.11421466517101
 10
3.11961394968414
 20
-18.43923110455309
 10
2.728300020635583
 20
-19.01308322866365
 10
2.488482674532158
 20
-19.28001286889683
 10
2.22478518096508
 20
-19.52337305118554
 10
1.688726758342216
 20
-19.89690171446435
 10
1.386603827627781
 20
-20.05045257558479
 10
1.070842460357985
 20
-20.17413940966808
 10
0.4944073962940747
 20
-20.3131529218051
 10
-0.117946852795051
 20
-20.34791187645835
 10
-0.6658777432522422
 20
-20.28291300822464
 10
-1.210390888417479
 20
-20.12389589105263
 10
-1.709729247956207
 20
-19.88483138004975
 10
-2.17668960039973
 20
-19.56300373788713
 10
-2.605948402249975
 20
-19.15549372767231
 10
-2.976162028824594
 20
-18.6751572916643
 10
-3.286443151771985
 20
-18.10872911689744
 10
-3.510032248311315
 20
-17.48440038869263
 10
-3.637089022967666
 20
-16.80677167042075
 10
-3.653871680264672
 20
-16.09816604525285
 10
-3.555338565934683
 20
-15.39779930977994
 10
-3.460199221403505
 20
-15.04642666187612
 10
-3.335472942921635
 20
-14.70470046075769
 10
-3.054267226566453
 20
-14.14879856758705
 10
-2.681926401450588
 20
-13.63129843120822
  0
LWPOLYLINE
  5
13A
330
E8
100
AcDbEntity
  8
AM_4
100
AcDbPolyline
 90
       22
 70
     0
 43
0.0
 10
18.94478106806154
 20
-13.2767470925896
 10
19.06504430493272
 20
-13.69155306506734
 10
19.16020899016653
 20
-14.15896180046854
 10
19.24115476411038
 20
-14.75242020619162
 10
19.29323263183963
 20
-15.38551480341613
 10
19.31892040233846
 20
-16.08114477459971
 10
19.3155214263117
 20
-16.78404827018941
 10
19.2965034397991
 20
-17.25688567378592
 10
19.2634405838862
 20
-17.719721431761
 10
19.21589486050001
 20
-18.16356004682022
 10
19.15335283661237
 20
-18.58030313215298
 10
19.07438820279132
 20
-18.96912641851425
 10
18.97856743658484
 20
-19.32115842404901
 10
18.87025397396032
 20
-19.61721051564633
 10
18.74469908049428
 20
-19.87095284959479
 10
18.60284595033191
 20
-20.07514526191527
 10
18.38264142687185
 20
-20.26545683803357
 10
18.13662025936714
 20
-20.34734722216064
 10
17.89392085776684
 20
-20.32147835701136
 10
17.64273078093057
 20
-20.20186112495902
 10
17.39485946391864
 20
-19.99596304013981
 10
17.23275987190774
 20
-19.81390265263709
  0
LINE
  5
13B
330
E8
100
AcDbEntity
  8
AM_4
100
AcDbLine
 10
19.95
 20
-23.102
 30
0.0
 11
19.95
 21
-9.550000000000004
 31
0.0
  0
LINE
  5
13C
330
E8
100
AcDbEntity
  8
AM_4
100
AcDbLine
 10
-19.95
 20
-9.550000000000004
 30
0.0
 11
-19.95
 21
-23.102
 31
0.0
  0
ARC
  5
13E
330
E8
100
AcDbEntity
  8
AM_5
100
AcDbCircle
 10
-0.0000000000000018
 20
-15.9
 30
0.0
 40
4.000000000000002
100
AcDbArc
 50
75.0
 51
15.0
  0
CIRCLE
  5
13F
330
E8
100
AcDbEntity
  8
AM_5
100
AcDbCircle
 10
0.0000000000000016
 20
-16.35
 30
0.0
 40
4.0
  0
ENDBLK
  5
EB
330
E8
100
AcDbEntity
  8
0
100
AcDbBlockEnd
  0
BLOCK
  5
142
330
140
100
AcDbEntity
  8
0
100
AcDbBlockBegin
  2
4_136893H_0_in_136893_4
 70
     2
 10
0.0
 20
0.0
 30
0.0
  3
4_136893H_0_in_136893_4
  1

  0
ATTDEF
  5
144
330
140
100
AcDbEntity
  8
AM_6
100
AcDbText
 10
74.49499999999999
 20
38.6194148821581
 30
0.0
 40
0.5
  1
NSTU-SCEZ-SHSS - Metric - housing
100
AcDbAttributeDefinition
  3

  2
NN
 70
     8
280
     0
  0
ATTDEF
  5
145
330
140
100
AcDbEntity
  8
AM_6
100
AcDbText
 10
74.49499999999999
 20
38.1194148821581
 30
0.0
 40
0.5
  1
SC Take-Up Bearings -Wide Slot -(Normal Duty) -Polymer Housed -Corrosion Resistant Insert -E-Z KLEEN
100
AcDbAttributeDefinition
  3

  2
NT
 70
     8
280
     0
  0
ATTDEF
  5
146
330
140
100
AcDbEntity
  8
AM_6
100
AcDbText
 10
74.49499999999999
 20
37.6194148821581
 30
0.0
 40
0.5
  1
136893H
100
AcDbAttributeDefinition
  3

  2
NB
 70
     8
280
     0
  0
ATTDEF
  5
147
330
140
100
AcDbEntity
  8
AM_6
100
AcDbText
 10
74.49499999999999
 20
37.1194148821581
 30
0.0
 40
0.5
  1
$PN.H
100
AcDbAttributeDefinition
  3

  2
NBSYN
 70
     8
280
     0
  0
ATTDEF
  5
148
330
140
100
AcDbEntity
  8
AM_6
100
AcDbText
 10
74.49499999999999
 20
36.6194148821581
 30
0.0
 40
0.5
  1
136893
100
AcDbAttributeDefinition
  3

  2
LINA
 70
     8
280
     0
  0
ATTDEF
  5
149
330
140
100
AcDbEntity
  8
AM_6
100
AcDbText
 10
74.49499999999999
 20
36.1194148821581
 30
0.0
 40
0.5
  1
206
100
AcDbAttributeDefinition
  3

  2
SERIES
 70
     8
280
     0
  0
ATTDEF
  5
14A
330
140
100
AcDbEntity
  8
AM_6
100
AcDbText
 10
74.49499999999999
 20
35.6194148821581
 30
0.0
 40
0.5
  1
30
100
AcDbAttributeDefinition
  3

  2
SS
 70
     8
280
     0
  0
ATTDEF
  5
14B
330
140
100
AcDbEntity
  8
AM_6
100
AcDbText
 10
74.49499999999999
 20
35.1194148821581
 30
0.0
 40
0.5
  1
136893
100
AcDbAttributeDefinition
  3

  2
PN
 70
     8
280
     0
  0
ATTDEF
  5
14C
330
140
100
AcDbEntity
  8
AM_6
100
AcDbText
 10
74.49499999999999
 20
34.6194148821581
 30
0.0
 40
0.5
  1
NSTU-SCEZ-30M-SHSS
100
AcDbAttributeDefinition
  3

  2
DESCRIPTION
 70
     8
280
     0
  0
ATTDEF
  5
14D
330
140
100
AcDbEntity
  8
AM_6
100
AcDbText
 10
74.49499999999999
 20
34.1194148821581
 30
0.0
 40
0.5
  1
1.14
100
AcDbAttributeDefinition
  3

  2
W
 70
     8
280
     0
  0
ATTDEF
  5
14E
330
140
100
AcDbEntity
  8
AM_6
100
AcDbText
 10
74.49499999999999
 20
33.6194148821581
 30
0.0
 40
0.5
  1
NS308
100
AcDbAttributeDefinition
  3

  2
FS
 70
     8
280
     0
  0
ATTDEF
  5
14F
330
140
100
AcDbEntity
  8
AM_6
100
AcDbText
 10
74.49499999999999
 20
33.1194148821581
 30
0.0
 40
0.5
  1
38.6
100
AcDbAttributeDefinition
  3

  2
A
 70
     8
280
     0
  0
ATTDEF
  5
150
330
140
100
AcDbEntity
  8
AM_6
100
AcDbText
 10
74.49499999999999
 20
32.6194148821581
 30
0.0
 40
0.5
  1
114.3
100
AcDbAttributeDefinition
  3

  2
B
 70
     8
280
     0
  0
ATTDEF
  5
151
330
140
100
AcDbEntity
  8
AM_6
100
AcDbText
 10
74.49499999999999
 20
32.1194148821581
 30
0.0
 40
0.5
  1
6.73
100
AcDbAttributeDefinition
  3

  2
C
 70
     8
280
     0
  0
ATTDEF
  5
152
330
140
100
AcDbEntity
  8
AM_6
100
AcDbText
 10
74.49499999999999
 20
31.6194148821581
 30
0.0
 40
0.5
  1
63.5
100
AcDbAttributeDefinition
  3

  2
D
 70
     8
280
     0
  0
ATTDEF
  5
153
330
140
100
AcDbEntity
  8
AM_6
100
AcDbText
 10
74.49499999999999
 20
31.1194148821581
 30
0.0
 40
0.5
  1
68.3
100
AcDbAttributeDefinition
  3

  2
E
 70
     8
280
     0
  0
ATTDEF
  5
154
330
140
100
AcDbEntity
  8
AM_6
100
AcDbText
 10
74.49499999999999
 20
30.6194148821581
 30
0.0
 40
0.5
  1
19.1
100
AcDbAttributeDefinition
  3

  2
F
 70
     8
280
     0
  0
ATTDEF
  5
155
330
140
100
AcDbEntity
  8
AM_6
100
AcDbText
 10
74.49499999999999
 20
30.1194148821581
 30
0.0
 40
0.5
  1
12.7
100
AcDbAttributeDefinition
  3

  2
G
 70
     8
280
     0
  0
ATTDEF
  5
156
330
140
100
AcDbEntity
  8
AM_6
100
AcDbText
 10
74.49499999999999
 20
29.6194148821581
 30
0.0
 40
0.5
  1
23.9
100
AcDbAttributeDefinition
  3

  2
H
 70
     8
280
     0
  0
ATTDEF
  5
157
330
140
100
AcDbEntity
  8
AM_6
100
AcDbText
 10
74.49499999999999
 20
29.1194148821581
 30
0.0
 40
0.5
  1
30.5
100
AcDbAttributeDefinition
  3

  2
J
 70
     8
280
     0
  0
ATTDEF
  5
158
330
140
100
AcDbEntity
  8
AM_6
100
AcDbText
 10
74.49499999999999
 20
28.6194148821581
 30
0.0
 40
0.5
  1
39.9
100
AcDbAttributeDefinition
  3

  2
L
 70
     8
280
     0
  0
ATTDEF
  5
159
330
140
100
AcDbEntity
  8
AM_6
100
AcDbText
 10
74.49499999999999
 20
28.1194148821581
 30
0.0
 40
0.5
  1
89.15 / 88.39
100
AcDbAttributeDefinition
  3

  2
M
 70
     8
280
     0
  0
ATTDEF
  5
15A
330
140
100
AcDbEntity
  8
AM_6
100
AcDbText
 10
74.49499999999999
 20
27.6194148821581
 30
0.0
 40
0.5
  1
104.9
100
AcDbAttributeDefinition
  3

  2
N
 70
     8
280
     0
  0
ATTDEF
  5
15B
330
140
100
AcDbEntity
  8
AM_6
100
AcDbText
 10
74.49499999999999
 20
27.1194148821581
 30
0.0
 40
0.5
  1
8.1
100
AcDbAttributeDefinition
  3

  2
P
 70
     8
280
     0
  0
ATTDEF
  5
15C
330
140
100
AcDbEntity
  8
AM_6
100
AcDbText
 10
74.49499999999999
 20
26.6194148821581
 30
0.0
 40
0.5
  1
14.7
100
AcDbAttributeDefinition
  3

  2
R
 70
     8
280
     0
  0
ATTDEF
  5
15D
330
140
100
AcDbEntity
  8
AM_6
100
AcDbText
 10
74.49499999999999
 20
26.1194148821581
 30
0.0
 40
0.5
  1
23.9
100
AcDbAttributeDefinition
  3

  2
S
 70
     8
280
     0
  0
ATTDEF
  5
15E
330
140
100
AcDbEntity
  8
AM_6
100
AcDbText
 10
74.49499999999999
 20
25.6194148821581
 30
0.0
 40
0.5
  1
2250
100
AcDbAttributeDefinition
  3

  2
CAPS
 70
     8
280
     0
  0
ATTDEF
  5
15F
330
140
100
AcDbEntity
  8
AM_6
100
AcDbText
 10
74.49499999999999
 20
25.1194148821581
 30
0.0
 40
0.5
  1
4368
100
AcDbAttributeDefinition
  3

  2
CAPD
 70
     8
280
     0
  0
ATTDEF
  5
160
330
140
100
AcDbEntity
  8
AM_6
100
AcDbText
 10
74.49499999999999
 20
24.6194148821581
 30
0.0
 40
0.5
  1
baldor
100
AcDbAttributeDefinition
  3

  2
COMPANY
 70
     8
280
     0
  0
LINE
  5
161
330
140
100
AcDbEntity
  8
AM_9
100
AcDbLine
 10
59.65
 20
9.546359275337007
 30
0.0
 11
59.65
 21
15.25
 31
0.0
  0
LINE
  5
162
330
140
100
AcDbEntity
  8
AM_9
100
AcDbLine
 10
51.55
 20
15.25
 30
0.0
 11
51.55
 21
9.550000000000002
 31
0.0
  0
LINE
  5
163
330
140
100
AcDbEntity
  8
AM_9
100
AcDbLine
 10
59.65
 20
-15.25
 30
0.0
 11
59.65
 21
-9.546359275337007
 31
0.0
  0
LINE
  5
164
330
140
100
AcDbEntity
  8
AM_9
100
AcDbLine
 10
51.55
 20
-9.55
 30
0.0
 11
51.55
 21
-15.25
 31
0.0
  0
LINE
  5
165
330
140
100
AcDbEntity
  8
AM_9
100
AcDbLine
 10
44.4
 20
9.55
 30
0.0
 11
44.4
 21
-9.55
 31
0.0
  0
LINE
  5
166
330
140
100
AcDbEntity
  8
AM_9
100
AcDbLine
 10
59.485830229799
 20
-9.481543997409903
 30
0.0
 11
59.64999999920087
 21
-9.549999999661102
 31
0.0
  0
LWPOLYLINE
  5
167
330
140
100
AcDbEntity
  8
AM_9
100
AcDbPolyline
 90
       25
 70
     0
 43
0.0
 10
51.55
 20
9.55
 10
51.60061518249288
 20
9.528645177490162
 10
51.75645792607574
 20
9.464291609731076
 10
52.00232172799734
 20
9.367138781337665
 10
52.34341522257251
 20
9.24150119907867
 10
52.77445140651039
 20
9.098556196131952
 10
53.2934799688931
 20
8.95097953600037
 10
53.89228572195437
 20
8.815684208014765
 10
54.22383974938069
 20
8.757523583157521
 10
54.56765871365616
 20
8.710093485806572
 10
55.22279027104575
 20
8.656921345352385
 10
55.56780358409426
 20
8.648792427939648
 10
55.91310023453289
 20
8.654364896216508
 10
56.52027077319922
 20
8.697522537826776
 10
57.11856089688975
 20
8.781003769362739
 10
57.67406962787889
 20
8.893917293369086
 10
58.18988692653851
 20
9.028151211197954
 10
58.66702334899142
 20
9.176417177921813
 10
59.07111992794484
 20
9.319263573597208
 10
59.23594854637126
 20
9.381899221362689
 10
59.37496682026707
 20
9.436650597225547
 10
59.48999297688565
 20
9.483242258700326
 10
59.57478330116932
 20
9.518345564816109
 10
59.64799684574719
 20
9.549150667110624
 10
59.64999999920087
 20
9.549999999661102
  0
LINE
  5
168
330
140
100
AcDbEntity
  8
AM_9
100
AcDbLine
 10
44.4
 20
-9.55
 30
0.0
 11
51.55
 21
-9.55
 31
0.0
  0
LINE
  5
169
330
140
100
AcDbEntity
  8
AM_9
100
AcDbLine
 10
59.64136928364734
 20
-9.55
 30
0.0
 11
68.3
 21
-9.55
 31
0.0
  0
LINE
  5
16A
330
140
100
AcDbEntity
  8
AM_9
100
AcDbLine
 10
68.3
 20
9.55
 30
0.0
 11
59.64136928364734
 21
9.55
 31
0.0
  0
LINE
  5
16B
330
140
100
AcDbEntity
  8
AM_9
100
AcDbLine
 10
51.55000000000001
 20
9.55
 30
0.0
 11
44.4
 21
9.55
 31
0.0
  0
LWPOLYLINE
  5
16C
330
140
100
AcDbEntity
  8
AM_9
100
AcDbPolyline
 90
       25
 70
     0
 43
0.0
 10
59.64999999920087
 20
-9.549999999661102
 10
59.61287864134533
 20
-9.534316702845857
 10
59.48247476341655
 20
-9.48016931750516
 10
59.25563638333477
 20
-9.38955149978746
 10
58.94036885515076
 20
-9.271357186974361
 10
58.53531889232804
 20
-9.133241319469114
 10
58.0329518701482
 20
-8.984389506385932
 10
57.44445711551879
 20
-8.843190716646786
 10
57.13162983405068
 20
-8.783290399598277
 10
56.80639537013028
 20
-8.732433211257433
 10
56.45932355393006
 20
-8.691316944725685
 10
56.10428410464361
 20
-8.663388624446915
 10
55.46207563296721
 20
-8.649799022579739
 10
54.80372529082964
 20
-8.685277969786826
 10
54.21781343233381
 20
-8.758449617816895
 10
53.65327588199431
 20
-8.865085154223001
 10
53.12021229696153
 20
-8.99718550726508
 10
52.63894303785657
 20
-9.141545729965918
 10
52.21613993867395
 20
-9.287115209505995
 10
52.03472963557923
 20
-9.35473498222942
 10
51.87999169210894
 20
-9.414800147150155
 10
51.66432528977199
 20
-9.502080583994667
 10
51.59595619926077
 20
-9.530592000719881
 10
51.55805825248527
 20
-9.546585415231064
 10
51.55
 20
-9.55
  0
LINE
  5
16D
330
140
100
AcDbEntity
  8
AM_9
100
AcDbLine
 10
59.64999999920087
 20
9.549999999661102
 30
0.0
 11
59.486110613531
 21
9.48165891079184
 31
0.0
  0
LINE
  5
16E
330
140
100
AcDbEntity
  8
AM_9
100
AcDbLine
 10
47.11876808338945
 20
-15.25
 30
0.0
 11
44.57500000000001
 21
-9.794871741
 31
0.0
  0
LINE
  5
16F
330
140
100
AcDbEntity
  8
AM_9
100
AcDbLine
 10
44.57500000000001
 20
-9.794871741
 30
0.0
 11
43.31133168429385
 21
-9.794871741000001
 31
0.0
  0
LINE
  5
170
330
140
100
AcDbEntity
  8
AM_9
100
AcDbLine
 10
44.57500000000013
 20
9.794871740999998
 30
0.0
 11
47.00377958294397
 21
15.25
 31
0.0
  0
LINE
  5
171
330
140
100
AcDbEntity
  8
AM_9
100
AcDbLine
 10
44.57500000000013
 20
9.794871740999998
 30
0.0
 11
43.31133168429397
 21
9.794871740999998
 31
0.0
  0
LINE
  5
172
330
140
100
AcDbEntity
  8
AM_9
100
AcDbLine
 10
-9.999999899999999
 20
-2.018999999999998
 30
0.0
 11
-9.999999899999999
 21
9.550000000000002
 31
0.0
  0
LINE
  5
173
330
140
100
AcDbEntity
  8
AM_9
100
AcDbLine
 10
9.999999899999999
 20
-2.018999999999998
 30
0.0
 11
9.999999899999999
 21
9.550000000000002
 31
0.0
  0
LINE
  5
174
330
140
100
AcDbEntity
  8
AM_9
100
AcDbLine
 10
31.0
 20
-9.794871741000001
 30
0.0
 11
31.0
 21
9.794871740999994
 31
0.0
  0
LINE
  5
175
330
140
100
AcDbEntity
  8
AM_9
100
AcDbLine
 10
-31.0
 20
9.550000000000002
 30
0.0
 11
-31.0
 21
-9.550000000000002
 31
0.0
  0
LINE
  5
176
330
140
100
AcDbEntity
  8
AM_9
100
AcDbLine
 10
9.999999899999999
 20
-2.018999999999998
 30
0.0
 11
-9.999999899999999
 21
-2.018999999999998
 31
0.0
  0
LINE
  5
177
330
140
100
AcDbEntity
  8
AM_7
100
AcDbLine
 10
55.6
 20
21.01
 30
0.0
 11
55.6
 21
-21.01
 31
0.0
  0
LINE
  5
178
330
140
100
AcDbEntity
  8
AM_7
100
AcDbLine
 10
69.49499999999999
 20
0.0
 30
0.0
 11
43.205
 21
0.0
 31
0.0
  0
LINE
  5
179
330
140
100
AcDbEntity
  8
AM_7
100
AcDbLine
 10
0.0
 20
38.6194148821581
 30
0.0
 11
0.0
 21
-47.26941450068837
 31
0.0
  0
LINE
  5
17A
330
140
100
AcDbEntity
  8
AM_4
100
AcDbLine
 10
68.3
 20
15.25
 30
0.0
 11
68.3
 21
-15.25
 31
0.0
  0
LINE
  5
17B
330
140
100
AcDbEntity
  8
AM_4
100
AcDbLine
 10
29.15374465256419
 20
-9.794871741000001
 30
0.0
 11
43.31133168429385
 21
-9.794871741000001
 31
0.0
  0
LWPOLYLINE
  5
17C
330
140
100
AcDbEntity
  8
AM_4
100
AcDbPolyline
 90
        3
 70
     0
 43
0.0
 10
43.31133168429384
 20
-9.794871740999994
 10
46.23266824726191
 20
-14.21435572215941
 10
46.84376188905478
 20
-15.25000000000001
  0
LINE
  5
17D
330
140
100
AcDbEntity
  8
AM_4
100
AcDbLine
 10
46.84376188905479
 20
-15.25
 30
0.0
 11
68.3
 21
-15.25
 31
0.0
  0
LINE
  5
17E
330
140
100
AcDbEntity
  8
AM_4
100
AcDbLine
 10
43.39858868673035
 20
-5.083333333333333
 30
0.0
 11
68.3
 21
-5.083333333333333
 31
0.0
  0
LINE
  5
17F
330
140
100
AcDbEntity
  8
AM_4
100
AcDbLine
 10
46.72809665826549
 20
15.25
 30
0.0
 11
68.3
 21
15.25
 31
0.0
  0
LWPOLYLINE
  5
180
330
140
100
AcDbEntity
  8
AM_4
100
AcDbPolyline
 90
        3
 70
     0
 43
0.0
 10
46.72809665826548
 20
15.25
 10
44.01851454522401
 20
10.82515317361177
 10
43.31133168429395
 20
9.794871741000009
  0
LINE
  5
181
330
140
100
AcDbEntity
  8
AM_4
100
AcDbLine
 10
43.31133168429397
 20
9.794871740999998
 30
0.0
 11
29.15374465256419
 21
9.794871740999998
 31
0.0
  0
LINE
  5
182
330
140
100
AcDbEntity
  8
AM_4
100
AcDbLine
 10
43.39858868673035
 20
5.083333333333335
 30
0.0
 11
68.3
 21
5.083333333333335
 31
0.0
  0
LINE
  5
183
330
140
100
AcDbEntity
  8
AM_4
100
AcDbLine
 10
29.06406238333214
 20
-9.549999999999997
 30
0.0
 11
29.1537446525642
 21
-9.794871741000001
 31
0.0
  0
LINE
  5
184
330
140
100
AcDbEntity
  8
AM_4
100
AcDbLine
 10
29.15374465256419
 20
9.794871740999993
 30
0.0
 11
29.06406238333214
 21
9.549999999999992
 31
0.0
  0
LWPOLYLINE
  5
185
330
140
100
AcDbEntity
  8
AM_4
100
AcDbPolyline
 90
        3
 70
     0
 43
0.0
 10
41.24879328201277
 20
-9.55
 10
42.52396084913202
 20
-7.87309718366977
 10
43.77013438280591
 20
-6.184999999999996
  0
LWPOLYLINE
  5
186
330
140
100
AcDbEntity
  8
AM_4
100
AcDbPolyline
 90
        3
 70
     0
 43
0.0
 10
43.77013438280591
 20
6.184999999999999
 10
42.52415062943653
 20
7.872843814565655
 10
41.24879328201277
 20
9.55
  0
LINE
  5
187
330
140
100
AcDbEntity
  8
AM_4
100
AcDbLine
 10
41.24879328201277
 20
-9.55
 30
0.0
 11
-42.63499999999999
 21
-9.55
 31
0.0
  0
LINE
  5
188
330
140
100
AcDbEntity
  8
AM_4
100
AcDbLine
 10
-45.99999999999999
 20
-6.184999999999999
 30
0.0
 11
-42.63499999999999
 21
-9.55
 31
0.0
  0
LINE
  5
189
330
140
100
AcDbEntity
  8
AM_4
100
AcDbLine
 10
43.77013438280591
 20
-6.184999999999993
 30
0.0
 11
43.39858868673035
 21
-5.083333333333329
 31
0.0
  0
LINE
  5
18A
330
140
100
AcDbEntity
  8
AM_4
100
AcDbLine
 10
43.39858868673035
 20
-5.083333333333333
 30
0.0
 11
43.39858868673035
 21
5.083333333333335
 31
0.0
  0
LINE
  5
18B
330
140
100
AcDbEntity
  8
AM_4
100
AcDbLine
 10
43.39858868673035
 20
5.083333333333334
 30
0.0
 11
43.77013438280591
 21
6.184999999999998
 31
0.0
  0
LINE
  5
18C
330
140
100
AcDbEntity
  8
AM_4
100
AcDbLine
 10
41.24879328201277
 20
9.55
 30
0.0
 11
-42.63499999999999
 21
9.55
 31
0.0
  0
LINE
  5
18D
330
140
100
AcDbEntity
  8
AM_4
100
AcDbLine
 10
-42.63499999999999
 20
9.55
 30
0.0
 11
-45.99999999999999
 21
6.184999999999998
 31
0.0
  0
LINE
  5
18E
330
140
100
AcDbEntity
  8
AM_4
100
AcDbLine
 10
43.77013438280591
 20
6.184999999999999
 30
0.0
 11
-45.99999999999999
 21
6.184999999999998
 31
0.0
  0
LINE
  5
18F
330
140
100
AcDbEntity
  8
AM_4
100
AcDbLine
 10
43.77013438280591
 20
-6.184999999999996
 30
0.0
 11
-45.99999999999999
 21
-6.184999999999999
 31
0.0
  0
LINE
  5
190
330
140
100
AcDbEntity
  8
AM_4
100
AcDbLine
 10
-45.99999999999999
 20
6.184999999999998
 30
0.0
 11
-45.99999999999999
 21
-6.184999999999999
 31
0.0
  0
LINE
  5
191
330
140
100
AcDbEntity
  8
AM_4
100
AcDbLine
 10
31.75
 20
-6.184999999999997
 30
0.0
 11
28.385
 21
-9.549999999999997
 31
0.0
  0
LINE
  5
192
330
140
100
AcDbEntity
  8
AM_4
100
AcDbLine
 10
-28.385
 20
-9.549999999999997
 30
0.0
 11
-31.75
 21
-6.184999999999995
 31
0.0
  0
LINE
  5
193
330
140
100
AcDbEntity
  8
AM_4
100
AcDbLine
 10
31.75
 20
3.365000000000003
 30
0.0
 11
-31.75
 21
3.365000000000004
 31
0.0
  0
LINE
  5
194
330
140
100
AcDbEntity
  8
AM_4
100
AcDbLine
 10
-31.75
 20
6.185000000000002
 30
0.0
 11
-31.75
 21
-6.184999999999995
 31
0.0
  0
LINE
  5
195
330
140
100
AcDbEntity
  8
AM_4
100
AcDbLine
 10
31.75
 20
-6.184999999999997
 30
0.0
 11
31.75
 21
6.185000000000003
 31
0.0
  0
LINE
  5
196
330
140
100
AcDbEntity
  8
AM_4
100
AcDbLine
 10
31.75
 20
-3.364999999999998
 30
0.0
 11
-31.74999999999999
 21
-3.364999999999998
 31
0.0
  0
LINE
  5
197
330
140
100
AcDbEntity
  8
AM_4
100
AcDbLine
 10
-31.75
 20
6.185000000000002
 30
0.0
 11
-28.385
 21
9.550000000000004
 31
0.0
  0
LINE
  5
198
330
140
100
AcDbEntity
  8
AM_4
100
AcDbLine
 10
28.385
 20
9.550000000000004
 30
0.0
 11
31.75
 21
6.185000000000003
 31
0.0
  0
ENDBLK
  5
143
330
140
100
AcDbEntity
  8
0
100
AcDbBlockEnd
  0
ENDSEC
  0
SECTION
  2
ENTITIES
  0
INSERT
  5
6F
330
1F
100
AcDbEntity
  8
0
100
AcDbBlockReference
  2
1_136893_4
 10
0.0
 20
0.0
 30
0.0
  0
POINT
  5
19A
330
1F
100
AcDbEntity
  8
ConnectionPoints
100
AcDbPoint
 10
0.0
 20
14.7
 30
-0.0000000000000009
  0
POINT
  5
19B
330
1F
100
AcDbEntity
  8
ConnectionPoints
100
AcDbPoint
 10
0.0
 20
-23.9
 30
0.0000000000000015
  0
POINT
  5
19C
330
1F
100
AcDbEntity
  8
ConnectionPoints
100
AcDbPoint
 10
-39.83716857408417
 20
-0.0000000000000014
 30
-22.99999999999999
  0
POINT
  5
19D
330
1F
100
AcDbEntity
  8
ConnectionPoints
100
AcDbPoint
 10
0.0
 20
-23.9
 30
0.0000000000000015
  0
ENDSEC
  0
SECTION
  2
OBJECTS
  0
DICTIONARY
  5
C
330
0
100
AcDbDictionary
281
     1
  3
ACAD_DETAILVIEWSTYLE
350
1A5
  3
ACAD_GROUP
350
D
  3
ACAD_LAYOUT
350
1A
  3
ACAD_MATERIAL
350
43
  3
ACAD_MLEADERSTYLE
350
6B
  3
ACAD_MLINESTYLE
350
17
  3
ACAD_PLOTSETTINGS
350
19
  3
ACAD_PLOTSTYLENAME
350
E
  3
ACAD_SCALELIST
350
47
  3
ACAD_SECTIONVIEWSTYLE
350
1A6
  3
ACAD_TABLESTYLE
350
69
  3
ACAD_VISUALSTYLE
350
2A
  3
ACDB_RECOMPOSE_DATA
350
1A2
  3
AcDbVariableDictionary
350
19E
  0
SUN
  5
6D
330
29
100
AcDbSun
 90
        1
290
     0
 63
     7
421
 16777215
 40
1.0
291
     1
 91
  2455826
 92
 54000000
292
     0
 70
     2
 71
   256
280
     1
  0
DICTIONARY
  5
1A5
102
{ACAD_REACTORS
330
C
102
}
330
C
100
AcDbDictionary
281
     1
  0
DICTIONARY
  5
D
102
{ACAD_REACTORS
330
C
102
}
330
C
100
AcDbDictionary
281
     1
  0
DICTIONARY
  5
1A
102
{ACAD_REACTORS
330
C
102
}
330
C
100
AcDbDictionary
281
     1
  3
Layout1
350
1E
  3
Layout2
350
26
  3
Model
350
22
  0
DICTIONARY
  5
43
102
{ACAD_REACTORS
330
C
102
}
330
C
100
AcDbDictionary
281
     1
  3
ByBlock
350
45
  3
ByLayer
350
44
  3
Global
350
46
  0
DICTIONARY
  5
6B
102
{ACAD_REACTORS
330
C
102
}
330
C
100
AcDbDictionary
281
     1
  3
Standard
350
6C
  0
DICTIONARY
  5
17
102
{ACAD_REACTORS
330
C
102
}
330
C
100
AcDbDictionary
281
     1
  3
Standard
350
18
  0
DICTIONARY
  5
19
102
{ACAD_REACTORS
330
C
102
}
330
C
100
AcDbDictionary
281
     1
  0
ACDBDICTIONARYWDFLT
  5
E
102
{ACAD_REACTORS
330
C
102
}
330
C
100
AcDbDictionary
281
     1
  3
Normal
350
F
100
AcDbDictionaryWithDefault
340
F
  0
DICTIONARY
  5
47
102
{ACAD_REACTORS
330
C
102
}
330
C
100
AcDbDictionary
281
     1
  3
A0
350
48
  3
A1
350
49
  3
A2
350
4A
  3
A3
350
4B
  3
A4
350
4C
  3
A5
350
4D
  3
A6
350
4E
  3
A7
350
4F
  3
A8
350
50
  3
A9
350
51
  3
B0
350
52
  3
B1
350
53
  3
B2
350
54
  3
B3
350
55
  3
B4
350
56
  3
B5
350
57
  3
B6
350
58
  3
B7
350
59
  3
B8
350
5A
  3
B9
350
5B
  3
C0
350
5C
  3
C1
350
5D
  3
C2
350
5E
  3
C3
350
5F
  3
C4
350
60
  3
C5
350
61
  3
C6
350
62
  3
C7
350
63
  3
C8
350
64
  3
C9
350
65
  3
D0
350
66
  3
D1
350
67
  3
D2
350
68
  0
DICTIONARY
  5
1A6
102
{ACAD_REACTORS
330
C
102
}
330
C
100
AcDbDictionary
281
     1
  0
DICTIONARY
  5
69
102
{ACAD_REACTORS
330
C
102
}
330
C
100
AcDbDictionary
281
     1
  3
Standard
350
6A
  0
DICTIONARY
  5
2A
102
{ACAD_REACTORS
330
C
102
}
330
C
100
AcDbDictionary
281
     1
  3
2dWireframe
350
2F
  3
Basic
350
32
  3
Brighten
350
36
  3
ColorChange
350
3A
  3
Conceptual
350
34
  3
Dim
350
35
  3
EdgeColorOff
350
3D
  3
Facepattern
350
39
  3
Flat
350
2B
  3
FlatWithEdges
350
2C
  3
Gouraud
350
2D
  3
GouraudWithEdges
350
2E
  3
Hidden
350
31
  3
JitterOff
350
3B
  3
Linepattern
350
38
  3
OverhangOff
350
3C
  3
Realistic
350
33
  3
Shaded
350
42
  3
Shaded with edges
350
41
  3
Shades of Gray
350
3E
  3
Sketchy
350
3F
  3
Thicken
350
37
  3
Wireframe
350
30
  3
X-Ray
350
40
  0
XRECORD
  5
1A2
102
{ACAD_REACTORS
330
C
102
}
330
C
100
AcDbXrecord
280
     1
 90
        1
330
6A
  0
DICTIONARY
  5
19E
102
{ACAD_REACTORS
330
C
102
}
330
C
100
AcDbDictionary
281
     1
  3
CANNOSCALE
350
19F
  3
CMLEADERSTYLE
350
1A4
  3
CTABLESTYLE
350
1A3
  0
LAYOUT
  5
1E
102
{ACAD_REACTORS
330
1A
102
}
330
1A
100
AcDbPlotSettings
  1

  2
none_device
  4

  6

 40
0.0
 41
0.0
 42
0.0
 43
0.0
 44
0.0
 45
0.0
 46
0.0
 47
0.0
 48
0.0
 49
0.0
140
0.0
141
0.0
142
1.0
143
1.0
 70
   688
 72
     1
 73
     0
 74
     5
  7

 75
    16
 76
     0
 77
     2
 78
   300
147
1.0
148
0.0
149
0.0
100
AcDbLayout
  1
Layout1
 70
     1
 71
     1
 10
0.0
 20
0.0
 11
420.0
 21
297.0
 12
0.0
 22
0.0
 32
0.0
 14
1.000000000000000E+20
 24
1.000000000000000E+20
 34
1.000000000000000E+20
 15
-1.000000000000000E+20
 25
-1.000000000000000E+20
 35
-1.000000000000000E+20
146
0.0
 13
0.0
 23
0.0
 33
0.0
 16
1.0
 26
0.0
 36
0.0
 17
0.0
 27
1.0
 37
0.0
 76
     0
330
1B
  0
LAYOUT
  5
26
102
{ACAD_REACTORS
330
1A
102
}
330
1A
100
AcDbPlotSettings
  1

  2
none_device
  4

  6

 40
0.0
 41
0.0
 42
0.0
 43
0.0
 44
0.0
 45
0.0
 46
0.0
 47
0.0
 48
0.0
 49
0.0
140
0.0
141
0.0
142
1.0
143
1.0
 70
   688
 72
     1
 73
     0
 74
     5
  7

 75
    16
 76
     0
 77
     2
 78
   300
147
1.0
148
0.0
149
0.0
100
AcDbLayout
  1
Layout2
 70
     1
 71
     2
 10
0.0
 20
0.0
 11
0.0
 21
0.0
 12
0.0
 22
0.0
 32
0.0
 14
0.0
 24
0.0
 34
0.0
 15
0.0
 25
0.0
 35
0.0
146
0.0
 13
0.0
 23
0.0
 33
0.0
 16
1.0
 26
0.0
 36
0.0
 17
0.0
 27
1.0
 37
0.0
 76
     0
330
23
  0
LAYOUT
  5
22
102
{ACAD_REACTORS
330
1A
102
}
330
1A
100
AcDbPlotSettings
  1

  2
none_device
  4
Letter_(8.50_x_11.00_Inches)
  6

 40
6.35
 41
6.35
 42
6.35000508
 43
6.35000508
 44
215.9
 45
279.4
 46
0.0
 47
0.0
 48
0.0
 49
0.0
140
0.0
141
0.0
142
1.0
143
1.0
 70
  1712
 72
     1
 73
     0
 74
     0
  7

 75
     0
 76
     0
 77
     2
 78
   300
147
1.0
148
0.0
149
0.0
100
AcDbLayout
  1
Model
 70
     1
 71
     0
 10
0.0
 20
0.0
 11
420.0
 21
297.0
 12
0.0
 22
0.0
 32
0.0
 14
1.000000000000000E+20
 24
1.000000000000000E+20
 34
1.000000000000000E+20
 15
-1.000000000000000E+20
 25
-1.000000000000000E+20
 35
-1.000000000000000E+20
146
0.0
 13
0.0
 23
0.0
 33
0.0
 16
1.0
 26
0.0
 36
0.0
 17
0.0
 27
1.0
 37
0.0
 76
     0
330
1F
331
29
  0
MATERIAL
  5
45
102
{ACAD_REACTORS
330
43
102
}
330
43
100
AcDbMaterial
  1
ByBlock
 72
     1
 94
      127
  0
MATERIAL
  5
44
102
{ACAD_REACTORS
330
43
102
}
330
43
100
AcDbMaterial
  1
ByLayer
 72
     1
 94
      127
  0
MATERIAL
  5
46
102
{ACAD_REACTORS
330
43
102
}
330
43
100
AcDbMaterial
  1
Global
 72
     1
 94
      127
  0
MLEADERSTYLE
  5
6C
102
{ACAD_REACTORS
330
6B
102
}
330
6B
100
AcDbMLeaderStyle
179
     2
170
     2
171
     1
172
     0
 90
        2
 40
0.0
 41
0.0
173
     1
 91
-1056964608
340
14
 92
       -2
290
     1
 42
2.0
291
     1
 43
8.0
  3
Standard
341
0
 44
4.0
300

342
11
174
     1
178
     6
175
     1
176
     0
 93
-1056964608
 45
4.0
292
     0
297
     0
 46
4.0
343
0
 94
-1056964608
 47
1.0
 49
1.0
140
1.0
293
     1
141
0.0
294
     1
177
     0
142
1.0
295
     0
296
     0
143
3.75
271
     0
272
     9
273
     9
298
     0
  0
MLINESTYLE
  5
18
102
{ACAD_REACTORS
330
17
102
}
330
17
100
AcDbMlineStyle
  2
Standard
 70
     0
  3

 62
   256
 51
90.0
 52
90.0
 71
     2
 49
0.5
 62
   256
  6
BYLAYER
 49
-0.5
 62
   256
  6
BYLAYER
  0
ACDBPLACEHOLDER
  5
F
102
{ACAD_REACTORS
330
E
102
}
330
E
  0
SCALE
  5
48
102
{ACAD_REACTORS
330
47
102
}
330
47
100
AcDbScale
 70
     0
300
1:1
140
1.0
141
1.0
290
     1
  0
SCALE
  5
49
102
{ACAD_REACTORS
330
47
102
}
330
47
100
AcDbScale
 70
     0
300
1:2
140
1.0
141
2.0
290
     0
  0
SCALE
  5
4A
102
{ACAD_REACTORS
330
47
102
}
330
47
100
AcDbScale
 70
     0
300
1:4
140
1.0
141
4.0
290
     0
  0
SCALE
  5
4B
102
{ACAD_REACTORS
330
47
102
}
330
47
100
AcDbScale
 70
     0
300
1:5
140
1.0
141
5.0
290
     0
  0
SCALE
  5
4C
102
{ACAD_REACTORS
330
47
102
}
330
47
100
AcDbScale
 70
     0
300
1:8
140
1.0
141
8.0
290
     0
  0
SCALE
  5
4D
102
{ACAD_REACTORS
330
47
102
}
330
47
100
AcDbScale
 70
     0
300
1:10
140
1.0
141
10.0
290
     0
  0
SCALE
  5
4E
102
{ACAD_REACTORS
330
47
102
}
330
47
100
AcDbScale
 70
     0
300
1:16
140
1.0
141
16.0
290
     0
  0
SCALE
  5
4F
102
{ACAD_REACTORS
330
47
102
}
330
47
100
AcDbScale
 70
     0
300
1:20
140
1.0
141
20.0
290
     0
  0
SCALE
  5
50
102
{ACAD_REACTORS
330
47
102
}
330
47
100
AcDbScale
 70
     0
300
1:30
140
1.0
141
30.0
290
     0
  0
SCALE
  5
51
102
{ACAD_REACTORS
330
47
102
}
330
47
100
AcDbScale
 70
     0
300
1:40
140
1.0
141
40.0
290
     0
  0
SCALE
  5
52
102
{ACAD_REACTORS
330
47
102
}
330
47
100
AcDbScale
 70
     0
300
1:50
140
1.0
141
50.0
290
     0
  0
SCALE
  5
53
102
{ACAD_REACTORS
330
47
102
}
330
47
100
AcDbScale
 70
     0
300
1:100
140
1.0
141
100.0
290
     0
  0
SCALE
  5
54
102
{ACAD_REACTORS
330
47
102
}
330
47
100
AcDbScale
 70
     0
300
2:1
140
2.0
141
1.0
290
     0
  0
SCALE
  5
55
102
{ACAD_REACTORS
330
47
102
}
330
47
100
AcDbScale
 70
     0
300
4:1
140
4.0
141
1.0
290
     0
  0
SCALE
  5
56
102
{ACAD_REACTORS
330
47
102
}
330
47
100
AcDbScale
 70
     0
300
8:1
140
8.0
141
1.0
290
     0
  0
SCALE
  5
57
102
{ACAD_REACTORS
330
47
102
}
330
47
100
AcDbScale
 70
     0
300
10:1
140
10.0
141
1.0
290
     0
  0
SCALE
  5
58
102
{ACAD_REACTORS
330
47
102
}
330
47
100
AcDbScale
 70
     0
300
100:1
140
100.0
141
1.0
290
     0
  0
SCALE
  5
59
102
{ACAD_REACTORS
330
47
102
}
330
47
100
AcDbScale
 70
     0
300
1/128" = 1'-0"
140
0.0078125
141
12.0
290
     0
  0
SCALE
  5
5A
102
{ACAD_REACTORS
330
47
102
}
330
47
100
AcDbScale
 70
     0
300
1/64" = 1'-0"
140
0.015625
141
12.0
290
     0
  0
SCALE
  5
5B
102
{ACAD_REACTORS
330
47
102
}
330
47
100
AcDbScale
 70
     0
300
1/32" = 1'-0"
140
0.03125
141
12.0
290
     0
  0
SCALE
  5
5C
102
{ACAD_REACTORS
330
47
102
}
330
47
100
AcDbScale
 70
     0
300
1/16" = 1'-0"
140
0.0625
141
12.0
290
     0
  0
SCALE
  5
5D
102
{ACAD_REACTORS
330
47
102
}
330
47
100
AcDbScale
 70
     0
300
3/32" = 1'-0"
140
0.09375
141
12.0
290
     0
  0
SCALE
  5
5E
102
{ACAD_REACTORS
330
47
102
}
330
47
100
AcDbScale
 70
     0
300
1/8" = 1'-0"
140
0.125
141
12.0
290
     0
  0
SCALE
  5
5F
102
{ACAD_REACTORS
330
47
102
}
330
47
100
AcDbScale
 70
     0
300
3/16" = 1'-0"
140
0.1875
141
12.0
290
     0
  0
SCALE
  5
60
102
{ACAD_REACTORS
330
47
102
}
330
47
100
AcDbScale
 70
     0
300
1/4" = 1'-0"
140
0.25
141
12.0
290
     0
  0
SCALE
  5
61
102
{ACAD_REACTORS
330
47
102
}
330
47
100
AcDbScale
 70
     0
300
3/8" = 1'-0"
140
0.375
141
12.0
290
     0
  0
SCALE
  5
62
102
{ACAD_REACTORS
330
47
102
}
330
47
100
AcDbScale
 70
     0
300
1/2" = 1'-0"
140
0.5
141
12.0
290
     0
  0
SCALE
  5
63
102
{ACAD_REACTORS
330
47
102
}
330
47
100
AcDbScale
 70
     0
300
3/4" = 1'-0"
140
0.75
141
12.0
290
     0
  0
SCALE
  5
64
102
{ACAD_REACTORS
330
47
102
}
330
47
100
AcDbScale
 70
     0
300
1" = 1'-0"
140
1.0
141
12.0
290
     0
  0
SCALE
  5
65
102
{ACAD_REACTORS
330
47
102
}
330
47
100
AcDbScale
 70
     0
300
1-1/2" = 1'-0"
140
1.5
141
12.0
290
     0
  0
SCALE
  5
66
102
{ACAD_REACTORS
330
47
102
}
330
47
100
AcDbScale
 70
     0
300
3" = 1'-0"
140
3.0
141
12.0
290
     0
  0
SCALE
  5
67
102
{ACAD_REACTORS
330
47
102
}
330
47
100
AcDbScale
 70
     0
300
6" = 1'-0"
140
6.0
141
12.0
290
     0
  0
SCALE
  5
68
102
{ACAD_REACTORS
330
47
102
}
330
47
100
AcDbScale
 70
     0
300
1'-0" = 1'-0"
140
12.0
141
12.0
290
     0
  0
TABLESTYLE
  5
6A
102
{ACAD_REACTORS
330
69
102
}
102
{ACAD_XDICTIONARY
360
1A0
102
}
330
69
100
AcDbTableStyle
  3
Standard
 70
     0
 71
     0
 40
0.06
 41
0.06
280
     0
281
     0
  7
Standard
140
4.5
170
     2
 62
     0
 63
   257
283
     0
 90
        4
 91
        0
  1

274
    -2
284
     1
 64
     0
275
    -2
285
     1
 65
     0
276
    -2
286
     1
 66
     0
277
    -2
287
     1
 67
     0
278
    -2
288
     1
 68
     0
279
    -2
289
     1
 69
     0
  7
Standard
140
6.0
170
     5
 62
     0
 63
   257
283
     0
 90
        4
 91
        0
  1

274
    -2
284
     1
 64
     0
275
    -2
285
     1
 65
     0
276
    -2
286
     1
 66
     0
277
    -2
287
     1
 67
     0
278
    -2
288
     1
 68
     0
279
    -2
289
     1
 69
     0
  7
Standard
140
4.5
170
     5
 62
     0
 63
   257
283
     0
 90
        4
 91
        0
  1

274
    -2
284
     1
 64
     0
275
    -2
285
     1
 65
     0
276
    -2
286
     1
 66
     0
277
    -2
287
     1
 67
     0
278
    -2
288
     1
 68
     0
279
    -2
289
     1
 69
     0
  0
VISUALSTYLE
  5
2F
102
{ACAD_REACTORS
330
2A
102
}
330
2A
100
AcDbVisualStyle
  2
2dWireframe
 70
     4
177
     3
291
     0
 70
    58
 90
        0
176
     1
 90
        2
176
     1
 90
        0
176
     1
 90
        0
176
     1
 40
0.6
176
     1
 40
30.0
176
     1
 62
     7
420
 16777215
176
     1
 90
        1
176
     1
 90
        4
176
     1
 62
     7
176
     1
 62
   257
176
     1
 90
        1
176
     1
 90
        1
176
     1
 40
1.0
176
     1
 90
        0
176
     1
 62
   257
176
     1
 40
1.0
176
     1
 90
        1
176
     1
 90
        6
176
     1
 90
        2
176
     1
 62
     7
176
     1
 90
        5
176
     1
 90
        0
176
     1
 90
        0
176
     1
290
     0
176
     1
 90
        1
176
     1
 40
0.0
176
     1
 90
        0
176
     1
290
     1
176
     1
290
     1
176
     1
290
     0
176
     1
290
     0
176
     1
290
     0
176
     1
290
     0
176
     1
290
     0
176
     1
290
     0
176
     1
290
     0
176
     1
 90
       50
176
     1
 40
0.0
176
     1
 40
1.0
176
     1
 90
        0
176
     1
 62
    18
420
        0
176
     1
 90
       50
176
     1
 90
        3
176
     1
 62
     5
420
      255
176
     1
290
     0
176
     1
 90
       50
176
     1
 90
       50
176
     1
 90
       50
176
     1
290
     0
176
     1
 90
       50
176
     1
 62
   256
176
     0
 40
1.0
176
     0
 90
        2
176
     1
  1
strokes_ogs.tif
176
     1
290
     0
176
     1
 40
1.0
176
     1
 40
1.0
176
     1
  0
VISUALSTYLE
  5
32
102
{ACAD_REACTORS
330
2A
102
}
330
2A
100
AcDbVisualStyle
  2
Basic
 70
     7
177
     3
291
     1
 70
    58
 90
        1
176
     1
 90
        0
176
     1
 90
        1
176
     1
 90
        0
176
     1
 40
0.6
176
     1
 40
30.0
176
     1
 62
     7
420
 16777215
176
     1
 90
        0
176
     1
 90
        4
176
     1
 62
     7
176
     1
 62
   257
176
     1
 90
        1
176
     1
 90
        1
176
     1
 40
1.0
176
     1
 90
        8
176
     1
 62
     7
176
     1
 40
1.0
176
     1
 90
        1
176
     1
 90
        6
176
     1
 90
        2
176
     1
 62
     7
176
     1
 90
        5
176
     1
 90
        0
176
     1
 90
        0
176
     1
290
     0
176
     1
 90
        1
176
     1
 40
0.0
176
     1
 90
        0
176
     1
290
     0
176
     1
290
     1
176
     1
290
     1
176
     1
290
     0
176
     1
290
     0
176
     1
290
     0
176
     1
290
     0
176
     1
290
     0
176
     1
290
     0
176
     1
 90
       50
176
     1
 40
0.0
176
     1
 40
1.0
176
     1
 90
        0
176
     1
 62
    18
420
        0
176
     1
 90
       50
176
     1
 90
        3
176
     1
 62
     5
420
      255
176
     1
290
     0
176
     1
 90
       50
176
     1
 90
       50
176
     1
 90
       50
176
     1
290
     0
176
     1
 90
       50
176
     1
 62
   256
176
     0
 40
1.0
176
     0
 90
        2
176
     1
  1
strokes_ogs.tif
176
     1
290
     0
176
     1
 40
1.0
176
     1
 40
1.0
176
     1
  0
VISUALSTYLE
  5
36
102
{ACAD_REACTORS
330
2A
102
}
330
2A
100
AcDbVisualStyle
  2
Brighten
 70
    12
177
     3
291
     1
 70
    58
 90
        2
176
     1
 90
        2
176
     1
 90
        0
176
     1
 90
        0
176
     1
 40
0.6
176
     1
 40
30.0
176
     1
 62
     7
420
 16777215
176
     1
 90
        1
176
     1
 90
        4
176
     1
 62
     7
176
     1
 62
   257
176
     1
 90
        1
176
     1
 90
        1
176
     1
 40
1.0
176
     1
 90
        8
176
     1
 62
     7
176
     1
 40
1.0
176
     1
 90
        1
176
     1
 90
        6
176
     1
 90
        2
176
     1
 62
     7
176
     1
 90
        5
176
     1
 90
        0
176
     1
 90
        0
176
     1
290
     0
176
     1
 90
        1
176
     1
 40
50.0
176
     1
 90
        0
176
     1
290
     0
176
     1
290
     1
176
     1
290
     1
176
     1
290
     0
176
     1
290
     0
176
     1
290
     0
176
     1
290
     0
176
     1
290
     0
176
     1
290
     0
176
     1
 90
       50
176
     1
 40
0.0
176
     1
 40
1.0
176
     1
 90
        0
176
     1
 62
    18
420
        0
176
     1
 90
       50
176
     1
 90
        3
176
     1
 62
     5
420
      255
176
     1
290
     0
176
     1
 90
       50
176
     1
 90
       50
176
     1
 90
       50
176
     1
290
     0
176
     1
 90
       50
176
     1
 62
   256
176
     0
 40
1.0
176
     0
 90
        2
176
     1
  1
strokes_ogs.tif
176
     1
290
     0
176
     1
 40
1.0
176
     1
 40
1.0
176
     1
  0
VISUALSTYLE
  5
3A
102
{ACAD_REACTORS
330
2A
102
}
330
2A
100
AcDbVisualStyle
  2
ColorChange
 70
    16
177
     3
291
     1
 70
    58
 90
        2
176
     1
 90
        2
176
     1
 90
        3
176
     1
 90
        0
176
     1
 40
0.6
176
     1
 40
30.0
176
     1
 62
     8
420
  8421504
176
     1
 90
        1
176
     1
 90
        4
176
     1
 62
     7
176
     1
 62
   257
176
     1
 90
        1
176
     1
 90
        1
176
     1
 40
1.0
176
     1
 90
        8
176
     1
 62
     8
420
  8421504
176
     1
 40
1.0
176
     1
 90
        1
176
     1
 90
        6
176
     1
 90
        2
176
     1
 62
     7
176
     1
 90
        5
176
     1
 90
        0
176
     1
 90
        0
176
     1
290
     0
176
     1
 90
        1
176
     1
 40
0.0
176
     1
 90
        0
176
     1
290
     0
176
     1
290
     1
176
     1
290
     1
176
     1
290
     0
176
     1
290
     0
176
     1
290
     0
176
     1
290
     0
176
     1
290
     0
176
     1
290
     0
176
     1
 90
       50
176
     1
 40
0.0
176
     1
 40
1.0
176
     1
 90
        0
176
     1
 62
    18
420
        0
176
     1
 90
       50
176
     1
 90
        3
176
     1
 62
     5
420
      255
176
     1
290
     0
176
     1
 90
       50
176
     1
 90
       50
176
     1
 90
       50
176
     1
290
     0
176
     1
 90
       50
176
     1
 62
   256
176
     0
 40
1.0
176
     0
 90
        2
176
     1
  1
strokes_ogs.tif
176
     1
290
     0
176
     1
 40
1.0
176
     1
 40
1.0
176
     1
  0
VISUALSTYLE
  5
34
102
{ACAD_REACTORS
330
2A
102
}
330
2A
100
AcDbVisualStyle
  2
Conceptual
 70
     9
177
     3
291
     0
 70
    58
 90
        3
176
     1
 90
        2
176
     1
 90
        0
176
     1
 90
        0
176
     1
 40
0.6
176
     1
 40
30.0
176
     1
 62
     7
420
 16777215
176
     1
 90
        2
176
     1
 90
        2
176
     1
 62
     7
176
     1
 62
   257
176
     1
 90
        1
176
     1
 90
        1
176
     1
 40
179.0
176
     1
 90
        8
176
     1
 62
     7
176
     1
 40
1.0
176
     1
 90
        1
176
     1
 90
        6
176
     1
 90
        2
176
     1
 62
     7
176
     1
 90
        3
176
     1
 90
        0
176
     1
 90
        0
176
     1
290
     0
176
     1
 90
        1
176
     1
 40
0.0
176
     1
 90
        0
176
     1
290
     0
176
     1
290
     1
176
     1
290
     1
176
     1
290
     0
176
     1
290
     0
176
     1
290
     0
176
     1
290
     0
176
     1
290
     0
176
     1
290
     0
176
     1
 90
       50
176
     1
 40
0.0
176
     1
 40
1.0
176
     1
 90
        0
176
     1
 62
    18
420
        0
176
     1
 90
       50
176
     1
 90
        3
176
     1
 62
     5
420
      255
176
     1
290
     0
176
     1
 90
       50
176
     1
 90
       50
176
     1
 90
       50
176
     1
290
     0
176
     1
 90
       50
176
     1
 62
   256
176
     0
 40
1.0
176
     0
 90
        2
176
     1
  1
strokes_ogs.tif
176
     1
290
     0
176
     1
 40
1.0
176
     1
 40
1.0
176
     1
  0
VISUALSTYLE
  5
35
102
{ACAD_REACTORS
330
2A
102
}
330
2A
100
AcDbVisualStyle
  2
Dim
 70
    11
177
     3
291
     1
 70
    58
 90
        2
176
     1
 90
        2
176
     1
 90
        0
176
     1
 90
        0
176
     1
 40
0.6
176
     1
 40
30.0
176
     1
 62
     7
420
 16777215
176
     1
 90
        1
176
     1
 90
        4
176
     1
 62
     7
176
     1
 62
   257
176
     1
 90
        1
176
     1
 90
        1
176
     1
 40
1.0
176
     1
 90
        8
176
     1
 62
     7
176
     1
 40
1.0
176
     1
 90
        1
176
     1
 90
        6
176
     1
 90
        2
176
     1
 62
     7
176
     1
 90
        5
176
     1
 90
        0
176
     1
 90
        0
176
     1
290
     0
176
     1
 90
        1
176
     1
 40
-50.0
176
     1
 90
        0
176
     1
290
     0
176
     1
290
     1
176
     1
290
     1
176
     1
290
     0
176
     1
290
     0
176
     1
290
     0
176
     1
290
     0
176
     1
290
     0
176
     1
290
     0
176
     1
 90
       50
176
     1
 40
0.0
176
     1
 40
1.0
176
     1
 90
        0
176
     1
 62
    18
420
        0
176
     1
 90
       50
176
     1
 90
        3
176
     1
 62
     5
420
      255
176
     1
290
     0
176
     1
 90
       50
176
     1
 90
       50
176
     1
 90
       50
176
     1
290
     0
176
     1
 90
       50
176
     1
 62
   256
176
     0
 40
1.0
176
     0
 90
        2
176
     1
  1
strokes_ogs.tif
176
     1
290
     0
176
     1
 40
1.0
176
     1
 40
1.0
176
     1
  0
VISUALSTYLE
  5
3D
102
{ACAD_REACTORS
330
2A
102
}
330
2A
100
AcDbVisualStyle
  2
EdgeColorOff
 70
    22
177
     3
291
     1
 70
    58
 90
        2
176
     0
 90
        2
176
     0
 90
        0
176
     0
 90
        0
176
     0
 40
0.6
176
     0
 40
30.0
176
     0
 62
     7
420
 16777215
176
     0
 90
        1
176
     0
 90
        4
176
     0
 62
     7
176
     0
 62
   257
176
     0
 90
        1
176
     0
 90
        1
176
     0
 40
1.0
176
     0
 90
        8
176
     2
 62
     7
176
     0
 40
1.0
176
     0
 90
        1
176
     0
 90
        6
176
     0
 90
        2
176
     0
 62
     7
176
     0
 90
        5
176
     0
 90
        0
176
     0
 90
        0
176
     0
290
     0
176
     0
 90
        1
176
     0
 40
0.0
176
     0
 90
        0
176
     0
290
     0
176
     0
290
     1
176
     0
290
     1
176
     0
290
     0
176
     0
290
     0
176
     0
290
     0
176
     0
290
     0
176
     0
290
     0
176
     0
290
     0
176
     0
 90
       50
176
     0
 40
0.0
176
     0
 40
1.0
176
     0
 90
        0
176
     0
 62
    18
420
        0
176
     0
 90
       50
176
     0
 90
        3
176
     0
 62
     5
420
      255
176
     0
290
     0
176
     0
 90
       50
176
     0
 90
       50
176
     0
 90
       50
176
     0
290
     0
176
     0
 90
       50
176
     0
 62
   256
176
     0
 40
1.0
176
     0
 90
        2
176
     0
  1
strokes_ogs.tif
176
     0
290
     0
176
     0
 40
1.0
176
     0
 40
1.0
176
     0
  0
VISUALSTYLE
  5
39
102
{ACAD_REACTORS
330
2A
102
}
330
2A
100
AcDbVisualStyle
  2
Facepattern
 70
    15
177
     3
291
     1
 70
    58
 90
        2
176
     1
 90
        2
176
     1
 90
        0
176
     1
 90
        0
176
     1
 40
0.6
176
     1
 40
30.0
176
     1
 62
     7
420
 16777215
176
     1
 90
        1
176
     1
 90
        4
176
     1
 62
     7
176
     1
 62
   257
176
     1
 90
        1
176
     1
 90
        1
176
     1
 40
1.0
176
     1
 90
        8
176
     1
 62
     7
176
     1
 40
1.0
176
     1
 90
        1
176
     1
 90
        6
176
     1
 90
        2
176
     1
 62
     7
176
     1
 90
        5
176
     1
 90
        0
176
     1
 90
        0
176
     1
290
     0
176
     1
 90
        1
176
     1
 40
0.0
176
     1
 90
        0
176
     1
290
     0
176
     1
290
     1
176
     1
290
     1
176
     1
290
     0
176
     1
290
     0
176
     1
290
     0
176
     1
290
     0
176
     1
290
     0
176
     1
290
     0
176
     1
 90
       50
176
     1
 40
0.0
176
     1
 40
1.0
176
     1
 90
        0
176
     1
 62
    18
420
        0
176
     1
 90
       50
176
     1
 90
        3
176
     1
 62
     5
420
      255
176
     1
290
     0
176
     1
 90
       50
176
     1
 90
       50
176
     1
 90
       50
176
     1
290
     0
176
     1
 90
       50
176
     1
 62
   256
176
     0
 40
1.0
176
     0
 90
        2
176
     1
  1
strokes_ogs.tif
176
     1
290
     0
176
     1
 40
1.0
176
     1
 40
1.0
176
     1
  0
VISUALSTYLE
  5
2B
102
{ACAD_REACTORS
330
2A
102
}
330
2A
100
AcDbVisualStyle
  2
Flat
 70
     0
177
     3
291
     1
 70
    58
 90
        2
176
     1
 90
        1
176
     1
 90
        1
176
     1
 90
        2
176
     1
 40
0.6
176
     1
 40
30.0
176
     1
 62
     7
420
 16777215
176
     1
 90
        0
176
     1
 90
        0
176
     1
 62
     7
176
     1
 62
   257
176
     1
 90
        1
176
     1
 90
        1
176
     1
 40
1.0
176
     1
 90
        8
176
     1
 62
     7
176
     1
 40
1.0
176
     1
 90
        1
176
     1
 90
        6
176
     1
 90
        2
176
     1
 62
     7
176
     1
 90
        5
176
     1
 90
        0
176
     1
 90
        0
176
     1
290
     0
176
     1
 90
       13
176
     1
 40
0.0
176
     1
 90
        0
176
     1
290
     0
176
     1
290
     1
176
     1
290
     1
176
     1
290
     0
176
     1
290
     0
176
     1
290
     0
176
     1
290
     0
176
     1
290
     0
176
     1
290
     0
176
     1
 90
       50
176
     1
 40
0.0
176
     1
 40
1.0
176
     1
 90
        0
176
     1
 62
    18
420
        0
176
     1
 90
       50
176
     1
 90
        3
176
     1
 62
     5
420
      255
176
     1
290
     0
176
     1
 90
       50
176
     1
 90
       50
176
     1
 90
       50
176
     1
290
     0
176
     1
 90
       50
176
     1
 62
   256
176
     0
 40
1.0
176
     0
 90
        2
176
     1
  1
strokes_ogs.tif
176
     1
290
     0
176
     1
 40
1.0
176
     1
 40
1.0
176
     1
  0
VISUALSTYLE
  5
2C
102
{ACAD_REACTORS
330
2A
102
}
330
2A
100
AcDbVisualStyle
  2
FlatWithEdges
 70
     1
177
     3
291
     1
 70
    58
 90
        2
176
     1
 90
        1
176
     1
 90
        1
176
     1
 90
        2
176
     1
 40
0.6
176
     1
 40
30.0
176
     1
 62
     7
420
 16777215
176
     1
 90
        1
176
     1
 90
        0
176
     1
 62
     7
176
     1
 62
   257
176
     1
 90
        1
176
     1
 90
        1
176
     1
 40
1.0
176
     1
 90
        0
176
     1
 62
   257
176
     1
 40
1.0
176
     1
 90
        1
176
     1
 90
        6
176
     1
 90
        2
176
     1
 62
     7
176
     1
 90
        5
176
     1
 90
        0
176
     1
 90
        0
176
     1
290
     0
176
     1
 90
       13
176
     1
 40
0.0
176
     1
 90
        0
176
     1
290
     0
176
     1
290
     1
176
     1
290
     1
176
     1
290
     0
176
     1
290
     0
176
     1
290
     0
176
     1
290
     0
176
     1
290
     0
176
     1
290
     0
176
     1
 90
       50
176
     1
 40
0.0
176
     1
 40
1.0
176
     1
 90
        0
176
     1
 62
    18
420
        0
176
     1
 90
       50
176
     1
 90
        3
176
     1
 62
     5
420
      255
176
     1
290
     0
176
     1
 90
       50
176
     1
 90
       50
176
     1
 90
       50
176
     1
290
     0
176
     1
 90
       50
176
     1
 62
   256
176
     0
 40
1.0
176
     0
 90
        2
176
     1
  1
strokes_ogs.tif
176
     1
290
     0
176
     1
 40
1.0
176
     1
 40
1.0
176
     1
  0
VISUALSTYLE
  5
2D
102
{ACAD_REACTORS
330
2A
102
}
330
2A
100
AcDbVisualStyle
  2
Gouraud
 70
     2
177
     3
291
     1
 70
    58
 90
        2
176
     1
 90
        2
176
     1
 90
        1
176
     1
 90
        2
176
     1
 40
0.6
176
     1
 40
30.0
176
     1
 62
     7
420
 16777215
176
     1
 90
        0
176
     1
 90
        0
176
     1
 62
     7
176
     1
 62
   257
176
     1
 90
        1
176
     1
 90
        1
176
     1
 40
1.0
176
     1
 90
        0
176
     1
 62
     7
176
     1
 40
1.0
176
     1
 90
        1
176
     1
 90
        6
176
     1
 90
        2
176
     1
 62
     7
176
     1
 90
        5
176
     1
 90
        0
176
     1
 90
        0
176
     1
290
     0
176
     1
 90
       13
176
     1
 40
0.0
176
     1
 90
        0
176
     1
290
     0
176
     1
290
     1
176
     1
290
     1
176
     1
290
     0
176
     1
290
     0
176
     1
290
     0
176
     1
290
     0
176
     1
290
     0
176
     1
290
     0
176
     1
 90
       50
176
     1
 40
0.0
176
     1
 40
1.0
176
     1
 90
        0
176
     1
 62
    18
420
        0
176
     1
 90
       50
176
     1
 90
        3
176
     1
 62
     5
420
      255
176
     1
290
     0
176
     1
 90
       50
176
     1
 90
       50
176
     1
 90
       50
176
     1
290
     0
176
     1
 90
       50
176
     1
 62
   256
176
     0
 40
1.0
176
     0
 90
        2
176
     1
  1
strokes_ogs.tif
176
     1
290
     0
176
     1
 40
1.0
176
     1
 40
1.0
176
     1
  0
VISUALSTYLE
  5
2E
102
{ACAD_REACTORS
330
2A
102
}
330
2A
100
AcDbVisualStyle
  2
GouraudWithEdges
 70
     3
177
     3
291
     1
 70
    58
 90
        2
176
     1
 90
        2
176
     1
 90
        1
176
     1
 90
        2
176
     1
 40
0.6
176
     1
 40
30.0
176
     1
 62
     7
420
 16777215
176
     1
 90
        1
176
     1
 90
        0
176
     1
 62
     7
176
     1
 62
   257
176
     1
 90
        1
176
     1
 90
        1
176
     1
 40
1.0
176
     1
 90
        0
176
     1
 62
   257
176
     1
 40
1.0
176
     1
 90
        1
176
     1
 90
        6
176
     1
 90
        2
176
     1
 62
     7
176
     1
 90
        5
176
     1
 90
        0
176
     1
 90
        0
176
     1
290
     0
176
     1
 90
       13
176
     1
 40
0.0
176
     1
 90
        0
176
     1
290
     0
176
     1
290
     1
176
     1
290
     1
176
     1
290
     0
176
     1
290
     0
176
     1
290
     0
176
     1
290
     0
176
     1
290
     0
176
     1
290
     0
176
     1
 90
       50
176
     1
 40
0.0
176
     1
 40
1.0
176
     1
 90
        0
176
     1
 62
    18
420
        0
176
     1
 90
       50
176
     1
 90
        3
176
     1
 62
     5
420
      255
176
     1
290
     0
176
     1
 90
       50
176
     1
 90
       50
176
     1
 90
       50
176
     1
290
     0
176
     1
 90
       50
176
     1
 62
   256
176
     0
 40
1.0
176
     0
 90
        2
176
     1
  1
strokes_ogs.tif
176
     1
290
     0
176
     1
 40
1.0
176
     1
 40
1.0
176
     1
  0
VISUALSTYLE
  5
31
102
{ACAD_REACTORS
330
2A
102
}
330
2A
100
AcDbVisualStyle
  2
Hidden
 70
     6
177
     3
291
     0
 70
    58
 90
        1
176
     1
 90
        2
176
     1
 90
        2
176
     1
 90
        0
176
     1
 40
0.6
176
     1
 40
30.0
176
     1
 62
     7
420
 16777215
176
     1
 90
        2
176
     1
 90
        2
176
     1
 62
     7
176
     1
 62
   257
176
     1
 90
        2
176
     1
 90
        1
176
     1
 40
40.0
176
     1
 90
        0
176
     1
 62
   257
176
     1
 40
1.0
176
     1
 90
        1
176
     1
 90
        6
176
     1
 90
        2
176
     1
 62
     7
176
     1
 90
        3
176
     1
 90
        0
176
     1
 90
        0
176
     1
290
     0
176
     1
 90
        1
176
     1
 40
0.0
176
     1
 90
        0
176
     1
290
     0
176
     1
290
     1
176
     1
290
     1
176
     1
290
     0
176
     1
290
     0
176
     1
290
     0
176
     1
290
     0
176
     1
290
     0
176
     1
290
     0
176
     1
 90
       50
176
     1
 40
0.0
176
     1
 40
1.0
176
     1
 90
        0
176
     1
 62
    18
420
        0
176
     1
 90
       50
176
     1
 90
        3
176
     1
 62
     5
420
      255
176
     1
290
     0
176
     1
 90
       50
176
     1
 90
       50
176
     1
 90
       50
176
     1
290
     0
176
     1
 90
       50
176
     1
 62
   256
176
     0
 40
1.0
176
     0
 90
        2
176
     1
  1
strokes_ogs.tif
176
     1
290
     0
176
     1
 40
1.0
176
     1
 40
1.0
176
     1
  0
VISUALSTYLE
  5
3B
102
{ACAD_REACTORS
330
2A
102
}
330
2A
100
AcDbVisualStyle
  2
JitterOff
 70
    20
177
     3
291
     1
 70
    58
 90
        2
176
     0
 90
        2
176
     0
 90
        0
176
     0
 90
        0
176
     0
 40
0.6
176
     0
 40
30.0
176
     0
 62
     7
420
 16777215
176
     0
 90
        1
176
     0
 90
        4
176
     0
 62
     7
176
     0
 62
   257
176
     0
 90
        1
176
     0
 90
        1
176
     0
 40
1.0
176
     0
 90
       10
176
     2
 62
     7
176
     0
 40
1.0
176
     0
 90
        1
176
     0
 90
        6
176
     0
 90
        2
176
     0
 62
     7
176
     0
 90
        5
176
     0
 90
        0
176
     0
 90
        0
176
     0
290
     0
176
     0
 90
        1
176
     0
 40
0.0
176
     0
 90
        0
176
     0
290
     0
176
     0
290
     1
176
     0
290
     1
176
     0
290
     0
176
     0
290
     0
176
     0
290
     0
176
     0
290
     0
176
     0
290
     0
176
     0
290
     0
176
     0
 90
       50
176
     0
 40
0.0
176
     0
 40
1.0
176
     0
 90
        0
176
     0
 62
    18
420
        0
176
     0
 90
       50
176
     0
 90
        3
176
     0
 62
     5
420
      255
176
     0
290
     0
176
     0
 90
       50
176
     0
 90
       50
176
     0
 90
       50
176
     0
290
     0
176
     0
 90
       50
176
     0
 62
   256
176
     0
 40
1.0
176
     0
 90
        2
176
     0
  1
strokes_ogs.tif
176
     0
290
     0
176
     0
 40
1.0
176
     0
 40
1.0
176
     0
  0
VISUALSTYLE
  5
38
102
{ACAD_REACTORS
330
2A
102
}
330
2A
100
AcDbVisualStyle
  2
Linepattern
 70
    14
177
     3
291
     1
 70
    58
 90
        2
176
     1
 90
        2
176
     1
 90
        0
176
     1
 90
        0
176
     1
 40
0.6
176
     1
 40
30.0
176
     1
 62
     7
420
 16777215
176
     1
 90
        1
176
     1
 90
        4
176
     1
 62
     7
176
     1
 62
   257
176
     1
 90
        7
176
     1
 90
        7
176
     1
 40
1.0
176
     1
 90
        8
176
     1
 62
     7
176
     1
 40
1.0
176
     1
 90
        1
176
     1
 90
        6
176
     1
 90
        2
176
     1
 62
     7
176
     1
 90
        5
176
     1
 90
        0
176
     1
 90
        0
176
     1
290
     0
176
     1
 90
        1
176
     1
 40
0.0
176
     1
 90
        0
176
     1
290
     0
176
     1
290
     1
176
     1
290
     1
176
     1
290
     0
176
     1
290
     0
176
     1
290
     0
176
     1
290
     0
176
     1
290
     0
176
     1
290
     0
176
     1
 90
       50
176
     1
 40
0.0
176
     1
 40
1.0
176
     1
 90
        0
176
     1
 62
    18
420
        0
176
     1
 90
       50
176
     1
 90
        3
176
     1
 62
     5
420
      255
176
     1
290
     0
176
     1
 90
       50
176
     1
 90
       50
176
     1
 90
       50
176
     1
290
     0
176
     1
 90
       50
176
     1
 62
   256
176
     0
 40
1.0
176
     0
 90
        2
176
     1
  1
strokes_ogs.tif
176
     1
290
     0
176
     1
 40
1.0
176
     1
 40
1.0
176
     1
  0
VISUALSTYLE
  5
3C
102
{ACAD_REACTORS
330
2A
102
}
330
2A
100
AcDbVisualStyle
  2
OverhangOff
 70
    21
177
     3
291
     1
 70
    58
 90
        2
176
     0
 90
        2
176
     0
 90
        0
176
     0
 90
        0
176
     0
 40
0.6
176
     0
 40
30.0
176
     0
 62
     7
420
 16777215
176
     0
 90
        1
176
     0
 90
        4
176
     0
 62
     7
176
     0
 62
   257
176
     0
 90
        1
176
     0
 90
        1
176
     0
 40
1.0
176
     0
 90
        9
176
     2
 62
     7
176
     0
 40
1.0
176
     0
 90
        1
176
     0
 90
        6
176
     0
 90
        2
176
     0
 62
     7
176
     0
 90
        5
176
     0
 90
        0
176
     0
 90
        0
176
     0
290
     0
176
     0
 90
        1
176
     0
 40
0.0
176
     0
 90
        0
176
     0
290
     0
176
     0
290
     1
176
     0
290
     1
176
     0
290
     0
176
     0
290
     0
176
     0
290
     0
176
     0
290
     0
176
     0
290
     0
176
     0
290
     0
176
     0
 90
       50
176
     0
 40
0.0
176
     0
 40
1.0
176
     0
 90
        0
176
     0
 62
    18
420
        0
176
     0
 90
       50
176
     0
 90
        3
176
     0
 62
     5
420
      255
176
     0
290
     0
176
     0
 90
       50
176
     0
 90
       50
176
     0
 90
       50
176
     0
290
     0
176
     0
 90
       50
176
     0
 62
   256
176
     0
 40
1.0
176
     0
 90
        2
176
     0
  1
strokes_ogs.tif
176
     0
290
     0
176
     0
 40
1.0
176
     0
 40
1.0
176
     0
  0
VISUALSTYLE
  5
33
102
{ACAD_REACTORS
330
2A
102
}
330
2A
100
AcDbVisualStyle
  2
Realistic
 70
     8
177
     3
291
     0
 70
    58
 90
        2
176
     1
 90
        3
176
     1
 90
        0
176
     1
 90
        2
176
     1
 40
0.6
176
     1
 40
30.0
176
     1
 62
     7
420
 16777215
176
     1
 90
        0
176
     1
 90
        0
176
     1
 62
     7
176
     1
 62
   257
176
     1
 90
        1
176
     1
 90
        1
176
     1
 40
1.0
176
     1
 90
        8
176
     1
 62
   257
176
     1
 40
1.0
176
     1
 90
        1
176
     1
 90
        6
176
     1
 90
        2
176
     1
 62
     7
176
     1
 90
        3
176
     1
 90
        0
176
     1
 90
        0
176
     1
290
     0
176
     1
 90
       13
176
     1
 40
0.0
176
     1
 90
        0
176
     1
290
     0
176
     1
290
     1
176
     1
290
     1
176
     1
290
     0
176
     1
290
     0
176
     1
290
     0
176
     1
290
     0
176
     1
290
     0
176
     1
290
     0
176
     1
 90
       50
176
     1
 40
0.0
176
     1
 40
1.0
176
     1
 90
        0
176
     1
 62
    18
420
        0
176
     1
 90
       50
176
     1
 90
        3
176
     1
 62
     5
420
      255
176
     1
290
     0
176
     1
 90
       50
176
     1
 90
       50
176
     1
 90
       50
176
     1
290
     0
176
     1
 90
       50
176
     1
 62
   256
176
     0
 40
1.0
176
     0
 90
        2
176
     1
  1
strokes_ogs.tif
176
     1
290
     0
176
     1
 40
1.0
176
     1
 40
1.0
176
     1
  0
VISUALSTYLE
  5
42
102
{ACAD_REACTORS
330
2A
102
}
330
2A
100
AcDbVisualStyle
  2
Shaded
 70
    27
177
     3
291
     0
 70
    58
 90
        2
176
     1
 90
        2
176
     1
 90
        1
176
     1
 90
        2
176
     1
 40
0.6
176
     1
 40
30.0
176
     1
 62
     7
420
 16777215
176
     1
 90
        0
176
     1
 90
        4
176
     1
 62
     7
176
     1
 62
   257
176
     1
 90
        1
176
     1
 90
        1
176
     1
 40
1.0
176
     1
 90
        8
176
     1
 62
   257
176
     1
 40
1.0
176
     1
 90
        1
176
     1
 90
        6
176
     1
 90
        2
176
     1
 62
     8
420
  7895160
176
     1
 90
        3
176
     1
 90
        0
176
     1
 90
        0
176
     1
290
     0
176
     1
 90
        5
176
     1
 40
0.0
176
     1
 90
        0
176
     1
290
     0
176
     1
290
     1
176
     1
290
     1
176
     1
290
     0
176
     1
290
     0
176
     1
290
     0
176
     1
290
     0
176
     1
290
     0
176
     1
290
     0
176
     1
 90
       50
176
     1
 40
0.0
176
     1
 40
1.0
176
     1
 90
        0
176
     1
 62
    18
420
        0
176
     1
 90
       50
176
     1
 90
        3
176
     1
 62
     5
420
      255
176
     1
290
     0
176
     1
 90
       50
176
     1
 90
       50
176
     1
 90
       50
176
     1
290
     0
176
     1
 90
       50
176
     1
 62
   256
176
     0
 40
1.0
176
     0
 90
        2
176
     1
  1
strokes_ogs.tif
176
     1
290
     0
176
     1
 40
1.0
176
     1
 40
1.0
176
     1
  0
VISUALSTYLE
  5
41
102
{ACAD_REACTORS
330
2A
102
}
330
2A
100
AcDbVisualStyle
  2
Shaded with edges
 70
    26
177
     3
291
     0
 70
    58
 90
        2
176
     1
 90
        2
176
     1
 90
        1
176
     1
 90
        2
176
     1
 40
0.6
176
     1
 40
30.0
176
     1
 62
     7
420
 16777215
176
     1
 90
        1
176
     1
 90
       10
176
     1
 62
     7
176
     1
 62
   257
176
     1
 90
        2
176
     1
 90
        1
176
     1
 40
1.0
176
     1
 90
        8
176
     1
 62
   257
176
     1
 40
1.0
176
     1
 90
        1
176
     1
 90
        6
176
     1
 90
        2
176
     1
 62
     7
176
     1
 90
        3
176
     1
 90
        0
176
     1
 90
        0
176
     1
290
     0
176
     1
 90
        5
176
     1
 40
0.0
176
     1
 90
        0
176
     1
290
     0
176
     1
290
     1
176
     1
290
     1
176
     1
290
     0
176
     1
290
     0
176
     1
290
     0
176
     1
290
     0
176
     1
290
     0
176
     1
290
     0
176
     1
 90
       50
176
     1
 40
0.0
176
     1
 40
1.0
176
     1
 90
        0
176
     1
 62
    18
420
        0
176
     1
 90
       50
176
     1
 90
        3
176
     1
 62
     5
420
      255
176
     1
290
     0
176
     1
 90
       50
176
     1
 90
       50
176
     1
 90
       50
176
     1
290
     0
176
     1
 90
       50
176
     1
 62
   256
176
     0
 40
1.0
176
     0
 90
        2
176
     1
  1
strokes_ogs.tif
176
     1
290
     0
176
     1
 40
1.0
176
     1
 40
1.0
176
     1
  0
VISUALSTYLE
  5
3E
102
{ACAD_REACTORS
330
2A
102
}
330
2A
100
AcDbVisualStyle
  2
Shades of Gray
 70
    23
177
     3
291
     0
 70
    58
 90
        2
176
     1
 90
        2
176
     1
 90
        3
176
     1
 90
        0
176
     1
 40
0.6
176
     1
 40
30.0
176
     1
 62
     7
420
 16777215
176
     1
 90
        2
176
     1
 90
        2
176
     1
 62
     7
176
     1
 62
     7
176
     1
 90
        1
176
     1
 90
        1
176
     1
 40
40.0
176
     1
 90
        8
176
     1
 62
     7
176
     1
 40
1.0
176
     1
 90
        1
176
     1
 90
        6
176
     1
 90
        2
176
     1
 62
     7
176
     1
 90
        3
176
     1
 90
        0
176
     1
 90
        0
176
     1
290
     0
176
     1
 90
        1
176
     1
 40
0.0
176
     1
 90
        0
176
     1
290
     0
176
     1
290
     1
176
     1
290
     1
176
     1
290
     0
176
     1
290
     0
176
     1
290
     0
176
     1
290
     0
176
     1
290
     0
176
     1
290
     0
176
     1
 90
       50
176
     1
 40
0.0
176
     1
 40
1.0
176
     1
 90
        0
176
     1
 62
    18
420
        0
176
     1
 90
       50
176
     1
 90
        3
176
     1
 62
     5
420
      255
176
     1
290
     0
176
     1
 90
       50
176
     1
 90
       50
176
     1
 90
       50
176
     1
290
     0
176
     1
 90
       50
176
     1
 62
   256
176
     0
 40
1.0
176
     0
 90
        2
176
     1
  1
strokes_ogs.tif
176
     1
290
     0
176
     1
 40
1.0
176
     1
 40
1.0
176
     1
  0
VISUALSTYLE
  5
3F
102
{ACAD_REACTORS
330
2A
102
}
330
2A
100
AcDbVisualStyle
  2
Sketchy
 70
    24
177
     3
291
     0
 70
    58
 90
        1
176
     1
 90
        2
176
     1
 90
        2
176
     1
 90
        0
176
     1
 40
0.6
176
     1
 40
30.0
176
     1
 62
     7
420
 16777215
176
     1
 90
        2
176
     1
 90
        2
176
     1
 62
     7
176
     1
 62
     7
176
     1
 90
        1
176
     1
 90
        1
176
     1
 40
40.0
176
     1
 90
       11
176
     1
 62
     7
176
     1
 40
1.0
176
     1
 90
        1
176
     1
 90
        6
176
     1
 90
        2
176
     1
 62
     7
176
     1
 90
        6
176
     1
 90
        0
176
     1
 90
        0
176
     1
290
     0
176
     1
 90
        1
176
     1
 40
0.0
176
     1
 90
        0
176
     1
290
     0
176
     1
290
     1
176
     1
290
     1
176
     1
290
     0
176
     1
290
     0
176
     1
290
     0
176
     1
290
     0
176
     1
290
     0
176
     1
290
     0
176
     1
 90
       50
176
     1
 40
0.0
176
     1
 40
1.0
176
     1
 90
        0
176
     1
 62
    18
420
        0
176
     1
 90
       50
176
     1
 90
        3
176
     1
 62
     5
420
      255
176
     1
290
     0
176
     1
 90
       50
176
     1
 90
       50
176
     1
 90
       50
176
     1
290
     0
176
     1
 90
       50
176
     1
 62
   256
176
     0
 40
1.0
176
     0
 90
        2
176
     1
  1
strokes_ogs.tif
176
     1
290
     0
176
     1
 40
1.0
176
     1
 40
1.0
176
     1
  0
VISUALSTYLE
  5
37
102
{ACAD_REACTORS
330
2A
102
}
330
2A
100
AcDbVisualStyle
  2
Thicken
 70
    13
177
     3
291
     1
 70
    58
 90
        2
176
     1
 90
        2
176
     1
 90
        0
176
     1
 90
        0
176
     1
 40
0.6
176
     1
 40
30.0
176
     1
 62
     7
420
 16777215
176
     1
 90
        1
176
     1
 90
        4
176
     1
 62
     7
176
     1
 62
   257
176
     1
 90
        1
176
     1
 90
        1
176
     1
 40
1.0
176
     1
 90
       12
176
     1
 62
     7
176
     1
 40
1.0
176
     1
 90
        1
176
     1
 90
        6
176
     1
 90
        2
176
     1
 62
     7
176
     1
 90
        5
176
     1
 90
        0
176
     1
 90
        0
176
     1
290
     0
176
     1
 90
        1
176
     1
 40
0.0
176
     1
 90
        0
176
     1
290
     0
176
     1
290
     1
176
     1
290
     1
176
     1
290
     0
176
     1
290
     0
176
     1
290
     0
176
     1
290
     0
176
     1
290
     0
176
     1
290
     0
176
     1
 90
       50
176
     1
 40
0.0
176
     1
 40
1.0
176
     1
 90
        0
176
     1
 62
    18
420
        0
176
     1
 90
       50
176
     1
 90
        3
176
     1
 62
     5
420
      255
176
     1
290
     0
176
     1
 90
       50
176
     1
 90
       50
176
     1
 90
       50
176
     1
290
     0
176
     1
 90
       50
176
     1
 62
   256
176
     0
 40
1.0
176
     0
 90
        2
176
     1
  1
strokes_ogs.tif
176
     1
290
     0
176
     1
 40
1.0
176
     1
 40
1.0
176
     1
  0
VISUALSTYLE
  5
30
102
{ACAD_REACTORS
330
2A
102
}
330
2A
100
AcDbVisualStyle
  2
Wireframe
 70
     5
177
     3
291
     0
 70
    58
 90
        0
176
     1
 90
        2
176
     1
 90
        0
176
     1
 90
        0
176
     1
 40
0.6
176
     1
 40
30.0
176
     1
 62
     7
420
 16777215
176
     1
 90
        1
176
     1
 90
        4
176
     1
 62
     7
176
     1
 62
   257
176
     1
 90
        1
176
     1
 90
        1
176
     1
 40
1.0
176
     1
 90
        0
176
     1
 62
   257
176
     1
 40
1.0
176
     1
 90
        1
176
     1
 90
        6
176
     1
 90
        2
176
     1
 62
     7
176
     1
 90
        3
176
     1
 90
        0
176
     1
 90
        0
176
     1
290
     0
176
     1
 90
        1
176
     1
 40
0.0
176
     1
 90
        0
176
     1
290
     0
176
     1
290
     1
176
     1
290
     1
176
     1
290
     0
176
     1
290
     0
176
     1
290
     0
176
     1
290
     0
176
     1
290
     0
176
     1
290
     0
176
     1
 90
       50
176
     1
 40
0.0
176
     1
 40
1.0
176
     1
 90
        0
176
     1
 62
    18
420
        0
176
     1
 90
       50
176
     1
 90
        3
176
     1
 62
     5
420
      255
176
     1
290
     0
176
     1
 90
       50
176
     1
 90
       50
176
     1
 90
       50
176
     1
290
     0
176
     1
 90
       50
176
     1
 62
   256
176
     0
 40
1.0
176
     0
 90
        2
176
     1
  1
strokes_ogs.tif
176
     1
290
     0
176
     1
 40
1.0
176
     1
 40
1.0
176
     1
  0
VISUALSTYLE
  5
40
102
{ACAD_REACTORS
330
2A
102
}
330
2A
100
AcDbVisualStyle
  2
X-Ray
 70
    25
177
     3
291
     0
 70
    58
 90
        2
176
     1
 90
        2
176
     1
 90
        1
176
     1
 90
        1
176
     1
 40
0.5
176
     1
 40
30.0
176
     1
 62
     7
420
 16777215
176
     1
 90
        1
176
     1
 90
        0
176
     1
 62
     7
176
     1
 62
   257
176
     1
 90
        1
176
     1
 90
        1
176
     1
 40
1.0
176
     1
 90
        8
176
     1
 62
     7
176
     1
 40
1.0
176
     1
 90
        1
176
     1
 90
        6
176
     1
 90
        2
176
     1
 62
     7
176
     1
 90
        3
176
     1
 90
        0
176
     1
 90
        0
176
     1
290
     0
176
     1
 90
       13
176
     1
 40
0.0
176
     1
 90
        0
176
     1
290
     0
176
     1
290
     1
176
     1
290
     1
176
     1
290
     0
176
     1
290
     0
176
     1
290
     0
176
     1
290
     0
176
     1
290
     0
176
     1
290
     0
176
     1
 90
       50
176
     1
 40
0.0
176
     1
 40
1.0
176
     1
 90
        0
176
     1
 62
    18
420
        0
176
     1
 90
       50
176
     1
 90
        3
176
     1
 62
     5
420
      255
176
     1
290
     0
176
     1
 90
       50
176
     1
 90
       50
176
     1
 90
       50
176
     1
290
     0
176
     1
 90
       50
176
     1
 62
   256
176
     0
 40
1.0
176
     0
 90
        2
176
     1
  1
strokes_ogs.tif
176
     1
290
     0
176
     1
 40
1.0
176
     1
 40
1.0
176
     1
  0
DICTIONARYVAR
  5
19F
102
{ACAD_REACTORS
330
19E
102
}
330
19E
100
DictionaryVariables
280
     0
  1
1:1
  0
DICTIONARYVAR
  5
1A4
102
{ACAD_REACTORS
330
19E
102
}
330
19E
100
DictionaryVariables
280
     0
  1
Standard
  0
DICTIONARYVAR
  5
1A3
102
{ACAD_REACTORS
330
19E
102
}
330
19E
100
DictionaryVariables
280
     0
  1
Standard
  0
DICTIONARY
  5
1A0
330
6A
100
AcDbDictionary
280
     1
281
     1
  3
ACAD_ROUNDTRIP_2008_TABLESTYLE_CELLSTYLEMAP
360
1A1
  0
CELLSTYLEMAP
  5
1A1
102
{ACAD_REACTORS
330
1A0
102
}
330
1A0
100
AcDbCellStyleMap
 90
        3
300
CELLSTYLE
  1
TABLEFORMAT_BEGIN
 90
        5
170
     1
 91
        0
 92
    32768
 62
   257
 93
        1
300
CONTENTFORMAT
  1
CONTENTFORMAT_BEGIN
 90
        0
 91
        0
 92
        4
 93
        0
300

 40
0.0
140
1.0
 94
        5
 62
     0
340
11
144
6.0
309
CONTENTFORMAT_END
171
     1
301
MARGIN
  1
CELLMARGIN_BEGIN
 40
1.5
 40
1.5
 40
1.5
 40
1.5
 40
1.5
 40
1.5
309
CELLMARGIN_END
 94
        6
 95
        1
302
GRIDFORMAT
  1
GRIDFORMAT_BEGIN
 90
        0
 91
        1
 62
     0
 92
       -2
340
14
 93
        0
 40
0.045
309
GRIDFORMAT_END
 95
        2
302
GRIDFORMAT
  1
GRIDFORMAT_BEGIN
 90
        0
 91
        1
 62
     0
 92
       -2
340
14
 93
        0
 40
0.045
309
GRIDFORMAT_END
 95
        4
302
GRIDFORMAT
  1
GRIDFORMAT_BEGIN
 90
        0
 91
        1
 62
     0
 92
       -2
340
14
 93
        0
 40
0.045
309
GRIDFORMAT_END
 95
        8
302
GRIDFORMAT
  1
GRIDFORMAT_BEGIN
 90
        0
 91
        1
 62
     0
 92
       -2
340
14
 93
        0
 40
0.045
309
GRIDFORMAT_END
 95
       16
302
GRIDFORMAT
  1
GRIDFORMAT_BEGIN
 90
        0
 91
        1
 62
     0
 92
       -2
340
14
 93
        0
 40
0.045
309
GRIDFORMAT_END
 95
       32
302
GRIDFORMAT
  1
GRIDFORMAT_BEGIN
 90
        0
 91
        1
 62
     0
 92
       -2
340
14
 93
        0
 40
0.045
309
GRIDFORMAT_END
309
TABLEFORMAT_END
  1
CELLSTYLE_BEGIN
 90
        1
 91
        1
300
_TITLE
309
CELLSTYLE_END
300
CELLSTYLE
  1
TABLEFORMAT_BEGIN
 90
        5
170
     1
 91
        0
 92
        0
 62
   257
 93
        1
300
CONTENTFORMAT
  1
CONTENTFORMAT_BEGIN
 90
        0
 91
        0
 92
        4
 93
        0
300

 40
0.0
140
1.0
 94
        5
 62
     0
340
11
144
4.5
309
CONTENTFORMAT_END
171
     1
301
MARGIN
  1
CELLMARGIN_BEGIN
 40
1.5
 40
1.5
 40
1.5
 40
1.5
 40
1.5
 40
1.5
309
CELLMARGIN_END
 94
        6
 95
        1
302
GRIDFORMAT
  1
GRIDFORMAT_BEGIN
 90
        0
 91
        1
 62
     0
 92
       -2
340
14
 93
        0
 40
0.045
309
GRIDFORMAT_END
 95
        2
302
GRIDFORMAT
  1
GRIDFORMAT_BEGIN
 90
        0
 91
        1
 62
     0
 92
       -2
340
14
 93
        0
 40
0.045
309
GRIDFORMAT_END
 95
        4
302
GRIDFORMAT
  1
GRIDFORMAT_BEGIN
 90
        0
 91
        1
 62
     0
 92
       -2
340
14
 93
        0
 40
0.045
309
GRIDFORMAT_END
 95
        8
302
GRIDFORMAT
  1
GRIDFORMAT_BEGIN
 90
        0
 91
        1
 62
     0
 92
       -2
340
14
 93
        0
 40
0.045
309
GRIDFORMAT_END
 95
       16
302
GRIDFORMAT
  1
GRIDFORMAT_BEGIN
 90
        0
 91
        1
 62
     0
 92
       -2
340
14
 93
        0
 40
0.045
309
GRIDFORMAT_END
 95
       32
302
GRIDFORMAT
  1
GRIDFORMAT_BEGIN
 90
        0
 91
        1
 62
     0
 92
       -2
340
14
 93
        0
 40
0.045
309
GRIDFORMAT_END
309
TABLEFORMAT_END
  1
CELLSTYLE_BEGIN
 90
        2
 91
        1
300
_HEADER
309
CELLSTYLE_END
300
CELLSTYLE
  1
TABLEFORMAT_BEGIN
 90
        5
170
     1
 91
        0
 92
        0
 62
   257
 93
        1
300
CONTENTFORMAT
  1
CONTENTFORMAT_BEGIN
 90
        0
 91
        0
 92
        4
 93
        0
300

 40
0.0
140
1.0
 94
        2
 62
     0
340
11
144
4.5
309
CONTENTFORMAT_END
171
     1
301
MARGIN
  1
CELLMARGIN_BEGIN
 40
1.5
 40
1.5
 40
1.5
 40
1.5
 40
1.5
 40
1.5
309
CELLMARGIN_END
 94
        6
 95
        1
302
GRIDFORMAT
  1
GRIDFORMAT_BEGIN
 90
        0
 91
        1
 62
     0
 92
       -2
340
14
 93
        0
 40
0.045
309
GRIDFORMAT_END
 95
        2
302
GRIDFORMAT
  1
GRIDFORMAT_BEGIN
 90
        0
 91
        1
 62
     0
 92
       -2
340
14
 93
        0
 40
0.045
309
GRIDFORMAT_END
 95
        4
302
GRIDFORMAT
  1
GRIDFORMAT_BEGIN
 90
        0
 91
        1
 62
     0
 92
       -2
340
14
 93
        0
 40
0.045
309
GRIDFORMAT_END
 95
        8
302
GRIDFORMAT
  1
GRIDFORMAT_BEGIN
 90
        0
 91
        1
 62
     0
 92
       -2
340
14
 93
        0
 40
0.045
309
GRIDFORMAT_END
 95
       16
302
GRIDFORMAT
  1
GRIDFORMAT_BEGIN
 90
        0
 91
        1
 62
     0
 92
       -2
340
14
 93
        0
 40
0.045
309
GRIDFORMAT_END
 95
       32
302
GRIDFORMAT
  1
GRIDFORMAT_BEGIN
 90
        0
 91
        1
 62
     0
 92
       -2
340
14
 93
        0
 40
0.045
309
GRIDFORMAT_END
309
TABLEFORMAT_END
  1
CELLSTYLE_BEGIN
 90
        3
 91
        2
300
_DATA
309
CELLSTYLE_END
  0
ENDSEC
  0
EOF