0
SECTION
  2
HEADER
  9
$ACADVER
  1
AC1027
  9
$ACADMAINTVER
 70
     8
  9
$DWGCODEPAGE
  3
ANSI_1252
  9
$REQUIREDVERSIONS
160
                 0
  9
$COMMENTS
  1
File was created by Cadenas
  9
$CUSTOMPROPERTYTAG
  1
NN
  9
$CUSTOMPROPERTY
  1
Set Screw Tapped Base Metric Bore - Stainless Housing, Stainless Steel Insert
  9
$CUSTOMPROPERTYTAG
  1
NT
  9
$CUSTOMPROPERTY
  1
SC Pillow Block Bearings -(Normal Duty) -Corrosion Resistant Insert -Polymer Housed -Tapped Base Housing -E-Z KLEEN
  9
$CUSTOMPROPERTYTAG
  1
NB
  9
$CUSTOMPROPERTY
  1
136857
  9
$CUSTOMPROPERTYTAG
  1
NBSYN
  9
$CUSTOMPROPERTY
  1
$PN.
  9
$CUSTOMPROPERTYTAG
  1
LINA
  9
$CUSTOMPROPERTY
  1
136857
  9
$CUSTOMPROPERTYTAG
  1
SERIES
  9
$CUSTOMPROPERTY
  1
206
  9
$CUSTOMPROPERTYTAG
  1
SS
  9
$CUSTOMPROPERTY
  1
30
  9
$CUSTOMPROPERTYTAG
  1
PN
  9
$CUSTOMPROPERTY
  1
136857
  9
$CUSTOMPROPERTYTAG
  1
DESCRIPTION
  9
$CUSTOMPROPERTY
  1
TB-SCEZ-30M-SHSS
  9
$CUSTOMPROPERTYTAG
  1
W
  9
$CUSTOMPROPERTY
  1
1.13
  9
$CUSTOMPROPERTYTAG
  1
A
  9
$CUSTOMPROPERTY
  1
38.6
  9
$CUSTOMPROPERTYTAG
  1
B
  9
$CUSTOMPROPERTY
  1
97.5
  9
$CUSTOMPROPERTYTAG
  1
C
  9
$CUSTOMPROPERTY
  1
38.1
  9
$CUSTOMPROPERTYTAG
  1
D
  9
$CUSTOMPROPERTY
  1
76.2
  9
$CUSTOMPROPERTYTAG
  1
J
  9
$CUSTOMPROPERTY
  1
81.8
  9
$CUSTOMPROPERTYTAG
  1
L
  9
$CUSTOMPROPERTY
  1
39.9
  9
$CUSTOMPROPERTYTAG
  1
M
  9
$CUSTOMPROPERTY
  1
42.9
  9
$CUSTOMPROPERTYTAG
  1
N
  9
$CUSTOMPROPERTY
  1
22.4
  9
$CUSTOMPROPERTYTAG
  1
R
  9
$CUSTOMPROPERTY
  1
7/16-14
  9
$CUSTOMPROPERTYTAG
  1
S
  9
$CUSTOMPROPERTY
  1
23.9
  9
$CUSTOMPROPERTYTAG
  1
COMPANY
  9
$CUSTOMPROPERTY
  1
baldor
  9
$INSBASE
 10
0.0
 20
0.0
 30
0.0
  9
$EXTMIN
 10
1.000000000000000E+20
 20
1.000000000000000E+20
 30
1.000000000000000E+20
  9
$EXTMAX
 10
-1.000000000000000E+20
 20
-1.000000000000000E+20
 30
-1.000000000000000E+20
  9
$LIMMIN
 10
0.0
 20
0.0
  9
$LIMMAX
 10
420.0
 20
297.0
  9
$ORTHOMODE
 70
     0
  9
$REGENMODE
 70
     1
  9
$FILLMODE
 70
     1
  9
$QTEXTMODE
 70
     0
  9
$MIRRTEXT
 70
     1
  9
$LTSCALE
 40
1.0
  9
$ATTMODE
 70
     1
  9
$TEXTSIZE
 40
2.5
  9
$TRACEWID
 40
1.0
  9
$TEXTSTYLE
  7
Standard
  9
$CLAYER
  8
0
  9
$CELTYPE
  6
ByLayer
  9
$CECOLOR
 62
   256
  9
$CELTSCALE
 40
1.0
  9
$DISPSILH
 70
     0
  9
$DIMSCALE
 40
1.0
  9
$DIMASZ
 40
2.5
  9
$DIMEXO
 40
0.625
  9
$DIMDLI
 40
3.75
  9
$DIMRND
 40
0.0
  9
$DIMDLE
 40
0.0
  9
$DIMEXE
 40
1.25
  9
$DIMTP
 40
0.0
  9
$DIMTM
 40
0.0
  9
$DIMTXT
 40
2.5
  9
$DIMCEN
 40
2.5
  9
$DIMTSZ
 40
0.0
  9
$DIMTOL
 70
     0
  9
$DIMLIM
 70
     0
  9
$DIMTIH
 70
     0
  9
$DIMTOH
 70
     0
  9
$DIMSE1
 70
     0
  9
$DIMSE2
 70
     0
  9
$DIMTAD
 70
     1
  9
$DIMZIN
 70
     8
  9
$DIMBLK
  1

  9
$DIMASO
 70
     1
  9
$DIMSHO
 70
     1
  9
$DIMPOST
  1

  9
$DIMAPOST
  1

  9
$DIMALT
 70
     0
  9
$DIMALTD
 70
     3
  9
$DIMALTF
 40
0.03937007874016
  9
$DIMLFAC
 40
1.0
  9
$DIMTOFL
 70
     1
  9
$DIMTVP
 40
0.0
  9
$DIMTIX
 70
     0
  9
$DIMSOXD
 70
     0
  9
$DIMSAH
 70
     0
  9
$DIMBLK1
  1

  9
$DIMBLK2
  1

  9
$DIMSTYLE
  2
ISO-25
  9
$DIMCLRD
 70
     0
  9
$DIMCLRE
 70
     0
  9
$DIMCLRT
 70
     0
  9
$DIMTFAC
 40
1.0
  9
$DIMGAP
 40
0.625
  9
$DIMJUST
 70
     0
  9
$DIMSD1
 70
     0
  9
$DIMSD2
 70
     0
  9
$DIMTOLJ
 70
     0
  9
$DIMTZIN
 70
     8
  9
$DIMALTZ
 70
     0
  9
$DIMALTTZ
 70
     0
  9
$DIMUPT
 70
     0
  9
$DIMDEC
 70
     2
  9
$DIMTDEC
 70
     2
  9
$DIMALTU
 70
     2
  9
$DIMALTTD
 70
     3
  9
$DIMTXSTY
  7
Standard
  9
$DIMAUNIT
 70
     0
  9
$DIMADEC
 70
     0
  9
$DIMALTRND
 40
0.0
  9
$DIMAZIN
 70
     0
  9
$DIMDSEP
 70
    44
  9
$DIMATFIT
 70
     3
  9
$DIMFRAC
 70
     0
  9
$DIMLDRBLK
  1

  9
$DIMLUNIT
 70
     2
  9
$DIMLWD
 70
    -2
  9
$DIMLWE
 70
    -2
  9
$DIMTMOVE
 70
     0
  9
$DIMFXL
 40
1.0
  9
$DIMFXLON
 70
     0
  9
$DIMJOGANG
 40
0.7853981633974483
  9
$DIMTFILL
 70
     0
  9
$DIMTFILLCLR
 70
     0
  9
$DIMARCSYM
 70
     0
  9
$DIMLTYPE
  6

  9
$DIMLTEX1
  6

  9
$DIMLTEX2
  6

  9
$DIMTXTDIRECTION
 70
     0
  9
$LUNITS
 70
     2
  9
$LUPREC
 70
     4
  9
$SKETCHINC
 40
1.0
  9
$FILLETRAD
 40
10.0
  9
$AUNITS
 70
     0
  9
$AUPREC
 70
     0
  9
$MENU
  1
.
  9
$ELEVATION
 40
0.0
  9
$PELEVATION
 40
0.0
  9
$THICKNESS
 40
0.0
  9
$LIMCHECK
 70
     0
  9
$CHAMFERA
 40
0.0
  9
$CHAMFERB
 40
0.0
  9
$CHAMFERC
 40
0.0
  9
$CHAMFERD
 40
0.0
  9
$SKPOLY
 70
     0
  9
$TDCREATE
 40
2458168.892560972
  9
$TDUCREATE
 40
2458168.850894305
  9
$TDUPDATE
 40
2458168.892561146
  9
$TDUUPDATE
 40
2458168.850894479
  9
$TDINDWG
 40
0.0000000116
  9
$TDUSRTIMER
 40
0.0000000116
  9
$USRTIMER
 70
     1
  9
$ANGBASE
 50
0.0
  9
$ANGDIR
 70
     0
  9
$PDMODE
 70
     0
  9
$PDSIZE
 40
0.0
  9
$PLINEWID
 40
0.0
  9
$SPLFRAME
 70
     0
  9
$SPLINETYPE
 70
     6
  9
$SPLINESEGS
 70
     8
  9
$HANDSEED
  5
1A6
  9
$SURFTAB1
 70
     6
  9
$SURFTAB2
 70
     6
  9
$SURFTYPE
 70
     6
  9
$SURFU
 70
     6
  9
$SURFV
 70
     6
  9
$UCSBASE
  2

  9
$UCSNAME
  2

  9
$UCSORG
 10
0.0
 20
0.0
 30
0.0
  9
$UCSXDIR
 10
1.0
 20
0.0
 30
0.0
  9
$UCSYDIR
 10
0.0
 20
1.0
 30
0.0
  9
$UCSORTHOREF
  2

  9
$UCSORTHOVIEW
 70
     0
  9
$UCSORGTOP
 10
0.0
 20
0.0
 30
0.0
  9
$UCSORGBOTTOM
 10
0.0
 20
0.0
 30
0.0
  9
$UCSORGLEFT
 10
0.0
 20
0.0
 30
0.0
  9
$UCSORGRIGHT
 10
0.0
 20
0.0
 30
0.0
  9
$UCSORGFRONT
 10
0.0
 20
0.0
 30
0.0
  9
$UCSORGBACK
 10
0.0
 20
0.0
 30
0.0
  9
$PUCSBASE
  2

  9
$PUCSNAME
  2

  9
$PUCSORG
 10
0.0
 20
0.0
 30
0.0
  9
$PUCSXDIR
 10
1.0
 20
0.0
 30
0.0
  9
$PUCSYDIR
 10
0.0
 20
1.0
 30
0.0
  9
$PUCSORTHOREF
  2

  9
$PUCSORTHOVIEW
 70
     0
  9
$PUCSORGTOP
 10
0.0
 20
0.0
 30
0.0
  9
$PUCSORGBOTTOM
 10
0.0
 20
0.0
 30
0.0
  9
$PUCSORGLEFT
 10
0.0
 20
0.0
 30
0.0
  9
$PUCSORGRIGHT
 10
0.0
 20
0.0
 30
0.0
  9
$PUCSORGFRONT
 10
0.0
 20
0.0
 30
0.0
  9
$PUCSORGBACK
 10
0.0
 20
0.0
 30
0.0
  9
$USERI1
 70
     0
  9
$USERI2
 70
     0
  9
$USERI3
 70
     0
  9
$USERI4
 70
     0
  9
$USERI5
 70
     0
  9
$USERR1
 40
0.0
  9
$USERR2
 40
0.0
  9
$USERR3
 40
0.0
  9
$USERR4
 40
0.0
  9
$USERR5
 40
0.0
  9
$WORLDVIEW
 70
     1
  9
$SHADEDGE
 70
     3
  9
$SHADEDIF
 70
    70
  9
$TILEMODE
 70
     1
  9
$MAXACTVP
 70
    64
  9
$PINSBASE
 10
0.0
 20
0.0
 30
0.0
  9
$PLIMCHECK
 70
     0
  9
$PEXTMIN
 10
1.000000000000000E+20
 20
1.000000000000000E+20
 30
1.000000000000000E+20
  9
$PEXTMAX
 10
-1.000000000000000E+20
 20
-1.000000000000000E+20
 30
-1.000000000000000E+20
  9
$PLIMMIN
 10
0.0
 20
0.0
  9
$PLIMMAX
 10
420.0
 20
297.0
  9
$UNITMODE
 70
     0
  9
$VISRETAIN
 70
     1
  9
$PLINEGEN
 70
     0
  9
$PSLTSCALE
 70
     1
  9
$TREEDEPTH
 70
  3020
  9
$CMLSTYLE
  2
Standard
  9
$CMLJUST
 70
     0
  9
$CMLSCALE
 40
20.0
  9
$PROXYGRAPHICS
 70
     1
  9
$MEASUREMENT
 70
     1
  9
$CELWEIGHT
370
    -1
  9
$ENDCAPS
280
     0
  9
$JOINSTYLE
280
     0
  9
$LWDISPLAY
290
     0
  9
$INSUNITS
 70
     4
  9
$HYPERLINKBASE
  1

  9
$STYLESHEET
  1

  9
$XEDIT
290
     1
  9
$CEPSNTYPE
380
     0
  9
$PSTYLEMODE
290
     1
  9
$FINGERPRINTGUID
  2
{E1BE3267-70CA-44EE-AC9A-2338405326B3}
  9
$VERSIONGUID
  2
{FAEB1C32-E019-11D5-929B-00C0DF256EC4}
  9
$EXTNAMES
290
     1
  9
$PSVPSCALE
 40
0.0
  9
$OLESTARTUP
290
     0
  9
$SORTENTS
280
   127
  9
$INDEXCTL
280
     0
  9
$HIDETEXT
280
     1
  9
$XCLIPFRAME
280
     2
  9
$HALOGAP
280
     0
  9
$OBSCOLOR
 70
   257
  9
$OBSLTYPE
280
     0
  9
$INTERSECTIONDISPLAY
280
     0
  9
$INTERSECTIONCOLOR
 70
   257
  9
$DIMASSOC
280
     2
  9
$PROJECTNAME
  1

  9
$CAMERADISPLAY
290
     0
  9
$LENSLENGTH
 40
50.0
  9
$CAMERAHEIGHT
 40
0.0
  9
$STEPSPERSEC
 40
2.0
  9
$STEPSIZE
 40
6.0
  9
$3DDWFPREC
 40
2.0
  9
$PSOLWIDTH
 40
5.0
  9
$PSOLHEIGHT
 40
80.0
  9
$LOFTANG1
 40
1.570796326794897
  9
$LOFTANG2
 40
1.570796326794897
  9
$LOFTMAG1
 40
0.0
  9
$LOFTMAG2
 40
0.0
  9
$LOFTPARAM
 70
     7
  9
$LOFTNORMALS
280
     1
  9
$LATITUDE
 40
37.795
  9
$LONGITUDE
 40
-122.394
  9
$NORTHDIRECTION
 40
0.0
  9
$TIMEZONE
 70
 -8000
  9
$LIGHTGLYPHDISPLAY
280
     1
  9
$TILEMODELIGHTSYNCH
280
     1
  9
$CMATERIAL
347
44
  9
$SOLIDHIST
280
     0
  9
$SHOWHIST
280
     1
  9
$DWFFRAME
280
     2
  9
$DGNFRAME
280
     2
  9
$REALWORLDSCALE
290
     1
  9
$INTERFERECOLOR
 62
   256
  9
$CSHADOW
280
     0
  9
$SHADOWPLANELOCATION
 40
0.0
  0
ENDSEC
  0
SECTION
  2
CLASSES
  0
CLASS
  1
ACDBDICTIONARYWDFLT
  2
AcDbDictionaryWithDefault
  3
ObjectDBX Classes
 90
        0
 91
        4
280
     0
281
     0
  0
CLASS
  1
VISUALSTYLE
  2
AcDbVisualStyle
  3
ObjectDBX Classes
 90
     4095
 91
        4
280
     0
281
     0
  0
CLASS
  1
MATERIAL
  2
AcDbMaterial
  3
ObjectDBX Classes
 90
     1153
 91
        4
280
     0
281
     0
  0
CLASS
  1
SCALE
  2
AcDbScale
  3
ObjectDBX Classes
 90
     1153
 91
        4
280
     0
281
     0
  0
CLASS
  1
TABLESTYLE
  2
AcDbTableStyle
  3
ObjectDBX Classes
 90
     4095
 91
        4
280
     0
281
     0
  0
CLASS
  1
MLEADERSTYLE
  2
AcDbMLeaderStyle
  3
ACDB_MLEADERSTYLE_CLASS
 90
     4095
 91
        4
280
     0
281
     0
  0
CLASS
  1
SUN
  2
AcDbSun
  3
SCENEOE
 90
     1153
 91
        4
280
     0
281
     0
  0
CLASS
  1
DICTIONARYVAR
  2
AcDbDictionaryVar
  3
ObjectDBX Classes
 90
        0
 91
        4
280
     0
281
     0
  0
CLASS
  1
CELLSTYLEMAP
  2
AcDbCellStyleMap
  3
ObjectDBX Classes
 90
     1152
 91
        4
280
     0
281
     0
  0
ENDSEC
  0
SECTION
  2
TABLES
  0
TABLE
  2
VPORT
  5
8
330
0
100
AcDbSymbolTable
 70
     1
  0
VPORT
  5
29
330
8
100
AcDbSymbolTableRecord
100
AcDbViewportTableRecord
  2
*Active
 70
     0
 10
0.0
 20
0.0
 11
1.0
 21
1.0
 12
0.0
 22
-2.4375
 13
0.0
 23
0.0
 14
10.0
 24
10.0
 15
10.0
 25
10.0
 16
0.0
 26
0.0
 36
1.0
 17
0.0
 27
0.0
 37
0.0
 40
47.72069999999998
 41
2.084001282462328
 42
50.0
 43
0.0
 44
0.0
 50
0.0
 51
0.0
 71
     0
 72
   100
 73
     1
 74
     3
 75
     0
 76
     0
 77
     0
 78
     0
281
     0
 65
     1
110
0.0
120
0.0
130
0.0
111
1.0
121
0.0
131
0.0
112
0.0
122
1.0
132
0.0
 79
     0
146
0.0
348
2F
 60
     3
 61
     5
292
     1
282
     1
141
0.0
142
0.0
 63
   250
361
6D
  0
ENDTAB
  0
TABLE
  2
LTYPE
  5
5
330
0
100
AcDbSymbolTable
 70
     3
  0
LTYPE
  5
14
330
5
100
AcDbSymbolTableRecord
100
AcDbLinetypeTableRecord
  2
ByBlock
 70
     0
  3

 72
    65
 73
     0
 40
0.0
  0
LTYPE
  5
15
330
5
100
AcDbSymbolTableRecord
100
AcDbLinetypeTableRecord
  2
ByLayer
 70
     0
  3

 72
    65
 73
     0
 40
0.0
  0
LTYPE
  5
16
330
5
100
AcDbSymbolTableRecord
100
AcDbLinetypeTableRecord
  2
Continuous
 70
     0
  3
Solid line
 72
    65
 73
     0
 40
0.0
  0
LTYPE
  5
9A
330
5
100
AcDbSymbolTableRecord
100
AcDbLinetypeTableRecord
  2
Dashed
 70
     0
  3

 72
    65
 73
     2
 40
2.0
 49
1.0
 74
     0
 49
-1.0
 74
     0
  0
LTYPE
  5
129
330
5
100
AcDbSymbolTableRecord
100
AcDbLinetypeTableRecord
  2
Center
 70
     0
  3

 72
    65
 73
     4
 40
1.5
 49
0.45
 74
     0
 49
-0.5
 74
     0
 49
0.05
 74
     0
 49
-0.5
 74
     0
  0
ENDTAB
  0
TABLE
  2
LAYER
  5
2
330
0
100
AcDbSymbolTable
 70
     7
  0
LAYER
  5
10
330
2
100
AcDbSymbolTableRecord
100
AcDbLayerTableRecord
  2
0
 70
     0
 62
     7
  6
Continuous
370
    -3
390
F
347
46
348
0
  0
LAYER
  5
72
330
2
100
AcDbSymbolTableRecord
100
AcDbLayerTableRecord
  2
AM_6
 70
     0
 62
    -2
  6
Continuous
370
    35
390
F
347
46
348
0
  0
LAYER
  5
9B
330
2
100
AcDbSymbolTableRecord
100
AcDbLayerTableRecord
  2
AM_9
 70
     0
 62
     6
  6
Dashed
370
    25
390
F
347
46
348
0
  0
LAYER
  5
C0
330
2
100
AcDbSymbolTableRecord
100
AcDbLayerTableRecord
  2
AM_4
 70
     0
 62
     7
  6
Continuous
370
    50
390
F
347
46
348
0
  0
LAYER
  5
126
330
2
100
AcDbSymbolTableRecord
100
AcDbLayerTableRecord
  2
AM_5
 70
     0
 62
     3
  6
Continuous
370
    25
390
F
347
46
348
0
  0
LAYER
  5
12A
330
2
100
AcDbSymbolTableRecord
100
AcDbLayerTableRecord
  2
AM_7
 70
     0
 62
     7
  6
Center
370
    25
390
F
347
46
348
0
  0
LAYER
  5
198
330
2
100
AcDbSymbolTableRecord
100
AcDbLayerTableRecord
  2
ConnectionPoints
 70
     0
 62
     7
  6
Continuous
370
    50
390
F
347
46
348
0
  0
ENDTAB
  0
TABLE
  2
STYLE
  5
3
330
0
100
AcDbSymbolTable
 70
     1
  0
STYLE
  5
11
330
3
100
AcDbSymbolTableRecord
100
AcDbTextStyleTableRecord
  2
Standard
 70
     0
 40
0.0
 41
1.0
 50
0.0
 71
     0
 42
2.5
  3
txt
  4

  0
ENDTAB
  0
TABLE
  2
VIEW
  5
6
330
0
100
AcDbSymbolTable
 70
     0
  0
ENDTAB
  0
TABLE
  2
UCS
  5
7
330
0
100
AcDbSymbolTable
 70
     0
  0
ENDTAB
  0
TABLE
  2
APPID
  5
9
330
0
100
AcDbSymbolTable
 70
     1
  0
APPID
  5
12
330
9
100
AcDbSymbolTableRecord
100
AcDbRegAppTableRecord
  2
ACAD
 70
     0
  0
ENDTAB
  0
TABLE
  2
DIMSTYLE
  5
A
330
0
100
AcDbSymbolTable
 70
     1
100
AcDbDimStyleTable
  0
DIMSTYLE
105
27
330
A
100
AcDbSymbolTableRecord
100
AcDbDimStyleTableRecord
  2
ISO-25
 70
     0
 41
2.5
 42
0.625
 43
3.75
 44
1.25
 73
     0
 74
     0
 77
     1
 78
     8
140
2.5
141
2.5
143
0.03937007874016
147
0.625
171
     3
172
     1
178
     0
271
     2
272
     2
274
     3
278
    44
283
     0
284
     8
340
11
  0
ENDTAB
  0
TABLE
  2
BLOCK_RECORD
  5
1
330
0
100
AcDbSymbolTable
 70
     5
  0
BLOCK_RECORD
  5
1F
330
1
100
AcDbSymbolTableRecord
100
AcDbBlockTableRecord
  2
*Model_Space
340
22
 70
     0
280
     1
281
     0
  0
BLOCK_RECORD
  5
1B
330
1
100
AcDbSymbolTableRecord
100
AcDbBlockTableRecord
  2
*Paper_Space
340
1E
 70
     0
280
     1
281
     0
  0
BLOCK_RECORD
  5
23
330
1
100
AcDbSymbolTableRecord
100
AcDbBlockTableRecord
  2
*Paper_Space0
340
26
 70
     0
280
     1
281
     0
  0
BLOCK_RECORD
  5
6E
330
1
100
AcDbSymbolTableRecord
100
AcDbBlockTableRecord
  2
1_136857_4
340
0
102
{BLKREFS
331
6F
102
}
 70
     0
280
     1
281
     0
  0
BLOCK_RECORD
  5
88
330
1
100
AcDbSymbolTableRecord
100
AcDbBlockTableRecord
  2
2_405020c_M_0_in_136857_4
340
0
102
{BLKREFS
331
89
102
}
 70
     0
280
     1
281
     0
  0
BLOCK_RECORD
  5
E8
330
1
100
AcDbSymbolTableRecord
100
AcDbBlockTableRecord
  2
3_127863_0_in_136857_4
340
0
102
{BLKREFS
331
E9
102
}
 70
     0
280
     1
281
     0
  0
BLOCK_RECORD
  5
141
330
1
100
AcDbSymbolTableRecord
100
AcDbBlockTableRecord
  2
4_136857H_0_in_136857_4
340
0
102
{BLKREFS
331
142
102
}
 70
     0
280
     1
281
     0
  0
ENDTAB
  0
ENDSEC
  0
SECTION
  2
BLOCKS
  0
BLOCK
  5
20
330
1F
100
AcDbEntity
  8
0
100
AcDbBlockBegin
  2
*Model_Space
 70
     0
 10
0.0
 20
0.0
 30
0.0
  3
*Model_Space
  1

  0
ENDBLK
  5
21
330
1F
100
AcDbEntity
  8
0
100
AcDbBlockEnd
  0
BLOCK
  5
1C
330
1B
100
AcDbEntity
 67
     1
  8
0
100
AcDbBlockBegin
  2
*Paper_Space
 70
     0
 10
0.0
 20
0.0
 30
0.0
  3
*Paper_Space
  1

  0
ENDBLK
  5
1D
330
1B
100
AcDbEntity
 67
     1
  8
0
100
AcDbBlockEnd
  0
BLOCK
  5
24
330
23
100
AcDbEntity
  8
0
100
AcDbBlockBegin
  2
*Paper_Space0
 70
     0
 10
0.0
 20
0.0
 30
0.0
  3
*Paper_Space0
  1

  0
ENDBLK
  5
25
330
23
100
AcDbEntity
  8
0
100
AcDbBlockEnd
  0
BLOCK
  5
70
330
6E
100
AcDbEntity
  8
0
100
AcDbBlockBegin
  2
1_136857_4
 70
     2
 10
0.0
 20
0.0
 30
0.0
  3
1_136857_4
  1

  0
ATTDEF
  5
73
330
6E
100
AcDbEntity
  8
AM_6
100
AcDbText
 10
53.75
 20
20.95499999999998
 30
0.0
 40
0.5
  1
Set Screw Tapped Base Metric Bore - Stainless Housing, Stainless Steel Insert
100
AcDbAttributeDefinition
  3

  2
NN
 70
     8
280
     0
  0
ATTDEF
  5
74
330
6E
100
AcDbEntity
  8
AM_6
100
AcDbText
 10
53.75
 20
20.45499999999998
 30
0.0
 40
0.5
  1
SC Pillow Block Bearings -(Normal Duty) -Corrosion Resistant Insert -Polymer Housed -Tapped Base Housing -E-Z KLEEN
100
AcDbAttributeDefinition
  3

  2
NT
 70
     8
280
     0
  0
ATTDEF
  5
75
330
6E
100
AcDbEntity
  8
AM_6
100
AcDbText
 10
53.75
 20
19.95499999999998
 30
0.0
 40
0.5
  1
136857
100
AcDbAttributeDefinition
  3

  2
NB
 70
     8
280
     0
  0
ATTDEF
  5
76
330
6E
100
AcDbEntity
  8
AM_6
100
AcDbText
 10
53.75
 20
19.45499999999998
 30
0.0
 40
0.5
  1
$PN.
100
AcDbAttributeDefinition
  3

  2
NBSYN
 70
     8
280
     0
  0
ATTDEF
  5
77
330
6E
100
AcDbEntity
  8
AM_6
100
AcDbText
 10
53.75
 20
18.95499999999998
 30
0.0
 40
0.5
  1
136857
100
AcDbAttributeDefinition
  3

  2
LINA
 70
     8
280
     0
  0
ATTDEF
  5
78
330
6E
100
AcDbEntity
  8
AM_6
100
AcDbText
 10
53.75
 20
18.45499999999998
 30
0.0
 40
0.5
  1
206
100
AcDbAttributeDefinition
  3

  2
SERIES
 70
     8
280
     0
  0
ATTDEF
  5
79
330
6E
100
AcDbEntity
  8
AM_6
100
AcDbText
 10
53.75
 20
17.95499999999998
 30
0.0
 40
0.5
  1
30
100
AcDbAttributeDefinition
  3

  2
SS
 70
     8
280
     0
  0
ATTDEF
  5
7A
330
6E
100
AcDbEntity
  8
AM_6
100
AcDbText
 10
53.75
 20
17.45499999999998
 30
0.0
 40
0.5
  1
136857
100
AcDbAttributeDefinition
  3

  2
PN
 70
     8
280
     0
  0
ATTDEF
  5
7B
330
6E
100
AcDbEntity
  8
AM_6
100
AcDbText
 10
53.75
 20
16.95499999999998
 30
0.0
 40
0.5
  1
TB-SCEZ-30M-SHSS
100
AcDbAttributeDefinition
  3

  2
DESCRIPTION
 70
     8
280
     0
  0
ATTDEF
  5
7C
330
6E
100
AcDbEntity
  8
AM_6
100
AcDbText
 10
53.75
 20
16.45499999999998
 30
0.0
 40
0.5
  1
1.13
100
AcDbAttributeDefinition
  3

  2
W
 70
     8
280
     0
  0
ATTDEF
  5
7D
330
6E
100
AcDbEntity
  8
AM_6
100
AcDbText
 10
53.75
 20
15.95499999999998
 30
0.0
 40
0.5
  1
38.6
100
AcDbAttributeDefinition
  3

  2
A
 70
     8
280
     0
  0
ATTDEF
  5
7E
330
6E
100
AcDbEntity
  8
AM_6
100
AcDbText
 10
53.75
 20
15.45499999999998
 30
0.0
 40
0.5
  1
97.5
100
AcDbAttributeDefinition
  3

  2
B
 70
     8
280
     0
  0
ATTDEF
  5
7F
330
6E
100
AcDbEntity
  8
AM_6
100
AcDbText
 10
53.75
 20
14.95499999999998
 30
0.0
 40
0.5
  1
38.1
100
AcDbAttributeDefinition
  3

  2
C
 70
     8
280
     0
  0
ATTDEF
  5
80
330
6E
100
AcDbEntity
  8
AM_6
100
AcDbText
 10
53.75
 20
14.45499999999998
 30
0.0
 40
0.5
  1
76.2
100
AcDbAttributeDefinition
  3

  2
D
 70
     8
280
     0
  0
ATTDEF
  5
81
330
6E
100
AcDbEntity
  8
AM_6
100
AcDbText
 10
53.75
 20
13.95499999999998
 30
0.0
 40
0.5
  1
81.8
100
AcDbAttributeDefinition
  3

  2
J
 70
     8
280
     0
  0
ATTDEF
  5
82
330
6E
100
AcDbEntity
  8
AM_6
100
AcDbText
 10
53.75
 20
13.45499999999998
 30
0.0
 40
0.5
  1
39.9
100
AcDbAttributeDefinition
  3

  2
L
 70
     8
280
     0
  0
ATTDEF
  5
83
330
6E
100
AcDbEntity
  8
AM_6
100
AcDbText
 10
53.75
 20
12.95499999999998
 30
0.0
 40
0.5
  1
42.9
100
AcDbAttributeDefinition
  3

  2
M
 70
     8
280
     0
  0
ATTDEF
  5
84
330
6E
100
AcDbEntity
  8
AM_6
100
AcDbText
 10
53.75
 20
12.45499999999998
 30
0.0
 40
0.5
  1
22.4
100
AcDbAttributeDefinition
  3

  2
N
 70
     8
280
     0
  0
ATTDEF
  5
85
330
6E
100
AcDbEntity
  8
AM_6
100
AcDbText
 10
53.75
 20
11.95499999999998
 30
0.0
 40
0.5
  1
7/16-14
100
AcDbAttributeDefinition
  3

  2
R
 70
     8
280
     0
  0
ATTDEF
  5
86
330
6E
100
AcDbEntity
  8
AM_6
100
AcDbText
 10
53.75
 20
11.45499999999998
 30
0.0
 40
0.5
  1
23.9
100
AcDbAttributeDefinition
  3

  2
S
 70
     8
280
     0
  0
ATTDEF
  5
87
330
6E
100
AcDbEntity
  8
AM_6
100
AcDbText
 10
53.75
 20
10.95499999999998
 30
0.0
 40
0.5
  1
baldor
100
AcDbAttributeDefinition
  3

  2
COMPANY
 70
     8
280
     0
  0
INSERT
  5
89
330
6E
100
AcDbEntity
  8
0
100
AcDbBlockReference
  2
2_405020c_M_0_in_136857_4
 10
0.0
 20
0.0
 30
0.0
  0
INSERT
  5
E9
330
6E
100
AcDbEntity
  8
0
100
AcDbBlockReference
  2
3_127863_0_in_136857_4
 10
0.0
 20
0.0
 30
0.0
  0
INSERT
  5
142
330
6E
100
AcDbEntity
  8
0
100
AcDbBlockReference
  2
4_136857H_0_in_136857_4
 10
0.0
 20
0.0
 30
0.0
  0
ENDBLK
  5
71
330
6E
100
AcDbEntity
  8
0
100
AcDbBlockEnd
  0
BLOCK
  5
8A
330
88
100
AcDbEntity
  8
0
100
AcDbBlockBegin
  2
2_405020c_M_0_in_136857_4
 70
     2
 10
0.0
 20
0.0
 30
0.0
  3
2_405020c_M_0_in_136857_4
  1

  0
ATTDEF
  5
8C
330
88
100
AcDbEntity
  8
AM_6
100
AcDbText
 10
41.16766055910606
 20
4.041451884327381
 30
0.0
 40
0.5
  1
405020C -Metric
100
AcDbAttributeDefinition
  3

  2
NN
 70
     8
280
     0
  0
ATTDEF
  5
8D
330
88
100
AcDbEntity
  8
AM_6
100
AcDbText
 10
41.16766055910606
 20
3.541451884327381
 30
0.0
 40
0.5
  1
Grease fitting
100
AcDbAttributeDefinition
  3

  2
NT
 70
     8
280
     0
  0
ATTDEF
  5
8E
330
88
100
AcDbEntity
  8
AM_6
100
AcDbText
 10
41.16766055910606
 20
3.041451884327381
 30
0.0
 40
0.5
  1
405020c-M
100
AcDbAttributeDefinition
  3

  2
NB
 70
     8
280
     0
  0
ATTDEF
  5
8F
330
88
100
AcDbEntity
  8
AM_6
100
AcDbText
 10
41.16766055910606
 20
2.541451884327381
 30
0.0
 40
0.5
  1
$MN.-M
100
AcDbAttributeDefinition
  3

  2
NBSYN
 70
     8
280
     0
  0
ATTDEF
  5
90
330
88
100
AcDbEntity
  8
AM_6
100
AcDbText
 10
41.16766055910606
 20
2.041451884327381
 30
0.0
 40
0.5
  1
405020c
100
AcDbAttributeDefinition
  3

  2
LINA
 70
     8
280
     0
  0
ATTDEF
  5
91
330
88
100
AcDbEntity
  8
AM_6
100
AcDbText
 10
41.16766055910606
 20
1.541451884327381
 30
0.0
 40
0.5
  1
405020c
100
AcDbAttributeDefinition
  3

  2
MN
 70
     8
280
     0
  0
ATTDEF
  5
92
330
88
100
AcDbEntity
  8
AM_6
100
AcDbText
 10
41.16766055910606
 20
1.041451884327381
 30
0.0
 40
0.5
  1
5.842
100
AcDbAttributeDefinition
  3

  2
NDR
 70
     8
280
     0
  0
ATTDEF
  5
93
330
88
100
AcDbEntity
  8
AM_6
100
AcDbText
 10
41.16766055910606
 20
0.5414518843273814
 30
0.0
 40
0.5
  1
5.359
100
AcDbAttributeDefinition
  3

  2
KDR
 70
     8
280
     0
  0
ATTDEF
  5
94
330
88
100
AcDbEntity
  8
AM_6
100
AcDbText
 10
41.16766055910606
 20
0.0414518843273814
 30
0.0
 40
0.5
  1
4.000
100
AcDbAttributeDefinition
  3

  2
BZE
 70
     8
280
     0
  0
ATTDEF
  5
95
330
88
100
AcDbEntity
  8
AM_6
100
AcDbText
 10
41.16766055910606
 20
-0.4585481156726186
 30
0.0
 40
0.5
  1
7
100
AcDbAttributeDefinition
  3

  2
WAF
 70
     8
280
     0
  0
ATTDEF
  5
96
330
88
100
AcDbEntity
  8
AM_6
100
AcDbText
 10
41.16766055910606
 20
-0.9585481156726186
 30
0.0
 40
0.5
  1
7.0000
100
AcDbAttributeDefinition
  3

  2
WAF1
 70
     8
280
     0
  0
ATTDEF
  5
97
330
88
100
AcDbEntity
  8
AM_6
100
AcDbText
 10
41.16766055910606
 20
-1.458548115672619
 30
0.0
 40
0.5
  1
13.843
100
AcDbAttributeDefinition
  3

  2
BL
 70
     8
280
     0
  0
ATTDEF
  5
98
330
88
100
AcDbEntity
  8
AM_6
100
AcDbText
 10
41.16766055910606
 20
-1.958548115672619
 30
0.0
 40
0.5
  1
5.080
100
AcDbAttributeDefinition
  3

  2
TL
 70
     8
280
     0
  0
ATTDEF
  5
99
330
88
100
AcDbEntity
  8
AM_6
100
AcDbText
 10
41.16766055910606
 20
-2.458548115672619
 30
0.0
 40
0.5
  1
baldor
100
AcDbAttributeDefinition
  3

  2
COMPANY
 70
     8
280
     0
  0
ELLIPSE
  5
9C
330
88
100
AcDbEntity
  8
AM_9
100
AcDbEllipse
 10
24.74297232719861
 20
0.0000000000000015
 30
0.0
 11
-4.692312313253165E-16
 21
-2.55437585025611
 31
0.0
210
0.0
220
0.0
230
1.0
 40
0.7071067811865476
 41
0.0
 42
6.283185307179586
  0
LINE
  5
9D
330
88
100
AcDbEntity
  8
AM_9
100
AcDbLine
 10
31.78216263742976
 20
-2.020725942163689
 30
0.0
 11
30.91253668953217
 21
-2.020725942163689
 31
0.0
  0
LINE
  5
9E
330
88
100
AcDbEntity
  8
AM_9
100
AcDbLine
 10
31.78216263742976
 20
2.020725942163692
 30
0.0
 11
30.91253668953217
 21
2.020725942163692
 31
0.0
  0
LWPOLYLINE
  5
9F
330
88
100
AcDbEntity
  8
AM_9
100
AcDbPolyline
 90
        3
 70
     0
 43
0.0
 10
30.84117786138023
 20
1.086714790303179
 10
30.83726574122272
 20
1.014905835062989
 10
30.80994850977919
 20
0.0000000000000016
  0
LINE
  5
A0
330
88
100
AcDbEntity
  8
AM_9
100
AcDbLine
 10
30.91253668953217
 20
2.020725942163692
 30
0.0
 11
30.84117786138023
 21
1.086714790303179
 31
0.0
  0
LWPOLYLINE
  5
A1
330
88
100
AcDbEntity
  8
AM_9
100
AcDbPolyline
 90
        3
 70
     0
 43
0.0
 10
30.84505330763975
 20
-1.153815491138823
 10
30.87181360955982
 20
-1.546688894797461
 10
30.91253668953217
 20
-2.020725942163689
  0
LWPOLYLINE
  5
A2
330
88
100
AcDbEntity
  8
AM_9
100
AcDbPolyline
 90
        3
 70
     0
 43
0.0
 10
30.80994850977919
 20
0.0000000000000016
 10
30.8259433218266
 20
-0.7733444473987298
 10
30.84505330763975
 20
-1.153815491138823
  0
LWPOLYLINE
  5
A3
330
88
100
AcDbEntity
  8
AM_9
100
AcDbPolyline
 90
        3
 70
     0
 43
0.0
 10
30.91253668953217
 20
-2.020725942163689
 10
30.22132923236565
 20
-2.523635995714041
 10
29.57251164270273
 20
-3.031088913245534
  0
LWPOLYLINE
  5
A4
330
88
100
AcDbEntity
  8
AM_9
100
AcDbPolyline
 90
        3
 70
     0
 43
0.0
 10
29.57251164270273
 20
3.031088913245537
 10
30.21830808876992
 20
2.525907427704615
 10
30.91253668953217
 20
2.020725942163692
  0
LWPOLYLINE
  5
A5
330
88
100
AcDbEntity
  8
AM_9
100
AcDbPolyline
 90
        3
 70
     0
 43
0.0
 10
31.06106736931232
 20
-2.682631185199012
 10
31.23895437111556
 20
-2.525907427704611
 10
31.78216263742976
 20
-2.020725942163689
  0
LWPOLYLINE
  5
A6
330
88
100
AcDbEntity
  8
AM_9
100
AcDbPolyline
 90
        4
 70
     0
 43
0.0
 10
31.78216263742976
 20
-2.020725942163689
 10
31.82288571740211
 20
-1.546688894797461
 10
31.86866292935086
 20
-0.7756181668408967
 10
31.88475081718274
 20
0.0000000000000016
  0
LWPOLYLINE
  5
A7
330
88
100
AcDbEntity
  8
AM_9
100
AcDbPolyline
 90
        3
 70
     0
 43
0.0
 10
31.78216263742976
 20
2.020725942163692
 10
31.24149707688216
 20
2.523635995714044
 10
31.06110771284179
 20
2.682596126444211
  0
LWPOLYLINE
  5
A8
330
88
100
AcDbEntity
  8
AM_9
100
AcDbPolyline
 90
        3
 70
     0
 43
0.0
 10
31.88473110481125
 20
0.0269868973847653
 10
31.85767280465379
 20
1.010362971081847
 10
31.78216263742976
 20
2.020725942163692
  0
LINE
  5
A9
330
88
100
AcDbEntity
  8
AM_9
100
AcDbLine
 10
31.88475081718274
 20
0.0000000000000016
 30
0.0
 11
31.88473110481125
 21
0.0269868973847653
 31
0.0
  0
LWPOLYLINE
  5
AA
330
88
100
AcDbEntity
  8
AM_9
100
AcDbPolyline
 90
        3
 70
     0
 43
0.0
 10
28.43766295537925
 20
4.041451884327381
 10
28.97832851592687
 20
3.538541830777031
 10
29.57251164270273
 20
3.031088913245537
  0
LWPOLYLINE
  5
AB
330
88
100
AcDbEntity
  8
AM_9
100
AcDbPolyline
 90
        3
 70
     0
 43
0.0
 10
29.57251164270273
 20
-3.031088913245534
 10
28.98087122169346
 20
-3.536270398786456
 10
28.43766295537925
 20
-4.041451884327379
  0
LINE
  5
AC
330
88
100
AcDbEntity
  8
AM_9
100
AcDbLine
 10
24.85737489886971
 20
-2.802418772605763
 30
0.0
 11
28.26978010789558
 21
-2.953308440111944
 31
0.0
  0
LINE
  5
AD
330
88
100
AcDbEntity
  8
AM_9
100
AcDbLine
 10
28.26978010789558
 20
2.953308440111948
 30
0.0
 11
24.85737489886971
 21
2.802418772605767
 31
0.0
  0
ELLIPSE
  5
AE
330
88
100
AcDbEntity
  8
AM_9
100
AcDbEllipse
 10
29.40987708302982
 20
0.0000000000000036
 30
0.0
 11
2.143131898507874E-16
 21
3.50000000000001
 31
0.0
210
0.0
220
0.0
230
1.0
 40
0.7071067811865501
 41
3.850326533439297
 42
5.574451427330083
  0
ELLIPSE
  5
AF
330
88
100
AcDbEntity
  8
AM_9
100
AcDbEllipse
 10
30.12633400148241
 20
-0.0000000000000093
 30
0.0
 11
1.522711690942043E-16
 21
2.486776909068336
 31
0.0
210
0.0
220
0.0
230
1.0
 40
0.7071067811865476
 41
5.37917471197186
 42
5.984242208656115
  0
ELLIPSE
  5
B0
330
88
100
AcDbEntity
  8
AM_9
100
AcDbEllipse
 10
30.12633400148242
 20
0.0000000000000009
 30
0.0
 11
1.522711690942033E-16
 21
2.48677690906832
 31
0.0
210
0.0
220
0.0
230
1.0
 40
0.707106781186548
 41
3.440535752113265
 42
4.055850841499543
  0
ELLIPSE
  5
B1
330
88
100
AcDbEntity
  8
AM_9
100
AcDbEllipse
 10
30.12633400148397
 20
0.0000000000003562
 30
0.0
 11
1.522711690942540E-16
 21
2.486776909069148
 31
0.0
210
0.0
220
0.0
230
1.0
 40
0.7071067811857868
 41
4.25834372502484
 42
5.180675643781711
  0
LINE
  5
B2
330
88
100
AcDbEntity
  8
AM_9
100
AcDbLine
 10
30.17636761708096
 20
-2.027699801310416
 30
0.0
 11
30.16861187073934
 21
-2.021939132766233
 31
0.0
  0
LWPOLYLINE
  5
B3
330
88
100
AcDbEntity
  8
AM_9
100
AcDbPolyline
 90
        4
 70
     0
 43
0.0
 10
30.62633400148241
 20
-2.19388369025487
 10
30.58253371113017
 20
-2.192277501802685
 10
30.46460155063101
 20
-2.172093589273071
 10
30.41172609940461
 20
-2.155644398939615
  0
LWPOLYLINE
  5
B4
330
88
100
AcDbEntity
  8
AM_9
100
AcDbPolyline
 90
       14
 70
     0
 43
0.0
 10
30.4291365089692
 20
2.161560717650208
 10
30.47198734336811
 20
2.174029706967069
 10
30.58421217413886
 20
2.192398194239877
 10
30.70860855313416
 20
2.188222657340676
 10
30.82344693375297
 20
2.161588257208141
 10
30.93480605697954
 20
2.115348547091304
 10
31.04632692507067
 20
2.049012360892191
 10
31.17038771763051
 20
1.950785477837599
 10
31.29081386288181
 20
1.828417652485675
 10
31.40597097585601
 20
1.682208763730987
 10
31.51374294306983
 20
1.512906294598001
 10
31.61173480154634
 20
1.321991852399706
 10
31.69752636240495
 20
1.111784612765468
 10
31.74829825448152
 20
0.9575750877513745
  0
LINE
  5
B5
330
88
100
AcDbEntity
  8
AM_9
100
AcDbLine
 10
30.17504507704891
 20
2.026724666680428
 30
0.0
 11
30.2192116904297
 21
2.057704846749941
 31
0.0
  0
LWPOLYLINE
  5
B6
330
88
100
AcDbEntity
  8
AM_9
100
AcDbPolyline
 90
       12
 70
     0
 43
0.0
 10
31.75071267751758
 20
-0.9494600960781346
 10
31.70256727072752
 20
-1.097689443441837
 10
31.61785528229417
 20
-1.308557883469808
 10
31.52126155559466
 20
-1.499669623100805
 10
31.41545713201859
 20
-1.668692316543477
 10
31.30337487981694
 20
-1.813958221071586
 10
31.18816271969014
 20
-1.934482128749612
 10
31.07266688347422
 20
-2.030363657694346
 10
30.95905740437776
 20
-2.102637959209742
 10
30.84811597132485
 20
-2.15306424657409
 10
30.73806599544708
 20
-2.183456070741914
 10
30.62633400148241
 20
-2.19388369025487
  0
ELLIPSE
  5
B7
330
88
100
AcDbEntity
  8
AM_9
100
AcDbEllipse
 10
30.9251702402125
 20
-0.0000000000000111
 30
0.0
 11
1.400736253841397E-16
 21
2.287575903218208
 31
0.0
210
0.0
220
0.0
230
1.0
 40
0.7071067811865469
 41
2.656480407116027
 42
3.141592653589793
  0
ELLIPSE
  5
B8
330
88
100
AcDbEntity
  8
AM_9
100
AcDbEllipse
 10
32.47835690173999
 20
-0.0000000000013247
 30
0.0
 11
2.027916041955715E-16
 21
3.311838226936336
 31
0.0
210
0.0
220
0.0
230
1.0
 40
0.7071067811861652
 41
-3.626704900062714
 42
-3.556706394650014
  0
ELLIPSE
  5
B9
330
88
100
AcDbEntity
  8
AM_9
100
AcDbEllipse
 10
32.4783569017434
 20
0.0000000000000249
 30
0.0
 11
2.027916041956633E-16
 21
3.311838226937836
 31
0.0
210
0.0
220
0.0
230
1.0
 40
0.7071067811865487
 41
2.741431187597217
 42
3.141592653589793
  0
ELLIPSE
  5
BA
330
88
100
AcDbEntity
  8
AM_9
100
AcDbEllipse
 10
33.05348177104891
 20
0.0000000000000073
 30
0.0
 11
2.036609237928308E-16
 21
3.326035293353602
 31
0.0
210
0.0
220
0.0
230
1.0
 40
0.7071067811865452
 41
3.579974428543796
 42
5.844803532225581
  0
ELLIPSE
  5
BB
330
88
100
AcDbEntity
  8
AM_9
100
AcDbEllipse
 10
34.3160424238318
 20
-0.000000000004801
 30
0.0
 11
1.572521564382392E-16
 21
2.568122605599007
 31
0.0
210
0.0
220
0.0
230
1.0
 40
0.7071067811915887
 41
3.593536822152695
 42
3.632336918419813
  0
ELLIPSE
  5
BC
330
88
100
AcDbEntity
  8
AM_9
100
AcDbEllipse
 10
34.31604242386106
 20
-0.0000000000005818
 30
0.0
 11
1.572521564386077E-16
 21
2.568122605605025
 31
0.0
210
0.0
220
0.0
230
1.0
 40
0.7071067811860333
 41
-0.5547053495916368
 42
-0.4549369545815916
  0
ELLIPSE
  5
BD
330
88
100
AcDbEntity
  8
AM_9
100
AcDbEllipse
 10
28.33507477562627
 20
0.000000000000008
 30
0.0
 11
2.143131898507859E-16
 21
3.499999999999984
 31
0.0
210
0.0
220
0.0
230
1.0
 40
0.7071067811865492
 41
0.0
 42
6.283185307179586
  0
ELLIPSE
  5
BE
330
88
100
AcDbEntity
  8
AM_9
100
AcDbEllipse
 10
28.33507477563355
 20
0.0000000000005578
 30
0.0
 11
1.809263597660075E-16
 21
2.954751686641005
 31
0.0
210
0.0
220
0.0
230
1.0
 40
0.7071067811866049
 41
0.0
 42
6.283185307179586
  0
ELLIPSE
  5
BF
330
88
100
AcDbEntity
  8
AM_9
100
AcDbEllipse
 10
24.91933354838672
 20
-0.0000000000020091
 30
0.0
 11
1.716825172002033E-16
 21
2.803788281155601
 31
0.0
210
0.0
220
0.0
230
1.0
 40
0.7071067811864257
 41
0.0
 42
6.283185307179586
  0
LINE
  5
C1
330
88
100
AcDbEntity
  8
AM_4
100
AcDbLine
 10
30.64731395010629
 20
-3.031088913245534
 30
0.0
 11
31.06106736931232
 21
-2.682631185199012
 31
0.0
  0
LINE
  5
C2
330
88
100
AcDbEntity
  8
AM_4
100
AcDbLine
 10
31.06110771284179
 20
2.682596126444211
 30
0.0
 11
30.64731395010629
 21
3.031088913245537
 31
0.0
  0
LWPOLYLINE
  5
C3
330
88
100
AcDbEntity
  8
AM_4
100
AcDbPolyline
 90
        3
 70
     0
 43
0.0
 10
29.30728890327685
 20
-4.041451884327379
 10
29.99849636044337
 20
-3.538541830777027
 10
30.64731395010629
 20
-3.031088913245534
  0
LWPOLYLINE
  5
C4
330
88
100
AcDbEntity
  8
AM_4
100
AcDbPolyline
 90
        3
 70
     0
 43
0.0
 10
30.64731395010629
 20
3.031088913245537
 10
30.0015175040391
 20
3.53627039878646
 10
29.30728890327685
 20
4.041451884327381
  0
LWPOLYLINE
  5
C5
330
88
100
AcDbEntity
  8
AM_4
100
AcDbPolyline
 90
        3
 70
     0
 43
0.0
 10
25.86020104147336
 20
0.0000000000000019
 10
25.88727905400231
 20
1.010362971081847
 10
25.96278922122634
 20
2.020725942163692
  0
LWPOLYLINE
  5
C6
330
88
100
AcDbEntity
  8
AM_4
100
AcDbPolyline
 90
        4
 70
     0
 43
0.0
 10
25.96278922122634
 20
-2.020725942163689
 10
25.92206614125399
 20
-1.546688894797461
 10
25.87628892930525
 20
-0.7756181668408964
 10
25.86020104147336
 20
0.0000000000000019
  0
LWPOLYLINE
  5
C7
330
88
100
AcDbEntity
  8
AM_4
100
AcDbPolyline
 90
        4
 70
     0
 43
0.0
 10
26.93500334887691
 20
0.000000000000002
 10
26.91900853682951
 20
-0.7733444473987295
 10
26.87313824909628
 20
-1.546688894797461
 10
26.83241516912393
 20
-2.020725942163689
  0
LINE
  5
C8
330
88
100
AcDbEntity
  8
AM_4
100
AcDbLine
 10
26.83241516912393
 20
-2.020725942163689
 30
0.0
 11
25.96278922122634
 21
-2.020725942163689
 31
0.0
  0
LWPOLYLINE
  5
C9
330
88
100
AcDbEntity
  8
AM_4
100
AcDbPolyline
 90
        3
 70
     0
 43
0.0
 10
27.09763790854982
 20
-3.031088913245534
 10
26.50599748754054
 20
-2.525907427704611
 10
25.96278922122634
 20
-2.020725942163689
  0
LWPOLYLINE
  5
CA
330
88
100
AcDbEntity
  8
AM_4
100
AcDbPolyline
 90
        3
 70
     0
 43
0.0
 10
28.43766295537925
 20
-4.041451884327379
 10
27.74645549821274
 20
-3.538541830777028
 10
27.09763790854982
 20
-3.031088913245534
  0
LINE
  5
CB
330
88
100
AcDbEntity
  8
AM_4
100
AcDbLine
 10
29.30728890327685
 20
-4.041451884327379
 30
0.0
 11
28.43766295537925
 21
-4.041451884327379
 31
0.0
  0
LWPOLYLINE
  5
CC
330
88
100
AcDbEntity
  8
AM_4
100
AcDbPolyline
 90
        3
 70
     0
 43
0.0
 10
28.17244021595337
 20
-3.031088913245534
 10
28.76408063696265
 20
-3.536270398786456
 10
29.30728890327685
 20
-4.041451884327379
  0
LWPOLYLINE
  5
CD
330
88
100
AcDbEntity
  8
AM_4
100
AcDbPolyline
 90
        3
 70
     0
 43
0.0
 10
26.83241516912393
 20
-2.020725942163689
 10
27.52362262629045
 20
-2.52363599571404
 10
28.17244021595337
 20
-3.031088913245534
  0
LINE
  5
CE
330
88
100
AcDbEntity
  8
AM_4
100
AcDbLine
 10
29.30728890327685
 20
4.041451884327381
 30
0.0
 11
28.43766295537925
 21
4.041451884327381
 31
0.0
  0
LWPOLYLINE
  5
CF
330
88
100
AcDbEntity
  8
AM_4
100
AcDbPolyline
 90
        3
 70
     0
 43
0.0
 10
27.09763790854982
 20
3.031088913245538
 10
27.743434354617
 20
3.53627039878646
 10
28.43766295537925
 20
4.041451884327381
  0
LWPOLYLINE
  5
D0
330
88
100
AcDbEntity
  8
AM_4
100
AcDbPolyline
 90
        3
 70
     0
 43
0.0
 10
25.96278922122634
 20
2.020725942163692
 10
26.50345478177395
 20
2.523635995714044
 10
27.09763790854982
 20
3.031088913245538
  0
LINE
  5
D1
330
88
100
AcDbEntity
  8
AM_4
100
AcDbLine
 10
26.83241516912393
 20
2.020725942163692
 30
0.0
 11
25.96278922122634
 21
2.020725942163692
 31
0.0
  0
LWPOLYLINE
  5
D2
330
88
100
AcDbEntity
  8
AM_4
100
AcDbPolyline
 90
        3
 70
     0
 43
0.0
 10
29.30728890327685
 20
4.041451884327381
 10
28.76662334272924
 20
3.538541830777031
 10
28.17244021595337
 20
3.031088913245537
  0
LWPOLYLINE
  5
D3
330
88
100
AcDbEntity
  8
AM_4
100
AcDbPolyline
 90
        3
 70
     0
 43
0.0
 10
28.17244021595337
 20
3.031088913245537
 10
27.52664376988619
 20
2.525907427704615
 10
26.83241516912393
 20
2.020725942163692
  0
LWPOLYLINE
  5
D4
330
88
100
AcDbEntity
  8
AM_4
100
AcDbPolyline
 90
        3
 70
     0
 43
0.0
 10
26.83241516912393
 20
2.020725942163692
 10
26.90768611743339
 20
1.014905835062989
 10
26.93500334887691
 20
0.000000000000002
  0
ELLIPSE
  5
D5
330
88
100
AcDbEntity
  8
AM_4
100
AcDbEllipse
 10
29.40987708302987
 20
0.0000000000000777
 30
0.0
 11
2.143131898507812E-16
 21
3.499999999999908
 31
0.0
210
0.0
220
0.0
230
1.0
 40
0.7071067811865475
 41
5.574451427330081
 42
10.13351184061886
  0
ELLIPSE
  5
D6
330
88
100
AcDbEntity
  8
AM_4
100
AcDbEllipse
 10
30.12633400148242
 20
0.000000000000002
 30
0.0
 11
1.522711690942038E-16
 21
2.486776909068328
 31
0.0
210
0.0
220
0.0
230
1.0
 40
0.7071067811865471
 41
5.984242208656117
 42
9.72372105929285
  0
LINE
  5
D7
330
88
100
AcDbEntity
  8
AM_4
100
AcDbLine
 10
30.17088942247556
 20
-2.023641373606683
 30
0.0
 11
31.38634677761461
 21
-2.929726987111135
 31
0.0
  0
LINE
  5
D8
330
88
100
AcDbEntity
  8
AM_4
100
AcDbLine
 10
31.38634677761461
 20
2.92972698711114
 30
0.0
 11
30.17088942247556
 21
2.023641373606686
 31
0.0
  0
ELLIPSE
  5
D9
330
88
100
AcDbEntity
  8
AM_4
100
AcDbEllipse
 10
30.92517024021254
 20
0.0000000000000031
 30
0.0
 11
1.400736253841411E-16
 21
2.287575903218231
 31
0.0
210
0.0
220
0.0
230
1.0
 40
0.7071067811865476
 41
0.4851122464737836
 42
2.65648040711601
  0
ELLIPSE
  5
DA
330
88
100
AcDbEntity
  8
AM_4
100
AcDbEllipse
 10
32.47835690159338
 20
-0.0000000001397611
 30
0.0
 11
2.027916041859669E-16
 21
3.311838226779481
 31
0.0
210
0.0
220
0.0
230
1.0
 40
0.7071067811726695
 41
-3.635248026215971
 42
-3.626704900034698
  0
LWPOLYLINE
  5
DB
330
88
100
AcDbEntity
  8
AM_4
100
AcDbPolyline
 90
        3
 70
     0
 43
0.0
 10
33.93634675875397
 20
-3.083650151138946
 10
33.95413155247262
 20
-3.073101096962186
 10
34.06289520013949
 20
-3.004118559621128
  0
LWPOLYLINE
  5
DC
330
88
100
AcDbEntity
  8
AM_4
100
AcDbPolyline
 90
        6
 70
     0
 43
0.0
 10
32.77719314047346
 20
-3.405530439901158
 10
32.96275576958052
 20
-3.397704367100447
 10
33.22098602493946
 20
-3.36049061424697
 10
33.47343294184041
 20
-3.293433650133815
 10
33.7183466260484
 20
-3.197378344646232
 10
33.93634675875397
 20
-3.083650151138946
  0
LWPOLYLINE
  5
DD
330
88
100
AcDbEntity
  8
AM_4
100
AcDbPolyline
 90
       13
 70
     0
 43
0.0
 10
34.07709762551716
 20
2.994525576783813
 10
33.99151163989042
 20
3.050269920475492
 10
33.74431925629483
 20
3.185283427237034
 10
33.48891117458707
 20
3.288293740324513
 10
33.22834792088184
 20
3.358972214629415
 10
32.96546366785142
 20
3.397473983711778
 10
32.70283104061771
 20
3.404275002505738
 10
32.4427607055277
 20
3.380035868359931
 10
32.18761848305859
 20
3.325578395049059
 10
31.93929697459838
 20
3.241771671323052
 10
31.69943416528517
 20
3.1294198198714
 10
31.46959716290332
 20
2.989272219022395
 10
31.38622313798291
 20
2.929634811944962
  0
LWPOLYLINE
  5
DE
330
88
100
AcDbEntity
  8
AM_4
100
AcDbPolyline
 90
        8
 70
     0
 43
0.0
 10
31.36511066834281
 20
-2.913727884527118
 10
31.46089292891455
 20
-2.98327748989003
 10
31.70362087022429
 20
-3.131664929324685
 10
31.95591533510271
 20
-3.24837694643909
 10
32.2146444186922
 20
-3.332827971026163
 10
32.47687034315602
 20
-3.384988005091849
 10
32.72384956961554
 20
-3.404884470037076
 10
32.77719314047346
 20
-3.405530439901158
  0
ELLIPSE
  5
DF
330
88
100
AcDbEntity
  8
AM_4
100
AcDbEllipse
 10
32.47835690174333
 20
0.0000000000000047
 30
0.0
 11
2.027916041956613E-16
 21
3.311838226937803
 31
0.0
210
0.0
220
0.0
230
1.0
 40
0.707106781186547
 41
0.4849062580832477
 42
2.647937280935413
  0
ELLIPSE
  5
E0
330
88
100
AcDbEntity
  8
AM_4
100
AcDbEllipse
 10
34.53145149916399
 20
0.0000000000000021
 30
0.0
 11
-3.872094701371913E-16
 21
-2.107870178878142
 31
0.0
210
0.0
220
0.0
230
1.0
 40
0.7071067811865464
 41
0.0
 42
6.283185307179586
  0
LWPOLYLINE
  5
E1
330
88
100
AcDbEntity
  8
AM_4
100
AcDbPolyline
 90
       22
 70
     0
 43
0.0
 10
35.11196427964115
 20
-2.308341429449571
 10
35.14362498714136
 20
-2.286117176000675
 10
35.32691866341986
 20
-2.136955268883059
 10
35.49704578655243
 20
-1.961789033137581
 10
35.65184046880664
 20
-1.762385844734561
 10
35.78919432547357
 20
-1.541107869564132
 10
35.90724213650235
 20
-1.300819947788455
 10
36.00447888938216
 20
-1.044705547356579
 10
36.07977182888593
 20
-0.7761347901785934
 10
36.1323518736589
 20
-0.4984665452320015
 10
36.16173803041148
 20
-0.2149665100369517
 10
36.16766055910606
 20
0.0711287259991851
 10
36.15003105312911
 20
0.3566102206934418
 10
36.10893278890476
 20
0.6382523118450918
 10
36.04460939772135
 20
0.9128876617616194
 10
35.95745698624437
 20
1.177385150089489
 10
35.8480412358585
 20
1.428613871171606
 10
35.71714906609338
 20
1.663407702185747
 10
35.56597172353042
 20
1.87843641646338
 10
35.3961443222907
 20
2.070452213564978
 10
35.20989581204334
 20
2.236364990109053
 10
35.11760283391183
 20
2.304454329244014
  0
ELLIPSE
  5
E2
330
88
100
AcDbEntity
  8
AM_4
100
AcDbEllipse
 10
34.31604242377957
 20
0.0000000000048055
 30
0.0
 11
1.572521564388923E-16
 21
2.568122605609672
 31
0.0
210
0.0
220
0.0
230
1.0
 40
0.7071067811994065
 41
3.579974428575341
 42
3.59353682217259
  0
ELLIPSE
  5
E3
330
88
100
AcDbEntity
  8
AM_4
100
AcDbEllipse
 10
33.0534817710489
 20
-0.0000000000000078
 30
0.0
 11
2.036609237928305E-16
 21
3.326035293353597
 31
0.0
210
0.0
220
0.0
230
1.0
 40
0.7071067811865442
 41
5.844803532225579
 42
9.863159735723386
  0
ELLIPSE
  5
E4
330
88
100
AcDbEntity
  8
AM_4
100
AcDbEllipse
 10
34.31604242385844
 20
-0.000000000000004
 30
0.0
 11
1.572521564385668E-16
 21
2.568122605604357
 31
0.0
210
0.0
220
0.0
230
1.0
 40
0.7071067811865437
 41
5.844803532225583
 42
9.863159735723388
  0
LINE
  5
E5
330
88
100
AcDbEntity
  8
AM_4
100
AcDbLine
 10
35.08686190969933
 20
2.325280275130746
 30
0.0
 11
34.05178800810963
 21
3.011524545263592
 31
0.0
  0
LINE
  5
E6
330
88
100
AcDbEntity
  8
AM_4
100
AcDbLine
 10
34.05178800810963
 20
-3.011524545263588
 30
0.0
 11
35.08686190969933
 21
-2.325280275130742
 31
0.0
  0
ELLIPSE
  5
E7
330
88
100
AcDbEntity
  8
AM_4
100
AcDbEllipse
 10
34.31604242378407
 20
-0.0000000000665059
 30
0.0
 11
1.572521564430818E-16
 21
2.568122605678092
 31
0.0
210
0.0
220
0.0
230
1.0
 40
0.7071067811951957
 41
-0.4549369546032844
 42
-0.4383817749753955
  0
ENDBLK
  5
8B
330
88
100
AcDbEntity
  8
0
100
AcDbBlockEnd
  0
BLOCK
  5
EA
330
E8
100
AcDbEntity
  8
0
100
AcDbBlockBegin
  2
3_127863_0_in_136857_4
 70
     2
 10
0.0
 20
0.0
 30
0.0
  3
3_127863_0_in_136857_4
  1

  0
ATTDEF
  5
EC
330
E8
100
AcDbEntity
  8
AM_6
100
AcDbText
 10
35.98141345360992
 20
14.7
 30
0.0
 40
0.5
  1
Set Screw Insert Metric Bore - Stainless Steel
100
AcDbAttributeDefinition
  3

  2
NN
 70
     8
280
     0
  0
ATTDEF
  5
ED
330
E8
100
AcDbEntity
  8
AM_6
100
AcDbText
 10
35.98141345360992
 20
14.2
 30
0.0
 40
0.5
  1
SC Medium Duty Bearing Inserts
100
AcDbAttributeDefinition
  3

  2
NT
 70
     8
280
     0
  0
ATTDEF
  5
EE
330
E8
100
AcDbEntity
  8
AM_6
100
AcDbText
 10
35.98141345360992
 20
13.7
 30
0.0
 40
0.5
  1
127863
100
AcDbAttributeDefinition
  3

  2
NB
 70
     8
280
     0
  0
ATTDEF
  5
EF
330
E8
100
AcDbEntity
  8
AM_6
100
AcDbText
 10
35.98141345360992
 20
13.2
 30
0.0
 40
0.5
  1
$PN.
100
AcDbAttributeDefinition
  3

  2
NBSYN
 70
     8
280
     0
  0
ATTDEF
  5
F0
330
E8
100
AcDbEntity
  8
AM_6
100
AcDbText
 10
35.98141345360992
 20
12.7
 30
0.0
 40
0.5
  1
127863
100
AcDbAttributeDefinition
  3

  2
LINA
 70
     8
280
     0
  0
ATTDEF
  5
F1
330
E8
100
AcDbEntity
  8
AM_6
100
AcDbText
 10
35.98141345360992
 20
12.2
 30
0.0
 40
0.5
  1
206
100
AcDbAttributeDefinition
  3

  2
SERIES
 70
     8
280
     0
  0
ATTDEF
  5
F2
330
E8
100
AcDbEntity
  8
AM_6
100
AcDbText
 10
35.98141345360992
 20
11.7
 30
0.0
 40
0.5
  1
30
100
AcDbAttributeDefinition
  3

  2
SS
 70
     8
280
     0
  0
ATTDEF
  5
F3
330
E8
100
AcDbEntity
  8
AM_6
100
AcDbText
 10
35.98141345360992
 20
11.2
 30
0.0
 40
0.5
  1
127863
100
AcDbAttributeDefinition
  3

  2
PN
 70
     8
280
     0
  0
ATTDEF
  5
F4
330
E8
100
AcDbEntity
  8
AM_6
100
AcDbText
 10
35.98141345360992
 20
10.7
 30
0.0
 40
0.5
  1
INS-SC-30M-SS
100
AcDbAttributeDefinition
  3

  2
DESCRIPTION
 70
     8
280
     0
  0
ATTDEF
  5
F5
330
E8
100
AcDbEntity
  8
AM_6
100
AcDbText
 10
35.98141345360992
 20
10.2
 30
0.0
 40
0.5
  1
0.27
100
AcDbAttributeDefinition
  3

  2
WEIGHT
 70
     8
280
     0
  0
ATTDEF
  5
F6
330
E8
100
AcDbEntity
  8
AM_6
100
AcDbText
 10
35.98141345360992
 20
9.7
 30
0.0
 40
0.5
  1
38.6
100
AcDbAttributeDefinition
  3

  2
A
 70
     8
280
     0
  0
ATTDEF
  5
F7
330
E8
100
AcDbEntity
  8
AM_6
100
AcDbText
 10
35.98141345360992
 20
9.2
 30
0.0
 40
0.5
  1
17.6
100
AcDbAttributeDefinition
  3

  2
C
 70
     8
280
     0
  0
ATTDEF
  5
F8
330
E8
100
AcDbEntity
  8
AM_6
100
AcDbText
 10
35.98141345360992
 20
8.7
 30
0.0
 40
0.5
  1
62
100
AcDbAttributeDefinition
  3

  2
D
 70
     8
280
     0
  0
ATTDEF
  5
F9
330
E8
100
AcDbEntity
  8
AM_6
100
AcDbText
 10
35.98141345360992
 20
8.2
 30
0.0
 40
0.5
  1
4.6
100
AcDbAttributeDefinition
  3

  2
J
 70
     8
280
     0
  0
ATTDEF
  5
FA
330
E8
100
AcDbEntity
  8
AM_6
100
AcDbText
 10
35.98141345360992
 20
7.699999999999999
 30
0.0
 40
0.5
  1
39.9
100
AcDbAttributeDefinition
  3

  2
L
 70
     8
280
     0
  0
ATTDEF
  5
FB
330
E8
100
AcDbEntity
  8
AM_6
100
AcDbText
 10
35.98141345360992
 20
7.199999999999999
 30
0.0
 40
0.5
  1
M8 x 1.25
100
AcDbAttributeDefinition
  3

  2
N
 70
     8
280
     0
  0
ATTDEF
  5
FC
330
E8
100
AcDbEntity
  8
AM_6
100
AcDbText
 10
35.98141345360992
 20
6.699999999999999
 30
0.0
 40
0.5
  1
14.7
100
AcDbAttributeDefinition
  3

  2
W
 70
     8
280
     0
  0
ATTDEF
  5
FD
330
E8
100
AcDbEntity
  8
AM_6
100
AcDbText
 10
35.98141345360992
 20
6.199999999999999
 30
0.0
 40
0.5
  1
23.9
100
AcDbAttributeDefinition
  3

  2
Y
 70
     8
280
     0
  0
ATTDEF
  5
FE
330
E8
100
AcDbEntity
  8
AM_6
100
AcDbText
 10
35.98141345360992
 20
5.699999999999999
 30
0.0
 40
0.5
  1
baldor
100
AcDbAttributeDefinition
  3

  2
COMPANY
 70
     8
280
     0
  0
LINE
  5
FF
330
E8
100
AcDbEntity
  8
AM_9
100
AcDbLine
 10
-14.37041948604686
 20
-19.29004325527302
 30
0.0
 11
-14.21401032307571
 21
-19.48513030612709
 31
0.0
  0
LINE
  5
100
330
E8
100
AcDbEntity
  8
AM_9
100
AcDbLine
 10
-14.21488267253546
 20
-13.21595776365211
 30
0.0
 11
-14.37041948604686
 21
-13.40995674472699
 31
0.0
  0
LWPOLYLINE
  5
101
330
E8
100
AcDbEntity
  8
AM_9
100
AcDbPolyline
 90
       27
 70
     0
 43
0.0
 10
-14.21073063841446
 20
-19.48922094138793
 10
-14.07011313228497
 20
-19.63339482782315
 10
-13.81177922997348
 20
-19.77450778465759
 10
-13.51787309016945
 20
-19.80325254439478
 10
-13.19020891448789
 20
-19.71550273978436
 10
-12.84468943909972
 20
-19.51331631111928
 10
-12.49468786633788
 20
-19.19906938892865
 10
-12.15802125137174
 20
-18.77918995503924
 10
-11.95658634525394
 20
-18.45285483802816
 10
-11.77527234264997
 20
-18.08560464105894
 10
-11.62303668657596
 20
-17.68399862089807
 10
-11.50176788446087
 20
-17.22414424217612
 10
-11.42954785128261
 20
-16.73949469574129
 10
-11.41362997541488
 20
-16.24102160436302
 10
-11.45449174388525
 20
-15.7459091102055
 10
-11.54332596928661
 20
-15.29415774786509
 10
-11.67362037677655
 20
-14.86857517934773
 10
-11.85371827161949
 20
-14.44419176392653
 10
-12.06360050131187
 20
-14.0650087197023
 10
-12.33456267064154
 20
-13.68426225268144
 10
-12.62091504676431
 20
-13.37442774953513
 10
-12.95200817358482
 20
-13.11261333854752
 10
-13.27550596351256
 20
-12.95101094697537
 10
-13.59504121719698
 20
-12.89354963233062
 10
-13.88367016897813
 20
-12.95149362950852
 10
-14.13458870591932
 20
-13.12600238203126
 10
-14.21051504974704
 20
-13.21051039278546
  0
LWPOLYLINE
  5
102
330
E8
100
AcDbEntity
  8
AM_9
100
AcDbPolyline
 90
        3
 70
     0
 43
0.0
 10
-14.28647365982691
 20
-13.31606156755245
 10
-14.34380588657705
 20
-13.41224886013537
 10
-14.50923867827976
 20
-13.80391424519798
  0
LINE
  5
103
330
E8
100
AcDbEntity
  8
AM_9
100
AcDbLine
 10
-14.21051504974704
 20
-13.21051039278546
 30
0.0
 11
-14.28647365982691
 21
-13.31606156755245
 31
0.0
  0
LINE
  5
104
330
E8
100
AcDbEntity
  8
AM_9
100
AcDbLine
 10
-13.71545690259133
 20
-13.02650000000001
 30
0.0
 11
-17.46772313345087
 21
-13.02650000000001
 31
0.0
  0
LINE
  5
105
330
E8
100
AcDbEntity
  8
AM_9
100
AcDbLine
 10
-17.46772313345087
 20
-19.67350000000001
 30
0.0
 11
-13.71545690259133
 21
-19.67350000000001
 31
0.0
  0
LINE
  5
106
330
E8
100
AcDbEntity
  8
AM_9
100
AcDbLine
 10
-16.81276054999534
 20
-13.40995674472699
 30
0.0
 11
-17.22875282472078
 21
-12.89109516070824
 31
0.0
  0
LINE
  5
107
330
E8
100
AcDbEntity
  8
AM_9
100
AcDbLine
 10
-17.22848631649923
 20
-19.80857242716205
 30
0.0
 11
-16.81276054999534
 21
-19.29004325527302
 31
0.0
  0
ELLIPSE
  5
108
330
E8
100
AcDbEntity
  8
AM_9
100
AcDbEllipse
 10
-17.46772313345092
 20
-16.35000000000001
 30
0.0
 11
2.035056818483115E-16
 21
3.323500000000001
 31
0.0
210
0.0
220
0.0
230
1.0
 40
0.422618261740708
 41
3.484525963985917
 42
5.94851556257151
  0
LWPOLYLINE
  5
109
330
E8
100
AcDbEntity
  8
AM_9
100
AcDbPolyline
 90
        3
 70
     0
 43
0.0
 10
-14.29223237913567
 20
-19.37497299556498
 10
-14.2720858392695
 20
-19.40529196276629
 10
-14.21073063841446
 20
-19.48922094138793
  0
LWPOLYLINE
  5
10A
330
E8
100
AcDbEntity
  8
AM_9
100
AcDbPolyline
 90
       14
 70
     0
 43
0.0
 10
-14.50923867827976
 20
-13.80391424519798
 10
-14.60758922818622
 20
-14.16958618120008
 10
-14.68367863838015
 20
-14.58980679557132
 10
-14.73722087168773
 20
-15.04390632277265
 10
-14.77245019947879
 20
-15.53638659927002
 10
-14.79026102929576
 20
-16.05929385607119
 10
-14.79106368922876
 20
-16.5923010773282
 10
-14.77731629588492
 20
-17.06210666872031
 10
-14.74963997625873
 20
-17.51282083354384
 10
-14.70584842306803
 20
-17.94594561270881
 10
-14.64571839058393
 20
-18.34153744223029
 10
-14.55461218117492
 20
-18.74465760265762
 10
-14.43902251234193
 20
-19.08745049663331
 10
-14.29223237913567
 20
-19.37497299556498
  0
LWPOLYLINE
  5
10B
330
E8
100
AcDbEntity
  8
AM_9
100
AcDbPolyline
 90
       43
 70
     0
 43
0.0
 10
2.737677222257711
 20
-13.84797019053512
 10
2.173395819007478
 20
-13.46114883301028
 10
1.532890854315709
 20
-13.16424463611727
 10
0.8660733042176235
 20
-12.97757686951959
 10
0.1576821085806307
 20
-12.89593620843619
 10
-0.5560762191252622
 20
-12.92774033869605
 10
-1.27437069793224
 20
-13.07837162471881
 10
-1.937139253501577
 20
-13.33646701978034
 10
-2.562705955499577
 20
-13.71265659698523
 10
-3.085700597593047
 20
-14.17076248043553
 10
-3.321012786358194
 20
-14.44406738636497
 10
-3.527537140402136
 20
-14.74015303843308
 10
-3.760952990434494
 20
-15.18933245738828
 10
-3.922985673938463
 20
-15.68522779184103
 10
-3.995559142464767
 20
-16.1897353950959
 10
-3.976637815510988
 20
-16.71721088117558
 10
-3.881030593502895
 20
-17.17433003894859
 10
-3.711557872637892
 20
-17.62138162912771
 10
-3.471235548726082
 20
-18.0473746876735
 10
-3.16620124707744
 20
-18.44181314389587
 10
-2.758736367776881
 20
-18.83465911671682
 10
-2.287829993756238
 20
-19.1712875730253
 10
-1.703850339145998
 20
-19.46884878480837
 10
-1.063330714912447
 20
-19.6788645428887
 10
-0.3653082269758062
 20
-19.79194974929102
 10
0.3627094727456379
 20
-19.79216114123177
 10
1.067539047466248
 20
-19.67783206676673
 10
1.761920495634788
 20
-19.44418981133064
 10
2.386294107868508
 20
-19.10907553165655
 10
2.682738202424231
 20
-18.89618283630814
 10
2.958094580792087
 20
-18.65709652195912
 10
3.403173405026114
 20
-18.14594030425
 10
3.593816460495937
 20
-17.84838819007938
 10
3.751969383027489
 20
-17.53167452131273
 10
3.907841650268621
 20
-17.0765961726623
 10
3.990226110510873
 20
-16.58769089234452
 10
3.989581425535154
 20
-16.1046038102434
 10
3.905448189910568
 20
-15.61412596149028
 10
3.753764489692825
 20
-15.1724896075847
 10
3.533468389425886
 20
-14.74972882618296
 10
3.231168252402859
 20
-14.3330996805357
 10
2.864924929868587
 20
-13.95683289300586
 10
2.737677222257712
 20
-13.84797019053512
  0
LINE
  5
10C
330
E8
100
AcDbEntity
  8
AM_9
100
AcDbLine
 10
15.0
 20
-23.102
 30
0.0
 11
15.0
 21
13.902
 31
0.0
  0
LINE
  5
10D
330
E8
100
AcDbEntity
  8
AM_9
100
AcDbLine
 10
-15.0
 20
13.902
 30
0.0
 11
-15.0
 21
-23.102
 31
0.0
  0
LINE
  5
10E
330
E8
100
AcDbEntity
  8
AM_9
100
AcDbLine
 10
-15.0
 20
-23.102
 30
0.0
 11
-15.798
 21
-23.90000000000001
 31
0.0
  0
LINE
  5
10F
330
E8
100
AcDbEntity
  8
AM_9
100
AcDbLine
 10
15.798
 20
-23.90000000000001
 30
0.0
 11
15.0
 21
-23.102
 31
0.0
  0
LINE
  5
110
330
E8
100
AcDbEntity
  8
AM_9
100
AcDbLine
 10
15.0
 20
13.902
 30
0.0
 11
15.798
 21
14.7
 31
0.0
  0
LINE
  5
111
330
E8
100
AcDbEntity
  8
AM_9
100
AcDbLine
 10
-15.798
 20
14.7
 30
0.0
 11
-15.0
 21
13.902
 31
0.0
  0
LINE
  5
112
330
E8
100
AcDbEntity
  8
AM_9
100
AcDbLine
 10
19.95
 20
-11.84443888971021
 30
0.0
 11
19.95
 21
-8.8
 31
0.0
  0
LINE
  5
113
330
E8
100
AcDbEntity
  8
AM_9
100
AcDbLine
 10
-19.95
 20
-8.8
 30
0.0
 11
-19.95
 21
-11.84443888971021
 31
0.0
  0
LINE
  5
114
330
E8
100
AcDbEntity
  8
AM_9
100
AcDbLine
 10
19.95
 20
8.8
 30
0.0
 11
19.95
 21
11.8444388897102
 31
0.0
  0
LINE
  5
115
330
E8
100
AcDbEntity
  8
AM_9
100
AcDbLine
 10
-19.95
 20
11.8444388897102
 30
0.0
 11
-19.95
 21
8.8
 31
0.0
  0
LINE
  5
116
330
E8
100
AcDbEntity
  8
AM_9
100
AcDbLine
 10
29.466666682
 20
-5.519999999999999
 30
0.0
 11
29.466666682
 21
-3.680000000000001
 31
0.0
  0
LINE
  5
117
330
E8
100
AcDbEntity
  8
AM_9
100
AcDbLine
 10
-29.466666682
 20
-3.680000000000001
 30
0.0
 11
-29.466666682
 21
-5.519999999999999
 31
0.0
  0
LINE
  5
118
330
E8
100
AcDbEntity
  8
AM_9
100
AcDbLine
 10
-29.02950223479555
 20
-8.800000000000004
 30
0.0
 11
29.02950223479555
 21
-8.800000000000004
 31
0.0
  0
ARC
  5
119
330
E8
100
AcDbEntity
  8
AM_9
100
AcDbCircle
 10
29.02950223479555
 20
-7.879999999999991
 30
0.0
 40
0.9200000000000133
100
AcDbArc
 50
270.0
 51
344.8131265448251
  0
ARC
  5
11A
330
E8
100
AcDbEntity
  8
AM_9
100
AcDbCircle
 10
-29.02950223479555
 20
-7.879999999999991
 30
0.0
 40
0.9200000000000106
100
AcDbArc
 50
195.1868734551748
 51
270.0
  0
LINE
  5
11B
330
E8
100
AcDbEntity
  8
AM_9
100
AcDbLine
 10
-29.02950223479555
 20
8.8
 30
0.0
 11
29.02950223479555
 21
8.8
 31
0.0
  0
ARC
  5
11C
330
E8
100
AcDbEntity
  8
AM_9
100
AcDbCircle
 10
29.02950223479554
 20
7.879999999999967
 30
0.0
 40
0.9200000000000316
100
AcDbArc
 50
15.18687345517629
 51
90.0
  0
ARC
  5
11D
330
E8
100
AcDbEntity
  8
AM_9
100
AcDbCircle
 10
-29.02950223479554
 20
7.879999999999967
 30
0.0
 40
0.9200000000000337
100
AcDbArc
 50
90.0
 51
164.8131265448237
  0
ARC
  5
11E
330
E8
100
AcDbEntity
  8
AM_9
100
AcDbCircle
 10
0.000000000061263
 20
0.0000000000138591
 30
0.0
 40
31.0000000000627
100
AcDbArc
 50
190.2570435959272
 51
195.1868734551695
  0
ARC
  5
11F
330
E8
100
AcDbEntity
  8
AM_9
100
AcDbCircle
 10
-0.0000000011515198
 20
0.0000000002596838
 30
0.0
 40
31.00000000117826
100
AcDbArc
 50
344.8131265449194
 51
349.7429564039842
  0
LINE
  5
120
330
E8
100
AcDbEntity
  8
AM_9
100
AcDbLine
 10
-29.91737264889164
 20
-8.121010638297873
 30
0.0
 11
29.91737264889058
 21
-8.121010638297873
 31
0.0
  0
LINE
  5
121
330
E8
100
AcDbEntity
  8
AM_9
100
AcDbLine
 10
-30.50458326219188
 20
-5.519999999999999
 30
0.0
 11
30.50458326219081
 21
-5.519999999999999
 31
0.0
  0
ARC
  5
122
330
E8
100
AcDbEntity
  8
AM_9
100
AcDbCircle
 10
0.0000000000006644
 20
-0.0000000000000071
 30
0.0
 40
31.00000000000064
100
AcDbArc
 50
164.8131265448259
 51
186.8176402539565
  0
ARC
  5
123
330
E8
100
AcDbEntity
  8
AM_9
100
AcDbCircle
 10
0.0000000005464642
 20
0.000000000040014
 30
0.0
 40
30.99999999946202
100
AcDbArc
 50
353.1823597458499
 51
15.18687345536766
  0
LINE
  5
124
330
E8
100
AcDbEntity
  8
AM_9
100
AcDbLine
 10
-30.78079920989705
 20
-3.67999999999999
 30
0.0
 11
30.78079920989694
 21
-3.67999999999999
 31
0.0
  0
LINE
  5
125
330
E8
100
AcDbEntity
  8
AM_9
100
AcDbLine
 10
-29.91737264889169
 20
8.121010638297877
 30
0.0
 11
29.91737264889157
 21
8.121010638297877
 31
0.0
  0
ARC
  5
127
330
E8
100
AcDbEntity
  8
AM_5
100
AcDbCircle
 10
0.0000000000000001
 20
-15.9
 30
0.0
 40
4.0
100
AcDbArc
 50
75.0
 51
14.99999999999997
  0
ELLIPSE
  5
128
330
E8
100
AcDbEntity
  8
AM_9
100
AcDbEllipse
 10
-13.71545690259133
 20
-16.35000000000001
 30
0.0
 11
2.035056818483115E-16
 21
3.323500000000001
 31
0.0
210
0.0
220
0.0
230
1.0
 40
0.4226182617406994
 41
0.0
 42
6.283185307179586
  0
LINE
  5
12B
330
E8
100
AcDbEntity
  8
AM_7
100
AcDbLine
 10
-3.489674999999999
 20
-16.35000000000001
 30
0.0
 11
3.489674999999999
 21
-16.35000000000001
 31
0.0
  0
ELLIPSE
  5
12C
330
E8
100
AcDbEntity
  8
AM_4
100
AcDbEllipse
 10
-17.46772313345087
 20
-16.35000000000001
 30
0.0
 11
2.035056818483116E-16
 21
3.323500000000003
 31
0.0
210
0.0
220
0.0
230
1.0
 40
0.4226182617406992
 41
5.94851556257154
 42
9.767711271165476
  0
LWPOLYLINE
  5
12D
330
E8
100
AcDbEntity
  8
AM_4
100
AcDbPolyline
 90
       14
 70
     0
 43
0.0
 10
-17.23273163761246
 20
-12.88613258176823
 10
-17.1227011661029
 20
-13.03346855257308
 10
-16.89556090971652
 20
-13.405620839422
 10
-16.67780480642263
 20
-13.87641535262715
 10
-16.49649680609065
 20
-14.4034922186993
 10
-16.34877299114248
 20
-15.02441583796347
 10
-16.2573137886177
 20
-15.67882062129326
 10
-16.22685357638749
 20
-16.38530344801637
 10
-16.26408406961139
 20
-17.09081709563262
 10
-16.37049767739693
 20
-17.7857745660131
 10
-16.54000929353185
 20
-18.43923110455309
 10
-16.76210873765371
 20
-19.0216837711023
 10
-17.02782460066388
 20
-19.52337305118554
 10
-17.2328148784369
 20
-19.81397129330946
  0
LWPOLYLINE
  5
12E
330
E8
100
AcDbEntity
  8
AM_4
100
AcDbPolyline
 90
       19
 70
     0
 43
0.0
 10
-17.2328148784369
 20
-19.81397129330946
 10
-17.30740617100891
 20
-19.90222341996229
 10
-17.60221720754017
 20
-20.17413940966808
 10
-17.8706865428563
 20
-20.31410582290219
 10
-18.13037085093185
 20
-20.34791187645835
 10
-18.35510906818761
 20
-20.28094803938788
 10
-18.55906520265382
 20
-20.12389589105263
 10
-18.73886159183628
 20
-19.88109342589874
 10
-18.89280621420465
 20
-19.56300373788713
 10
-19.02863531030408
 20
-19.1499979125335
 10
-19.1362943151985
 20
-18.6751572916643
 10
-19.22361165100589
 20
-18.10110729324095
 10
-19.28219436181578
 20
-17.48440038869263
 10
-19.31516552946634
 20
-16.79727682114365
 10
-19.3191905426643
 20
-16.09816604525285
 10
-19.29333847439419
 20
-15.38774936589489
 10
-19.23597379701042
 20
-14.70470046075769
 10
-19.15731396334379
 20
-14.14238241967031
 10
-19.0501474187244
 20
-13.63129843037226
  0
CIRCLE
  5
12F
330
E8
100
AcDbEntity
  8
AM_4
100
AcDbCircle
 10
0.0
 20
-16.35000000000001
 30
0.0
 40
3.323499999999999
  0
LINE
  5
130
330
E8
100
AcDbEntity
  8
AM_4
100
AcDbLine
 10
19.152
 20
-23.90000000000001
 30
0.0
 11
19.95
 21
-23.102
 31
0.0
  0
LINE
  5
131
330
E8
100
AcDbEntity
  8
AM_4
100
AcDbLine
 10
-19.95
 20
-23.102
 30
0.0
 11
-19.152
 21
-23.90000000000001
 31
0.0
  0
LINE
  5
132
330
E8
100
AcDbEntity
  8
AM_4
100
AcDbLine
 10
-19.152
 20
-23.90000000000001
 30
0.0
 11
19.152
 21
-23.90000000000001
 31
0.0
  0
LINE
  5
133
330
E8
100
AcDbEntity
  8
AM_4
100
AcDbLine
 10
-19.152
 20
14.7
 30
0.0
 11
-19.95
 21
13.902
 31
0.0
  0
LINE
  5
134
330
E8
100
AcDbEntity
  8
AM_4
100
AcDbLine
 10
19.95
 20
13.902
 30
0.0
 11
19.152
 21
14.7
 31
0.0
  0
LINE
  5
135
330
E8
100
AcDbEntity
  8
AM_4
100
AcDbLine
 10
-19.152
 20
14.7
 30
0.0
 11
19.152
 21
14.7
 31
0.0
  0
LWPOLYLINE
  5
136
330
E8
100
AcDbEntity
  8
AM_4
100
AcDbPolyline
 90
       10
 70
     0
 43
0.0
 10
-19.0501474187244
 20
-13.63129843037226
 10
-18.92764978224098
 20
-13.22886616590733
 10
-18.77911060765387
 20
-12.89009164431124
 10
-18.57942577900638
 20
-12.5987594251433
 10
-18.34805485346094
 20
-12.41497039462419
 10
-18.11242735571879
 20
-12.35133295298535
 10
-17.8607127936581
 20
-12.38876411013966
 10
-17.61357252583788
 20
-12.51816290169862
 10
-17.36719078095083
 20
-12.73212872616878
 10
-17.23273163761246
 20
-12.88613258176823
  0
LWPOLYLINE
  5
137
330
E8
100
AcDbEntity
  8
AM_4
100
AcDbPolyline
 90
       42
 70
     0
 43
0.0
 10
2.339430085788721
 20
-13.27674710647715
 10
2.728154468597389
 20
-13.68673889814881
 10
3.060397132959273
 20
-14.15896180046854
 10
3.351730232163405
 20
-14.74446451050061
 10
3.552549025868401
 20
-15.38551480341613
 10
3.652240258987076
 20
-16.07149391686202
 10
3.639432917359509
 20
-16.78404827018941
 10
3.51119967791601
 20
-17.48010082005007
 10
3.261294679978053
 20
-18.16356004682022
 10
2.912202969298925
 20
-18.76974141091507
 10
2.692461196419011
 20
-19.05620136914493
 10
2.447340026111009
 20
-19.32115842404901
 10
1.934038350050692
 20
-19.74360861873811
 10
1.640342856159547
 20
-19.92394669142421
 10
1.330407949422381
 20
-20.07514526191527
 10
0.7546426599983778
 20
-20.26362937382688
 10
0.1329363385986892
 20
-20.34734722216064
 10
-0.4238125306227827
 20
-20.32295679546764
 10
-0.9845271347707881
 20
-20.20186112495902
 10
-1.495453420200563
 20
-19.99934797542991
 10
-1.979811161228225
 20
-19.71187542338027
 10
-2.427351572917578
 20
-19.34068023893593
 10
-2.821699194696925
 20
-18.89436310708496
 10
-3.163087778600025
 20
-18.35991259803014
 10
-3.423712584897829
 20
-17.76350348406404
 10
-3.595272693554994
 20
-17.10341620414035
 10
-3.66082443503733
 20
-16.40538127239773
 10
-3.612456992435644
 20
-15.70146430546529
 10
-3.443878195700269
 20
-14.99596412462942
 10
-3.167135892207761
 20
-14.34768931923316
 10
-2.770778315174853
 20
-13.73975385996241
 10
-2.304021833288627
 20
-13.24494503265176
 10
-2.029781018586583
 20
-13.02401448748739
 10
-1.735540951398967
 20
-12.83026408439323
 10
-1.169281502698156
 20
-12.56059477485719
 10
-0.5408288288143871
 20
-12.39413076814834
 10
0.027697374614684
 20
-12.35011512137046
 10
0.6132041261541228
 20
-12.40682115573537
 10
1.141213484326563
 20
-12.55034757852748
 10
1.652276049860181
 20
-12.78259647097314
 10
2.007942443395719
 20
-13.00814651301029
 10
2.339430091180679
 20
-13.276747090511
  0
LINE
  5
138
330
E8
100
AcDbEntity
  8
AM_4
100
AcDbLine
 10
19.95
 20
-23.102
 30
0.0
 11
19.95
 21
-11.84443888971021
 31
0.0
  0
LINE
  5
139
330
E8
100
AcDbEntity
  8
AM_4
100
AcDbLine
 10
-19.95
 20
-11.84443888971021
 30
0.0
 11
-19.95
 21
-23.102
 31
0.0
  0
LINE
  5
13A
330
E8
100
AcDbEntity
  8
AM_4
100
AcDbLine
 10
-19.95
 20
-23.102
 30
0.0
 11
19.95
 21
-23.102
 31
0.0
  0
LINE
  5
13B
330
E8
100
AcDbEntity
  8
AM_4
100
AcDbLine
 10
19.95
 20
11.8444388897102
 30
0.0
 11
19.95
 21
13.902
 31
0.0
  0
LINE
  5
13C
330
E8
100
AcDbEntity
  8
AM_4
100
AcDbLine
 10
-19.95
 20
13.902
 30
0.0
 11
-19.95
 21
11.8444388897102
 31
0.0
  0
LINE
  5
13D
330
E8
100
AcDbEntity
  8
AM_4
100
AcDbLine
 10
-19.95
 20
13.902
 30
0.0
 11
19.95
 21
13.902
 31
0.0
  0
ARC
  5
13E
330
E8
100
AcDbEntity
  8
AM_5
100
AcDbCircle
 10
0.0000000000000008
 20
-16.35000000000001
 30
0.0
 40
4.000000000000003
100
AcDbArc
 50
75.00000000000001
 51
15.00000000000002
  0
ARC
  5
13F
330
E8
100
AcDbEntity
  8
AM_5
100
AcDbCircle
 10
0.0000000000000004
 20
-16.35000000000001
 30
0.0
 40
4.0
100
AcDbArc
 50
14.99999999999994
 51
183.8515706674816
  0
ARC
  5
140
330
E8
100
AcDbEntity
  8
AM_5
100
AcDbCircle
 10
0.0000000000000001
 20
-15.9
 30
0.0
 40
4.0
100
AcDbArc
 50
165.0000000000001
 51
105.0
  0
ENDBLK
  5
EB
330
E8
100
AcDbEntity
  8
0
100
AcDbBlockEnd
  0
BLOCK
  5
143
330
141
100
AcDbEntity
  8
0
100
AcDbBlockBegin
  2
4_136857H_0_in_136857_4
 70
     2
 10
0.0
 20
0.0
 30
0.0
  3
4_136857H_0_in_136857_4
  1

  0
ATTDEF
  5
145
330
141
100
AcDbEntity
  8
AM_6
100
AcDbText
 10
53.75
 20
20.95499999999998
 30
0.0
 40
0.5
  1
TB-SCEZ-SHSS - Metric - Housing
100
AcDbAttributeDefinition
  3

  2
NN
 70
     8
280
     0
  0
ATTDEF
  5
146
330
141
100
AcDbEntity
  8
AM_6
100
AcDbText
 10
53.75
 20
20.45499999999998
 30
0.0
 40
0.5
  1
SC Pillow Block Bearings -(Normal Duty) -Corrosion Resistant Insert -Polymer Housed -Tapped Base Housing -E-Z KLEEN
100
AcDbAttributeDefinition
  3

  2
NT
 70
     8
280
     0
  0
ATTDEF
  5
147
330
141
100
AcDbEntity
  8
AM_6
100
AcDbText
 10
53.75
 20
19.95499999999998
 30
0.0
 40
0.5
  1
136857H
100
AcDbAttributeDefinition
  3

  2
NB
 70
     8
280
     0
  0
ATTDEF
  5
148
330
141
100
AcDbEntity
  8
AM_6
100
AcDbText
 10
53.75
 20
19.45499999999998
 30
0.0
 40
0.5
  1
$PN.H
100
AcDbAttributeDefinition
  3

  2
NBSYN
 70
     8
280
     0
  0
ATTDEF
  5
149
330
141
100
AcDbEntity
  8
AM_6
100
AcDbText
 10
53.75
 20
18.95499999999998
 30
0.0
 40
0.5
  1
136857
100
AcDbAttributeDefinition
  3

  2
LINA
 70
     8
280
     0
  0
ATTDEF
  5
14A
330
141
100
AcDbEntity
  8
AM_6
100
AcDbText
 10
53.75
 20
18.45499999999998
 30
0.0
 40
0.5
  1
206
100
AcDbAttributeDefinition
  3

  2
SERIES
 70
     8
280
     0
  0
ATTDEF
  5
14B
330
141
100
AcDbEntity
  8
AM_6
100
AcDbText
 10
53.75
 20
17.95499999999998
 30
0.0
 40
0.5
  1
30
100
AcDbAttributeDefinition
  3

  2
SS
 70
     8
280
     0
  0
ATTDEF
  5
14C
330
141
100
AcDbEntity
  8
AM_6
100
AcDbText
 10
53.75
 20
17.45499999999998
 30
0.0
 40
0.5
  1
136857
100
AcDbAttributeDefinition
  3

  2
PN
 70
     8
280
     0
  0
ATTDEF
  5
14D
330
141
100
AcDbEntity
  8
AM_6
100
AcDbText
 10
53.75
 20
16.95499999999998
 30
0.0
 40
0.5
  1
TB-SCEZ-30M-SHSS
100
AcDbAttributeDefinition
  3

  2
DESCRIPTION
 70
     8
280
     0
  0
ATTDEF
  5
14E
330
141
100
AcDbEntity
  8
AM_6
100
AcDbText
 10
53.75
 20
16.45499999999998
 30
0.0
 40
0.5
  1
1.13
100
AcDbAttributeDefinition
  3

  2
W
 70
     8
280
     0
  0
ATTDEF
  5
14F
330
141
100
AcDbEntity
  8
AM_6
100
AcDbText
 10
53.75
 20
15.95499999999998
 30
0.0
 40
0.5
  1
38.6
100
AcDbAttributeDefinition
  3

  2
A
 70
     8
280
     0
  0
ATTDEF
  5
150
330
141
100
AcDbEntity
  8
AM_6
100
AcDbText
 10
53.75
 20
15.45499999999998
 30
0.0
 40
0.5
  1
97.5
100
AcDbAttributeDefinition
  3

  2
B
 70
     8
280
     0
  0
ATTDEF
  5
151
330
141
100
AcDbEntity
  8
AM_6
100
AcDbText
 10
53.75
 20
14.95499999999998
 30
0.0
 40
0.5
  1
38.1
100
AcDbAttributeDefinition
  3

  2
C
 70
     8
280
     0
  0
ATTDEF
  5
152
330
141
100
AcDbEntity
  8
AM_6
100
AcDbText
 10
53.75
 20
14.45499999999998
 30
0.0
 40
0.5
  1
76.2
100
AcDbAttributeDefinition
  3

  2
D
 70
     8
280
     0
  0
ATTDEF
  5
153
330
141
100
AcDbEntity
  8
AM_6
100
AcDbText
 10
53.75
 20
13.95499999999998
 30
0.0
 40
0.5
  1
81.8
100
AcDbAttributeDefinition
  3

  2
J
 70
     8
280
     0
  0
ATTDEF
  5
154
330
141
100
AcDbEntity
  8
AM_6
100
AcDbText
 10
53.75
 20
13.45499999999998
 30
0.0
 40
0.5
  1
39.9
100
AcDbAttributeDefinition
  3

  2
L
 70
     8
280
     0
  0
ATTDEF
  5
155
330
141
100
AcDbEntity
  8
AM_6
100
AcDbText
 10
53.75
 20
12.95499999999998
 30
0.0
 40
0.5
  1
42.9
100
AcDbAttributeDefinition
  3

  2
M
 70
     8
280
     0
  0
ATTDEF
  5
156
330
141
100
AcDbEntity
  8
AM_6
100
AcDbText
 10
53.75
 20
12.45499999999998
 30
0.0
 40
0.5
  1
22.4
100
AcDbAttributeDefinition
  3

  2
N
 70
     8
280
     0
  0
ATTDEF
  5
157
330
141
100
AcDbEntity
  8
AM_6
100
AcDbText
 10
53.75
 20
11.95499999999998
 30
0.0
 40
0.5
  1
7/16-14
100
AcDbAttributeDefinition
  3

  2
R
 70
     8
280
     0
  0
ATTDEF
  5
158
330
141
100
AcDbEntity
  8
AM_6
100
AcDbText
 10
53.75
 20
11.45499999999998
 30
0.0
 40
0.5
  1
23.9
100
AcDbAttributeDefinition
  3

  2
S
 70
     8
280
     0
  0
ATTDEF
  5
159
330
141
100
AcDbEntity
  8
AM_6
100
AcDbText
 10
53.75
 20
10.95499999999998
 30
0.0
 40
0.5
  1
2250
100
AcDbAttributeDefinition
  3

  2
CAPS
 70
     8
280
     0
  0
ATTDEF
  5
15A
330
141
100
AcDbEntity
  8
AM_6
100
AcDbText
 10
53.75
 20
10.45499999999998
 30
0.0
 40
0.5
  1
4368
100
AcDbAttributeDefinition
  3

  2
CAPD
 70
     8
280
     0
  0
ATTDEF
  5
15B
330
141
100
AcDbEntity
  8
AM_6
100
AcDbText
 10
53.75
 20
9.954999999999984
 30
0.0
 40
0.5
  1
baldor
100
AcDbAttributeDefinition
  3

  2
COMPANY
 70
     8
280
     0
  0
ARC
  5
15C
330
141
100
AcDbEntity
  8
AM_9
100
AcDbCircle
 10
38.09999999999999
 20
-0.0000000000000009
 30
0.0
 40
4.696460000000004
100
AcDbArc
 50
16.34900932120568
 51
343.6509906787943
  0
ARC
  5
15D
330
141
100
AcDbEntity
  8
AM_9
100
AcDbCircle
 10
-38.09999999999999
 20
-0.0000000000000018
 30
0.0
 40
4.696460000000005
100
AcDbArc
 50
196.3490093212058
 51
163.6509906787942
  0
LINE
  5
15E
330
141
100
AcDbEntity
  8
AM_9
100
AcDbLine
 10
-27.12931993250107
 20
-5.715000000000001
 30
0.0
 11
-32.5
 21
-5.715000000000002
 31
0.0
  0
LINE
  5
15F
330
141
100
AcDbEntity
  8
AM_9
100
AcDbLine
 10
32.5
 20
-5.715000000000002
 30
0.0
 11
27.12931993250107
 21
-5.715000000000001
 31
0.0
  0
LINE
  5
160
330
141
100
AcDbEntity
  8
AM_9
100
AcDbLine
 10
-27.12931993250107
 20
-5.715000000000001
 30
0.0
 11
-27.12931993250107
 21
9.524999999999999
 31
0.0
  0
LINE
  5
161
330
141
100
AcDbEntity
  8
AM_9
100
AcDbLine
 10
27.12931993250107
 20
9.524999999999999
 30
0.0
 11
27.12931993250107
 21
-5.715000000000001
 31
0.0
  0
LINE
  5
162
330
141
100
AcDbEntity
  8
AM_9
100
AcDbLine
 10
31.0
 20
-9.525000000000002
 30
0.0
 11
31.0
 21
-5.715000000000002
 31
0.0
  0
LINE
  5
163
330
141
100
AcDbEntity
  8
AM_9
100
AcDbLine
 10
-31.0
 20
-5.715000000000002
 30
0.0
 11
-31.0
 21
-9.525000000000002
 31
0.0
  0
LINE
  5
164
330
141
100
AcDbEntity
  8
AM_9
100
AcDbLine
 10
-32.5
 20
-9.525000000000002
 30
0.0
 11
32.5
 21
-9.525000000000002
 31
0.0
  0
LINE
  5
165
330
141
100
AcDbEntity
  8
AM_9
100
AcDbLine
 10
32.5
 20
-14.54102830710248
 30
0.0
 11
32.5
 21
-9.525000000000002
 31
0.0
  0
LINE
  5
166
330
141
100
AcDbEntity
  8
AM_9
100
AcDbLine
 10
-32.5
 20
-9.525000000000002
 30
0.0
 11
-32.5
 21
-14.54102830710248
 31
0.0
  0
LWPOLYLINE
  5
167
330
141
100
AcDbEntity
  8
AM_9
100
AcDbPolyline
 90
        8
 70
     0
 43
0.0
 10
2.916776362460944
 20
-17.94313147649195
 10
5.726808264763069
 20
-17.90346649868393
 10
8.493255698228975
 20
-17.83821133594229
 10
11.19506432746335
 20
-17.74786261945763
 10
13.81167175740107
 20
-17.63310795751645
 10
16.32316402554955
 20
-17.49482070238688
 10
18.71042715926767
 20
-17.33405330358058
 10
19.95
 20
-17.23761772449476
  0
LINE
  5
168
330
141
100
AcDbEntity
  8
AM_9
100
AcDbLine
 10
-2.916776362460952
 20
-17.94313147649195
 30
0.0
 11
2.916776362460944
 21
-17.94313147649195
 31
0.0
  0
LWPOLYLINE
  5
169
330
141
100
AcDbEntity
  8
AM_9
100
AcDbPolyline
 90
        6
 70
     0
 43
0.0
 10
-14.74685994548718
 20
-17.58502573713871
 10
-12.16656513391741
 20
-17.70853009957071
 10
-9.493675415305642
 20
-17.80792786077215
 10
-6.748533094345454
 20
-17.88246254376227
 10
-3.952030361661602
 20
-17.93156689459827
 10
-2.916776362460952
 20
-17.94313147649195
  0
LINE
  5
16A
330
141
100
AcDbEntity
  8
AM_9
100
AcDbLine
 10
-19.95
 20
-17.23761772449476
 30
0.0
 11
-14.74685994548718
 21
-17.58502573713871
 31
0.0
  0
LINE
  5
16B
330
141
100
AcDbEntity
  8
AM_9
100
AcDbLine
 10
-28.83140648667699
 20
9.524999999999999
 30
0.0
 11
28.83140648667698
 21
9.524999999999999
 31
0.0
  0
LINE
  5
16C
330
141
100
AcDbEntity
  8
AM_9
100
AcDbLine
 10
-28.83140648667699
 20
-5.715000000000001
 30
0.0
 11
-28.83140648667699
 21
9.524999999999999
 31
0.0
  0
LINE
  5
16D
330
141
100
AcDbEntity
  8
AM_9
100
AcDbLine
 10
28.83140648667698
 20
-5.715000000000001
 30
0.0
 11
28.83140648667698
 21
9.524999999999999
 31
0.0
  0
LINE
  5
16E
330
141
100
AcDbEntity
  8
AM_9
100
AcDbLine
 10
32.5
 20
-5.715000000000002
 30
0.0
 11
32.5
 21
14.54102830710248
 31
0.0
  0
LINE
  5
16F
330
141
100
AcDbEntity
  8
AM_9
100
AcDbLine
 10
-32.5
 20
14.54102830710248
 30
0.0
 11
-32.5
 21
-5.715000000000002
 31
0.0
  0
LINE
  5
170
330
141
100
AcDbEntity
  8
AM_9
100
AcDbLine
 10
-19.95000000000001
 20
-19.05
 30
0.0
 11
19.95000000000001
 21
-19.05
 31
0.0
  0
LINE
  5
171
330
141
100
AcDbEntity
  8
AM_9
100
AcDbLine
 10
31.87060868155902
 20
-3.208913886426419
 30
0.0
 11
31.87060868155902
 21
3.209598042913861
 31
0.0
  0
LINE
  5
172
330
141
100
AcDbEntity
  8
AM_7
100
AcDbLine
 10
32.2659375
 20
-0.0000000000000026
 30
0.0
 11
43.9340625
 21
-0.0000000000000026
 31
0.0
  0
LINE
  5
173
330
141
100
AcDbEntity
  8
AM_7
100
AcDbLine
 10
38.1
 20
-5.834062500000002
 30
0.0
 11
38.1
 21
5.834062499999996
 31
0.0
  0
LINE
  5
174
330
141
100
AcDbEntity
  8
AM_7
100
AcDbLine
 10
-43.9340625
 20
-0.0000000000000026
 30
0.0
 11
-32.2659375
 21
-0.0000000000000026
 31
0.0
  0
LINE
  5
175
330
141
100
AcDbEntity
  8
AM_7
100
AcDbLine
 10
-38.1
 20
-5.834062500000002
 30
0.0
 11
-38.1
 21
5.834062499999996
 31
0.0
  0
LINE
  5
176
330
141
100
AcDbEntity
  8
AM_7
100
AcDbLine
 10
0.0
 20
-25.83
 30
0.0
 11
0.0
 21
20.95499999999998
 31
0.0
  0
LINE
  5
177
330
141
100
AcDbEntity
  8
AM_4
100
AcDbLine
 10
48.75
 20
-19.05
 30
0.0
 11
48.75
 21
19.05
 31
0.0
  0
LWPOLYLINE
  5
178
330
141
100
AcDbEntity
  8
AM_4
100
AcDbPolyline
 90
        8
 70
     0
 43
0.0
 10
42.60655800994402
 20
-1.321995247574421
 10
42.70462867386035
 20
-0.9241922459440435
 10
42.76765533321779
 20
-0.5193555832794962
 10
42.79515831708208
 20
-0.1105663110307168
 10
42.78692831113928
 20
0.2990644376067703
 10
42.74302795070403
 20
0.7064191252940251
 10
42.66379134402698
 20
1.108397536890262
 10
42.60655800994402
 20
1.321995247574417
  0
LWPOLYLINE
  5
179
330
141
100
AcDbEntity
  8
AM_4
100
AcDbPolyline
 90
        6
 70
     0
 43
0.0
 10
42.60655800994402
 20
1.321995247574414
 10
42.58516438050693
 20
0.7524354885874377
 10
42.57519159172401
 20
0.1737013832433436
 10
42.57792559340199
 20
-0.4197328257768748
 10
42.59364674984531
 20
-1.014614088187733
 10
42.60655800994402
 20
-1.321995247574417
  0
LWPOLYLINE
  5
17A
330
141
100
AcDbEntity
  8
AM_4
100
AcDbPolyline
 90
        6
 70
     0
 43
0.0
 10
-42.60655800994402
 20
-1.321995247574423
 10
-42.58516438050694
 20
-0.7524354885874079
 10
-42.57519159172401
 20
-0.1737013832432767
 10
-42.57792559340199
 20
0.4197328257769808
 10
-42.59364674984531
 20
1.014614088187877
 10
-42.60655800994402
 20
1.321995247574421
  0
LWPOLYLINE
  5
17B
330
141
100
AcDbEntity
  8
AM_4
100
AcDbPolyline
 90
        8
 70
     0
 43
0.0
 10
-42.60655800994402
 20
1.321995247574421
 10
-42.70462867386035
 20
0.9241922459440437
 10
-42.76765533321779
 20
0.5193555832794964
 10
-42.79515831708208
 20
0.1105663110307171
 10
-42.78692831113928
 20
-0.2990644376067699
 10
-42.74302795070403
 20
-0.7064191252940248
 10
-42.66379134402698
 20
-1.108397536890262
 10
-42.60655800994402
 20
-1.321995247574421
  0
LINE
  5
17C
330
141
100
AcDbEntity
  8
AM_4
100
AcDbLine
 10
-48.75
 20
-19.05
 30
0.0
 11
-48.75
 21
19.04999999999999
 31
0.0
  0
LWPOLYLINE
  5
17D
330
141
100
AcDbEntity
  8
AM_4
100
AcDbPolyline
 90
       12
 70
     0
 43
0.0
 10
19.95
 20
-17.23761772449476
 10
22.11018111650114
 20
-17.04460565571341
 10
24.10209040421334
 20
-16.8325398516078
 10
25.91056823070938
 20
-16.603034260996
 10
27.52185098774087
 20
-16.35783556000183
 10
28.92367584060767
 20
-16.09880985879489
 10
30.10537405573448
 20
-15.82792849936535
 10
31.05795219617528
 20
-15.54725305242111
 10
31.77416056709892
 20
-15.25891962758988
 10
32.24854839034424
 20
-14.96512261633511
 10
32.47750528813312
 20
-14.66809799131194
 10
32.50000000000001
 20
-14.54102830710248
  0
LWPOLYLINE
  5
17E
330
141
100
AcDbEntity
  8
AM_4
100
AcDbPolyline
 90
       12
 70
     0
 43
0.0
 10
-32.50000000000001
 20
-14.54102830710248
 10
-32.37632768798174
 20
-14.83874253204388
 10
-32.00625197289677
 20
-15.13419097196872
 10
-31.39258935439473
 20
-15.42512508585251
 10
-30.54001017554204
 20
-15.70933068941778
 10
-29.45500307869114
 20
-15.98464480641337
 10
-28.14582562299428
 20
-16.24897213016973
 10
-26.62244143939225
 20
-16.50030097014787
 10
-24.89644440136681
 20
-16.73671856211905
 10
-22.98097038856282
 20
-16.95642562545553
 10
-20.89059731481256
 20
-17.15775005674257
 10
-19.95
 20
-17.23761772449476
  0
LWPOLYLINE
  5
17F
330
141
100
AcDbEntity
  8
AM_4
100
AcDbPolyline
 90
       19
 70
     0
 43
0.0
 10
32.50000000000001
 20
-14.54102830710248
 10
32.37632768798174
 20
-14.24331408216108
 10
32.00625197289677
 20
-13.94786564223625
 10
31.39258935439473
 20
-13.65693152835246
 10
30.54001017554204
 20
-13.37272592478719
 10
29.45500307869114
 20
-13.0974118077916
 10
28.14582562299428
 20
-12.83308448403524
 10
26.62244143939226
 20
-12.5817556440571
 10
24.89644440136681
 20
-12.34533805208592
 10
22.98097038856282
 20
-12.12563098874944
 10
20.89059731481256
 20
-11.9243065574624
 10
18.64123418140904
 20
-11.74289695870991
 10
16.25000000000004
 20
-11.58278282907659
 10
13.73509350657278
 20
-11.44518273376851
 10
11.11565465808428
 20
-11.33114389259616
 10
8.41161896583198
 20
-11.24153420999941
 10
5.643565774175296
 20
-11.17703566977062
 10
2.832561639298953
 20
-11.13813914474622
 10
0.0000000000000657
 20
-11.125140660968
  0
LWPOLYLINE
  5
180
330
141
100
AcDbEntity
  8
AM_4
100
AcDbPolyline
 90
       37
 70
     0
 43
0.0
 10
-32.50000000000001
 20
14.54102830710248
 10
-32.37632768798174
 20
14.24331408216108
 10
-32.00625197289677
 20
13.94786564223624
 10
-31.39258935439473
 20
13.65693152835246
 10
-30.54001017554204
 20
13.37272592478718
 10
-29.45500307869114
 20
13.09741180779159
 10
-28.14582562299428
 20
12.83308448403524
 10
-26.62244143939225
 20
12.5817556440571
 10
-24.89644440136681
 20
12.34533805208592
 10
-22.98097038856282
 20
12.12563098874943
 10
-20.89059731481256
 20
11.92430655746239
 10
-18.64123418140903
 20
11.7428969587099
 10
-16.25000000000004
 20
11.58278282907659
 10
-13.73509350657278
 20
11.4451827337685
 10
-11.11565465808428
 20
11.33114389259616
 10
-8.411618965831977
 20
11.24153420999941
 10
-5.643565774175292
 20
11.17703566977062
 10
-2.832561639298949
 20
11.13813914474621
 10
-0.0000000000000617
 20
11.12514066096799
 10
2.832561639298826
 20
11.13813914474621
 10
5.64356577417517
 20
11.17703566977061
 10
8.411618965831858
 20
11.2415342099994
 10
11.11565465808416
 20
11.33114389259615
 10
13.73509350657267
 20
11.4451827337685
 10
16.24999999999994
 20
11.58278282907658
 10
18.64123418140893
 20
11.7428969587099
 10
20.89059731481246
 20
11.92430655746239
 10
22.98097038856273
 20
12.12563098874942
 10
24.89644440136673
 20
12.34533805208591
 10
26.62244143939218
 20
12.58175564405709
 10
28.14582562299421
 20
12.83308448403523
 10
29.45500307869109
 20
13.09741180779158
 10
30.54001017554199
 20
13.37272592478717
 10
31.3925893543947
 20
13.65693152835244
 10
32.00625197289675
 20
13.94786564223623
 10
32.37632768798173
 20
14.24331408216106
 10
32.50000000000001
 20
14.54102830710247
  0
LWPOLYLINE
  5
181
330
141
100
AcDbEntity
  8
AM_4
100
AcDbPolyline
 90
       19
 70
     0
 43
0.0
 10
32.50000000000001
 20
14.54102830710248
 10
32.37632768798174
 20
14.83874253204388
 10
32.00625197289677
 20
15.13419097196871
 10
31.39258935439473
 20
15.4251250858525
 10
30.54001017554204
 20
15.70933068941777
 10
29.45500307869114
 20
15.98464480641336
 10
28.14582562299428
 20
16.24897213016972
 10
26.62244143939226
 20
16.50030097014786
 10
24.89644440136681
 20
16.73671856211904
 10
22.98097038856282
 20
16.95642562545552
 10
20.89059731481256
 20
17.15775005674256
 10
18.64123418140904
 20
17.33915965549505
 10
16.25000000000004
 20
17.49927378512837
 10
13.73509350657278
 20
17.63687388043645
 10
11.11565465808428
 20
17.7509127216088
 10
8.41161896583198
 20
17.84052240420555
 10
5.643565774175296
 20
17.90502094443434
 10
2.832561639298953
 20
17.94391746945875
 10
0.0000000000000657
 20
17.95691595323697
  0
LWPOLYLINE
  5
182
330
141
100
AcDbEntity
  8
AM_4
100
AcDbPolyline
 90
       19
 70
     0
 43
0.0
 10
0.0
 20
-11.125140660968
 10
-2.832561639298891
 20
-11.13813914474622
 10
-5.643565774175237
 20
-11.17703566977062
 10
-8.411618965831925
 20
-11.24153420999941
 10
-11.11565465808424
 20
-11.33114389259616
 10
-13.73509350657273
 20
-11.44518273376851
 10
-16.25
 20
-11.58278282907659
 10
-18.641234181409
 20
-11.74289695870991
 10
-20.89059731481253
 20
-11.92430655746239
 10
-22.9809703885628
 20
-12.12563098874943
 10
-24.89644440136679
 20
-12.34533805208592
 10
-26.62244143939224
 20
-12.5817556440571
 10
-28.14582562299426
 20
-12.83308448403524
 10
-29.45500307869113
 20
-13.0974118077916
 10
-30.54001017554203
 20
-13.37272592478718
 10
-31.39258935439473
 20
-13.65693152835246
 10
-32.00625197289677
 20
-13.94786564223625
 10
-32.37632768798174
 20
-14.24331408216108
 10
-32.50000000000001
 20
-14.54102830710248
  0
LINE
  5
183
330
141
100
AcDbEntity
  8
AM_4
100
AcDbLine
 10
19.95000000000001
 20
-19.05
 30
0.0
 11
48.75
 21
-19.05
 31
0.0
  0
LINE
  5
184
330
141
100
AcDbEntity
  8
AM_4
100
AcDbLine
 10
-48.75
 20
-19.05
 30
0.0
 11
-19.95000000000001
 21
-19.05
 31
0.0
  0
LINE
  5
185
330
141
100
AcDbEntity
  8
AM_4
100
AcDbLine
 10
31.87060868155902
 20
-11.93449152905346
 30
0.0
 11
48.75
 21
-19.05
 31
0.0
  0
LINE
  5
186
330
141
100
AcDbEntity
  8
AM_4
100
AcDbLine
 10
-48.75
 20
-19.05
 30
0.0
 11
-31.87060868155902
 21
-11.93449152905345
 31
0.0
  0
LWPOLYLINE
  5
187
330
141
100
AcDbEntity
  8
AM_4
100
AcDbPolyline
 90
       19
 70
     0
 43
0.0
 10
0.0
 20
17.95691595323697
 10
-2.832561639298891
 20
17.94391746945875
 10
-5.643565774175237
 20
17.90502094443434
 10
-8.411618965831925
 20
17.84052240420555
 10
-11.11565465808424
 20
17.7509127216088
 10
-13.73509350657273
 20
17.63687388043645
 10
-16.25
 20
17.49927378512837
 10
-18.641234181409
 20
17.33915965549505
 10
-20.89059731481253
 20
17.15775005674257
 10
-22.9809703885628
 20
16.95642562545553
 10
-24.89644440136679
 20
16.73671856211904
 10
-26.62244143939224
 20
16.50030097014786
 10
-28.14582562299426
 20
16.24897213016972
 10
-29.45500307869113
 20
15.98464480641337
 10
-30.54001017554203
 20
15.70933068941778
 10
-31.39258935439473
 20
15.4251250858525
 10
-32.00625197289677
 20
15.13419097196871
 10
-32.37632768798174
 20
14.83874253204388
 10
-32.50000000000001
 20
14.54102830710248
  0
LINE
  5
188
330
141
100
AcDbEntity
  8
AM_4
100
AcDbLine
 10
48.75
 20
19.05
 30
0.0
 11
31.87060868155902
 21
11.93449152905345
 31
0.0
  0
LINE
  5
189
330
141
100
AcDbEntity
  8
AM_4
100
AcDbLine
 10
-48.75
 20
19.04999999999999
 30
0.0
 11
48.75
 21
19.05
 31
0.0
  0
LINE
  5
18A
330
141
100
AcDbEntity
  8
AM_4
100
AcDbLine
 10
-31.87060868155903
 20
11.93449152905345
 30
0.0
 11
-48.75
 21
19.04999999999999
 31
0.0
  0
LINE
  5
18B
330
141
100
AcDbEntity
  8
AM_4
100
AcDbLine
 10
-31.87060868155902
 20
-11.93449152905345
 30
0.0
 11
-31.87060868155903
 21
11.93449152905345
 31
0.0
  0
LINE
  5
18C
330
141
100
AcDbEntity
  8
AM_4
100
AcDbLine
 10
-31.87060868155902
 20
-11.93449152905345
 30
0.0
 11
-17.77014955125257
 21
-10.45247355526767
 31
0.0
  0
LINE
  5
18D
330
141
100
AcDbEntity
  8
AM_4
100
AcDbLine
 10
-17.77014955125257
 20
10.45247355526766
 30
0.0
 11
-31.87060868155903
 21
11.93449152905345
 31
0.0
  0
LINE
  5
18E
330
141
100
AcDbEntity
  8
AM_4
100
AcDbLine
 10
17.77014955125255
 20
-10.45247355526767
 30
0.0
 11
31.87060868155902
 21
-11.93449152905346
 31
0.0
  0
LINE
  5
18F
330
141
100
AcDbEntity
  8
AM_4
100
AcDbLine
 10
31.87060868155902
 20
3.209598042913861
 30
0.0
 11
31.87060868155902
 21
11.93449152905345
 31
0.0
  0
LINE
  5
190
330
141
100
AcDbEntity
  8
AM_4
100
AcDbLine
 10
31.87060868155902
 20
-11.93449152905346
 30
0.0
 11
31.87060868155902
 21
-3.208913886426419
 31
0.0
  0
LINE
  5
191
330
141
100
AcDbEntity
  8
AM_4
100
AcDbLine
 10
31.87060868155902
 20
11.93449152905345
 30
0.0
 11
17.77014955125255
 21
10.45247355526766
 31
0.0
  0
LINE
  5
192
330
141
100
AcDbEntity
  8
AM_4
100
AcDbLine
 10
-17.77014955125257
 20
-10.45247355526767
 30
0.0
 11
-17.77014955125257
 21
10.45247355526766
 31
0.0
  0
LINE
  5
193
330
141
100
AcDbEntity
  8
AM_4
100
AcDbLine
 10
-17.77014955125257
 20
-10.45247355526767
 30
0.0
 11
17.77014955125255
 21
-10.45247355526767
 31
0.0
  0
LINE
  5
194
330
141
100
AcDbEntity
  8
AM_4
100
AcDbLine
 10
17.77014955125255
 20
-10.45247355526767
 30
0.0
 11
17.77014955125255
 21
10.45247355526766
 31
0.0
  0
LINE
  5
195
330
141
100
AcDbEntity
  8
AM_4
100
AcDbLine
 10
17.77014955125255
 20
10.45247355526766
 30
0.0
 11
-17.77014955125257
 21
10.45247355526766
 31
0.0
  0
ARC
  5
196
330
141
100
AcDbEntity
  8
AM_5
100
AcDbCircle
 10
38.10000000000001
 20
-0.0000000000000001
 30
0.0
 40
5.556250000000002
100
AcDbArc
 50
75.0000000000001
 51
15.0
  0
ARC
  5
197
330
141
100
AcDbEntity
  8
AM_5
100
AcDbCircle
 10
-38.1
 20
-0.0000000000000002
 30
0.0
 40
5.556250000000001
100
AcDbArc
 50
75.00000000000001
 51
14.99999999999997
  0
ENDBLK
  5
144
330
141
100
AcDbEntity
  8
0
100
AcDbBlockEnd
  0
ENDSEC
  0
SECTION
  2
ENTITIES
  0
INSERT
  5
6F
330
1F
100
AcDbEntity
  8
0
100
AcDbBlockReference
  2
1_136857_4
 10
0.0
 20
0.0
 30
0.0
  0
POINT
  5
199
330
1F
100
AcDbEntity
  8
ConnectionPoints
100
AcDbPoint
 10
0.0
 20
14.7
 30
-0.0000000000000009
  0
POINT
  5
19A
330
1F
100
AcDbEntity
  8
ConnectionPoints
100
AcDbPoint
 10
0.0
 20
-23.9
 30
0.0000000000000015
  0
POINT
  5
19B
330
1F
100
AcDbEntity
  8
ConnectionPoints
100
AcDbPoint
 10
28.33507477562627
 20
0.0000000000000017
 30
28.33507477562627
  0
POINT
  5
19C
330
1F
100
AcDbEntity
  8
ConnectionPoints
100
AcDbPoint
 10
0.0
 20
-23.9
 30
0.0000000000000015
  0
ENDSEC
  0
SECTION
  2
OBJECTS
  0
DICTIONARY
  5
C
330
0
100
AcDbDictionary
281
     1
  3
ACAD_DETAILVIEWSTYLE
350
1A4
  3
ACAD_GROUP
350
D
  3
ACAD_LAYOUT
350
1A
  3
ACAD_MATERIAL
350
43
  3
ACAD_MLEADERSTYLE
350
6B
  3
ACAD_MLINESTYLE
350
17
  3
ACAD_PLOTSETTINGS
350
19
  3
ACAD_PLOTSTYLENAME
350
E
  3
ACAD_SCALELIST
350
47
  3
ACAD_SECTIONVIEWSTYLE
350
1A5
  3
ACAD_TABLESTYLE
350
69
  3
ACAD_VISUALSTYLE
350
2A
  3
ACDB_RECOMPOSE_DATA
350
1A1
  3
AcDbVariableDictionary
350
19D
  0
SUN
  5
6D
330
29
100
AcDbSun
 90
        1
290
     0
 63
     7
421
 16777215
 40
1.0
291
     1
 91
  2455826
 92
 54000000
292
     0
 70
     2
 71
   256
280
     1
  0
DICTIONARY
  5
1A4
102
{ACAD_REACTORS
330
C
102
}
330
C
100
AcDbDictionary
281
     1
  0
DICTIONARY
  5
D
102
{ACAD_REACTORS
330
C
102
}
330
C
100
AcDbDictionary
281
     1
  0
DICTIONARY
  5
1A
102
{ACAD_REACTORS
330
C
102
}
330
C
100
AcDbDictionary
281
     1
  3
Layout1
350
1E
  3
Layout2
350
26
  3
Model
350
22
  0
DICTIONARY
  5
43
102
{ACAD_REACTORS
330
C
102
}
330
C
100
AcDbDictionary
281
     1
  3
ByBlock
350
45
  3
ByLayer
350
44
  3
Global
350
46
  0
DICTIONARY
  5
6B
102
{ACAD_REACTORS
330
C
102
}
330
C
100
AcDbDictionary
281
     1
  3
Standard
350
6C
  0
DICTIONARY
  5
17
102
{ACAD_REACTORS
330
C
102
}
330
C
100
AcDbDictionary
281
     1
  3
Standard
350
18
  0
DICTIONARY
  5
19
102
{ACAD_REACTORS
330
C
102
}
330
C
100
AcDbDictionary
281
     1
  0
ACDBDICTIONARYWDFLT
  5
E
102
{ACAD_REACTORS
330
C
102
}
330
C
100
AcDbDictionary
281
     1
  3
Normal
350
F
100
AcDbDictionaryWithDefault
340
F
  0
DICTIONARY
  5
47
102
{ACAD_REACTORS
330
C
102
}
330
C
100
AcDbDictionary
281
     1
  3
A0
350
48
  3
A1
350
49
  3
A2
350
4A
  3
A3
350
4B
  3
A4
350
4C
  3
A5
350
4D
  3
A6
350
4E
  3
A7
350
4F
  3
A8
350
50
  3
A9
350
51
  3
B0
350
52
  3
B1
350
53
  3
B2
350
54
  3
B3
350
55
  3
B4
350
56
  3
B5
350
57
  3
B6
350
58
  3
B7
350
59
  3
B8
350
5A
  3
B9
350
5B
  3
C0
350
5C
  3
C1
350
5D
  3
C2
350
5E
  3
C3
350
5F
  3
C4
350
60
  3
C5
350
61
  3
C6
350
62
  3
C7
350
63
  3
C8
350
64
  3
C9
350
65
  3
D0
350
66
  3
D1
350
67
  3
D2
350
68
  0
DICTIONARY
  5
1A5
102
{ACAD_REACTORS
330
C
102
}
330
C
100
AcDbDictionary
281
     1
  0
DICTIONARY
  5
69
102
{ACAD_REACTORS
330
C
102
}
330
C
100
AcDbDictionary
281
     1
  3
Standard
350
6A
  0
DICTIONARY
  5
2A
102
{ACAD_REACTORS
330
C
102
}
330
C
100
AcDbDictionary
281
     1
  3
2dWireframe
350
2F
  3
Basic
350
32
  3
Brighten
350
36
  3
ColorChange
350
3A
  3
Conceptual
350
34
  3
Dim
350
35
  3
EdgeColorOff
350
3D
  3
Facepattern
350
39
  3
Flat
350
2B
  3
FlatWithEdges
350
2C
  3
Gouraud
350
2D
  3
GouraudWithEdges
350
2E
  3
Hidden
350
31
  3
JitterOff
350
3B
  3
Linepattern
350
38
  3
OverhangOff
350
3C
  3
Realistic
350
33
  3
Shaded
350
42
  3
Shaded with edges
350
41
  3
Shades of Gray
350
3E
  3
Sketchy
350
3F
  3
Thicken
350
37
  3
Wireframe
350
30
  3
X-Ray
350
40
  0
XRECORD
  5
1A1
102
{ACAD_REACTORS
330
C
102
}
330
C
100
AcDbXrecord
280
     1
 90
        1
330
6A
  0
DICTIONARY
  5
19D
102
{ACAD_REACTORS
330
C
102
}
330
C
100
AcDbDictionary
281
     1
  3
CANNOSCALE
350
19E
  3
CMLEADERSTYLE
350
1A3
  3
CTABLESTYLE
350
1A2
  0
LAYOUT
  5
1E
102
{ACAD_REACTORS
330
1A
102
}
330
1A
100
AcDbPlotSettings
  1

  2
none_device
  4

  6

 40
0.0
 41
0.0
 42
0.0
 43
0.0
 44
0.0
 45
0.0
 46
0.0
 47
0.0
 48
0.0
 49
0.0
140
0.0
141
0.0
142
1.0
143
1.0
 70
   688
 72
     1
 73
     0
 74
     5
  7

 75
    16
 76
     0
 77
     2
 78
   300
147
1.0
148
0.0
149
0.0
100
AcDbLayout
  1
Layout1
 70
     1
 71
     1
 10
0.0
 20
0.0
 11
420.0
 21
297.0
 12
0.0
 22
0.0
 32
0.0
 14
1.000000000000000E+20
 24
1.000000000000000E+20
 34
1.000000000000000E+20
 15
-1.000000000000000E+20
 25
-1.000000000000000E+20
 35
-1.000000000000000E+20
146
0.0
 13
0.0
 23
0.0
 33
0.0
 16
1.0
 26
0.0
 36
0.0
 17
0.0
 27
1.0
 37
0.0
 76
     0
330
1B
  0
LAYOUT
  5
26
102
{ACAD_REACTORS
330
1A
102
}
330
1A
100
AcDbPlotSettings
  1

  2
none_device
  4

  6

 40
0.0
 41
0.0
 42
0.0
 43
0.0
 44
0.0
 45
0.0
 46
0.0
 47
0.0
 48
0.0
 49
0.0
140
0.0
141
0.0
142
1.0
143
1.0
 70
   688
 72
     1
 73
     0
 74
     5
  7

 75
    16
 76
     0
 77
     2
 78
   300
147
1.0
148
0.0
149
0.0
100
AcDbLayout
  1
Layout2
 70
     1
 71
     2
 10
0.0
 20
0.0
 11
0.0
 21
0.0
 12
0.0
 22
0.0
 32
0.0
 14
0.0
 24
0.0
 34
0.0
 15
0.0
 25
0.0
 35
0.0
146
0.0
 13
0.0
 23
0.0
 33
0.0
 16
1.0
 26
0.0
 36
0.0
 17
0.0
 27
1.0
 37
0.0
 76
     0
330
23
  0
LAYOUT
  5
22
102
{ACAD_REACTORS
330
1A
102
}
330
1A
100
AcDbPlotSettings
  1

  2
none_device
  4
Letter_(8.50_x_11.00_Inches)
  6

 40
6.35
 41
6.35
 42
6.35000508
 43
6.35000508
 44
215.9
 45
279.4
 46
0.0
 47
0.0
 48
0.0
 49
0.0
140
0.0
141
0.0
142
1.0
143
1.0
 70
  1712
 72
     1
 73
     0
 74
     0
  7

 75
     0
 76
     0
 77
     2
 78
   300
147
1.0
148
0.0
149
0.0
100
AcDbLayout
  1
Model
 70
     1
 71
     0
 10
0.0
 20
0.0
 11
420.0
 21
297.0
 12
0.0
 22
0.0
 32
0.0
 14
1.000000000000000E+20
 24
1.000000000000000E+20
 34
1.000000000000000E+20
 15
-1.000000000000000E+20
 25
-1.000000000000000E+20
 35
-1.000000000000000E+20
146
0.0
 13
0.0
 23
0.0
 33
0.0
 16
1.0
 26
0.0
 36
0.0
 17
0.0
 27
1.0
 37
0.0
 76
     0
330
1F
331
29
  0
MATERIAL
  5
45
102
{ACAD_REACTORS
330
43
102
}
330
43
100
AcDbMaterial
  1
ByBlock
 72
     1
 94
      127
  0
MATERIAL
  5
44
102
{ACAD_REACTORS
330
43
102
}
330
43
100
AcDbMaterial
  1
ByLayer
 72
     1
 94
      127
  0
MATERIAL
  5
46
102
{ACAD_REACTORS
330
43
102
}
330
43
100
AcDbMaterial
  1
Global
 72
     1
 94
      127
  0
MLEADERSTYLE
  5
6C
102
{ACAD_REACTORS
330
6B
102
}
330
6B
100
AcDbMLeaderStyle
179
     2
170
     2
171
     1
172
     0
 90
        2
 40
0.0
 41
0.0
173
     1
 91
-1056964608
340
14
 92
       -2
290
     1
 42
2.0
291
     1
 43
8.0
  3
Standard
341
0
 44
4.0
300

342
11
174
     1
178
     6
175
     1
176
     0
 93
-1056964608
 45
4.0
292
     0
297
     0
 46
4.0
343
0
 94
-1056964608
 47
1.0
 49
1.0
140
1.0
293
     1
141
0.0
294
     1
177
     0
142
1.0
295
     0
296
     0
143
3.75
271
     0
272
     9
273
     9
298
     0
  0
MLINESTYLE
  5
18
102
{ACAD_REACTORS
330
17
102
}
330
17
100
AcDbMlineStyle
  2
Standard
 70
     0
  3

 62
   256
 51
90.0
 52
90.0
 71
     2
 49
0.5
 62
   256
  6
BYLAYER
 49
-0.5
 62
   256
  6
BYLAYER
  0
ACDBPLACEHOLDER
  5
F
102
{ACAD_REACTORS
330
E
102
}
330
E
  0
SCALE
  5
48
102
{ACAD_REACTORS
330
47
102
}
330
47
100
AcDbScale
 70
     0
300
1:1
140
1.0
141
1.0
290
     1
  0
SCALE
  5
49
102
{ACAD_REACTORS
330
47
102
}
330
47
100
AcDbScale
 70
     0
300
1:2
140
1.0
141
2.0
290
     0
  0
SCALE
  5
4A
102
{ACAD_REACTORS
330
47
102
}
330
47
100
AcDbScale
 70
     0
300
1:4
140
1.0
141
4.0
290
     0
  0
SCALE
  5
4B
102
{ACAD_REACTORS
330
47
102
}
330
47
100
AcDbScale
 70
     0
300
1:5
140
1.0
141
5.0
290
     0
  0
SCALE
  5
4C
102
{ACAD_REACTORS
330
47
102
}
330
47
100
AcDbScale
 70
     0
300
1:8
140
1.0
141
8.0
290
     0
  0
SCALE
  5
4D
102
{ACAD_REACTORS
330
47
102
}
330
47
100
AcDbScale
 70
     0
300
1:10
140
1.0
141
10.0
290
     0
  0
SCALE
  5
4E
102
{ACAD_REACTORS
330
47
102
}
330
47
100
AcDbScale
 70
     0
300
1:16
140
1.0
141
16.0
290
     0
  0
SCALE
  5
4F
102
{ACAD_REACTORS
330
47
102
}
330
47
100
AcDbScale
 70
     0
300
1:20
140
1.0
141
20.0
290
     0
  0
SCALE
  5
50
102
{ACAD_REACTORS
330
47
102
}
330
47
100
AcDbScale
 70
     0
300
1:30
140
1.0
141
30.0
290
     0
  0
SCALE
  5
51
102
{ACAD_REACTORS
330
47
102
}
330
47
100
AcDbScale
 70
     0
300
1:40
140
1.0
141
40.0
290
     0
  0
SCALE
  5
52
102
{ACAD_REACTORS
330
47
102
}
330
47
100
AcDbScale
 70
     0
300
1:50
140
1.0
141
50.0
290
     0
  0
SCALE
  5
53
102
{ACAD_REACTORS
330
47
102
}
330
47
100
AcDbScale
 70
     0
300
1:100
140
1.0
141
100.0
290
     0
  0
SCALE
  5
54
102
{ACAD_REACTORS
330
47
102
}
330
47
100
AcDbScale
 70
     0
300
2:1
140
2.0
141
1.0
290
     0
  0
SCALE
  5
55
102
{ACAD_REACTORS
330
47
102
}
330
47
100
AcDbScale
 70
     0
300
4:1
140
4.0
141
1.0
290
     0
  0
SCALE
  5
56
102
{ACAD_REACTORS
330
47
102
}
330
47
100
AcDbScale
 70
     0
300
8:1
140
8.0
141
1.0
290
     0
  0
SCALE
  5
57
102
{ACAD_REACTORS
330
47
102
}
330
47
100
AcDbScale
 70
     0
300
10:1
140
10.0
141
1.0
290
     0
  0
SCALE
  5
58
102
{ACAD_REACTORS
330
47
102
}
330
47
100
AcDbScale
 70
     0
300
100:1
140
100.0
141
1.0
290
     0
  0
SCALE
  5
59
102
{ACAD_REACTORS
330
47
102
}
330
47
100
AcDbScale
 70
     0
300
1/128" = 1'-0"
140
0.0078125
141
12.0
290
     0
  0
SCALE
  5
5A
102
{ACAD_REACTORS
330
47
102
}
330
47
100
AcDbScale
 70
     0
300
1/64" = 1'-0"
140
0.015625
141
12.0
290
     0
  0
SCALE
  5
5B
102
{ACAD_REACTORS
330
47
102
}
330
47
100
AcDbScale
 70
     0
300
1/32" = 1'-0"
140
0.03125
141
12.0
290
     0
  0
SCALE
  5
5C
102
{ACAD_REACTORS
330
47
102
}
330
47
100
AcDbScale
 70
     0
300
1/16" = 1'-0"
140
0.0625
141
12.0
290
     0
  0
SCALE
  5
5D
102
{ACAD_REACTORS
330
47
102
}
330
47
100
AcDbScale
 70
     0
300
3/32" = 1'-0"
140
0.09375
141
12.0
290
     0
  0
SCALE
  5
5E
102
{ACAD_REACTORS
330
47
102
}
330
47
100
AcDbScale
 70
     0
300
1/8" = 1'-0"
140
0.125
141
12.0
290
     0
  0
SCALE
  5
5F
102
{ACAD_REACTORS
330
47
102
}
330
47
100
AcDbScale
 70
     0
300
3/16" = 1'-0"
140
0.1875
141
12.0
290
     0
  0
SCALE
  5
60
102
{ACAD_REACTORS
330
47
102
}
330
47
100
AcDbScale
 70
     0
300
1/4" = 1'-0"
140
0.25
141
12.0
290
     0
  0
SCALE
  5
61
102
{ACAD_REACTORS
330
47
102
}
330
47
100
AcDbScale
 70
     0
300
3/8" = 1'-0"
140
0.375
141
12.0
290
     0
  0
SCALE
  5
62
102
{ACAD_REACTORS
330
47
102
}
330
47
100
AcDbScale
 70
     0
300
1/2" = 1'-0"
140
0.5
141
12.0
290
     0
  0
SCALE
  5
63
102
{ACAD_REACTORS
330
47
102
}
330
47
100
AcDbScale
 70
     0
300
3/4" = 1'-0"
140
0.75
141
12.0
290
     0
  0
SCALE
  5
64
102
{ACAD_REACTORS
330
47
102
}
330
47
100
AcDbScale
 70
     0
300
1" = 1'-0"
140
1.0
141
12.0
290
     0
  0
SCALE
  5
65
102
{ACAD_REACTORS
330
47
102
}
330
47
100
AcDbScale
 70
     0
300
1-1/2" = 1'-0"
140
1.5
141
12.0
290
     0
  0
SCALE
  5
66
102
{ACAD_REACTORS
330
47
102
}
330
47
100
AcDbScale
 70
     0
300
3" = 1'-0"
140
3.0
141
12.0
290
     0
  0
SCALE
  5
67
102
{ACAD_REACTORS
330
47
102
}
330
47
100
AcDbScale
 70
     0
300
6" = 1'-0"
140
6.0
141
12.0
290
     0
  0
SCALE
  5
68
102
{ACAD_REACTORS
330
47
102
}
330
47
100
AcDbScale
 70
     0
300
1'-0" = 1'-0"
140
12.0
141
12.0
290
     0
  0
TABLESTYLE
  5
6A
102
{ACAD_REACTORS
330
69
102
}
102
{ACAD_XDICTIONARY
360
19F
102
}
330
69
100
AcDbTableStyle
  3
Standard
 70
     0
 71
     0
 40
0.06
 41
0.06
280
     0
281
     0
  7
Standard
140
4.5
170
     2
 62
     0
 63
   257
283
     0
 90
        4
 91
        0
  1

274
    -2
284
     1
 64
     0
275
    -2
285
     1
 65
     0
276
    -2
286
     1
 66
     0
277
    -2
287
     1
 67
     0
278
    -2
288
     1
 68
     0
279
    -2
289
     1
 69
     0
  7
Standard
140
6.0
170
     5
 62
     0
 63
   257
283
     0
 90
        4
 91
        0
  1

274
    -2
284
     1
 64
     0
275
    -2
285
     1
 65
     0
276
    -2
286
     1
 66
     0
277
    -2
287
     1
 67
     0
278
    -2
288
     1
 68
     0
279
    -2
289
     1
 69
     0
  7
Standard
140
4.5
170
     5
 62
     0
 63
   257
283
     0
 90
        4
 91
        0
  1

274
    -2
284
     1
 64
     0
275
    -2
285
     1
 65
     0
276
    -2
286
     1
 66
     0
277
    -2
287
     1
 67
     0
278
    -2
288
     1
 68
     0
279
    -2
289
     1
 69
     0
  0
VISUALSTYLE
  5
2F
102
{ACAD_REACTORS
330
2A
102
}
330
2A
100
AcDbVisualStyle
  2
2dWireframe
 70
     4
177
     3
291
     0
 70
    58
 90
        0
176
     1
 90
        2
176
     1
 90
        0
176
     1
 90
        0
176
     1
 40
0.6
176
     1
 40
30.0
176
     1
 62
     7
420
 16777215
176
     1
 90
        1
176
     1
 90
        4
176
     1
 62
     7
176
     1
 62
   257
176
     1
 90
        1
176
     1
 90
        1
176
     1
 40
1.0
176
     1
 90
        0
176
     1
 62
   257
176
     1
 40
1.0
176
     1
 90
        1
176
     1
 90
        6
176
     1
 90
        2
176
     1
 62
     7
176
     1
 90
        5
176
     1
 90
        0
176
     1
 90
        0
176
     1
290
     0
176
     1
 90
        1
176
     1
 40
0.0
176
     1
 90
        0
176
     1
290
     1
176
     1
290
     1
176
     1
290
     0
176
     1
290
     0
176
     1
290
     0
176
     1
290
     0
176
     1
290
     0
176
     1
290
     0
176
     1
290
     0
176
     1
 90
       50
176
     1
 40
0.0
176
     1
 40
1.0
176
     1
 90
        0
176
     1
 62
    18
420
        0
176
     1
 90
       50
176
     1
 90
        3
176
     1
 62
     5
420
      255
176
     1
290
     0
176
     1
 90
       50
176
     1
 90
       50
176
     1
 90
       50
176
     1
290
     0
176
     1
 90
       50
176
     1
 62
   256
176
     0
 40
1.0
176
     0
 90
        2
176
     1
  1
strokes_ogs.tif
176
     1
290
     0
176
     1
 40
1.0
176
     1
 40
1.0
176
     1
  0
VISUALSTYLE
  5
32
102
{ACAD_REACTORS
330
2A
102
}
330
2A
100
AcDbVisualStyle
  2
Basic
 70
     7
177
     3
291
     1
 70
    58
 90
        1
176
     1
 90
        0
176
     1
 90
        1
176
     1
 90
        0
176
     1
 40
0.6
176
     1
 40
30.0
176
     1
 62
     7
420
 16777215
176
     1
 90
        0
176
     1
 90
        4
176
     1
 62
     7
176
     1
 62
   257
176
     1
 90
        1
176
     1
 90
        1
176
     1
 40
1.0
176
     1
 90
        8
176
     1
 62
     7
176
     1
 40
1.0
176
     1
 90
        1
176
     1
 90
        6
176
     1
 90
        2
176
     1
 62
     7
176
     1
 90
        5
176
     1
 90
        0
176
     1
 90
        0
176
     1
290
     0
176
     1
 90
        1
176
     1
 40
0.0
176
     1
 90
        0
176
     1
290
     0
176
     1
290
     1
176
     1
290
     1
176
     1
290
     0
176
     1
290
     0
176
     1
290
     0
176
     1
290
     0
176
     1
290
     0
176
     1
290
     0
176
     1
 90
       50
176
     1
 40
0.0
176
     1
 40
1.0
176
     1
 90
        0
176
     1
 62
    18
420
        0
176
     1
 90
       50
176
     1
 90
        3
176
     1
 62
     5
420
      255
176
     1
290
     0
176
     1
 90
       50
176
     1
 90
       50
176
     1
 90
       50
176
     1
290
     0
176
     1
 90
       50
176
     1
 62
   256
176
     0
 40
1.0
176
     0
 90
        2
176
     1
  1
strokes_ogs.tif
176
     1
290
     0
176
     1
 40
1.0
176
     1
 40
1.0
176
     1
  0
VISUALSTYLE
  5
36
102
{ACAD_REACTORS
330
2A
102
}
330
2A
100
AcDbVisualStyle
  2
Brighten
 70
    12
177
     3
291
     1
 70
    58
 90
        2
176
     1
 90
        2
176
     1
 90
        0
176
     1
 90
        0
176
     1
 40
0.6
176
     1
 40
30.0
176
     1
 62
     7
420
 16777215
176
     1
 90
        1
176
     1
 90
        4
176
     1
 62
     7
176
     1
 62
   257
176
     1
 90
        1
176
     1
 90
        1
176
     1
 40
1.0
176
     1
 90
        8
176
     1
 62
     7
176
     1
 40
1.0
176
     1
 90
        1
176
     1
 90
        6
176
     1
 90
        2
176
     1
 62
     7
176
     1
 90
        5
176
     1
 90
        0
176
     1
 90
        0
176
     1
290
     0
176
     1
 90
        1
176
     1
 40
50.0
176
     1
 90
        0
176
     1
290
     0
176
     1
290
     1
176
     1
290
     1
176
     1
290
     0
176
     1
290
     0
176
     1
290
     0
176
     1
290
     0
176
     1
290
     0
176
     1
290
     0
176
     1
 90
       50
176
     1
 40
0.0
176
     1
 40
1.0
176
     1
 90
        0
176
     1
 62
    18
420
        0
176
     1
 90
       50
176
     1
 90
        3
176
     1
 62
     5
420
      255
176
     1
290
     0
176
     1
 90
       50
176
     1
 90
       50
176
     1
 90
       50
176
     1
290
     0
176
     1
 90
       50
176
     1
 62
   256
176
     0
 40
1.0
176
     0
 90
        2
176
     1
  1
strokes_ogs.tif
176
     1
290
     0
176
     1
 40
1.0
176
     1
 40
1.0
176
     1
  0
VISUALSTYLE
  5
3A
102
{ACAD_REACTORS
330
2A
102
}
330
2A
100
AcDbVisualStyle
  2
ColorChange
 70
    16
177
     3
291
     1
 70
    58
 90
        2
176
     1
 90
        2
176
     1
 90
        3
176
     1
 90
        0
176
     1
 40
0.6
176
     1
 40
30.0
176
     1
 62
     8
420
  8421504
176
     1
 90
        1
176
     1
 90
        4
176
     1
 62
     7
176
     1
 62
   257
176
     1
 90
        1
176
     1
 90
        1
176
     1
 40
1.0
176
     1
 90
        8
176
     1
 62
     8
420
  8421504
176
     1
 40
1.0
176
     1
 90
        1
176
     1
 90
        6
176
     1
 90
        2
176
     1
 62
     7
176
     1
 90
        5
176
     1
 90
        0
176
     1
 90
        0
176
     1
290
     0
176
     1
 90
        1
176
     1
 40
0.0
176
     1
 90
        0
176
     1
290
     0
176
     1
290
     1
176
     1
290
     1
176
     1
290
     0
176
     1
290
     0
176
     1
290
     0
176
     1
290
     0
176
     1
290
     0
176
     1
290
     0
176
     1
 90
       50
176
     1
 40
0.0
176
     1
 40
1.0
176
     1
 90
        0
176
     1
 62
    18
420
        0
176
     1
 90
       50
176
     1
 90
        3
176
     1
 62
     5
420
      255
176
     1
290
     0
176
     1
 90
       50
176
     1
 90
       50
176
     1
 90
       50
176
     1
290
     0
176
     1
 90
       50
176
     1
 62
   256
176
     0
 40
1.0
176
     0
 90
        2
176
     1
  1
strokes_ogs.tif
176
     1
290
     0
176
     1
 40
1.0
176
     1
 40
1.0
176
     1
  0
VISUALSTYLE
  5
34
102
{ACAD_REACTORS
330
2A
102
}
330
2A
100
AcDbVisualStyle
  2
Conceptual
 70
     9
177
     3
291
     0
 70
    58
 90
        3
176
     1
 90
        2
176
     1
 90
        0
176
     1
 90
        0
176
     1
 40
0.6
176
     1
 40
30.0
176
     1
 62
     7
420
 16777215
176
     1
 90
        2
176
     1
 90
        2
176
     1
 62
     7
176
     1
 62
   257
176
     1
 90
        1
176
     1
 90
        1
176
     1
 40
179.0
176
     1
 90
        8
176
     1
 62
     7
176
     1
 40
1.0
176
     1
 90
        1
176
     1
 90
        6
176
     1
 90
        2
176
     1
 62
     7
176
     1
 90
        3
176
     1
 90
        0
176
     1
 90
        0
176
     1
290
     0
176
     1
 90
        1
176
     1
 40
0.0
176
     1
 90
        0
176
     1
290
     0
176
     1
290
     1
176
     1
290
     1
176
     1
290
     0
176
     1
290
     0
176
     1
290
     0
176
     1
290
     0
176
     1
290
     0
176
     1
290
     0
176
     1
 90
       50
176
     1
 40
0.0
176
     1
 40
1.0
176
     1
 90
        0
176
     1
 62
    18
420
        0
176
     1
 90
       50
176
     1
 90
        3
176
     1
 62
     5
420
      255
176
     1
290
     0
176
     1
 90
       50
176
     1
 90
       50
176
     1
 90
       50
176
     1
290
     0
176
     1
 90
       50
176
     1
 62
   256
176
     0
 40
1.0
176
     0
 90
        2
176
     1
  1
strokes_ogs.tif
176
     1
290
     0
176
     1
 40
1.0
176
     1
 40
1.0
176
     1
  0
VISUALSTYLE
  5
35
102
{ACAD_REACTORS
330
2A
102
}
330
2A
100
AcDbVisualStyle
  2
Dim
 70
    11
177
     3
291
     1
 70
    58
 90
        2
176
     1
 90
        2
176
     1
 90
        0
176
     1
 90
        0
176
     1
 40
0.6
176
     1
 40
30.0
176
     1
 62
     7
420
 16777215
176
     1
 90
        1
176
     1
 90
        4
176
     1
 62
     7
176
     1
 62
   257
176
     1
 90
        1
176
     1
 90
        1
176
     1
 40
1.0
176
     1
 90
        8
176
     1
 62
     7
176
     1
 40
1.0
176
     1
 90
        1
176
     1
 90
        6
176
     1
 90
        2
176
     1
 62
     7
176
     1
 90
        5
176
     1
 90
        0
176
     1
 90
        0
176
     1
290
     0
176
     1
 90
        1
176
     1
 40
-50.0
176
     1
 90
        0
176
     1
290
     0
176
     1
290
     1
176
     1
290
     1
176
     1
290
     0
176
     1
290
     0
176
     1
290
     0
176
     1
290
     0
176
     1
290
     0
176
     1
290
     0
176
     1
 90
       50
176
     1
 40
0.0
176
     1
 40
1.0
176
     1
 90
        0
176
     1
 62
    18
420
        0
176
     1
 90
       50
176
     1
 90
        3
176
     1
 62
     5
420
      255
176
     1
290
     0
176
     1
 90
       50
176
     1
 90
       50
176
     1
 90
       50
176
     1
290
     0
176
     1
 90
       50
176
     1
 62
   256
176
     0
 40
1.0
176
     0
 90
        2
176
     1
  1
strokes_ogs.tif
176
     1
290
     0
176
     1
 40
1.0
176
     1
 40
1.0
176
     1
  0
VISUALSTYLE
  5
3D
102
{ACAD_REACTORS
330
2A
102
}
330
2A
100
AcDbVisualStyle
  2
EdgeColorOff
 70
    22
177
     3
291
     1
 70
    58
 90
        2
176
     0
 90
        2
176
     0
 90
        0
176
     0
 90
        0
176
     0
 40
0.6
176
     0
 40
30.0
176
     0
 62
     7
420
 16777215
176
     0
 90
        1
176
     0
 90
        4
176
     0
 62
     7
176
     0
 62
   257
176
     0
 90
        1
176
     0
 90
        1
176
     0
 40
1.0
176
     0
 90
        8
176
     2
 62
     7
176
     0
 40
1.0
176
     0
 90
        1
176
     0
 90
        6
176
     0
 90
        2
176
     0
 62
     7
176
     0
 90
        5
176
     0
 90
        0
176
     0
 90
        0
176
     0
290
     0
176
     0
 90
        1
176
     0
 40
0.0
176
     0
 90
        0
176
     0
290
     0
176
     0
290
     1
176
     0
290
     1
176
     0
290
     0
176
     0
290
     0
176
     0
290
     0
176
     0
290
     0
176
     0
290
     0
176
     0
290
     0
176
     0
 90
       50
176
     0
 40
0.0
176
     0
 40
1.0
176
     0
 90
        0
176
     0
 62
    18
420
        0
176
     0
 90
       50
176
     0
 90
        3
176
     0
 62
     5
420
      255
176
     0
290
     0
176
     0
 90
       50
176
     0
 90
       50
176
     0
 90
       50
176
     0
290
     0
176
     0
 90
       50
176
     0
 62
   256
176
     0
 40
1.0
176
     0
 90
        2
176
     0
  1
strokes_ogs.tif
176
     0
290
     0
176
     0
 40
1.0
176
     0
 40
1.0
176
     0
  0
VISUALSTYLE
  5
39
102
{ACAD_REACTORS
330
2A
102
}
330
2A
100
AcDbVisualStyle
  2
Facepattern
 70
    15
177
     3
291
     1
 70
    58
 90
        2
176
     1
 90
        2
176
     1
 90
        0
176
     1
 90
        0
176
     1
 40
0.6
176
     1
 40
30.0
176
     1
 62
     7
420
 16777215
176
     1
 90
        1
176
     1
 90
        4
176
     1
 62
     7
176
     1
 62
   257
176
     1
 90
        1
176
     1
 90
        1
176
     1
 40
1.0
176
     1
 90
        8
176
     1
 62
     7
176
     1
 40
1.0
176
     1
 90
        1
176
     1
 90
        6
176
     1
 90
        2
176
     1
 62
     7
176
     1
 90
        5
176
     1
 90
        0
176
     1
 90
        0
176
     1
290
     0
176
     1
 90
        1
176
     1
 40
0.0
176
     1
 90
        0
176
     1
290
     0
176
     1
290
     1
176
     1
290
     1
176
     1
290
     0
176
     1
290
     0
176
     1
290
     0
176
     1
290
     0
176
     1
290
     0
176
     1
290
     0
176
     1
 90
       50
176
     1
 40
0.0
176
     1
 40
1.0
176
     1
 90
        0
176
     1
 62
    18
420
        0
176
     1
 90
       50
176
     1
 90
        3
176
     1
 62
     5
420
      255
176
     1
290
     0
176
     1
 90
       50
176
     1
 90
       50
176
     1
 90
       50
176
     1
290
     0
176
     1
 90
       50
176
     1
 62
   256
176
     0
 40
1.0
176
     0
 90
        2
176
     1
  1
strokes_ogs.tif
176
     1
290
     0
176
     1
 40
1.0
176
     1
 40
1.0
176
     1
  0
VISUALSTYLE
  5
2B
102
{ACAD_REACTORS
330
2A
102
}
330
2A
100
AcDbVisualStyle
  2
Flat
 70
     0
177
     3
291
     1
 70
    58
 90
        2
176
     1
 90
        1
176
     1
 90
        1
176
     1
 90
        2
176
     1
 40
0.6
176
     1
 40
30.0
176
     1
 62
     7
420
 16777215
176
     1
 90
        0
176
     1
 90
        0
176
     1
 62
     7
176
     1
 62
   257
176
     1
 90
        1
176
     1
 90
        1
176
     1
 40
1.0
176
     1
 90
        8
176
     1
 62
     7
176
     1
 40
1.0
176
     1
 90
        1
176
     1
 90
        6
176
     1
 90
        2
176
     1
 62
     7
176
     1
 90
        5
176
     1
 90
        0
176
     1
 90
        0
176
     1
290
     0
176
     1
 90
       13
176
     1
 40
0.0
176
     1
 90
        0
176
     1
290
     0
176
     1
290
     1
176
     1
290
     1
176
     1
290
     0
176
     1
290
     0
176
     1
290
     0
176
     1
290
     0
176
     1
290
     0
176
     1
290
     0
176
     1
 90
       50
176
     1
 40
0.0
176
     1
 40
1.0
176
     1
 90
        0
176
     1
 62
    18
420
        0
176
     1
 90
       50
176
     1
 90
        3
176
     1
 62
     5
420
      255
176
     1
290
     0
176
     1
 90
       50
176
     1
 90
       50
176
     1
 90
       50
176
     1
290
     0
176
     1
 90
       50
176
     1
 62
   256
176
     0
 40
1.0
176
     0
 90
        2
176
     1
  1
strokes_ogs.tif
176
     1
290
     0
176
     1
 40
1.0
176
     1
 40
1.0
176
     1
  0
VISUALSTYLE
  5
2C
102
{ACAD_REACTORS
330
2A
102
}
330
2A
100
AcDbVisualStyle
  2
FlatWithEdges
 70
     1
177
     3
291
     1
 70
    58
 90
        2
176
     1
 90
        1
176
     1
 90
        1
176
     1
 90
        2
176
     1
 40
0.6
176
     1
 40
30.0
176
     1
 62
     7
420
 16777215
176
     1
 90
        1
176
     1
 90
        0
176
     1
 62
     7
176
     1
 62
   257
176
     1
 90
        1
176
     1
 90
        1
176
     1
 40
1.0
176
     1
 90
        0
176
     1
 62
   257
176
     1
 40
1.0
176
     1
 90
        1
176
     1
 90
        6
176
     1
 90
        2
176
     1
 62
     7
176
     1
 90
        5
176
     1
 90
        0
176
     1
 90
        0
176
     1
290
     0
176
     1
 90
       13
176
     1
 40
0.0
176
     1
 90
        0
176
     1
290
     0
176
     1
290
     1
176
     1
290
     1
176
     1
290
     0
176
     1
290
     0
176
     1
290
     0
176
     1
290
     0
176
     1
290
     0
176
     1
290
     0
176
     1
 90
       50
176
     1
 40
0.0
176
     1
 40
1.0
176
     1
 90
        0
176
     1
 62
    18
420
        0
176
     1
 90
       50
176
     1
 90
        3
176
     1
 62
     5
420
      255
176
     1
290
     0
176
     1
 90
       50
176
     1
 90
       50
176
     1
 90
       50
176
     1
290
     0
176
     1
 90
       50
176
     1
 62
   256
176
     0
 40
1.0
176
     0
 90
        2
176
     1
  1
strokes_ogs.tif
176
     1
290
     0
176
     1
 40
1.0
176
     1
 40
1.0
176
     1
  0
VISUALSTYLE
  5
2D
102
{ACAD_REACTORS
330
2A
102
}
330
2A
100
AcDbVisualStyle
  2
Gouraud
 70
     2
177
     3
291
     1
 70
    58
 90
        2
176
     1
 90
        2
176
     1
 90
        1
176
     1
 90
        2
176
     1
 40
0.6
176
     1
 40
30.0
176
     1
 62
     7
420
 16777215
176
     1
 90
        0
176
     1
 90
        0
176
     1
 62
     7
176
     1
 62
   257
176
     1
 90
        1
176
     1
 90
        1
176
     1
 40
1.0
176
     1
 90
        0
176
     1
 62
     7
176
     1
 40
1.0
176
     1
 90
        1
176
     1
 90
        6
176
     1
 90
        2
176
     1
 62
     7
176
     1
 90
        5
176
     1
 90
        0
176
     1
 90
        0
176
     1
290
     0
176
     1
 90
       13
176
     1
 40
0.0
176
     1
 90
        0
176
     1
290
     0
176
     1
290
     1
176
     1
290
     1
176
     1
290
     0
176
     1
290
     0
176
     1
290
     0
176
     1
290
     0
176
     1
290
     0
176
     1
290
     0
176
     1
 90
       50
176
     1
 40
0.0
176
     1
 40
1.0
176
     1
 90
        0
176
     1
 62
    18
420
        0
176
     1
 90
       50
176
     1
 90
        3
176
     1
 62
     5
420
      255
176
     1
290
     0
176
     1
 90
       50
176
     1
 90
       50
176
     1
 90
       50
176
     1
290
     0
176
     1
 90
       50
176
     1
 62
   256
176
     0
 40
1.0
176
     0
 90
        2
176
     1
  1
strokes_ogs.tif
176
     1
290
     0
176
     1
 40
1.0
176
     1
 40
1.0
176
     1
  0
VISUALSTYLE
  5
2E
102
{ACAD_REACTORS
330
2A
102
}
330
2A
100
AcDbVisualStyle
  2
GouraudWithEdges
 70
     3
177
     3
291
     1
 70
    58
 90
        2
176
     1
 90
        2
176
     1
 90
        1
176
     1
 90
        2
176
     1
 40
0.6
176
     1
 40
30.0
176
     1
 62
     7
420
 16777215
176
     1
 90
        1
176
     1
 90
        0
176
     1
 62
     7
176
     1
 62
   257
176
     1
 90
        1
176
     1
 90
        1
176
     1
 40
1.0
176
     1
 90
        0
176
     1
 62
   257
176
     1
 40
1.0
176
     1
 90
        1
176
     1
 90
        6
176
     1
 90
        2
176
     1
 62
     7
176
     1
 90
        5
176
     1
 90
        0
176
     1
 90
        0
176
     1
290
     0
176
     1
 90
       13
176
     1
 40
0.0
176
     1
 90
        0
176
     1
290
     0
176
     1
290
     1
176
     1
290
     1
176
     1
290
     0
176
     1
290
     0
176
     1
290
     0
176
     1
290
     0
176
     1
290
     0
176
     1
290
     0
176
     1
 90
       50
176
     1
 40
0.0
176
     1
 40
1.0
176
     1
 90
        0
176
     1
 62
    18
420
        0
176
     1
 90
       50
176
     1
 90
        3
176
     1
 62
     5
420
      255
176
     1
290
     0
176
     1
 90
       50
176
     1
 90
       50
176
     1
 90
       50
176
     1
290
     0
176
     1
 90
       50
176
     1
 62
   256
176
     0
 40
1.0
176
     0
 90
        2
176
     1
  1
strokes_ogs.tif
176
     1
290
     0
176
     1
 40
1.0
176
     1
 40
1.0
176
     1
  0
VISUALSTYLE
  5
31
102
{ACAD_REACTORS
330
2A
102
}
330
2A
100
AcDbVisualStyle
  2
Hidden
 70
     6
177
     3
291
     0
 70
    58
 90
        1
176
     1
 90
        2
176
     1
 90
        2
176
     1
 90
        0
176
     1
 40
0.6
176
     1
 40
30.0
176
     1
 62
     7
420
 16777215
176
     1
 90
        2
176
     1
 90
        2
176
     1
 62
     7
176
     1
 62
   257
176
     1
 90
        2
176
     1
 90
        1
176
     1
 40
40.0
176
     1
 90
        0
176
     1
 62
   257
176
     1
 40
1.0
176
     1
 90
        1
176
     1
 90
        6
176
     1
 90
        2
176
     1
 62
     7
176
     1
 90
        3
176
     1
 90
        0
176
     1
 90
        0
176
     1
290
     0
176
     1
 90
        1
176
     1
 40
0.0
176
     1
 90
        0
176
     1
290
     0
176
     1
290
     1
176
     1
290
     1
176
     1
290
     0
176
     1
290
     0
176
     1
290
     0
176
     1
290
     0
176
     1
290
     0
176
     1
290
     0
176
     1
 90
       50
176
     1
 40
0.0
176
     1
 40
1.0
176
     1
 90
        0
176
     1
 62
    18
420
        0
176
     1
 90
       50
176
     1
 90
        3
176
     1
 62
     5
420
      255
176
     1
290
     0
176
     1
 90
       50
176
     1
 90
       50
176
     1
 90
       50
176
     1
290
     0
176
     1
 90
       50
176
     1
 62
   256
176
     0
 40
1.0
176
     0
 90
        2
176
     1
  1
strokes_ogs.tif
176
     1
290
     0
176
     1
 40
1.0
176
     1
 40
1.0
176
     1
  0
VISUALSTYLE
  5
3B
102
{ACAD_REACTORS
330
2A
102
}
330
2A
100
AcDbVisualStyle
  2
JitterOff
 70
    20
177
     3
291
     1
 70
    58
 90
        2
176
     0
 90
        2
176
     0
 90
        0
176
     0
 90
        0
176
     0
 40
0.6
176
     0
 40
30.0
176
     0
 62
     7
420
 16777215
176
     0
 90
        1
176
     0
 90
        4
176
     0
 62
     7
176
     0
 62
   257
176
     0
 90
        1
176
     0
 90
        1
176
     0
 40
1.0
176
     0
 90
       10
176
     2
 62
     7
176
     0
 40
1.0
176
     0
 90
        1
176
     0
 90
        6
176
     0
 90
        2
176
     0
 62
     7
176
     0
 90
        5
176
     0
 90
        0
176
     0
 90
        0
176
     0
290
     0
176
     0
 90
        1
176
     0
 40
0.0
176
     0
 90
        0
176
     0
290
     0
176
     0
290
     1
176
     0
290
     1
176
     0
290
     0
176
     0
290
     0
176
     0
290
     0
176
     0
290
     0
176
     0
290
     0
176
     0
290
     0
176
     0
 90
       50
176
     0
 40
0.0
176
     0
 40
1.0
176
     0
 90
        0
176
     0
 62
    18
420
        0
176
     0
 90
       50
176
     0
 90
        3
176
     0
 62
     5
420
      255
176
     0
290
     0
176
     0
 90
       50
176
     0
 90
       50
176
     0
 90
       50
176
     0
290
     0
176
     0
 90
       50
176
     0
 62
   256
176
     0
 40
1.0
176
     0
 90
        2
176
     0
  1
strokes_ogs.tif
176
     0
290
     0
176
     0
 40
1.0
176
     0
 40
1.0
176
     0
  0
VISUALSTYLE
  5
38
102
{ACAD_REACTORS
330
2A
102
}
330
2A
100
AcDbVisualStyle
  2
Linepattern
 70
    14
177
     3
291
     1
 70
    58
 90
        2
176
     1
 90
        2
176
     1
 90
        0
176
     1
 90
        0
176
     1
 40
0.6
176
     1
 40
30.0
176
     1
 62
     7
420
 16777215
176
     1
 90
        1
176
     1
 90
        4
176
     1
 62
     7
176
     1
 62
   257
176
     1
 90
        7
176
     1
 90
        7
176
     1
 40
1.0
176
     1
 90
        8
176
     1
 62
     7
176
     1
 40
1.0
176
     1
 90
        1
176
     1
 90
        6
176
     1
 90
        2
176
     1
 62
     7
176
     1
 90
        5
176
     1
 90
        0
176
     1
 90
        0
176
     1
290
     0
176
     1
 90
        1
176
     1
 40
0.0
176
     1
 90
        0
176
     1
290
     0
176
     1
290
     1
176
     1
290
     1
176
     1
290
     0
176
     1
290
     0
176
     1
290
     0
176
     1
290
     0
176
     1
290
     0
176
     1
290
     0
176
     1
 90
       50
176
     1
 40
0.0
176
     1
 40
1.0
176
     1
 90
        0
176
     1
 62
    18
420
        0
176
     1
 90
       50
176
     1
 90
        3
176
     1
 62
     5
420
      255
176
     1
290
     0
176
     1
 90
       50
176
     1
 90
       50
176
     1
 90
       50
176
     1
290
     0
176
     1
 90
       50
176
     1
 62
   256
176
     0
 40
1.0
176
     0
 90
        2
176
     1
  1
strokes_ogs.tif
176
     1
290
     0
176
     1
 40
1.0
176
     1
 40
1.0
176
     1
  0
VISUALSTYLE
  5
3C
102
{ACAD_REACTORS
330
2A
102
}
330
2A
100
AcDbVisualStyle
  2
OverhangOff
 70
    21
177
     3
291
     1
 70
    58
 90
        2
176
     0
 90
        2
176
     0
 90
        0
176
     0
 90
        0
176
     0
 40
0.6
176
     0
 40
30.0
176
     0
 62
     7
420
 16777215
176
     0
 90
        1
176
     0
 90
        4
176
     0
 62
     7
176
     0
 62
   257
176
     0
 90
        1
176
     0
 90
        1
176
     0
 40
1.0
176
     0
 90
        9
176
     2
 62
     7
176
     0
 40
1.0
176
     0
 90
        1
176
     0
 90
        6
176
     0
 90
        2
176
     0
 62
     7
176
     0
 90
        5
176
     0
 90
        0
176
     0
 90
        0
176
     0
290
     0
176
     0
 90
        1
176
     0
 40
0.0
176
     0
 90
        0
176
     0
290
     0
176
     0
290
     1
176
     0
290
     1
176
     0
290
     0
176
     0
290
     0
176
     0
290
     0
176
     0
290
     0
176
     0
290
     0
176
     0
290
     0
176
     0
 90
       50
176
     0
 40
0.0
176
     0
 40
1.0
176
     0
 90
        0
176
     0
 62
    18
420
        0
176
     0
 90
       50
176
     0
 90
        3
176
     0
 62
     5
420
      255
176
     0
290
     0
176
     0
 90
       50
176
     0
 90
       50
176
     0
 90
       50
176
     0
290
     0
176
     0
 90
       50
176
     0
 62
   256
176
     0
 40
1.0
176
     0
 90
        2
176
     0
  1
strokes_ogs.tif
176
     0
290
     0
176
     0
 40
1.0
176
     0
 40
1.0
176
     0
  0
VISUALSTYLE
  5
33
102
{ACAD_REACTORS
330
2A
102
}
330
2A
100
AcDbVisualStyle
  2
Realistic
 70
     8
177
     3
291
     0
 70
    58
 90
        2
176
     1
 90
        3
176
     1
 90
        0
176
     1
 90
        2
176
     1
 40
0.6
176
     1
 40
30.0
176
     1
 62
     7
420
 16777215
176
     1
 90
        0
176
     1
 90
        0
176
     1
 62
     7
176
     1
 62
   257
176
     1
 90
        1
176
     1
 90
        1
176
     1
 40
1.0
176
     1
 90
        8
176
     1
 62
   257
176
     1
 40
1.0
176
     1
 90
        1
176
     1
 90
        6
176
     1
 90
        2
176
     1
 62
     7
176
     1
 90
        3
176
     1
 90
        0
176
     1
 90
        0
176
     1
290
     0
176
     1
 90
       13
176
     1
 40
0.0
176
     1
 90
        0
176
     1
290
     0
176
     1
290
     1
176
     1
290
     1
176
     1
290
     0
176
     1
290
     0
176
     1
290
     0
176
     1
290
     0
176
     1
290
     0
176
     1
290
     0
176
     1
 90
       50
176
     1
 40
0.0
176
     1
 40
1.0
176
     1
 90
        0
176
     1
 62
    18
420
        0
176
     1
 90
       50
176
     1
 90
        3
176
     1
 62
     5
420
      255
176
     1
290
     0
176
     1
 90
       50
176
     1
 90
       50
176
     1
 90
       50
176
     1
290
     0
176
     1
 90
       50
176
     1
 62
   256
176
     0
 40
1.0
176
     0
 90
        2
176
     1
  1
strokes_ogs.tif
176
     1
290
     0
176
     1
 40
1.0
176
     1
 40
1.0
176
     1
  0
VISUALSTYLE
  5
42
102
{ACAD_REACTORS
330
2A
102
}
330
2A
100
AcDbVisualStyle
  2
Shaded
 70
    27
177
     3
291
     0
 70
    58
 90
        2
176
     1
 90
        2
176
     1
 90
        1
176
     1
 90
        2
176
     1
 40
0.6
176
     1
 40
30.0
176
     1
 62
     7
420
 16777215
176
     1
 90
        0
176
     1
 90
        4
176
     1
 62
     7
176
     1
 62
   257
176
     1
 90
        1
176
     1
 90
        1
176
     1
 40
1.0
176
     1
 90
        8
176
     1
 62
   257
176
     1
 40
1.0
176
     1
 90
        1
176
     1
 90
        6
176
     1
 90
        2
176
     1
 62
     8
420
  7895160
176
     1
 90
        3
176
     1
 90
        0
176
     1
 90
        0
176
     1
290
     0
176
     1
 90
        5
176
     1
 40
0.0
176
     1
 90
        0
176
     1
290
     0
176
     1
290
     1
176
     1
290
     1
176
     1
290
     0
176
     1
290
     0
176
     1
290
     0
176
     1
290
     0
176
     1
290
     0
176
     1
290
     0
176
     1
 90
       50
176
     1
 40
0.0
176
     1
 40
1.0
176
     1
 90
        0
176
     1
 62
    18
420
        0
176
     1
 90
       50
176
     1
 90
        3
176
     1
 62
     5
420
      255
176
     1
290
     0
176
     1
 90
       50
176
     1
 90
       50
176
     1
 90
       50
176
     1
290
     0
176
     1
 90
       50
176
     1
 62
   256
176
     0
 40
1.0
176
     0
 90
        2
176
     1
  1
strokes_ogs.tif
176
     1
290
     0
176
     1
 40
1.0
176
     1
 40
1.0
176
     1
  0
VISUALSTYLE
  5
41
102
{ACAD_REACTORS
330
2A
102
}
330
2A
100
AcDbVisualStyle
  2
Shaded with edges
 70
    26
177
     3
291
     0
 70
    58
 90
        2
176
     1
 90
        2
176
     1
 90
        1
176
     1
 90
        2
176
     1
 40
0.6
176
     1
 40
30.0
176
     1
 62
     7
420
 16777215
176
     1
 90
        1
176
     1
 90
       10
176
     1
 62
     7
176
     1
 62
   257
176
     1
 90
        2
176
     1
 90
        1
176
     1
 40
1.0
176
     1
 90
        8
176
     1
 62
   257
176
     1
 40
1.0
176
     1
 90
        1
176
     1
 90
        6
176
     1
 90
        2
176
     1
 62
     7
176
     1
 90
        3
176
     1
 90
        0
176
     1
 90
        0
176
     1
290
     0
176
     1
 90
        5
176
     1
 40
0.0
176
     1
 90
        0
176
     1
290
     0
176
     1
290
     1
176
     1
290
     1
176
     1
290
     0
176
     1
290
     0
176
     1
290
     0
176
     1
290
     0
176
     1
290
     0
176
     1
290
     0
176
     1
 90
       50
176
     1
 40
0.0
176
     1
 40
1.0
176
     1
 90
        0
176
     1
 62
    18
420
        0
176
     1
 90
       50
176
     1
 90
        3
176
     1
 62
     5
420
      255
176
     1
290
     0
176
     1
 90
       50
176
     1
 90
       50
176
     1
 90
       50
176
     1
290
     0
176
     1
 90
       50
176
     1
 62
   256
176
     0
 40
1.0
176
     0
 90
        2
176
     1
  1
strokes_ogs.tif
176
     1
290
     0
176
     1
 40
1.0
176
     1
 40
1.0
176
     1
  0
VISUALSTYLE
  5
3E
102
{ACAD_REACTORS
330
2A
102
}
330
2A
100
AcDbVisualStyle
  2
Shades of Gray
 70
    23
177
     3
291
     0
 70
    58
 90
        2
176
     1
 90
        2
176
     1
 90
        3
176
     1
 90
        0
176
     1
 40
0.6
176
     1
 40
30.0
176
     1
 62
     7
420
 16777215
176
     1
 90
        2
176
     1
 90
        2
176
     1
 62
     7
176
     1
 62
     7
176
     1
 90
        1
176
     1
 90
        1
176
     1
 40
40.0
176
     1
 90
        8
176
     1
 62
     7
176
     1
 40
1.0
176
     1
 90
        1
176
     1
 90
        6
176
     1
 90
        2
176
     1
 62
     7
176
     1
 90
        3
176
     1
 90
        0
176
     1
 90
        0
176
     1
290
     0
176
     1
 90
        1
176
     1
 40
0.0
176
     1
 90
        0
176
     1
290
     0
176
     1
290
     1
176
     1
290
     1
176
     1
290
     0
176
     1
290
     0
176
     1
290
     0
176
     1
290
     0
176
     1
290
     0
176
     1
290
     0
176
     1
 90
       50
176
     1
 40
0.0
176
     1
 40
1.0
176
     1
 90
        0
176
     1
 62
    18
420
        0
176
     1
 90
       50
176
     1
 90
        3
176
     1
 62
     5
420
      255
176
     1
290
     0
176
     1
 90
       50
176
     1
 90
       50
176
     1
 90
       50
176
     1
290
     0
176
     1
 90
       50
176
     1
 62
   256
176
     0
 40
1.0
176
     0
 90
        2
176
     1
  1
strokes_ogs.tif
176
     1
290
     0
176
     1
 40
1.0
176
     1
 40
1.0
176
     1
  0
VISUALSTYLE
  5
3F
102
{ACAD_REACTORS
330
2A
102
}
330
2A
100
AcDbVisualStyle
  2
Sketchy
 70
    24
177
     3
291
     0
 70
    58
 90
        1
176
     1
 90
        2
176
     1
 90
        2
176
     1
 90
        0
176
     1
 40
0.6
176
     1
 40
30.0
176
     1
 62
     7
420
 16777215
176
     1
 90
        2
176
     1
 90
        2
176
     1
 62
     7
176
     1
 62
     7
176
     1
 90
        1
176
     1
 90
        1
176
     1
 40
40.0
176
     1
 90
       11
176
     1
 62
     7
176
     1
 40
1.0
176
     1
 90
        1
176
     1
 90
        6
176
     1
 90
        2
176
     1
 62
     7
176
     1
 90
        6
176
     1
 90
        0
176
     1
 90
        0
176
     1
290
     0
176
     1
 90
        1
176
     1
 40
0.0
176
     1
 90
        0
176
     1
290
     0
176
     1
290
     1
176
     1
290
     1
176
     1
290
     0
176
     1
290
     0
176
     1
290
     0
176
     1
290
     0
176
     1
290
     0
176
     1
290
     0
176
     1
 90
       50
176
     1
 40
0.0
176
     1
 40
1.0
176
     1
 90
        0
176
     1
 62
    18
420
        0
176
     1
 90
       50
176
     1
 90
        3
176
     1
 62
     5
420
      255
176
     1
290
     0
176
     1
 90
       50
176
     1
 90
       50
176
     1
 90
       50
176
     1
290
     0
176
     1
 90
       50
176
     1
 62
   256
176
     0
 40
1.0
176
     0
 90
        2
176
     1
  1
strokes_ogs.tif
176
     1
290
     0
176
     1
 40
1.0
176
     1
 40
1.0
176
     1
  0
VISUALSTYLE
  5
37
102
{ACAD_REACTORS
330
2A
102
}
330
2A
100
AcDbVisualStyle
  2
Thicken
 70
    13
177
     3
291
     1
 70
    58
 90
        2
176
     1
 90
        2
176
     1
 90
        0
176
     1
 90
        0
176
     1
 40
0.6
176
     1
 40
30.0
176
     1
 62
     7
420
 16777215
176
     1
 90
        1
176
     1
 90
        4
176
     1
 62
     7
176
     1
 62
   257
176
     1
 90
        1
176
     1
 90
        1
176
     1
 40
1.0
176
     1
 90
       12
176
     1
 62
     7
176
     1
 40
1.0
176
     1
 90
        1
176
     1
 90
        6
176
     1
 90
        2
176
     1
 62
     7
176
     1
 90
        5
176
     1
 90
        0
176
     1
 90
        0
176
     1
290
     0
176
     1
 90
        1
176
     1
 40
0.0
176
     1
 90
        0
176
     1
290
     0
176
     1
290
     1
176
     1
290
     1
176
     1
290
     0
176
     1
290
     0
176
     1
290
     0
176
     1
290
     0
176
     1
290
     0
176
     1
290
     0
176
     1
 90
       50
176
     1
 40
0.0
176
     1
 40
1.0
176
     1
 90
        0
176
     1
 62
    18
420
        0
176
     1
 90
       50
176
     1
 90
        3
176
     1
 62
     5
420
      255
176
     1
290
     0
176
     1
 90
       50
176
     1
 90
       50
176
     1
 90
       50
176
     1
290
     0
176
     1
 90
       50
176
     1
 62
   256
176
     0
 40
1.0
176
     0
 90
        2
176
     1
  1
strokes_ogs.tif
176
     1
290
     0
176
     1
 40
1.0
176
     1
 40
1.0
176
     1
  0
VISUALSTYLE
  5
30
102
{ACAD_REACTORS
330
2A
102
}
330
2A
100
AcDbVisualStyle
  2
Wireframe
 70
     5
177
     3
291
     0
 70
    58
 90
        0
176
     1
 90
        2
176
     1
 90
        0
176
     1
 90
        0
176
     1
 40
0.6
176
     1
 40
30.0
176
     1
 62
     7
420
 16777215
176
     1
 90
        1
176
     1
 90
        4
176
     1
 62
     7
176
     1
 62
   257
176
     1
 90
        1
176
     1
 90
        1
176
     1
 40
1.0
176
     1
 90
        0
176
     1
 62
   257
176
     1
 40
1.0
176
     1
 90
        1
176
     1
 90
        6
176
     1
 90
        2
176
     1
 62
     7
176
     1
 90
        3
176
     1
 90
        0
176
     1
 90
        0
176
     1
290
     0
176
     1
 90
        1
176
     1
 40
0.0
176
     1
 90
        0
176
     1
290
     0
176
     1
290
     1
176
     1
290
     1
176
     1
290
     0
176
     1
290
     0
176
     1
290
     0
176
     1
290
     0
176
     1
290
     0
176
     1
290
     0
176
     1
 90
       50
176
     1
 40
0.0
176
     1
 40
1.0
176
     1
 90
        0
176
     1
 62
    18
420
        0
176
     1
 90
       50
176
     1
 90
        3
176
     1
 62
     5
420
      255
176
     1
290
     0
176
     1
 90
       50
176
     1
 90
       50
176
     1
 90
       50
176
     1
290
     0
176
     1
 90
       50
176
     1
 62
   256
176
     0
 40
1.0
176
     0
 90
        2
176
     1
  1
strokes_ogs.tif
176
     1
290
     0
176
     1
 40
1.0
176
     1
 40
1.0
176
     1
  0
VISUALSTYLE
  5
40
102
{ACAD_REACTORS
330
2A
102
}
330
2A
100
AcDbVisualStyle
  2
X-Ray
 70
    25
177
     3
291
     0
 70
    58
 90
        2
176
     1
 90
        2
176
     1
 90
        1
176
     1
 90
        1
176
     1
 40
0.5
176
     1
 40
30.0
176
     1
 62
     7
420
 16777215
176
     1
 90
        1
176
     1
 90
        0
176
     1
 62
     7
176
     1
 62
   257
176
     1
 90
        1
176
     1
 90
        1
176
     1
 40
1.0
176
     1
 90
        8
176
     1
 62
     7
176
     1
 40
1.0
176
     1
 90
        1
176
     1
 90
        6
176
     1
 90
        2
176
     1
 62
     7
176
     1
 90
        3
176
     1
 90
        0
176
     1
 90
        0
176
     1
290
     0
176
     1
 90
       13
176
     1
 40
0.0
176
     1
 90
        0
176
     1
290
     0
176
     1
290
     1
176
     1
290
     1
176
     1
290
     0
176
     1
290
     0
176
     1
290
     0
176
     1
290
     0
176
     1
290
     0
176
     1
290
     0
176
     1
 90
       50
176
     1
 40
0.0
176
     1
 40
1.0
176
     1
 90
        0
176
     1
 62
    18
420
        0
176
     1
 90
       50
176
     1
 90
        3
176
     1
 62
     5
420
      255
176
     1
290
     0
176
     1
 90
       50
176
     1
 90
       50
176
     1
 90
       50
176
     1
290
     0
176
     1
 90
       50
176
     1
 62
   256
176
     0
 40
1.0
176
     0
 90
        2
176
     1
  1
strokes_ogs.tif
176
     1
290
     0
176
     1
 40
1.0
176
     1
 40
1.0
176
     1
  0
DICTIONARYVAR
  5
19E
102
{ACAD_REACTORS
330
19D
102
}
330
19D
100
DictionaryVariables
280
     0
  1
1:1
  0
DICTIONARYVAR
  5
1A3
102
{ACAD_REACTORS
330
19D
102
}
330
19D
100
DictionaryVariables
280
     0
  1
Standard
  0
DICTIONARYVAR
  5
1A2
102
{ACAD_REACTORS
330
19D
102
}
330
19D
100
DictionaryVariables
280
     0
  1
Standard
  0
DICTIONARY
  5
19F
330
6A
100
AcDbDictionary
280
     1
281
     1
  3
ACAD_ROUNDTRIP_2008_TABLESTYLE_CELLSTYLEMAP
360
1A0
  0
CELLSTYLEMAP
  5
1A0
102
{ACAD_REACTORS
330
19F
102
}
330
19F
100
AcDbCellStyleMap
 90
        3
300
CELLSTYLE
  1
TABLEFORMAT_BEGIN
 90
        5
170
     1
 91
        0
 92
    32768
 62
   257
 93
        1
300
CONTENTFORMAT
  1
CONTENTFORMAT_BEGIN
 90
        0
 91
        0
 92
        4
 93
        0
300

 40
0.0
140
1.0
 94
        5
 62
     0
340
11
144
6.0
309
CONTENTFORMAT_END
171
     1
301
MARGIN
  1
CELLMARGIN_BEGIN
 40
1.5
 40
1.5
 40
1.5
 40
1.5
 40
1.5
 40
1.5
309
CELLMARGIN_END
 94
        6
 95
        1
302
GRIDFORMAT
  1
GRIDFORMAT_BEGIN
 90
        0
 91
        1
 62
     0
 92
       -2
340
14
 93
        0
 40
0.045
309
GRIDFORMAT_END
 95
        2
302
GRIDFORMAT
  1
GRIDFORMAT_BEGIN
 90
        0
 91
        1
 62
     0
 92
       -2
340
14
 93
        0
 40
0.045
309
GRIDFORMAT_END
 95
        4
302
GRIDFORMAT
  1
GRIDFORMAT_BEGIN
 90
        0
 91
        1
 62
     0
 92
       -2
340
14
 93
        0
 40
0.045
309
GRIDFORMAT_END
 95
        8
302
GRIDFORMAT
  1
GRIDFORMAT_BEGIN
 90
        0
 91
        1
 62
     0
 92
       -2
340
14
 93
        0
 40
0.045
309
GRIDFORMAT_END
 95
       16
302
GRIDFORMAT
  1
GRIDFORMAT_BEGIN
 90
        0
 91
        1
 62
     0
 92
       -2
340
14
 93
        0
 40
0.045
309
GRIDFORMAT_END
 95
       32
302
GRIDFORMAT
  1
GRIDFORMAT_BEGIN
 90
        0
 91
        1
 62
     0
 92
       -2
340
14
 93
        0
 40
0.045
309
GRIDFORMAT_END
309
TABLEFORMAT_END
  1
CELLSTYLE_BEGIN
 90
        1
 91
        1
300
_TITLE
309
CELLSTYLE_END
300
CELLSTYLE
  1
TABLEFORMAT_BEGIN
 90
        5
170
     1
 91
        0
 92
        0
 62
   257
 93
        1
300
CONTENTFORMAT
  1
CONTENTFORMAT_BEGIN
 90
        0
 91
        0
 92
        4
 93
        0
300

 40
0.0
140
1.0
 94
        5
 62
     0
340
11
144
4.5
309
CONTENTFORMAT_END
171
     1
301
MARGIN
  1
CELLMARGIN_BEGIN
 40
1.5
 40
1.5
 40
1.5
 40
1.5
 40
1.5
 40
1.5
309
CELLMARGIN_END
 94
        6
 95
        1
302
GRIDFORMAT
  1
GRIDFORMAT_BEGIN
 90
        0
 91
        1
 62
     0
 92
       -2
340
14
 93
        0
 40
0.045
309
GRIDFORMAT_END
 95
        2
302
GRIDFORMAT
  1
GRIDFORMAT_BEGIN
 90
        0
 91
        1
 62
     0
 92
       -2
340
14
 93
        0
 40
0.045
309
GRIDFORMAT_END
 95
        4
302
GRIDFORMAT
  1
GRIDFORMAT_BEGIN
 90
        0
 91
        1
 62
     0
 92
       -2
340
14
 93
        0
 40
0.045
309
GRIDFORMAT_END
 95
        8
302
GRIDFORMAT
  1
GRIDFORMAT_BEGIN
 90
        0
 91
        1
 62
     0
 92
       -2
340
14
 93
        0
 40
0.045
309
GRIDFORMAT_END
 95
       16
302
GRIDFORMAT
  1
GRIDFORMAT_BEGIN
 90
        0
 91
        1
 62
     0
 92
       -2
340
14
 93
        0
 40
0.045
309
GRIDFORMAT_END
 95
       32
302
GRIDFORMAT
  1
GRIDFORMAT_BEGIN
 90
        0
 91
        1
 62
     0
 92
       -2
340
14
 93
        0
 40
0.045
309
GRIDFORMAT_END
309
TABLEFORMAT_END
  1
CELLSTYLE_BEGIN
 90
        2
 91
        1
300
_HEADER
309
CELLSTYLE_END
300
CELLSTYLE
  1
TABLEFORMAT_BEGIN
 90
        5
170
     1
 91
        0
 92
        0
 62
   257
 93
        1
300
CONTENTFORMAT
  1
CONTENTFORMAT_BEGIN
 90
        0
 91
        0
 92
        4
 93
        0
300

 40
0.0
140
1.0
 94
        2
 62
     0
340
11
144
4.5
309
CONTENTFORMAT_END
171
     1
301
MARGIN
  1
CELLMARGIN_BEGIN
 40
1.5
 40
1.5
 40
1.5
 40
1.5
 40
1.5
 40
1.5
309
CELLMARGIN_END
 94
        6
 95
        1
302
GRIDFORMAT
  1
GRIDFORMAT_BEGIN
 90
        0
 91
        1
 62
     0
 92
       -2
340
14
 93
        0
 40
0.045
309
GRIDFORMAT_END
 95
        2
302
GRIDFORMAT
  1
GRIDFORMAT_BEGIN
 90
        0
 91
        1
 62
     0
 92
       -2
340
14
 93
        0
 40
0.045
309
GRIDFORMAT_END
 95
        4
302
GRIDFORMAT
  1
GRIDFORMAT_BEGIN
 90
        0
 91
        1
 62
     0
 92
       -2
340
14
 93
        0
 40
0.045
309
GRIDFORMAT_END
 95
        8
302
GRIDFORMAT
  1
GRIDFORMAT_BEGIN
 90
        0
 91
        1
 62
     0
 92
       -2
340
14
 93
        0
 40
0.045
309
GRIDFORMAT_END
 95
       16
302
GRIDFORMAT
  1
GRIDFORMAT_BEGIN
 90
        0
 91
        1
 62
     0
 92
       -2
340
14
 93
        0
 40
0.045
309
GRIDFORMAT_END
 95
       32
302
GRIDFORMAT
  1
GRIDFORMAT_BEGIN
 90
        0
 91
        1
 62
     0
 92
       -2
340
14
 93
        0
 40
0.045
309
GRIDFORMAT_END
309
TABLEFORMAT_END
  1
CELLSTYLE_BEGIN
 90
        3
 91
        2
300
_DATA
309
CELLSTYLE_END
  0
ENDSEC
  0
EOF