0
SECTION
  2
HEADER
  9
$ACADVER
  1
AC1027
  9
$ACADMAINTVER
 70
     8
  9
$DWGCODEPAGE
  3
ANSI_1252
  9
$REQUIREDVERSIONS
160
                 0
  9
$COMMENTS
  1
File was created by Cadenas
  9
$CUSTOMPROPERTYTAG
  1
NN
  9
$CUSTOMPROPERTY
  1
Set Screw Narrow Slot Take Up Inch Bore - Stainless Housing, Stainless Steel Insert
  9
$CUSTOMPROPERTYTAG
  1
NT
  9
$CUSTOMPROPERTY
  1
SC Take-Up Bearings -Wide Slot -(Normal Duty) -Polymer Housed -Corrosion Resistant Insert -E-Z KLEEN
  9
$CUSTOMPROPERTYTAG
  1
NB
  9
$CUSTOMPROPERTY
  1
136836
  9
$CUSTOMPROPERTYTAG
  1
NBSYN
  9
$CUSTOMPROPERTY
  1
$PN.
  9
$CUSTOMPROPERTYTAG
  1
LINA
  9
$CUSTOMPROPERTY
  1
136836
  9
$CUSTOMPROPERTYTAG
  1
SERIES
  9
$CUSTOMPROPERTY
  1
206
  9
$CUSTOMPROPERTYTAG
  1
SS
  9
$CUSTOMPROPERTY
  1
1-1/4
  9
$CUSTOMPROPERTYTAG
  1
PN
  9
$CUSTOMPROPERTY
  1
136836
  9
$CUSTOMPROPERTYTAG
  1
DESCRIPTION
  9
$CUSTOMPROPERTY
  1
NSTU-SCEZ-104S-SHSS
  9
$CUSTOMPROPERTYTAG
  1
W
  9
$CUSTOMPROPERTY
  1
2.51
  9
$CUSTOMPROPERTYTAG
  1
FS
  9
$CUSTOMPROPERTY
  1
NS308
  9
$CUSTOMPROPERTYTAG
  1
A
  9
$CUSTOMPROPERTY
  1
1.52
  9
$CUSTOMPROPERTYTAG
  1
B
  9
$CUSTOMPROPERTY
  1
4.50
  9
$CUSTOMPROPERTYTAG
  1
C
  9
$CUSTOMPROPERTY
  1
0.265
  9
$CUSTOMPROPERTYTAG
  1
D
  9
$CUSTOMPROPERTY
  1
2.50
  9
$CUSTOMPROPERTYTAG
  1
E
  9
$CUSTOMPROPERTY
  1
2.69
  9
$CUSTOMPROPERTYTAG
  1
F
  9
$CUSTOMPROPERTY
  1
3/4
  9
$CUSTOMPROPERTYTAG
  1
G
  9
$CUSTOMPROPERTY
  1
0.50
  9
$CUSTOMPROPERTYTAG
  1
H
  9
$CUSTOMPROPERTY
  1
0.94
  9
$CUSTOMPROPERTYTAG
  1
J
  9
$CUSTOMPROPERTY
  1
1.20
  9
$CUSTOMPROPERTYTAG
  1
L
  9
$CUSTOMPROPERTY
  1
1.57
  9
$CUSTOMPROPERTYTAG
  1
M
  9
$CUSTOMPROPERTY
  1
3.510 / 3.480
  9
$CUSTOMPROPERTYTAG
  1
N
  9
$CUSTOMPROPERTY
  1
4.13
  9
$CUSTOMPROPERTYTAG
  1
P
  9
$CUSTOMPROPERTY
  1
0.32
  9
$CUSTOMPROPERTYTAG
  1
R
  9
$CUSTOMPROPERTY
  1
0.58
  9
$CUSTOMPROPERTYTAG
  1
S
  9
$CUSTOMPROPERTY
  1
0.94
  9
$CUSTOMPROPERTYTAG
  1
COMPANY
  9
$CUSTOMPROPERTY
  1
baldor
  9
$INSBASE
 10
0.0
 20
0.0
 30
0.0
  9
$EXTMIN
 10
1.000000000000000E+20
 20
1.000000000000000E+20
 30
1.000000000000000E+20
  9
$EXTMAX
 10
-1.000000000000000E+20
 20
-1.000000000000000E+20
 30
-1.000000000000000E+20
  9
$LIMMIN
 10
0.0
 20
0.0
  9
$LIMMAX
 10
12.0
 20
9.0
  9
$ORTHOMODE
 70
     0
  9
$REGENMODE
 70
     1
  9
$FILLMODE
 70
     1
  9
$QTEXTMODE
 70
     0
  9
$MIRRTEXT
 70
     1
  9
$LTSCALE
 40
1.0
  9
$ATTMODE
 70
     1
  9
$TEXTSIZE
 40
0.2
  9
$TRACEWID
 40
0.05
  9
$TEXTSTYLE
  7
Standard
  9
$CLAYER
  8
0
  9
$CELTYPE
  6
ByLayer
  9
$CECOLOR
 62
   256
  9
$CELTSCALE
 40
1.0
  9
$DISPSILH
 70
     0
  9
$DIMSCALE
 40
1.0
  9
$DIMASZ
 40
0.18
  9
$DIMEXO
 40
0.0625
  9
$DIMDLI
 40
0.38
  9
$DIMRND
 40
0.0
  9
$DIMDLE
 40
0.0
  9
$DIMEXE
 40
0.18
  9
$DIMTP
 40
0.0
  9
$DIMTM
 40
0.0
  9
$DIMTXT
 40
0.18
  9
$DIMCEN
 40
0.09
  9
$DIMTSZ
 40
0.0
  9
$DIMTOL
 70
     0
  9
$DIMLIM
 70
     0
  9
$DIMTIH
 70
     1
  9
$DIMTOH
 70
     1
  9
$DIMSE1
 70
     0
  9
$DIMSE2
 70
     0
  9
$DIMTAD
 70
     0
  9
$DIMZIN
 70
     0
  9
$DIMBLK
  1

  9
$DIMASO
 70
     1
  9
$DIMSHO
 70
     1
  9
$DIMPOST
  1

  9
$DIMAPOST
  1

  9
$DIMALT
 70
     0
  9
$DIMALTD
 70
     2
  9
$DIMALTF
 40
25.4
  9
$DIMLFAC
 40
1.0
  9
$DIMTOFL
 70
     0
  9
$DIMTVP
 40
0.0
  9
$DIMTIX
 70
     0
  9
$DIMSOXD
 70
     0
  9
$DIMSAH
 70
     0
  9
$DIMBLK1
  1

  9
$DIMBLK2
  1

  9
$DIMSTYLE
  2
Standard
  9
$DIMCLRD
 70
     0
  9
$DIMCLRE
 70
     0
  9
$DIMCLRT
 70
     0
  9
$DIMTFAC
 40
1.0
  9
$DIMGAP
 40
0.09
  9
$DIMJUST
 70
     0
  9
$DIMSD1
 70
     0
  9
$DIMSD2
 70
     0
  9
$DIMTOLJ
 70
     1
  9
$DIMTZIN
 70
     0
  9
$DIMALTZ
 70
     0
  9
$DIMALTTZ
 70
     0
  9
$DIMUPT
 70
     0
  9
$DIMDEC
 70
     4
  9
$DIMTDEC
 70
     4
  9
$DIMALTU
 70
     2
  9
$DIMALTTD
 70
     2
  9
$DIMTXSTY
  7
Standard
  9
$DIMAUNIT
 70
     0
  9
$DIMADEC
 70
     0
  9
$DIMALTRND
 40
0.0
  9
$DIMAZIN
 70
     0
  9
$DIMDSEP
 70
    46
  9
$DIMATFIT
 70
     3
  9
$DIMFRAC
 70
     0
  9
$DIMLDRBLK
  1

  9
$DIMLUNIT
 70
     2
  9
$DIMLWD
 70
    -2
  9
$DIMLWE
 70
    -2
  9
$DIMTMOVE
 70
     0
  9
$DIMFXL
 40
1.0
  9
$DIMFXLON
 70
     0
  9
$DIMJOGANG
 40
0.7853981633974483
  9
$DIMTFILL
 70
     0
  9
$DIMTFILLCLR
 70
     0
  9
$DIMARCSYM
 70
     0
  9
$DIMLTYPE
  6

  9
$DIMLTEX1
  6

  9
$DIMLTEX2
  6

  9
$DIMTXTDIRECTION
 70
     0
  9
$LUNITS
 70
     2
  9
$LUPREC
 70
     4
  9
$SKETCHINC
 40
0.1
  9
$FILLETRAD
 40
0.5
  9
$AUNITS
 70
     0
  9
$AUPREC
 70
     0
  9
$MENU
  1
.
  9
$ELEVATION
 40
0.0
  9
$PELEVATION
 40
0.0
  9
$THICKNESS
 40
0.0
  9
$LIMCHECK
 70
     0
  9
$CHAMFERA
 40
0.0
  9
$CHAMFERB
 40
0.0
  9
$CHAMFERC
 40
0.0
  9
$CHAMFERD
 40
0.0
  9
$SKPOLY
 70
     0
  9
$TDCREATE
 40
2458168.892271505
  9
$TDUCREATE
 40
2458168.850604838
  9
$TDUPDATE
 40
2458168.892271678
  9
$TDUUPDATE
 40
2458168.850605011
  9
$TDINDWG
 40
0.0000000116
  9
$TDUSRTIMER
 40
0.0000000116
  9
$USRTIMER
 70
     1
  9
$ANGBASE
 50
0.0
  9
$ANGDIR
 70
     0
  9
$PDMODE
 70
     0
  9
$PDSIZE
 40
0.0
  9
$PLINEWID
 40
0.0
  9
$SPLFRAME
 70
     0
  9
$SPLINETYPE
 70
     6
  9
$SPLINESEGS
 70
     8
  9
$HANDSEED
  5
1B2
  9
$SURFTAB1
 70
     6
  9
$SURFTAB2
 70
     6
  9
$SURFTYPE
 70
     6
  9
$SURFU
 70
     6
  9
$SURFV
 70
     6
  9
$UCSBASE
  2

  9
$UCSNAME
  2

  9
$UCSORG
 10
0.0
 20
0.0
 30
0.0
  9
$UCSXDIR
 10
1.0
 20
0.0
 30
0.0
  9
$UCSYDIR
 10
0.0
 20
1.0
 30
0.0
  9
$UCSORTHOREF
  2

  9
$UCSORTHOVIEW
 70
     0
  9
$UCSORGTOP
 10
0.0
 20
0.0
 30
0.0
  9
$UCSORGBOTTOM
 10
0.0
 20
0.0
 30
0.0
  9
$UCSORGLEFT
 10
0.0
 20
0.0
 30
0.0
  9
$UCSORGRIGHT
 10
0.0
 20
0.0
 30
0.0
  9
$UCSORGFRONT
 10
0.0
 20
0.0
 30
0.0
  9
$UCSORGBACK
 10
0.0
 20
0.0
 30
0.0
  9
$PUCSBASE
  2

  9
$PUCSNAME
  2

  9
$PUCSORG
 10
0.0
 20
0.0
 30
0.0
  9
$PUCSXDIR
 10
1.0
 20
0.0
 30
0.0
  9
$PUCSYDIR
 10
0.0
 20
1.0
 30
0.0
  9
$PUCSORTHOREF
  2

  9
$PUCSORTHOVIEW
 70
     0
  9
$PUCSORGTOP
 10
0.0
 20
0.0
 30
0.0
  9
$PUCSORGBOTTOM
 10
0.0
 20
0.0
 30
0.0
  9
$PUCSORGLEFT
 10
0.0
 20
0.0
 30
0.0
  9
$PUCSORGRIGHT
 10
0.0
 20
0.0
 30
0.0
  9
$PUCSORGFRONT
 10
0.0
 20
0.0
 30
0.0
  9
$PUCSORGBACK
 10
0.0
 20
0.0
 30
0.0
  9
$USERI1
 70
     0
  9
$USERI2
 70
     0
  9
$USERI3
 70
     0
  9
$USERI4
 70
     0
  9
$USERI5
 70
     0
  9
$USERR1
 40
0.0
  9
$USERR2
 40
0.0
  9
$USERR3
 40
0.0
  9
$USERR4
 40
0.0
  9
$USERR5
 40
0.0
  9
$WORLDVIEW
 70
     1
  9
$SHADEDGE
 70
     3
  9
$SHADEDIF
 70
    70
  9
$TILEMODE
 70
     1
  9
$MAXACTVP
 70
    64
  9
$PINSBASE
 10
0.0
 20
0.0
 30
0.0
  9
$PLIMCHECK
 70
     0
  9
$PEXTMIN
 10
1.000000000000000E+20
 20
1.000000000000000E+20
 30
1.000000000000000E+20
  9
$PEXTMAX
 10
-1.000000000000000E+20
 20
-1.000000000000000E+20
 30
-1.000000000000000E+20
  9
$PLIMMIN
 10
0.0
 20
0.0
  9
$PLIMMAX
 10
12.0
 20
9.0
  9
$UNITMODE
 70
     0
  9
$VISRETAIN
 70
     1
  9
$PLINEGEN
 70
     0
  9
$PSLTSCALE
 70
     1
  9
$TREEDEPTH
 70
  3020
  9
$CMLSTYLE
  2
Standard
  9
$CMLJUST
 70
     0
  9
$CMLSCALE
 40
1.0
  9
$PROXYGRAPHICS
 70
     1
  9
$MEASUREMENT
 70
     0
  9
$CELWEIGHT
370
    -1
  9
$ENDCAPS
280
     0
  9
$JOINSTYLE
280
     0
  9
$LWDISPLAY
290
     0
  9
$INSUNITS
 70
     1
  9
$HYPERLINKBASE
  1

  9
$STYLESHEET
  1

  9
$XEDIT
290
     1
  9
$CEPSNTYPE
380
     0
  9
$PSTYLEMODE
290
     1
  9
$FINGERPRINTGUID
  2
{B3BBFAC8-BC10-4375-AA24-61A22FF4E4B9}
  9
$VERSIONGUID
  2
{FAEB1C32-E019-11D5-929B-00C0DF256EC4}
  9
$EXTNAMES
290
     1
  9
$PSVPSCALE
 40
0.0
  9
$OLESTARTUP
290
     0
  9
$SORTENTS
280
   127
  9
$INDEXCTL
280
     0
  9
$HIDETEXT
280
     1
  9
$XCLIPFRAME
280
     2
  9
$HALOGAP
280
     0
  9
$OBSCOLOR
 70
   257
  9
$OBSLTYPE
280
     0
  9
$INTERSECTIONDISPLAY
280
     0
  9
$INTERSECTIONCOLOR
 70
   257
  9
$DIMASSOC
280
     2
  9
$PROJECTNAME
  1

  9
$CAMERADISPLAY
290
     0
  9
$LENSLENGTH
 40
50.0
  9
$CAMERAHEIGHT
 40
0.0
  9
$STEPSPERSEC
 40
2.0
  9
$STEPSIZE
 40
6.0
  9
$3DDWFPREC
 40
2.0
  9
$PSOLWIDTH
 40
0.25
  9
$PSOLHEIGHT
 40
4.0
  9
$LOFTANG1
 40
1.570796326794897
  9
$LOFTANG2
 40
1.570796326794897
  9
$LOFTMAG1
 40
0.0
  9
$LOFTMAG2
 40
0.0
  9
$LOFTPARAM
 70
     7
  9
$LOFTNORMALS
280
     1
  9
$LATITUDE
 40
37.795
  9
$LONGITUDE
 40
-122.394
  9
$NORTHDIRECTION
 40
0.0
  9
$TIMEZONE
 70
 -8000
  9
$LIGHTGLYPHDISPLAY
280
     1
  9
$TILEMODELIGHTSYNCH
280
     1
  9
$CMATERIAL
347
44
  9
$SOLIDHIST
280
     0
  9
$SHOWHIST
280
     1
  9
$DWFFRAME
280
     2
  9
$DGNFRAME
280
     2
  9
$REALWORLDSCALE
290
     1
  9
$INTERFERECOLOR
 62
   256
  9
$CSHADOW
280
     0
  9
$SHADOWPLANELOCATION
 40
0.0
  0
ENDSEC
  0
SECTION
  2
CLASSES
  0
CLASS
  1
ACDBDICTIONARYWDFLT
  2
AcDbDictionaryWithDefault
  3
ObjectDBX Classes
 90
        0
 91
        4
280
     0
281
     0
  0
CLASS
  1
VISUALSTYLE
  2
AcDbVisualStyle
  3
ObjectDBX Classes
 90
     4095
 91
        4
280
     0
281
     0
  0
CLASS
  1
MATERIAL
  2
AcDbMaterial
  3
ObjectDBX Classes
 90
     1153
 91
        4
280
     0
281
     0
  0
CLASS
  1
SCALE
  2
AcDbScale
  3
ObjectDBX Classes
 90
     1153
 91
        4
280
     0
281
     0
  0
CLASS
  1
TABLESTYLE
  2
AcDbTableStyle
  3
ObjectDBX Classes
 90
     4095
 91
        4
280
     0
281
     0
  0
CLASS
  1
MLEADERSTYLE
  2
AcDbMLeaderStyle
  3
ACDB_MLEADERSTYLE_CLASS
 90
     4095
 91
        4
280
     0
281
     0
  0
CLASS
  1
SUN
  2
AcDbSun
  3
SCENEOE
 90
     1153
 91
        4
280
     0
281
     0
  0
CLASS
  1
DICTIONARYVAR
  2
AcDbDictionaryVar
  3
ObjectDBX Classes
 90
        0
 91
        4
280
     0
281
     0
  0
CLASS
  1
CELLSTYLEMAP
  2
AcDbCellStyleMap
  3
ObjectDBX Classes
 90
     1152
 91
        4
280
     0
281
     0
  0
ENDSEC
  0
SECTION
  2
TABLES
  0
TABLE
  2
VPORT
  5
8
330
0
100
AcDbSymbolTable
 70
     1
  0
VPORT
  5
29
330
8
100
AcDbSymbolTableRecord
100
AcDbViewportTableRecord
  2
*Active
 70
     0
 10
0.0
 20
0.0
 11
1.0
 21
1.0
 12
-0.1699999868869781
 22
0.0
 13
0.0
 23
0.0
 14
0.5
 24
0.5
 15
0.5
 25
0.5
 16
0.0
 26
0.0
 36
1.0
 17
0.0
 27
0.0
 37
0.0
 40
4.212599999999999
 41
0.7728813722116322
 42
50.0
 43
0.0
 44
0.0
 50
0.0
 51
0.0
 71
     0
 72
   100
 73
     1
 74
     3
 75
     0
 76
     0
 77
     0
 78
     0
281
     0
 65
     1
110
0.0
120
0.0
130
0.0
111
1.0
121
0.0
131
0.0
112
0.0
122
1.0
132
0.0
 79
     0
146
0.0
348
2F
 60
     3
 61
     5
292
     1
282
     1
141
0.0
142
0.0
 63
   250
361
6D
  0
ENDTAB
  0
TABLE
  2
LTYPE
  5
5
330
0
100
AcDbSymbolTable
 70
     3
  0
LTYPE
  5
14
330
5
100
AcDbSymbolTableRecord
100
AcDbLinetypeTableRecord
  2
ByBlock
 70
     0
  3

 72
    65
 73
     0
 40
0.0
  0
LTYPE
  5
15
330
5
100
AcDbSymbolTableRecord
100
AcDbLinetypeTableRecord
  2
ByLayer
 70
     0
  3

 72
    65
 73
     0
 40
0.0
  0
LTYPE
  5
16
330
5
100
AcDbSymbolTableRecord
100
AcDbLinetypeTableRecord
  2
Continuous
 70
     0
  3
Solid line
 72
    65
 73
     0
 40
0.0
  0
LTYPE
  5
A0
330
5
100
AcDbSymbolTableRecord
100
AcDbLinetypeTableRecord
  2
Dashed
 70
     0
  3

 72
    65
 73
     2
 40
2.0
 49
1.0
 74
     0
 49
-1.0
 74
     0
  0
LTYPE
  5
12F
330
5
100
AcDbSymbolTableRecord
100
AcDbLinetypeTableRecord
  2
Center
 70
     0
  3

 72
    65
 73
     4
 40
1.5
 49
0.45
 74
     0
 49
-0.5
 74
     0
 49
0.05
 74
     0
 49
-0.5
 74
     0
  0
ENDTAB
  0
TABLE
  2
LAYER
  5
2
330
0
100
AcDbSymbolTable
 70
     7
  0
LAYER
  5
10
330
2
100
AcDbSymbolTableRecord
100
AcDbLayerTableRecord
  2
0
 70
     0
 62
     7
  6
Continuous
370
    -3
390
F
347
46
348
0
  0
LAYER
  5
72
330
2
100
AcDbSymbolTableRecord
100
AcDbLayerTableRecord
  2
AM_6
 70
     0
 62
    -2
  6
Continuous
370
    35
390
F
347
46
348
0
  0
LAYER
  5
A1
330
2
100
AcDbSymbolTableRecord
100
AcDbLayerTableRecord
  2
AM_9
 70
     0
 62
     6
  6
Dashed
370
    25
390
F
347
46
348
0
  0
LAYER
  5
12C
330
2
100
AcDbSymbolTableRecord
100
AcDbLayerTableRecord
  2
AM_5
 70
     0
 62
     3
  6
Continuous
370
    25
390
F
347
46
348
0
  0
LAYER
  5
130
330
2
100
AcDbSymbolTableRecord
100
AcDbLayerTableRecord
  2
AM_7
 70
     0
 62
     7
  6
Center
370
    25
390
F
347
46
348
0
  0
LAYER
  5
132
330
2
100
AcDbSymbolTableRecord
100
AcDbLayerTableRecord
  2
AM_4
 70
     0
 62
     7
  6
Continuous
370
    50
390
F
347
46
348
0
  0
LAYER
  5
1A4
330
2
100
AcDbSymbolTableRecord
100
AcDbLayerTableRecord
  2
ConnectionPoints
 70
     0
 62
     7
  6
Continuous
370
    50
390
F
347
46
348
0
  0
ENDTAB
  0
TABLE
  2
STYLE
  5
3
330
0
100
AcDbSymbolTable
 70
     1
  0
STYLE
  5
11
330
3
100
AcDbSymbolTableRecord
100
AcDbTextStyleTableRecord
  2
Standard
 70
     0
 40
0.0
 41
1.0
 50
0.0
 71
     0
 42
0.2
  3
txt
  4

  0
ENDTAB
  0
TABLE
  2
VIEW
  5
6
330
0
100
AcDbSymbolTable
 70
     0
  0
ENDTAB
  0
TABLE
  2
UCS
  5
7
330
0
100
AcDbSymbolTable
 70
     0
  0
ENDTAB
  0
TABLE
  2
APPID
  5
9
330
0
100
AcDbSymbolTable
 70
     1
  0
APPID
  5
12
330
9
100
AcDbSymbolTableRecord
100
AcDbRegAppTableRecord
  2
ACAD
 70
     0
  0
ENDTAB
  0
TABLE
  2
DIMSTYLE
  5
A
330
0
100
AcDbSymbolTable
 70
     1
100
AcDbDimStyleTable
  0
DIMSTYLE
105
27
330
A
100
AcDbSymbolTableRecord
100
AcDbDimStyleTableRecord
  2
Standard
 70
     0
178
     0
340
11
  0
ENDTAB
  0
TABLE
  2
BLOCK_RECORD
  5
1
330
0
100
AcDbSymbolTable
 70
     5
  0
BLOCK_RECORD
  5
1F
330
1
100
AcDbSymbolTableRecord
100
AcDbBlockTableRecord
  2
*Model_Space
340
22
 70
     0
280
     1
281
     0
  0
BLOCK_RECORD
  5
1B
330
1
100
AcDbSymbolTableRecord
100
AcDbBlockTableRecord
  2
*Paper_Space
340
1E
 70
     0
280
     1
281
     0
  0
BLOCK_RECORD
  5
23
330
1
100
AcDbSymbolTableRecord
100
AcDbBlockTableRecord
  2
*Paper_Space0
340
26
 70
     0
280
     1
281
     0
  0
BLOCK_RECORD
  5
6E
330
1
100
AcDbSymbolTableRecord
100
AcDbBlockTableRecord
  2
1_136836_2
340
0
102
{BLKREFS
331
6F
102
}
 70
     0
280
     1
281
     0
  0
BLOCK_RECORD
  5
8E
330
1
100
AcDbSymbolTableRecord
100
AcDbBlockTableRecord
  2
2_405020c_Inch_0_in_136836_2
340
0
102
{BLKREFS
331
8F
102
}
 70
     0
280
     1
281
     0
  0
BLOCK_RECORD
  5
EA
330
1
100
AcDbSymbolTableRecord
100
AcDbBlockTableRecord
  2
3_127821_0_in_136836_2
340
0
102
{BLKREFS
331
EB
102
}
 70
     0
280
     1
281
     0
  0
BLOCK_RECORD
  5
148
330
1
100
AcDbSymbolTableRecord
100
AcDbBlockTableRecord
  2
4_136836H_0_in_136836_2
340
0
102
{BLKREFS
331
149
102
}
 70
     0
280
     1
281
     0
  0
ENDTAB
  0
ENDSEC
  0
SECTION
  2
BLOCKS
  0
BLOCK
  5
20
330
1F
100
AcDbEntity
  8
0
100
AcDbBlockBegin
  2
*Model_Space
 70
     0
 10
0.0
 20
0.0
 30
0.0
  3
*Model_Space
  1

  0
ENDBLK
  5
21
330
1F
100
AcDbEntity
  8
0
100
AcDbBlockEnd
  0
BLOCK
  5
1C
330
1B
100
AcDbEntity
 67
     1
  8
0
100
AcDbBlockBegin
  2
*Paper_Space
 70
     0
 10
0.0
 20
0.0
 30
0.0
  3
*Paper_Space
  1

  0
ENDBLK
  5
1D
330
1B
100
AcDbEntity
 67
     1
  8
0
100
AcDbBlockEnd
  0
BLOCK
  5
24
330
23
100
AcDbEntity
  8
0
100
AcDbBlockBegin
  2
*Paper_Space0
 70
     0
 10
0.0
 20
0.0
 30
0.0
  3
*Paper_Space0
  1

  0
ENDBLK
  5
25
330
23
100
AcDbEntity
  8
0
100
AcDbBlockEnd
  0
BLOCK
  5
70
330
6E
100
AcDbEntity
  8
0
100
AcDbBlockBegin
  2
1_136836_2
 70
     2
 10
0.0
 20
0.0
 30
0.0
  3
1_136836_2
  1

  0
ATTDEF
  5
73
330
6E
100
AcDbEntity
  8
AM_6
100
AcDbText
 10
6.426000046730041
 20
2.065
 30
0.0
 40
0.5
  1
Set Screw Narrow Slot Take Up Inch Bore - Stainless Housing, Stainless Steel Insert
100
AcDbAttributeDefinition
  3

  2
NN
 70
     8
280
     0
  0
ATTDEF
  5
74
330
6E
100
AcDbEntity
  8
AM_6
100
AcDbText
 10
6.426000046730041
 20
1.565
 30
0.0
 40
0.5
  1
SC Take-Up Bearings -Wide Slot -(Normal Duty) -Polymer Housed -Corrosion Resistant Insert -E-Z KLEEN
100
AcDbAttributeDefinition
  3

  2
NT
 70
     8
280
     0
  0
ATTDEF
  5
75
330
6E
100
AcDbEntity
  8
AM_6
100
AcDbText
 10
6.426000046730041
 20
1.065
 30
0.0
 40
0.5
  1
136836
100
AcDbAttributeDefinition
  3

  2
NB
 70
     8
280
     0
  0
ATTDEF
  5
76
330
6E
100
AcDbEntity
  8
AM_6
100
AcDbText
 10
6.426000046730041
 20
0.565
 30
0.0
 40
0.5
  1
$PN.
100
AcDbAttributeDefinition
  3

  2
NBSYN
 70
     8
280
     0
  0
ATTDEF
  5
77
330
6E
100
AcDbEntity
  8
AM_6
100
AcDbText
 10
6.426000046730041
 20
0.0649999999999999
 30
0.0
 40
0.5
  1
136836
100
AcDbAttributeDefinition
  3

  2
LINA
 70
     8
280
     0
  0
ATTDEF
  5
78
330
6E
100
AcDbEntity
  8
AM_6
100
AcDbText
 10
6.426000046730041
 20
-0.4350000000000001
 30
0.0
 40
0.5
  1
206
100
AcDbAttributeDefinition
  3

  2
SERIES
 70
     8
280
     0
  0
ATTDEF
  5
79
330
6E
100
AcDbEntity
  8
AM_6
100
AcDbText
 10
6.426000046730041
 20
-0.935
 30
0.0
 40
0.5
  1
1-1/4
100
AcDbAttributeDefinition
  3

  2
SS
 70
     8
280
     0
  0
ATTDEF
  5
7A
330
6E
100
AcDbEntity
  8
AM_6
100
AcDbText
 10
6.426000046730041
 20
-1.435
 30
0.0
 40
0.5
  1
136836
100
AcDbAttributeDefinition
  3

  2
PN
 70
     8
280
     0
  0
ATTDEF
  5
7B
330
6E
100
AcDbEntity
  8
AM_6
100
AcDbText
 10
6.426000046730041
 20
-1.935
 30
0.0
 40
0.5
  1
NSTU-SCEZ-104S-SHSS
100
AcDbAttributeDefinition
  3

  2
DESCRIPTION
 70
     8
280
     0
  0
ATTDEF
  5
7C
330
6E
100
AcDbEntity
  8
AM_6
100
AcDbText
 10
6.426000046730041
 20
-2.435
 30
0.0
 40
0.5
  1
2.51
100
AcDbAttributeDefinition
  3

  2
W
 70
     8
280
     0
  0
ATTDEF
  5
7D
330
6E
100
AcDbEntity
  8
AM_6
100
AcDbText
 10
6.426000046730041
 20
-2.935
 30
0.0
 40
0.5
  1
NS308
100
AcDbAttributeDefinition
  3

  2
FS
 70
     8
280
     0
  0
ATTDEF
  5
7E
330
6E
100
AcDbEntity
  8
AM_6
100
AcDbText
 10
6.426000046730041
 20
-3.435
 30
0.0
 40
0.5
  1
1.52
100
AcDbAttributeDefinition
  3

  2
A
 70
     8
280
     0
  0
ATTDEF
  5
7F
330
6E
100
AcDbEntity
  8
AM_6
100
AcDbText
 10
6.426000046730041
 20
-3.935
 30
0.0
 40
0.5
  1
4.50
100
AcDbAttributeDefinition
  3

  2
B
 70
     8
280
     0
  0
ATTDEF
  5
80
330
6E
100
AcDbEntity
  8
AM_6
100
AcDbText
 10
6.426000046730041
 20
-4.435
 30
0.0
 40
0.5
  1
0.265
100
AcDbAttributeDefinition
  3

  2
C
 70
     8
280
     0
  0
ATTDEF
  5
81
330
6E
100
AcDbEntity
  8
AM_6
100
AcDbText
 10
6.426000046730041
 20
-4.935
 30
0.0
 40
0.5
  1
2.50
100
AcDbAttributeDefinition
  3

  2
D
 70
     8
280
     0
  0
ATTDEF
  5
82
330
6E
100
AcDbEntity
  8
AM_6
100
AcDbText
 10
6.426000046730041
 20
-5.435
 30
0.0
 40
0.5
  1
2.69
100
AcDbAttributeDefinition
  3

  2
E
 70
     8
280
     0
  0
ATTDEF
  5
83
330
6E
100
AcDbEntity
  8
AM_6
100
AcDbText
 10
6.426000046730041
 20
-5.935
 30
0.0
 40
0.5
  1
3/4
100
AcDbAttributeDefinition
  3

  2
F
 70
     8
280
     0
  0
ATTDEF
  5
84
330
6E
100
AcDbEntity
  8
AM_6
100
AcDbText
 10
6.426000046730041
 20
-6.435
 30
0.0
 40
0.5
  1
0.50
100
AcDbAttributeDefinition
  3

  2
G
 70
     8
280
     0
  0
ATTDEF
  5
85
330
6E
100
AcDbEntity
  8
AM_6
100
AcDbText
 10
6.426000046730041
 20
-6.935
 30
0.0
 40
0.5
  1
0.94
100
AcDbAttributeDefinition
  3

  2
H
 70
     8
280
     0
  0
ATTDEF
  5
86
330
6E
100
AcDbEntity
  8
AM_6
100
AcDbText
 10
6.426000046730041
 20
-7.435
 30
0.0
 40
0.5
  1
1.20
100
AcDbAttributeDefinition
  3

  2
J
 70
     8
280
     0
  0
ATTDEF
  5
87
330
6E
100
AcDbEntity
  8
AM_6
100
AcDbText
 10
6.426000046730041
 20
-7.935
 30
0.0
 40
0.5
  1
1.57
100
AcDbAttributeDefinition
  3

  2
L
 70
     8
280
     0
  0
ATTDEF
  5
88
330
6E
100
AcDbEntity
  8
AM_6
100
AcDbText
 10
6.426000046730041
 20
-8.435
 30
0.0
 40
0.5
  1
3.510 / 3.480
100
AcDbAttributeDefinition
  3

  2
M
 70
     8
280
     0
  0
ATTDEF
  5
89
330
6E
100
AcDbEntity
  8
AM_6
100
AcDbText
 10
6.426000046730041
 20
-8.935
 30
0.0
 40
0.5
  1
4.13
100
AcDbAttributeDefinition
  3

  2
N
 70
     8
280
     0
  0
ATTDEF
  5
8A
330
6E
100
AcDbEntity
  8
AM_6
100
AcDbText
 10
6.426000046730041
 20
-9.435
 30
0.0
 40
0.5
  1
0.32
100
AcDbAttributeDefinition
  3

  2
P
 70
     8
280
     0
  0
ATTDEF
  5
8B
330
6E
100
AcDbEntity
  8
AM_6
100
AcDbText
 10
6.426000046730041
 20
-9.935
 30
0.0
 40
0.5
  1
0.58
100
AcDbAttributeDefinition
  3

  2
R
 70
     8
280
     0
  0
ATTDEF
  5
8C
330
6E
100
AcDbEntity
  8
AM_6
100
AcDbText
 10
6.426000046730041
 20
-10.435
 30
0.0
 40
0.5
  1
0.94
100
AcDbAttributeDefinition
  3

  2
S
 70
     8
280
     0
  0
ATTDEF
  5
8D
330
6E
100
AcDbEntity
  8
AM_6
100
AcDbText
 10
6.426000046730041
 20
-10.935
 30
0.0
 40
0.5
  1
baldor
100
AcDbAttributeDefinition
  3

  2
COMPANY
 70
     8
280
     0
  0
INSERT
  5
8F
330
6E
100
AcDbEntity
  8
0
100
AcDbBlockReference
  2
2_405020c_Inch_0_in_136836_2
 10
0.0
 20
0.0
 30
0.0
  0
INSERT
  5
EB
330
6E
100
AcDbEntity
  8
0
100
AcDbBlockReference
  2
3_127821_0_in_136836_2
 10
0.0
 20
0.0
 30
0.0
  0
INSERT
  5
149
330
6E
100
AcDbEntity
  8
0
100
AcDbBlockReference
  2
4_136836H_0_in_136836_2
 10
0.0
 20
0.0
 30
0.0
  0
ENDBLK
  5
71
330
6E
100
AcDbEntity
  8
0
100
AcDbBlockEnd
  0
BLOCK
  5
90
330
8E
100
AcDbEntity
  8
0
100
AcDbBlockBegin
  2
2_405020c_Inch_0_in_136836_2
 70
     2
 10
0.0
 20
0.0
 30
0.0
  3
2_405020c_Inch_0_in_136836_2
  1

  0
ATTDEF
  5
92
330
8E
100
AcDbEntity
  8
AM_6
100
AcDbText
 10
5.162408630723042
 20
-0.7145929446502035
 30
0.0
 40
0.5
  1
405020C -Inch
100
AcDbAttributeDefinition
  3

  2
NN
 70
     8
280
     0
  0
ATTDEF
  5
93
330
8E
100
AcDbEntity
  8
AM_6
100
AcDbText
 10
5.162408630723042
 20
-1.214592944650204
 30
0.0
 40
0.5
  1
Grease fitting
100
AcDbAttributeDefinition
  3

  2
NT
 70
     8
280
     0
  0
ATTDEF
  5
94
330
8E
100
AcDbEntity
  8
AM_6
100
AcDbText
 10
5.162408630723042
 20
-1.714592944650204
 30
0.0
 40
0.5
  1
405020c-Inch
100
AcDbAttributeDefinition
  3

  2
NB
 70
     8
280
     0
  0
ATTDEF
  5
95
330
8E
100
AcDbEntity
  8
AM_6
100
AcDbText
 10
5.162408630723042
 20
-2.214592944650204
 30
0.0
 40
0.5
  1
$MN.-Inch
100
AcDbAttributeDefinition
  3

  2
NBSYN
 70
     8
280
     0
  0
ATTDEF
  5
96
330
8E
100
AcDbEntity
  8
AM_6
100
AcDbText
 10
5.162408630723042
 20
-2.714592944650204
 30
0.0
 40
0.5
  1
405020c
100
AcDbAttributeDefinition
  3

  2
LINA
 70
     8
280
     0
  0
ATTDEF
  5
97
330
8E
100
AcDbEntity
  8
AM_6
100
AcDbText
 10
5.162408630723042
 20
-3.214592944650204
 30
0.0
 40
0.5
  1
405020c
100
AcDbAttributeDefinition
  3

  2
MN
 70
     8
280
     0
  0
ATTDEF
  5
98
330
8E
100
AcDbEntity
  8
AM_6
100
AcDbText
 10
5.162408630723042
 20
-3.714592944650204
 30
0.0
 40
0.5
  1
0.230
100
AcDbAttributeDefinition
  3

  2
NDR
 70
     8
280
     0
  0
ATTDEF
  5
99
330
8E
100
AcDbEntity
  8
AM_6
100
AcDbText
 10
5.162408630723042
 20
-4.214592944650203
 30
0.0
 40
0.5
  1
0.210
100
AcDbAttributeDefinition
  3

  2
KDR
 70
     8
280
     0
  0
ATTDEF
  5
9A
330
8E
100
AcDbEntity
  8
AM_6
100
AcDbText
 10
5.162408630723042
 20
-4.714592944650203
 30
0.0
 40
0.5
  1
0.157
100
AcDbAttributeDefinition
  3

  2
BZE
 70
     8
280
     0
  0
ATTDEF
  5
9B
330
8E
100
AcDbEntity
  8
AM_6
100
AcDbText
 10
5.162408630723042
 20
-5.214592944650203
 30
0.0
 40
0.5
  1
9/32
100
AcDbAttributeDefinition
  3

  2
WAF
 70
     8
280
     0
  0
ATTDEF
  5
9C
330
8E
100
AcDbEntity
  8
AM_6
100
AcDbText
 10
5.162408630723042
 20
-5.714592944650203
 30
0.0
 40
0.5
  1
0.2813
100
AcDbAttributeDefinition
  3

  2
WAF1
 70
     8
280
     0
  0
ATTDEF
  5
9D
330
8E
100
AcDbEntity
  8
AM_6
100
AcDbText
 10
5.162408630723042
 20
-6.214592944650203
 30
0.0
 40
0.5
  1
0.545
100
AcDbAttributeDefinition
  3

  2
BL
 70
     8
280
     0
  0
ATTDEF
  5
9E
330
8E
100
AcDbEntity
  8
AM_6
100
AcDbText
 10
5.162408630723042
 20
-6.714592944650203
 30
0.0
 40
0.5
  1
0.200
100
AcDbAttributeDefinition
  3

  2
TL
 70
     8
280
     0
  0
ATTDEF
  5
9F
330
8E
100
AcDbEntity
  8
AM_6
100
AcDbText
 10
5.162408630723042
 20
-7.214592944650203
 30
0.0
 40
0.5
  1
baldor
100
AcDbAttributeDefinition
  3

  2
COMPANY
 70
     8
280
     0
  0
ELLIPSE
  5
A2
330
8E
100
AcDbEntity
  8
AM_9
100
AcDbEllipse
 10
-0.0000000000000001
 20
-1.0775
 30
0.0
 11
-0.08080642971672804
 21
9.895933550311655E-18
 31
0.0
210
0.0
220
0.0
230
1.0
 40
0.8660254037844377
 41
0.0
 42
6.283185307179586
  0
LWPOLYLINE
  5
A3
330
8E
100
AcDbEntity
  8
AM_9
100
AcDbPolyline
 90
       15
 70
     0
 43
0.0
 10
-0.0569313498779143
 20
-1.145103087264992
 10
-0.053418651682631
 20
-1.147026257328587
 10
-0.0437524258314237
 20
-1.151507368490603
 10
-0.0336115778568922
 20
-1.155077606624159
 10
-0.0231035839038701
 20
-1.157696705092411
 10
-0.0123398732751616
 20
-1.159334648522041
 10
-0.0014344246797838
 20
-1.15997172462644
 10
0.0094973938878132
 20
-1.159598429213441
 10
0.0203394334625306
 20
-1.15821541496947
 10
0.0309756206758232
 20
-1.15583361294264
 10
0.0412914550587051
 20
-1.152474228526632
 10
0.0511743057587976
 20
-1.148169062325244
 10
0.0605145158331042
 20
-1.142960919037369
 10
0.0692068410682018
 20
-1.13690396806109
 10
0.0696503279549201
 20
-1.136558273704344
  0
LWPOLYLINE
  5
A4
330
8E
100
AcDbEntity
  8
AM_9
100
AcDbPolyline
 90
        3
 70
     0
 43
0.0
 10
-0.0697628329494485
 20
-1.136469956351617
 10
-0.0625083249671726
 20
-1.141684449757423
 10
-0.0569313498779143
 20
-1.145103087264992
  0
ELLIPSE
  5
A5
330
8E
100
AcDbEntity
  8
AM_9
100
AcDbEllipse
 10
-0.0000000000000001
 20
-1.069884139106116
 30
0.0
 11
0.1038190510530389
 21
0.0
 31
0.0
210
0.0
220
0.0
230
1.0
 40
0.8660254037844365
 41
4.132016182867122
 42
5.447998744451954
  0
ELLIPSE
  5
A6
330
8E
100
AcDbEntity
  8
AM_9
100
AcDbEllipse
 10
0.0000000000000052
 20
-1.06988413910613
 30
0.0
 11
0.1038190510530465
 21
1.547024414733746E-9
 31
0.0
210
0.0
220
0.0
230
1.0
 40
0.8660254037842972
 41
3.975223055438862
 42
4.132016168668915
  0
ELLIPSE
  5
A7
330
8E
100
AcDbEntity
  8
AM_9
100
AcDbEllipse
 10
-0.0000000000000001
 20
-1.069884139106116
 30
0.0
 11
0.1038190510530389
 21
0.0
 31
0.0
210
0.0
220
0.0
230
1.0
 40
0.8660254037844398
 41
5.457205996177247
 42
10.25075727177172
  0
LINE
  5
A8
330
8E
100
AcDbEntity
  8
AM_9
100
AcDbLine
 10
0.0703724241776372
 20
-1.135986998028307
 30
0.0
 11
0.0894418265240917
 21
-1.120761180726839
 31
0.0
  0
LINE
  5
A9
330
8E
100
AcDbEntity
  8
AM_9
100
AcDbLine
 10
-0.089441826524092
 20
-1.120761180726839
 30
0.0
 11
-0.0703724241776375
 21
-1.135986998028307
 31
0.0
  0
ELLIPSE
  5
AA
330
8E
100
AcDbEntity
  8
AM_9
100
AcDbEllipse
 10
-0.0000000000004387
 20
-1.036745879145054
 30
0.0
 11
0.13195176466702
 21
1.966234515115917E-9
 31
0.0
210
0.0
220
0.0
230
1.0
 40
0.8660254037756825
 41
3.967571949706629
 42
3.985072624540819
  0
ELLIPSE
  5
AB
330
8E
100
AcDbEntity
  8
AM_9
100
AcDbEllipse
 10
0.000000000000001
 20
-1.036745879143068
 30
0.0
 11
0.1319517646676788
 21
0.0
 31
0.0
210
0.0
220
0.0
230
1.0
 40
0.8660254037844415
 41
5.612048173168541
 42
10.14725931064814
  0
ELLIPSE
  5
AC
330
8E
100
AcDbEntity
  8
AM_9
100
AcDbEllipse
 10
0.0000000000000047
 20
-1.036745879143076
 30
0.0
 11
0.1319517646676731
 21
0.0
 31
0.0
210
0.0
220
0.0
230
1.0
 40
0.8660254037844252
 41
5.457205996177257
 42
5.60073556232365
  0
ELLIPSE
  5
AD
330
8E
100
AcDbEntity
  8
AM_9
100
AcDbEllipse
 10
-0.0000000000000251
 20
-1.036745879143058
 30
0.0
 11
0.1319517646676455
 21
0.0
 31
0.0
210
0.0
220
0.0
230
1.0
 40
0.8660254037846142
 41
3.872046186545905
 42
3.967571964592234
  0
LWPOLYLINE
  5
AE
330
8E
100
AcDbEntity
  8
AM_9
100
AcDbPolyline
 90
        4
 70
     0
 43
0.0
 10
0.093299474423774
 20
-0.9363957921175381
 10
0.0871770302143856
 20
-0.9314254697504911
 10
0.0773901547964767
 20
-0.92461670644581
 10
0.0761137657841371
 20
-0.9238194442542316
  0
LWPOLYLINE
  5
AF
330
8E
100
AcDbEntity
  8
AM_9
100
AcDbPolyline
 90
       11
 70
     0
 43
0.0
 10
0.1359265219950579
 20
-1.026977600930837
 10
0.1356542073789282
 20
-1.019086699827928
 10
0.1343254592253149
 20
-1.007891875224318
 10
0.1319068978139525
 20
-0.9968748308721996
 10
0.1284222095846283
 20
-0.9861201733408383
 10
0.1239006493711068
 20
-0.9757080718280109
 10
0.118377097408007
 20
-0.9657162224643304
 10
0.1118923148336565
 20
-0.9562200823423452
 10
0.1044934280938472
 20
-0.9472929011570509
 10
0.096234502668666
 20
-0.9390054582386389
 10
0.0940186042950021
 20
-0.9370207105322308
  0
LWPOLYLINE
  5
B0
330
8E
100
AcDbEntity
  8
AM_9
100
AcDbPolyline
 90
       21
 70
     0
 43
0.0
 10
-0.0907704125571585
 20
-0.9342689264794376
 10
-0.0944770702008712
 20
-0.9374239383162961
 10
-0.1030829902773392
 20
-0.9457672412011168
 10
-0.1108042870304316
 20
-0.9547975734200593
 10
-0.1175741123867151
 20
-0.9644309773481649
 10
-0.1233367754149533
 20
-0.9745778234654962
 10
-0.128048255787047
 20
-0.985144722271659
 10
-0.1316761283645985
 20
-0.9960363775095316
 10
-0.1341990019548076
 20
-1.007157202942828
 10
-0.1356056351354546
 20
-1.018412599161352
 10
-0.1358939030428305
 20
-1.029709858365951
 10
-0.1350697682370957
 20
-1.040958715810536
 10
-0.1331471126447575
 20
-1.05206830983491
 10
-0.1301468256098234
 20
-1.062953103878743
 10
-0.1260955903758991
 20
-1.0735316896386
 10
-0.1210256998033274
 20
-1.08372527634631
 10
-0.1149751758661904
 20
-1.093457401445101
 10
-0.1079881636087937
 20
-1.10265379219214
 10
-0.1001154843178092
 20
-1.111242485504776
 10
-0.0914151850817358
 20
-1.119154270066837
 10
-0.0876440146129681
 20
-1.122171480391704
  0
LWPOLYLINE
  5
B1
330
8E
100
AcDbEntity
  8
AM_9
100
AcDbPolyline
 90
        3
 70
     0
 43
0.0
 10
-0.0757414934854279
 20
-0.923590569589041
 10
-0.0850634326478091
 20
-0.9298442025613058
 10
-0.0890873410972046
 20
-0.9329119746776184
  0
LWPOLYLINE
  5
B2
330
8E
100
AcDbEntity
  8
AM_9
100
AcDbPolyline
 90
       12
 70
     0
 43
0.0
 10
0.0880799603950242
 20
-1.121834068373274
 10
0.090266056314491
 20
-1.120097675644059
 10
0.0992515635730701
 20
-1.112094672855745
 10
0.1073864655507708
 20
-1.10336861412369
 10
0.1145991448093417
 20
-1.094000261535223
 10
0.1208287060422056
 20
-1.08407688272269
 10
0.1260257654147881
 20
-1.073690385566557
 10
0.1301526372800026
 20
-1.062935412274576
 10
0.1331829773348707
 20
-1.051907596856897
 10
0.1351010242632527
 20
-1.040702124882819
 10
0.135885555887517
 20
-1.030039509078971
 10
0.1359265219950579
 20
-1.026977600930837
  0
ELLIPSE
  5
B3
330
8E
100
AcDbEntity
  8
AM_9
100
AcDbEllipse
 10
-0.0000000000000001
 20
-1.036745879143069
 30
0.0
 11
0.1319517646676802
 21
0.0
 31
0.0
210
0.0
220
0.0
230
1.0
 40
0.8660254037844388
 41
3.985072639351165
 42
5.443968158865697
  0
ELLIPSE
  5
B4
330
8E
100
AcDbEntity
  8
AM_9
100
AcDbEllipse
 10
0.0000000000005768
 20
-1.036745879140821
 30
0.0
 11
0.1319517646668175
 21
0.0
 31
0.0
210
0.0
220
0.0
230
1.0
 40
0.8660254038000965
 41
-0.8392171483212927
 42
-0.8259793110098759
  0
ELLIPSE
  5
B5
330
8E
100
AcDbEntity
  8
AM_9
100
AcDbEllipse
 10
-0.0000000000000005
 20
-0.9383333333333326
 30
0.0
 11
0.1406499999999996
 21
0.0
 31
0.0
210
0.0
220
0.0
230
1.0
 40
0.8660254037844375
 41
1.570796326794897
 42
2.617993877991496
  0
LWPOLYLINE
  5
B6
330
8E
100
AcDbEntity
  8
AM_9
100
AcDbPolyline
 90
        3
 70
     0
 43
0.0
 10
-0.1218064730422814
 20
-0.8774300968121925
 10
-0.1015053942019012
 20
-0.8462090408203876
 10
-0.081204315361521
 20
-0.8136117565257289
  0
LWPOLYLINE
  5
B7
330
8E
100
AcDbEntity
  8
AM_9
100
AcDbPolyline
 90
        3
 70
     0
 43
0.0
 10
-0.081204315361521
 20
-0.8136117565257289
 10
-0.0407847159147456
 20
-0.8157506250129626
 10
-0.0000000000000001
 20
-0.8165268602910519
  0
LWPOLYLINE
  5
B8
330
8E
100
AcDbEntity
  8
AM_9
100
AcDbPolyline
 90
        3
 70
     0
 43
0.0
 10
0.0812043153615208
 20
-0.8136117565257289
 10
0.1014141150849085
 20
-0.8460653245980442
 10
0.1218064730422812
 20
-0.8774300968121925
  0
LWPOLYLINE
  5
B9
330
8E
100
AcDbEntity
  8
AM_9
100
AcDbPolyline
 90
        4
 70
     0
 43
0.0
 10
-0.0000000000000001
 20
-0.8165268602910519
 10
0.0311508759219515
 20
-0.8160702319908691
 10
0.062301751843903
 20
-0.814760961072926
 10
0.0812043153615208
 20
-0.8136117565257289
  0
LINE
  5
BA
330
8E
100
AcDbEntity
  8
AM_9
100
AcDbLine
 10
0.0812043153615208
 20
-0.8136117565257289
 30
0.0
 11
0.0812043153615208
 21
-0.7861086307230417
 31
0.0
  0
LINE
  5
BB
330
8E
100
AcDbEntity
  8
AM_9
100
AcDbLine
 10
-0.081204315361521
 20
-0.8136117565257289
 30
0.0
 11
-0.081204315361521
 21
-0.7861086307230417
 31
0.0
  0
ELLIPSE
  5
BC
330
8E
100
AcDbEntity
  8
AM_9
100
AcDbEllipse
 10
-0.0000000000000005
 20
-1.01641214438732
 30
0.0
 11
0.1312419113468909
 21
0.0
 31
0.0
210
0.0
220
0.0
230
1.0
 40
0.866025403784439
 41
0.0
 42
2.201405349610304
  0
LINE
  5
BD
330
8E
100
AcDbEntity
  8
AM_9
100
AcDbLine
 10
-0.0585918508151908
 20
-0.9127316656062959
 30
0.0
 11
-0.0773850548368752
 21
-0.9246134818893877
 31
0.0
  0
LINE
  5
BE
330
8E
100
AcDbEntity
  8
AM_9
100
AcDbLine
 10
0.077385054836875
 20
-0.9246134818893877
 30
0.0
 11
0.0585918508151906
 21
-0.9127316656062959
 31
0.0
  0
ELLIPSE
  5
BF
330
8E
100
AcDbEntity
  8
AM_9
100
AcDbEllipse
 10
-0.0000000000000001
 20
-0.9822367341166286
 30
0.0
 11
0.09936940028726636
 21
0.0
 31
0.0
210
0.0
220
0.0
230
1.0
 40
0.8660254037844352
 41
0.8930248868561286
 42
2.201405349610306
  0
ELLIPSE
  5
C0
330
8E
100
AcDbEntity
  8
AM_9
100
AcDbEllipse
 10
-0.0000000000000001
 20
-1.01641214438732
 30
0.0
 11
0.1312419113468906
 21
0.0
 31
0.0
210
0.0
220
0.0
230
1.0
 40
0.8660254037844385
 41
2.201405349610307
 42
6.283185307179586
  0
LWPOLYLINE
  5
C1
330
8E
100
AcDbEntity
  8
AM_9
100
AcDbPolyline
 90
        3
 70
     0
 43
0.0
 10
-0.081204315361521
 20
-0.7861086307230417
 10
-0.1014141150849087
 20
-0.8142844618208895
 10
-0.1218064730422814
 20
-0.8440967634788592
  0
LWPOLYLINE
  5
C2
330
8E
100
AcDbEntity
  8
AM_9
100
AcDbPolyline
 90
        3
 70
     0
 43
0.0
 10
-0.0000000000000001
 20
-0.7831935269577186
 10
-0.0406021576807605
 20
-0.7839629646889531
 10
-0.081204315361521
 20
-0.7861086307230417
  0
LWPOLYLINE
  5
C3
330
8E
100
AcDbEntity
  8
AM_9
100
AcDbPolyline
 90
        3
 70
     0
 43
0.0
 10
0.1218064730422812
 20
-0.8440967634788592
 10
0.101505394201901
 20
-0.8144145829495235
 10
0.0812043153615208
 20
-0.7861086307230417
  0
LWPOLYLINE
  5
C4
330
8E
100
AcDbEntity
  8
AM_9
100
AcDbPolyline
 90
        4
 70
     0
 43
0.0
 10
0.0812043153615208
 20
-0.7861086307230417
 10
0.062301751843903
 20
-0.7849594261758446
 10
0.0312428256208203
 20
-0.7836528228238548
 10
-0.0000000000000001
 20
-0.7831935269577186
  0
ELLIPSE
  5
C5
330
8E
100
AcDbEntity
  8
AM_9
100
AcDbEllipse
 10
-0.0000000000000001
 20
-0.9539936080434476
 30
0.0
 11
-0.1093294505797714
 21
1.338899617050557E-17
 31
0.0
210
0.0
220
0.0
230
1.0
 40
0.866025403784439
 41
0.0
 42
6.283185307179586
  0
ELLIPSE
  5
C6
330
8E
100
AcDbEntity
  8
AM_9
100
AcDbEllipse
 10
-0.0000000000000009
 20
-0.9822367341166297
 30
0.0
 11
0.09936940028726707
 21
0.0
 31
0.0
210
0.0
220
0.0
230
1.0
 40
0.8660254037844425
 41
0.0
 42
0.5861368486519761
  0
LWPOLYLINE
  5
C7
330
8E
100
AcDbEntity
  8
AM_9
100
AcDbPolyline
 90
       40
 70
     0
 43
0.0
 10
0.0946847896390987
 20
-0.9716712775731111
 10
0.09460190233782
 20
-0.9747851789006655
 10
0.0936139050170127
 20
-0.982838437422222
 10
0.0915149646948065
 20
-0.9907897264775329
 10
0.0883520825842267
 20
-0.9984891647778517
 10
0.0841941867792741
 20
-1.005832445102007
 10
0.0791101223258367
 20
-1.012749596975226
 10
0.0731633926916422
 20
-1.01918495892535
 10
0.0664163789215127
 20
-1.025084559777195
 10
0.0589357638808683
 20
-1.030392427613509
 10
0.0507961846199548
 20
-1.035051687057912
 10
0.0420818986123906
 20
-1.039007361058892
 10
0.0328869432970872
 20
-1.042209405460627
 10
0.0233142702456561
 20
-1.044615402084287
 10
0.0134742088644699
 20
-1.046192727455328
 10
0.0034825020915153
 20
-1.046920165655438
 10
-0.0065419224972294
 20
-1.046788983381807
 10
-0.016479163871847
 20
-1.045803516974027
 10
-0.0262101544233591
 20
-1.043981464014617
 10
-0.0356206870439619
 20
-1.041353326720819
 10
-0.0446028625532599
 20
-1.03796154158025
 10
-0.0530573982408332
 20
-1.033859059096433
 10
-0.0608956727805511
 20
-1.029107285307689
 10
-0.0680413157379416
 20
-1.023773329887847
 10
-0.0744310711873574
 20
-1.017926538776502
 10
-0.0800145658453563
 20
-1.01163438211286
 10
-0.0847525102046948
 20
-1.004957979488593
 10
-0.0886128178836647
 20
-0.9979479900917768
 10
-0.091564335474655
 20
-0.9906424730603209
 10
-0.0935688378696285
 20
-0.9830698042861286
 10
-0.0945746100217556
 20
-0.9752611935609244
 10
-0.094519514644754
 20
-0.9672750282489808
 10
-0.0933526751585723
 20
-0.9592238729918781
 10
-0.0910798572737207
 20
-0.9513039072673235
 10
-0.087753379794732
 20
-0.9436554384728498
 10
-0.0834432072550297
 20
-0.9363760676835272
 10
-0.0782173062616566
 20
-0.9295322136437868
 10
-0.0721386184837191
 20
-0.9231786944231818
 10
-0.065269879943364
 20
-0.9173697269546444
 10
-0.0591188524990848
 20
-0.9130672717583309
  0
LWPOLYLINE
  5
C8
330
8E
100
AcDbEntity
  8
AM_9
100
AcDbPolyline
 90
       11
 70
     0
 43
0.0
 10
0.0593816976533381
 20
-0.9132364772940362
 10
0.0620842941365578
 20
-0.9150492663576255
 10
0.0691132032720256
 20
-0.9204697190460839
 10
0.075377347163898
 20
-0.9263920000809632
 10
0.0808282899717065
 20
-0.9327493503081093
 10
0.0854282125427427
 20
-0.9394820697403962
 10
0.0891456589680404
 20
-0.946541451579744
 10
0.0919489026841658
 20
-0.9538913679839184
 10
0.0937978701292187
 20
-0.961504144091814
 10
0.0946385825342555
 20
-0.969346123383869
 10
0.0946847896390987
 20
-0.9716712775731111
  0
ELLIPSE
  5
C9
330
8E
100
AcDbEntity
  8
AM_9
100
AcDbEllipse
 10
0.0000000000000002
 20
-0.9822367341166259
 30
0.0
 11
0.09936940028726593
 21
0.0
 31
0.0
210
0.0
220
0.0
230
1.0
 40
0.8660254037844412
 41
3.475180200022088
 42
6.283185307179586
  0
ELLIPSE
  5
CA
330
8E
100
AcDbEntity
  8
AM_9
100
AcDbEllipse
 10
-0.0000000000000005
 20
-0.9822367341166286
 30
0.0
 11
0.09936940028726586
 21
0.0
 31
0.0
210
0.0
220
0.0
230
1.0
 40
0.8660254037844385
 41
2.582294900156257
 42
3.475180200022065
  0
LWPOLYLINE
  5
CB
330
8E
100
AcDbEntity
  8
AM_9
100
AcDbPolyline
 90
        3
 70
     0
 43
0.0
 10
0.1218064730422812
 20
-0.8774300968121925
 10
0.1421075518826614
 20
-0.9071122773415283
 10
0.1624086307230416
 20
-0.9354182295680102
  0
ELLIPSE
  5
CC
330
8E
100
AcDbEntity
  8
AM_9
100
AcDbEllipse
 10
0.0000000000000001
 20
-0.9383333333333331
 30
0.0
 11
0.1406500000000002
 21
0.0
 31
0.0
210
0.0
220
0.0
230
1.0
 40
0.866025403784439
 41
2.617993877991496
 42
4.71238898038469
  0
LWPOLYLINE
  5
CD
330
8E
100
AcDbEntity
  8
AM_9
100
AcDbPolyline
 90
        3
 70
     0
 43
0.0
 10
-0.1624086307230418
 20
-0.9354182295680102
 10
-0.1421988309996541
 20
-0.9072423984701624
 10
-0.1218064730422814
 20
-0.8774300968121925
  0
ELLIPSE
  5
CE
330
8E
100
AcDbEntity
  8
AM_9
100
AcDbEllipse
 10
-0.0000000000000001
 20
-0.938333333333333
 30
0.0
 11
0.1406500000000001
 21
0.0
 31
0.0
210
0.0
220
0.0
230
1.0
 40
0.8660254037844397
 41
4.71238898038469
 42
7.853981633974483
  0
LWPOLYLINE
  5
CF
330
8E
100
AcDbEntity
  8
AM_9
100
AcDbPolyline
 90
        3
 70
     0
 43
0.0
 10
-0.1218064730422814
 20
-0.8440967634788592
 10
-0.1421075518826616
 20
-0.8753178194706641
 10
-0.1624086307230418
 20
-0.907915103765323
  0
LWPOLYLINE
  5
D0
330
8E
100
AcDbEntity
  8
AM_9
100
AcDbPolyline
 90
        3
 70
     0
 43
0.0
 10
0.1624086307230416
 20
-0.907915103765323
 10
0.1421988309996539
 20
-0.8754615356930078
 10
0.1218064730422812
 20
-0.8440967634788592
  0
ELLIPSE
  5
D1
330
8E
100
AcDbEntity
  8
AM_9
100
AcDbEllipse
 10
-0.0000000000000004
 20
-0.905
 30
0.0
 11
0.1406500000000006
 21
0.0
 31
0.0
210
0.0
220
0.0
230
1.0
 40
0.8660254037844357
 41
5.759586531581288
 42
7.853981633974483
  0
LWPOLYLINE
  5
D2
330
8E
100
AcDbEntity
  8
AM_9
100
AcDbPolyline
 90
        3
 70
     0
 43
0.0
 10
-0.0000000000000001
 20
-1.060139806375614
 10
-0.0406021576807605
 20
-1.05937036864438
 10
-0.081204315361521
 20
-1.057224702610291
  0
LWPOLYLINE
  5
D3
330
8E
100
AcDbEntity
  8
AM_9
100
AcDbPolyline
 90
        4
 70
     0
 43
0.0
 10
0.0812043153615208
 20
-1.057224702610291
 10
0.062301751843903
 20
-1.058373907157488
 10
0.0312428256208203
 20
-1.059680510509478
 10
-0.0000000000000001
 20
-1.060139806375614
  0
ELLIPSE
  5
D4
330
8E
100
AcDbEntity
  8
AM_9
100
AcDbEllipse
 10
-0.0000000000000007
 20
-0.9049999999999994
 30
0.0
 11
0.1406500000000009
 21
0.0
 31
0.0
210
0.0
220
0.0
230
1.0
 40
0.8660254037844377
 41
4.71238898038469
 42
5.759586531581284
  0
LWPOLYLINE
  5
D5
330
8E
100
AcDbEntity
  8
AM_9
100
AcDbPolyline
 90
        4
 70
     0
 43
0.0
 10
-0.0000000000000001
 20
-1.026806473042281
 10
0.0311508759219515
 20
-1.027263101342464
 10
0.062301751843903
 20
-1.028572372260407
 10
0.0812043153615208
 20
-1.029721576807604
  0
LINE
  5
D6
330
8E
100
AcDbEntity
  8
AM_9
100
AcDbLine
 10
0.1624086307230416
 20
-0.9354182295680102
 30
0.0
 11
0.1624086307230416
 21
-0.907915103765323
 31
0.0
  0
LWPOLYLINE
  5
D7
330
8E
100
AcDbEntity
  8
AM_9
100
AcDbPolyline
 90
        3
 70
     0
 43
0.0
 10
0.1218064730422812
 20
-0.9659032365211405
 10
0.1421075518826614
 20
-0.9362210559918048
 10
0.1624086307230416
 20
-0.907915103765323
  0
LWPOLYLINE
  5
D8
330
8E
100
AcDbEntity
  8
AM_9
100
AcDbPolyline
 90
        3
 70
     0
 43
0.0
 10
0.0812043153615208
 20
-1.029721576807604
 10
0.1014141150849084
 20
-0.9972680087352891
 10
0.1218064730422812
 20
-0.9659032365211405
  0
LINE
  5
D9
330
8E
100
AcDbEntity
  8
AM_9
100
AcDbLine
 10
0.0812043153615208
 20
-1.057224702610291
 30
0.0
 11
0.0812043153615208
 21
-1.029721576807604
 31
0.0
  0
LWPOLYLINE
  5
DA
330
8E
100
AcDbEntity
  8
AM_9
100
AcDbPolyline
 90
        3
 70
     0
 43
0.0
 10
0.1218064730422812
 20
-0.9992365698544738
 10
0.101505394201901
 20
-1.02891875038381
 10
0.0812043153615208
 20
-1.057224702610291
  0
LWPOLYLINE
  5
DB
330
8E
100
AcDbEntity
  8
AM_9
100
AcDbPolyline
 90
        3
 70
     0
 43
0.0
 10
0.1624086307230416
 20
-0.9354182295680102
 10
0.1421988309996539
 20
-0.9678717976403255
 10
0.1218064730422812
 20
-0.9992365698544738
  0
LWPOLYLINE
  5
DC
330
8E
100
AcDbEntity
  8
AM_9
100
AcDbPolyline
 90
        3
 70
     0
 43
0.0
 10
-0.081204315361521
 20
-1.029721576807604
 10
-0.0407847159147456
 20
-1.027582708320371
 10
-0.0000000000000001
 20
-1.026806473042281
  0
ELLIPSE
  5
DD
330
8E
100
AcDbEntity
  8
AM_9
100
AcDbEllipse
 10
0.0000000000000008
 20
-0.9049999999999989
 30
0.0
 11
0.1406500000000016
 21
0.0
 31
0.0
210
0.0
220
0.0
230
1.0
 40
0.8660254037844358
 41
1.570796326794897
 42
4.71238898038469
  0
LINE
  5
DE
330
8E
100
AcDbEntity
  8
AM_9
100
AcDbLine
 10
-0.081204315361521
 20
-1.057224702610291
 30
0.0
 11
-0.081204315361521
 21
-1.029721576807604
 31
0.0
  0
LWPOLYLINE
  5
DF
330
8E
100
AcDbEntity
  8
AM_9
100
AcDbPolyline
 90
        3
 70
     0
 43
0.0
 10
-0.1218064730422813
 20
-0.9659032365211407
 10
-0.1015053942019011
 20
-0.9971242925129455
 10
-0.081204315361521
 20
-1.029721576807604
  0
LWPOLYLINE
  5
E0
330
8E
100
AcDbEntity
  8
AM_9
100
AcDbPolyline
 90
        3
 70
     0
 43
0.0
 10
-0.1624086307230418
 20
-0.907915103765323
 10
-0.1421988309996541
 20
-0.9360909348631709
 10
-0.1218064730422813
 20
-0.9659032365211407
  0
LINE
  5
E1
330
8E
100
AcDbEntity
  8
AM_9
100
AcDbLine
 10
-0.1624086307230418
 20
-0.9354182295680102
 30
0.0
 11
-0.1624086307230418
 21
-0.907915103765323
 31
0.0
  0
LWPOLYLINE
  5
E2
330
8E
100
AcDbEntity
  8
AM_9
100
AcDbPolyline
 90
        3
 70
     0
 43
0.0
 10
-0.1218064730422814
 20
-0.9992365698544738
 10
-0.1421075518826616
 20
-0.9680155138626689
 10
-0.1624086307230418
 20
-0.9354182295680102
  0
LWPOLYLINE
  5
E3
330
8E
100
AcDbEntity
  8
AM_9
100
AcDbPolyline
 90
        3
 70
     0
 43
0.0
 10
-0.081204315361521
 20
-1.057224702610291
 10
-0.1014141150849087
 20
-1.029048871512444
 10
-0.1218064730422814
 20
-0.9992365698544738
  0
LINE
  5
E4
330
8E
100
AcDbEntity
  8
AM_9
100
AcDbLine
 10
-0.1102543821984237
 20
-0.8049877976204061
 30
0.0
 11
-0.1161732495740079
 21
-0.8995461110290122
 31
0.0
  0
LINE
  5
E5
330
8E
100
AcDbEntity
  8
AM_9
100
AcDbLine
 10
0.1161732495740077
 20
-0.8995461110290123
 30
0.0
 11
0.1102543821984235
 21
-0.8049877976204062
 31
0.0
  0
ELLIPSE
  5
E6
330
8E
100
AcDbEntity
  8
AM_9
100
AcDbEllipse
 10
-0.0000000000000001
 20
-0.8101638184451656
 30
0.0
 11
0.1104162595939891
 21
1.645330482631760E-9
 31
0.0
210
0.0
220
0.0
230
1.0
 40
0.8660254037844428
 41
0.0541557433666062
 42
3.087436875835636
  0
ELLIPSE
  5
E7
330
8E
100
AcDbEntity
  8
AM_9
100
AcDbEllipse
 10
-0.0000000000000002
 20
-0.8101638184451655
 30
0.0
 11
0.1104162595939892
 21
0.0
 31
0.0
210
0.0
220
0.0
230
1.0
 40
0.8660254037844464
 41
3.08743689302941
 42
6.337341067739968
  0
ELLIPSE
  5
E8
330
8E
100
AcDbEntity
  8
AM_9
100
AcDbEllipse
 10
-0.0000000000000001
 20
-0.8049999999999998
 30
0.0
 11
-0.1000886227036577
 21
1.225732114251015E-17
 31
0.0
210
0.0
220
0.0
230
1.0
 40
0.8660254037844394
 41
0.0
 42
6.283185307179586
  0
ELLIPSE
  5
E9
330
8E
100
AcDbEntity
  8
AM_9
100
AcDbEllipse
 10
0.0000000000000177
 20
-0.9049999999998767
 30
0.0
 11
0.1163438171532593
 21
0.0
 31
0.0
210
0.0
220
0.0
230
1.0
 40
0.8660254037843909
 41
0.0
 42
6.283185307179586
  0
ENDBLK
  5
91
330
8E
100
AcDbEntity
  8
0
100
AcDbBlockEnd
  0
BLOCK
  5
EC
330
EA
100
AcDbEntity
  8
0
100
AcDbBlockBegin
  2
3_127821_0_in_136836_2
 70
     2
 10
0.0
 20
0.0
 30
0.0
  3
3_127821_0_in_136836_2
  1

  0
ATTDEF
  5
EE
330
EA
100
AcDbEntity
  8
AM_6
100
AcDbText
 10
5.58
 20
1.219718908979784
 30
0.0
 40
0.5
  1
Set Screw Insert Inch Bore - Stainless Steel
100
AcDbAttributeDefinition
  3

  2
NN
 70
     8
280
     0
  0
ATTDEF
  5
EF
330
EA
100
AcDbEntity
  8
AM_6
100
AcDbText
 10
5.58
 20
0.7197189089797837
 30
0.0
 40
0.5
  1
SC Medium Duty Bearing Inserts
100
AcDbAttributeDefinition
  3

  2
NT
 70
     8
280
     0
  0
ATTDEF
  5
F0
330
EA
100
AcDbEntity
  8
AM_6
100
AcDbText
 10
5.58
 20
0.2197189089797837
 30
0.0
 40
0.5
  1
127821
100
AcDbAttributeDefinition
  3

  2
NB
 70
     8
280
     0
  0
ATTDEF
  5
F1
330
EA
100
AcDbEntity
  8
AM_6
100
AcDbText
 10
5.58
 20
-0.2802810910202163
 30
0.0
 40
0.5
  1
$PN.
100
AcDbAttributeDefinition
  3

  2
NBSYN
 70
     8
280
     0
  0
ATTDEF
  5
F2
330
EA
100
AcDbEntity
  8
AM_6
100
AcDbText
 10
5.58
 20
-0.7802810910202163
 30
0.0
 40
0.5
  1
127821
100
AcDbAttributeDefinition
  3

  2
LINA
 70
     8
280
     0
  0
ATTDEF
  5
F3
330
EA
100
AcDbEntity
  8
AM_6
100
AcDbText
 10
5.58
 20
-1.280281091020216
 30
0.0
 40
0.5
  1
206
100
AcDbAttributeDefinition
  3

  2
SERIES
 70
     8
280
     0
  0
ATTDEF
  5
F4
330
EA
100
AcDbEntity
  8
AM_6
100
AcDbText
 10
5.58
 20
-1.780281091020216
 30
0.0
 40
0.5
  1
1-1/4
100
AcDbAttributeDefinition
  3

  2
SS
 70
     8
280
     0
  0
ATTDEF
  5
F5
330
EA
100
AcDbEntity
  8
AM_6
100
AcDbText
 10
5.58
 20
-2.280281091020216
 30
0.0
 40
0.5
  1
127821
100
AcDbAttributeDefinition
  3

  2
PN
 70
     8
280
     0
  0
ATTDEF
  5
F6
330
EA
100
AcDbEntity
  8
AM_6
100
AcDbText
 10
5.58
 20
-2.780281091020216
 30
0.0
 40
0.5
  1
INS-SC-104S-SS
100
AcDbAttributeDefinition
  3

  2
DESCRIPTION
 70
     8
280
     0
  0
ATTDEF
  5
F7
330
EA
100
AcDbEntity
  8
AM_6
100
AcDbText
 10
5.58
 20
-3.280281091020216
 30
0.0
 40
0.5
  1
0.58
100
AcDbAttributeDefinition
  3

  2
WEIGHT
 70
     8
280
     0
  0
ATTDEF
  5
F8
330
EA
100
AcDbEntity
  8
AM_6
100
AcDbText
 10
5.58
 20
-3.780281091020216
 30
0.0
 40
0.5
  1
1.52
100
AcDbAttributeDefinition
  3

  2
A
 70
     8
280
     0
  0
ATTDEF
  5
F9
330
EA
100
AcDbEntity
  8
AM_6
100
AcDbText
 10
5.58
 20
-4.280281091020216
 30
0.0
 40
0.5
  1
0.69
100
AcDbAttributeDefinition
  3

  2
C
 70
     8
280
     0
  0
ATTDEF
  5
FA
330
EA
100
AcDbEntity
  8
AM_6
100
AcDbText
 10
5.58
 20
-4.780281091020216
 30
0.0
 40
0.5
  1
2.4409
100
AcDbAttributeDefinition
  3

  2
D
 70
     8
280
     0
  0
ATTDEF
  5
FB
330
EA
100
AcDbEntity
  8
AM_6
100
AcDbText
 10
5.58
 20
-5.280281091020216
 30
0.0
 40
0.5
  1
0.18
100
AcDbAttributeDefinition
  3

  2
J
 70
     8
280
     0
  0
ATTDEF
  5
FC
330
EA
100
AcDbEntity
  8
AM_6
100
AcDbText
 10
5.58
 20
-5.780281091020216
 30
0.0
 40
0.5
  1
1.57
100
AcDbAttributeDefinition
  3

  2
L
 70
     8
280
     0
  0
ATTDEF
  5
FD
330
EA
100
AcDbEntity
  8
AM_6
100
AcDbText
 10
5.58
 20
-6.280281091020216
 30
0.0
 40
0.5
  1
5/16 - 24
100
AcDbAttributeDefinition
  3

  2
N
 70
     8
280
     0
  0
ATTDEF
  5
FE
330
EA
100
AcDbEntity
  8
AM_6
100
AcDbText
 10
5.58
 20
-6.780281091020216
 30
0.0
 40
0.5
  1
0.58
100
AcDbAttributeDefinition
  3

  2
W
 70
     8
280
     0
  0
ATTDEF
  5
FF
330
EA
100
AcDbEntity
  8
AM_6
100
AcDbText
 10
5.58
 20
-7.280281091020216
 30
0.0
 40
0.5
  1
0.94
100
AcDbAttributeDefinition
  3

  2
Y
 70
     8
280
     0
  0
ATTDEF
  5
100
330
EA
100
AcDbEntity
  8
AM_6
100
AcDbText
 10
5.58
 20
-7.780281091020216
 30
0.0
 40
0.5
  1
baldor
100
AcDbAttributeDefinition
  3

  2
COMPANY
 70
     8
280
     0
  0
LINE
  5
101
330
EA
100
AcDbEntity
  8
AM_9
100
AcDbLine
 10
-0.5163
 20
0.6249999999999999
 30
0.0
 11
-0.5163
 21
0.7617924915141182
 31
0.0
  0
LINE
  5
102
330
EA
100
AcDbEntity
  8
AM_9
100
AcDbLine
 10
-0.7687
 20
0.7617924915141182
 30
0.0
 11
-0.7687
 21
0.625
 31
0.0
  0
LINE
  5
103
330
EA
100
AcDbEntity
  8
AM_9
100
AcDbLine
 10
-0.7687
 20
0.7617924915141182
 30
0.0
 11
-0.5163
 21
0.7617924915141182
 31
0.0
  0
LINE
  5
104
330
EA
100
AcDbEntity
  8
AM_9
100
AcDbLine
 10
-0.5163
 20
0.7617924915141182
 30
0.0
 11
-0.493092491514118
 21
0.7850000000000003
 31
0.0
  0
LINE
  5
105
330
EA
100
AcDbEntity
  8
AM_9
100
AcDbLine
 10
-0.791907508485882
 20
0.7850000000000003
 30
0.0
 11
-0.7687
 21
0.7617924915141182
 31
0.0
  0
LWPOLYLINE
  5
106
330
EA
100
AcDbEntity
  8
AM_9
100
AcDbPolyline
 90
       20
 70
     0
 43
0.0
 10
-0.7687
 20
0.625
 10
-0.766999240001592
 20
0.6246588034767252
 10
-0.7617515117048671
 20
0.6236340938754841
 10
-0.7534142877441682
 20
0.6220936739959635
 10
-0.7417620818201975
 20
0.6201221822248255
 10
-0.7275625395418491
 20
0.6180082488392115
 10
-0.7105310117737866
 20
0.6158951035387155
 10
-0.6918884165544712
 20
0.6141154416636647
 10
-0.6712187688123646
 20
0.6127995819859035
 10
-0.6505829967148249
 20
0.612179626282917
 10
-0.6290942308389111
 20
0.6122730392943988
 10
-0.6089098757425653
 20
0.613047189413368
 10
-0.5891088933001699
 20
0.6144502992713347
 10
-0.5711912723195464
 20
0.6162657662432703
 10
-0.5547788649164529
 20
0.6183797842267694
 10
-0.5409623085287116
 20
0.6204905017720406
 10
-0.5296678583760597
 20
0.6224384726086949
 10
-0.5218407503408041
 20
0.6239048120733804
 10
-0.5172864693848916
 20
0.6248015590962467
 10
-0.5163000000011636
 20
0.6249999999997651
  0
LINE
  5
107
330
EA
100
AcDbEntity
  8
AM_9
100
AcDbLine
 10
-0.9086000000000001
 20
-0.625
 30
0.0
 11
0.5485999999999999
 21
-0.625
 31
0.0
  0
LINE
  5
108
330
EA
100
AcDbEntity
  8
AM_9
100
AcDbLine
 10
0.5485999999999999
 20
0.625
 30
0.0
 11
-0.5163000000000002
 21
0.625
 31
0.0
  0
LINE
  5
109
330
EA
100
AcDbEntity
  8
AM_9
100
AcDbLine
 10
-0.7686999999999998
 20
0.625
 30
0.0
 11
-0.9086000000000001
 21
0.625
 31
0.0
  0
LINE
  5
10A
330
EA
100
AcDbEntity
  8
AM_9
100
AcDbLine
 10
0.5485999999999999
 20
-0.625
 30
0.0
 11
0.58
 21
-0.6564
 31
0.0
  0
LINE
  5
10B
330
EA
100
AcDbEntity
  8
AM_9
100
AcDbLine
 10
0.58
 20
0.6564
 30
0.0
 11
0.5485999999999999
 21
0.625
 31
0.0
  0
LINE
  5
10C
330
EA
100
AcDbEntity
  8
AM_9
100
AcDbLine
 10
-0.9086000000000001
 20
0.625
 30
0.0
 11
-0.9400000000000002
 21
0.6564
 31
0.0
  0
LINE
  5
10D
330
EA
100
AcDbEntity
  8
AM_9
100
AcDbLine
 10
-0.9400000000000002
 20
-0.6564
 30
0.0
 11
-0.9086000000000001
 21
-0.625
 31
0.0
  0
LWPOLYLINE
  5
10E
330
EA
100
AcDbEntity
  8
AM_9
100
AcDbPolyline
 90
        4
 70
     0
 43
0.0
 10
-0.7644406692122874
 20
0.2932430835413161
 10
-0.7653860094388981
 20
0.2898962820602872
 10
-0.7684399160705795
 20
0.2714535181301568
 10
-0.7686999996731834
 20
0.2641446449374861
  0
LINE
  5
10F
330
EA
100
AcDbEntity
  8
AM_9
100
AcDbLine
 10
-0.5163
 20
0.2641202981945879
 30
0.0
 11
-0.5163
 21
0.3219474185708133
 31
0.0
  0
LINE
  5
110
330
EA
100
AcDbEntity
  8
AM_9
100
AcDbLine
 10
-0.7687
 20
0.3219474185708133
 30
0.0
 11
-0.7687
 21
0.2640997749318257
 31
0.0
  0
ELLIPSE
  5
111
330
EA
100
AcDbEntity
  8
AM_9
100
AcDbEllipse
 10
-0.6424999999999997
 20
0.3219474185708127
 30
0.0
 11
0.1261999999999995
 21
0.0
 31
0.0
210
0.0
220
0.0
230
1.0
 40
0.9063077870366476
 41
5.283571795659007
 42
5.810220505269141
  0
LWPOLYLINE
  5
112
330
EA
100
AcDbEntity
  8
AM_9
100
AcDbPolyline
 90
       21
 70
     0
 43
0.0
 10
-0.7686999996731834
 20
0.2641446449374861
 10
-0.7679879790441994
 20
0.2519432328591639
 10
-0.7641486452695467
 20
0.2333151240223345
 10
-0.7568440469217471
 20
0.2147709001397893
 10
-0.7466115297027548
 20
0.1977685759002013
 10
-0.7332092656647263
 20
0.1820014724140794
 10
-0.717428303467721
 20
0.1685919943853529
 10
-0.6990184472494337
 20
0.1575313805850435
 10
-0.6794699813180216
 20
0.1498089309433495
 10
-0.6582286549319758
 20
0.1452968771618864
 10
-0.6375046346243654
 20
0.1444179456445382
 10
-0.6163184499768469
 20
0.1470446557754647
 10
-0.5966561222180556
 20
0.1528576263401213
 10
-0.5777358658883701
 20
0.1619732912863549
 10
-0.5608745930254168
 20
0.1737550299694327
 10
-0.545846405595611
 20
0.1883583501535019
 10
-0.5337035122321968
 20
0.2047905189157393
 10
-0.5243569928199483
 20
0.2232573758930748
 10
-0.5186382967593652
 20
0.2420232637191779
 10
-0.5163281644124983
 20
0.2617177346402671
 10
-0.5163000005290858
 20
0.2641259402455001
  0
LINE
  5
113
330
EA
100
AcDbEntity
  8
AM_9
100
AcDbLine
 10
-0.5178742500035816
 20
0.2820122532031181
 30
0.0
 11
-0.5206040337562974
 21
0.2933909397223278
 31
0.0
  0
LWPOLYLINE
  5
114
330
EA
100
AcDbEntity
  8
AM_9
100
AcDbPolyline
 90
        3
 70
     0
 43
0.0
 10
-0.5163000005290858
 20
0.2641259402455001
 10
-0.5175818455641596
 20
0.2802880125087914
 10
-0.5178742500035816
 20
0.2820122532031181
  0
LINE
  5
115
330
EA
100
AcDbEntity
  8
AM_9
100
AcDbLine
 10
0.5800000000000001
 20
0.2200000000000002
 30
0.0
 11
0.5800000000000001
 21
-0.2200000000000001
 31
0.0
  0
LWPOLYLINE
  5
116
330
EA
100
AcDbEntity
  8
AM_9
100
AcDbPolyline
 90
        8
 70
     0
 43
0.0
 10
-0.4972379366271531
 20
0.3024415371799203
 10
-0.5032632547473495
 20
0.2860658271896632
 10
-0.5130863324833893
 20
0.2684447178769288
 10
-0.5256979295555658
 20
0.2523114151166441
 10
-0.5418999152718716
 20
0.2370946264262543
 10
-0.5603671135796668
 20
0.2243335702691511
 10
-0.5824276316625745
 20
0.2135987568712764
 10
-0.5880579101887257
 20
0.2114836136402042
  0
LINE
  5
117
330
EA
100
AcDbEntity
  8
AM_9
100
AcDbLine
 10
-0.3750000000000001
 20
-0.7850000000000003
 30
0.0
 11
-0.3449999999999999
 21
-0.7850000000000003
 31
0.0
  0
LINE
  5
118
330
EA
100
AcDbEntity
  8
AM_9
100
AcDbLine
 10
-0.3449999999999999
 20
0.7850000000000003
 30
0.0
 11
-0.3750000000000001
 21
0.7850000000000003
 31
0.0
  0
LINE
  5
119
330
EA
100
AcDbEntity
  8
AM_9
100
AcDbLine
 10
0.3449999999999999
 20
-0.7850000000000003
 30
0.0
 11
0.3750000000000002
 21
-0.7850000000000003
 31
0.0
  0
LINE
  5
11A
330
EA
100
AcDbEntity
  8
AM_9
100
AcDbLine
 10
0.3750000000000002
 20
0.7850000000000003
 30
0.0
 11
0.3449999999999999
 21
0.7850000000000003
 31
0.0
  0
LINE
  5
11B
330
EA
100
AcDbEntity
  8
AM_9
100
AcDbLine
 10
0.5486000000000001
 20
0.2514000000000002
 30
0.0
 11
0.5486000000000001
 21
-0.2514000000000001
 31
0.0
  0
LINE
  5
11C
330
EA
100
AcDbEntity
  8
AM_9
100
AcDbLine
 10
-0.216
 20
-1.16045
 30
0.0
 11
-0.144
 21
-1.16045
 31
0.0
  0
LINE
  5
11D
330
EA
100
AcDbEntity
  8
AM_9
100
AcDbLine
 10
-0.144
 20
1.16045
 30
0.0
 11
-0.216
 21
1.16045
 31
0.0
  0
LINE
  5
11E
330
EA
100
AcDbEntity
  8
AM_9
100
AcDbLine
 10
0.3449999999999999
 20
1.143433777050512
 30
0.0
 11
0.3449999999999999
 21
-1.143433777050512
 31
0.0
  0
ARC
  5
11F
330
EA
100
AcDbEntity
  8
AM_9
100
AcDbCircle
 10
0.3090000000000002
 20
-1.143433777050512
 30
0.0
 40
0.0359999999999997
100
AcDbArc
 50
285.1223189033524
 51
0.0
  0
ARC
  5
120
330
EA
100
AcDbEntity
  8
AM_9
100
AcDbCircle
 10
0.3090000000000002
 20
1.143433777050512
 30
0.0
 40
0.0359999999999997
100
AcDbArc
 50
0.0
 51
74.87768109664765
  0
LINE
  5
121
330
EA
100
AcDbEntity
  8
AM_9
100
AcDbLine
 10
-0.3449999999999999
 20
1.143433777050513
 30
0.0
 11
-0.3449999999999999
 21
-1.143433777050513
 31
0.0
  0
ARC
  5
122
330
EA
100
AcDbEntity
  8
AM_9
100
AcDbCircle
 10
-0.3090000000000005
 20
-1.143433777050513
 30
0.0
 40
0.0359999999999994
100
AcDbArc
 50
180.0
 51
254.8776810966484
  0
ARC
  5
123
330
EA
100
AcDbEntity
  8
AM_9
100
AcDbCircle
 10
-0.3090000000000005
 20
1.143433777050513
 30
0.0
 40
0.0359999999999995
100
AcDbArc
 50
105.1223189033514
 51
180.0
  0
ARC
  5
124
330
EA
100
AcDbEntity
  8
AM_9
100
AcDbCircle
 10
0.0000000000000373
 20
-0.0000000000001628
 30
0.0
 40
1.220450000000167
100
AcDbArc
 50
100.1941295136177
 51
105.1223189033522
  0
ARC
  5
125
330
EA
100
AcDbEntity
  8
AM_9
100
AcDbCircle
 10
0.0000000000072459
 20
0.0000000000323039
 30
0.0
 40
1.220450000033046
100
AcDbArc
 50
254.8776810967143
 51
259.8058704863161
  0
LINE
  5
126
330
EA
100
AcDbEntity
  8
AM_9
100
AcDbLine
 10
-0.3183917007893956
 20
1.178187135971377
 30
0.0
 11
-0.3183917007893956
 21
-1.178187135971346
 31
0.0
  0
LINE
  5
127
330
EA
100
AcDbEntity
  8
AM_9
100
AcDbLine
 10
-0.216
 20
1.201183667263254
 30
0.0
 11
-0.216
 21
-1.201183667263223
 31
0.0
  0
ARC
  5
128
330
EA
100
AcDbEntity
  8
AM_9
100
AcDbCircle
 10
0.0000000000000003
 20
0.0000000000000027
 30
0.0
 40
1.220449999999997
100
AcDbArc
 50
74.87768109664744
 51
96.77607158936728
  0
ARC
  5
129
330
EA
100
AcDbEntity
  8
AM_9
100
AcDbCircle
 10
-0.0000000000000111
 20
0.0000000000001648
 30
0.0
 40
1.220450000000159
100
AcDbArc
 50
263.2239284106342
 51
285.122318903351
  0
LINE
  5
12A
330
EA
100
AcDbEntity
  8
AM_9
100
AcDbLine
 10
-0.1439999999999999
 20
1.211924998710729
 30
0.0
 11
-0.1439999999999999
 21
-1.211924998710726
 31
0.0
  0
LINE
  5
12B
330
EA
100
AcDbEntity
  8
AM_9
100
AcDbLine
 10
0.3183917007893959
 20
1.178187135971377
 30
0.0
 11
0.3183917007893959
 21
-1.178187135971374
 31
0.0
  0
LINE
  5
12D
330
EA
100
AcDbEntity
  8
AM_5
100
AcDbLine
 10
-0.48625
 20
0.625
 30
0.0
 11
-0.48625
 21
0.7850000000000003
 31
0.0
  0
LINE
  5
12E
330
EA
100
AcDbEntity
  8
AM_5
100
AcDbLine
 10
-0.7987500000000001
 20
0.625
 30
0.0
 11
-0.7987500000000001
 21
0.7850000000000003
 31
0.0
  0
LINE
  5
131
330
EA
100
AcDbEntity
  8
AM_7
100
AcDbLine
 10
-0.6425000000000001
 20
0.8023044336975789
 30
0.0
 11
-0.6425000000000001
 21
0.5721417056614481
 31
0.0
  0
LWPOLYLINE
  5
133
330
EA
100
AcDbEntity
  8
AM_4
100
AcDbPolyline
 90
        9
 70
     0
 43
0.0
 10
-0.6425000000000001
 20
0.3730717793187859
 10
-0.6631438542633366
 20
0.371678207364105
 10
-0.683787708526673
 20
0.3673653048634682
 10
-0.7026880718289146
 20
0.3604733385633977
 10
-0.7204128734997887
 20
0.3507588371345247
 10
-0.7357115148463876
 20
0.3387835460123036
 10
-0.7487868928887393
 20
0.3242323402065224
 10
-0.7586298710278072
 20
0.3080810616463804
 10
-0.7644406692122874
 20
0.2932430835413161
  0
ELLIPSE
  5
134
330
EA
100
AcDbEntity
  8
AM_4
100
AcDbEllipse
 10
-0.642500000000003
 20
0.3219474185708142
 30
0.0
 11
0.126200000000003
 21
0.0
 31
0.0
210
0.0
220
0.0
230
1.0
 40
0.9063077870366502
 41
5.810220505269144
 42
11.56675710283861
  0
LWPOLYLINE
  5
135
330
EA
100
AcDbEntity
  8
AM_4
100
AcDbPolyline
 90
       10
 70
     0
 43
0.0
 10
-0.5206040337562974
 20
0.2933909397223278
 10
-0.5223565281091993
 20
0.2986387576292448
 10
-0.5302217962632436
 20
0.315232830841407
 10
-0.5413924171284523
 20
0.3306478552287418
 10
-0.5552022275324445
 20
0.343909383489212
 10
-0.5718866025792944
 20
0.3552069116646124
 10
-0.5902813133235505
 20
0.3637607844427651
 10
-0.6107758280460971
 20
0.369746175589371
 10
-0.6263702141452154
 20
0.3722235210647132
 10
-0.6425000000000001
 20
0.3730717793187859
  0
LINE
  5
136
330
EA
100
AcDbEntity
  8
AM_4
100
AcDbLine
 10
-0.9400000000000002
 20
-0.7535999999999999
 30
0.0
 11
-0.9086000000000001
 21
-0.7849999999999999
 31
0.0
  0
LINE
  5
137
330
EA
100
AcDbEntity
  8
AM_4
100
AcDbLine
 10
-0.9086000000000001
 20
0.7849999999999999
 30
0.0
 11
-0.9400000000000002
 21
0.7535999999999999
 31
0.0
  0
LINE
  5
138
330
EA
100
AcDbEntity
  8
AM_4
100
AcDbLine
 10
-0.9400000000000002
 20
0.7535999999999999
 30
0.0
 11
-0.9400000000000002
 21
-0.7535999999999999
 31
0.0
  0
LINE
  5
139
330
EA
100
AcDbEntity
  8
AM_4
100
AcDbLine
 10
0.58
 20
0.7535999999999999
 30
0.0
 11
0.5486
 21
0.7849999999999999
 31
0.0
  0
LINE
  5
13A
330
EA
100
AcDbEntity
  8
AM_4
100
AcDbLine
 10
0.5486
 20
-0.7849999999999999
 30
0.0
 11
0.58
 21
-0.7535999999999999
 31
0.0
  0
LINE
  5
13B
330
EA
100
AcDbEntity
  8
AM_4
100
AcDbLine
 10
0.5800000000000001
 20
-0.2200000000000001
 30
0.0
 11
0.58
 21
-0.7535999999999999
 31
0.0
  0
LINE
  5
13C
330
EA
100
AcDbEntity
  8
AM_4
100
AcDbLine
 10
0.58
 20
0.7535999999999999
 30
0.0
 11
0.5800000000000001
 21
0.2200000000000002
 31
0.0
  0
LWPOLYLINE
  5
13D
330
EA
100
AcDbEntity
  8
AM_4
100
AcDbPolyline
 90
       35
 70
     0
 43
0.0
 10
-0.5880579101887257
 20
0.2114836136402042
 10
-0.6059759683212381
 20
0.2063041050425357
 10
-0.6318876458581847
 20
0.202555444457548
 10
-0.6580863516528261
 20
0.2029385601421146
 10
-0.6844225963661292
 20
0.2076471722673426
 10
-0.7095599557620527
 20
0.2165401858989178
 10
-0.7251319652557257
 20
0.2246425621079093
 10
-0.73967144458227
 20
0.2344165599922735
 10
-0.7528495414996794
 20
0.2456758604201462
 10
-0.7639707298444279
 20
0.2577325872774042
 10
-0.7735231895518169
 20
0.2709323217093276
 10
-0.7812401908680116
 20
0.2849874517590124
 10
-0.7885304752549189
 20
0.3053678409135245
 10
-0.7917672936869923
 20
0.3263700943589354
 10
-0.7909466961716145
 20
0.3456284820412263
 10
-0.7865808666760421
 20
0.3642520958862889
 10
-0.7789477028294344
 20
0.381474930010625
 10
-0.7683456256369642
 20
0.3972319138113131
 10
-0.7543060333513064
 20
0.4119313763494578
 10
-0.7378068480233552
 20
0.4244685749996153
 10
-0.7176111549687214
 20
0.4354368361906046
 10
-0.6956185019686556
 20
0.4435663998781962
 10
-0.6706856909133797
 20
0.4490115679285949
 10
-0.6450103370751255
 20
0.4510663036760306
 10
-0.6183945441782901
 20
0.4495680782837959
 10
-0.5924568094243534
 20
0.4444394463399229
 10
-0.5679039386886982
 20
0.4356635513791897
 10
-0.5455496247713345
 20
0.423388271710312
 10
-0.5326731987097587
 20
0.4136494876225815
 10
-0.5212115873764118
 20
0.4025440450133583
 10
-0.5114640287792638
 20
0.3902488548782734
 10
-0.5011276317032021
 20
0.3713351422956064
 10
-0.4948839598915225
 20
0.350798217923498
 10
-0.4933149185740309
 20
0.3384672463806815
 10
-0.4932552940713205
 20
0.3259524891853897
  0
LWPOLYLINE
  5
13E
330
EA
100
AcDbEntity
  8
AM_4
100
AcDbPolyline
 90
        3
 70
     0
 43
0.0
 10
-0.4932552940713205
 20
0.3259524891853897
 10
-0.4963759991158999
 20
0.305725960583553
 10
-0.4972379366271531
 20
0.3024415371799203
  0
LINE
  5
13F
330
EA
100
AcDbEntity
  8
AM_4
100
AcDbLine
 10
-0.9086000000000001
 20
-0.7850000000000003
 30
0.0
 11
-0.3750000000000001
 21
-0.7850000000000003
 31
0.0
  0
LINE
  5
140
330
EA
100
AcDbEntity
  8
AM_4
100
AcDbLine
 10
-0.3750000000000001
 20
0.7850000000000003
 30
0.0
 11
-0.493092491514118
 21
0.7850000000000003
 31
0.0
  0
LINE
  5
141
330
EA
100
AcDbEntity
  8
AM_4
100
AcDbLine
 10
-0.7919075084858822
 20
0.7850000000000003
 30
0.0
 11
-0.9086000000000001
 21
0.7850000000000003
 31
0.0
  0
LINE
  5
142
330
EA
100
AcDbEntity
  8
AM_4
100
AcDbLine
 10
-0.9086000000000001
 20
0.7850000000000003
 30
0.0
 11
-0.9086000000000001
 21
-0.7850000000000003
 31
0.0
  0
LWPOLYLINE
  5
143
330
EA
100
AcDbEntity
  8
AM_4
100
AcDbPolyline
 90
       22
 70
     0
 43
0.0
 10
-0.4930924915145382
 20
0.784999999999933
 10
-0.4946818518635572
 20
0.7847471517867646
 10
-0.4995946923603398
 20
0.7839818414788834
 10
-0.5078950991204081
 20
0.782744937392084
 10
-0.5192225210658168
 20
0.7811715953268253
 10
-0.5335458029877105
 20
0.779373492494824
 10
-0.5511275909243667
 20
0.7774618902780104
 10
-0.5712795170929631
 20
0.7756763881256433
 10
-0.5942916659045819
 20
0.7741733572787116
 10
-0.619151531618249
 20
0.7731978505748353
 10
-0.6451654734933285
 20
0.7729023856378466
 10
-0.6718330944034944
 20
0.7733708953989824
 10
-0.6972923068760201
 20
0.7745446936242819
 10
-0.7218919248966661
 20
0.7763478623195984
 10
-0.7430923749599118
 20
0.7784234910788668
 10
-0.7529292758523299
 20
0.7795488489877428
 10
-0.7618797088138634
 20
0.780661024737876
 10
-0.7755788290158652
 20
0.7825252351141209
 10
-0.7811811513884058
 20
0.7833434489783979
 10
-0.7856727997217134
 20
0.7840228767776349
 10
-0.790680049672804
 20
0.7848045002271877
 10
-0.7919075084850126
 20
0.7849999999998611
  0
LINE
  5
144
330
EA
100
AcDbEntity
  8
AM_4
100
AcDbLine
 10
0.3750000000000002
 20
-0.7850000000000003
 30
0.0
 11
0.5486
 21
-0.7850000000000003
 31
0.0
  0
LINE
  5
145
330
EA
100
AcDbEntity
  8
AM_4
100
AcDbLine
 10
0.5486
 20
0.7850000000000003
 30
0.0
 11
0.3750000000000002
 21
0.7850000000000003
 31
0.0
  0
LINE
  5
146
330
EA
100
AcDbEntity
  8
AM_4
100
AcDbLine
 10
0.5486000000000001
 20
-0.2514000000000001
 30
0.0
 11
0.5486
 21
-0.7850000000000003
 31
0.0
  0
LINE
  5
147
330
EA
100
AcDbEntity
  8
AM_4
100
AcDbLine
 10
0.5486
 20
0.7850000000000003
 30
0.0
 11
0.5486000000000001
 21
0.2514000000000002
 31
0.0
  0
ENDBLK
  5
ED
330
EA
100
AcDbEntity
  8
0
100
AcDbBlockEnd
  0
BLOCK
  5
14A
330
148
100
AcDbEntity
  8
0
100
AcDbBlockBegin
  2
4_136836H_0_in_136836_2
 70
     2
 10
0.0
 20
0.0
 30
0.0
  3
4_136836H_0_in_136836_2
  1

  0
ATTDEF
  5
14C
330
148
100
AcDbEntity
  8
AM_6
100
AcDbText
 10
6.426000046730041
 20
2.065
 30
0.0
 40
0.5
  1
NSTU-SCEZ-SHSS - Inch - housing
100
AcDbAttributeDefinition
  3

  2
NN
 70
     8
280
     0
  0
ATTDEF
  5
14D
330
148
100
AcDbEntity
  8
AM_6
100
AcDbText
 10
6.426000046730041
 20
1.565
 30
0.0
 40
0.5
  1
SC Take-Up Bearings -Wide Slot -(Normal Duty) -Polymer Housed -Corrosion Resistant Insert -E-Z KLEEN
100
AcDbAttributeDefinition
  3

  2
NT
 70
     8
280
     0
  0
ATTDEF
  5
14E
330
148
100
AcDbEntity
  8
AM_6
100
AcDbText
 10
6.426000046730041
 20
1.065
 30
0.0
 40
0.5
  1
136836H
100
AcDbAttributeDefinition
  3

  2
NB
 70
     8
280
     0
  0
ATTDEF
  5
14F
330
148
100
AcDbEntity
  8
AM_6
100
AcDbText
 10
6.426000046730041
 20
0.565
 30
0.0
 40
0.5
  1
$PN.H
100
AcDbAttributeDefinition
  3

  2
NBSYN
 70
     8
280
     0
  0
ATTDEF
  5
150
330
148
100
AcDbEntity
  8
AM_6
100
AcDbText
 10
6.426000046730041
 20
0.0649999999999999
 30
0.0
 40
0.5
  1
136836
100
AcDbAttributeDefinition
  3

  2
LINA
 70
     8
280
     0
  0
ATTDEF
  5
151
330
148
100
AcDbEntity
  8
AM_6
100
AcDbText
 10
6.426000046730041
 20
-0.4350000000000001
 30
0.0
 40
0.5
  1
206
100
AcDbAttributeDefinition
  3

  2
SERIES
 70
     8
280
     0
  0
ATTDEF
  5
152
330
148
100
AcDbEntity
  8
AM_6
100
AcDbText
 10
6.426000046730041
 20
-0.935
 30
0.0
 40
0.5
  1
1-1/4
100
AcDbAttributeDefinition
  3

  2
SS
 70
     8
280
     0
  0
ATTDEF
  5
153
330
148
100
AcDbEntity
  8
AM_6
100
AcDbText
 10
6.426000046730041
 20
-1.435
 30
0.0
 40
0.5
  1
136836
100
AcDbAttributeDefinition
  3

  2
PN
 70
     8
280
     0
  0
ATTDEF
  5
154
330
148
100
AcDbEntity
  8
AM_6
100
AcDbText
 10
6.426000046730041
 20
-1.935
 30
0.0
 40
0.5
  1
NSTU-SCEZ-104S-SHSS
100
AcDbAttributeDefinition
  3

  2
DESCRIPTION
 70
     8
280
     0
  0
ATTDEF
  5
155
330
148
100
AcDbEntity
  8
AM_6
100
AcDbText
 10
6.426000046730041
 20
-2.435
 30
0.0
 40
0.5
  1
2.51
100
AcDbAttributeDefinition
  3

  2
W
 70
     8
280
     0
  0
ATTDEF
  5
156
330
148
100
AcDbEntity
  8
AM_6
100
AcDbText
 10
6.426000046730041
 20
-2.935
 30
0.0
 40
0.5
  1
NS308
100
AcDbAttributeDefinition
  3

  2
FS
 70
     8
280
     0
  0
ATTDEF
  5
157
330
148
100
AcDbEntity
  8
AM_6
100
AcDbText
 10
6.426000046730041
 20
-3.435
 30
0.0
 40
0.5
  1
1.52
100
AcDbAttributeDefinition
  3

  2
A
 70
     8
280
     0
  0
ATTDEF
  5
158
330
148
100
AcDbEntity
  8
AM_6
100
AcDbText
 10
6.426000046730041
 20
-3.935
 30
0.0
 40
0.5
  1
4.50
100
AcDbAttributeDefinition
  3

  2
B
 70
     8
280
     0
  0
ATTDEF
  5
159
330
148
100
AcDbEntity
  8
AM_6
100
AcDbText
 10
6.426000046730041
 20
-4.435
 30
0.0
 40
0.5
  1
0.265
100
AcDbAttributeDefinition
  3

  2
C
 70
     8
280
     0
  0
ATTDEF
  5
15A
330
148
100
AcDbEntity
  8
AM_6
100
AcDbText
 10
6.426000046730041
 20
-4.935
 30
0.0
 40
0.5
  1
2.50
100
AcDbAttributeDefinition
  3

  2
D
 70
     8
280
     0
  0
ATTDEF
  5
15B
330
148
100
AcDbEntity
  8
AM_6
100
AcDbText
 10
6.426000046730041
 20
-5.435
 30
0.0
 40
0.5
  1
2.69
100
AcDbAttributeDefinition
  3

  2
E
 70
     8
280
     0
  0
ATTDEF
  5
15C
330
148
100
AcDbEntity
  8
AM_6
100
AcDbText
 10
6.426000046730041
 20
-5.935
 30
0.0
 40
0.5
  1
3/4
100
AcDbAttributeDefinition
  3

  2
F
 70
     8
280
     0
  0
ATTDEF
  5
15D
330
148
100
AcDbEntity
  8
AM_6
100
AcDbText
 10
6.426000046730041
 20
-6.435
 30
0.0
 40
0.5
  1
0.50
100
AcDbAttributeDefinition
  3

  2
G
 70
     8
280
     0
  0
ATTDEF
  5
15E
330
148
100
AcDbEntity
  8
AM_6
100
AcDbText
 10
6.426000046730041
 20
-6.935
 30
0.0
 40
0.5
  1
0.94
100
AcDbAttributeDefinition
  3

  2
H
 70
     8
280
     0
  0
ATTDEF
  5
15F
330
148
100
AcDbEntity
  8
AM_6
100
AcDbText
 10
6.426000046730041
 20
-7.435
 30
0.0
 40
0.5
  1
1.20
100
AcDbAttributeDefinition
  3

  2
J
 70
     8
280
     0
  0
ATTDEF
  5
160
330
148
100
AcDbEntity
  8
AM_6
100
AcDbText
 10
6.426000046730041
 20
-7.935
 30
0.0
 40
0.5
  1
1.57
100
AcDbAttributeDefinition
  3

  2
L
 70
     8
280
     0
  0
ATTDEF
  5
161
330
148
100
AcDbEntity
  8
AM_6
100
AcDbText
 10
6.426000046730041
 20
-8.435
 30
0.0
 40
0.5
  1
3.510 / 3.480
100
AcDbAttributeDefinition
  3

  2
M
 70
     8
280
     0
  0
ATTDEF
  5
162
330
148
100
AcDbEntity
  8
AM_6
100
AcDbText
 10
6.426000046730041
 20
-8.935
 30
0.0
 40
0.5
  1
4.13
100
AcDbAttributeDefinition
  3

  2
N
 70
     8
280
     0
  0
ATTDEF
  5
163
330
148
100
AcDbEntity
  8
AM_6
100
AcDbText
 10
6.426000046730041
 20
-9.435
 30
0.0
 40
0.5
  1
0.32
100
AcDbAttributeDefinition
  3

  2
P
 70
     8
280
     0
  0
ATTDEF
  5
164
330
148
100
AcDbEntity
  8
AM_6
100
AcDbText
 10
6.426000046730041
 20
-9.935
 30
0.0
 40
0.5
  1
0.58
100
AcDbAttributeDefinition
  3

  2
R
 70
     8
280
     0
  0
ATTDEF
  5
165
330
148
100
AcDbEntity
  8
AM_6
100
AcDbText
 10
6.426000046730041
 20
-10.435
 30
0.0
 40
0.5
  1
0.94
100
AcDbAttributeDefinition
  3

  2
S
 70
     8
280
     0
  0
ATTDEF
  5
166
330
148
100
AcDbEntity
  8
AM_6
100
AcDbText
 10
6.426000046730041
 20
-10.935
 30
0.0
 40
0.5
  1
2250
100
AcDbAttributeDefinition
  3

  2
CAPS
 70
     8
280
     0
  0
ATTDEF
  5
167
330
148
100
AcDbEntity
  8
AM_6
100
AcDbText
 10
6.426000046730041
 20
-11.435
 30
0.0
 40
0.5
  1
4368
100
AcDbAttributeDefinition
  3

  2
CAPD
 70
     8
280
     0
  0
ATTDEF
  5
168
330
148
100
AcDbEntity
  8
AM_6
100
AcDbText
 10
6.426000046730041
 20
-11.935
 30
0.0
 40
0.5
  1
baldor
100
AcDbAttributeDefinition
  3

  2
COMPANY
 70
     8
280
     0
  0
LINE
  5
169
330
148
100
AcDbEntity
  8
AM_9
100
AcDbLine
 10
-0.2425
 20
0.5575000000000001
 30
0.0
 11
-0.2425
 21
-0.5575000000000001
 31
0.0
  0
LINE
  5
16A
330
148
100
AcDbEntity
  8
AM_9
100
AcDbLine
 10
0.2424999999999999
 20
0.5575000000000001
 30
0.0
 11
0.2424999999999999
 21
-0.5575000000000001
 31
0.0
  0
LINE
  5
16B
330
148
100
AcDbEntity
  8
AM_9
100
AcDbLine
 10
-0.0795000000000001
 20
1.147121219134616
 30
0.0
 11
-0.0795000000000001
 21
1.28295
 31
0.0
  0
LINE
  5
16C
330
148
100
AcDbEntity
  8
AM_9
100
AcDbLine
 10
-0.0795000000000001
 20
1.213404133579941
 30
0.0
 11
0.3749999999999999
 21
1.213404133579941
 31
0.0
  0
LINE
  5
16D
330
148
100
AcDbEntity
  8
AM_9
100
AcDbLine
 10
0.3749999999999999
 20
1.28295
 30
0.0
 11
-0.0795000000000001
 21
1.28295
 31
0.0
  0
LINE
  5
16E
330
148
100
AcDbEntity
  8
AM_9
100
AcDbLine
 10
-0.0795000000000001
 20
-1.213404133579942
 30
0.0
 11
0.3749999999999999
 21
-1.213404133579942
 31
0.0
  0
LINE
  5
16F
330
148
100
AcDbEntity
  8
AM_9
100
AcDbLine
 10
-0.0795000000000001
 20
-1.28295
 30
0.0
 11
0.3749999999999999
 21
-1.28295
 31
0.0
  0
LINE
  5
170
330
148
100
AcDbEntity
  8
AM_9
100
AcDbLine
 10
-0.0795000000000001
 20
-1.28295
 30
0.0
 11
-0.0795000000000001
 21
-1.147121219134616
 31
0.0
  0
LINE
  5
171
330
148
100
AcDbEntity
  8
AM_9
100
AcDbLine
 10
0.3750000000000002
 20
-0.425
 30
0.0
 11
0.3750000000000002
 21
0.4250000000000001
 31
0.0
  0
LINE
  5
172
330
148
100
AcDbEntity
  8
AM_9
100
AcDbLine
 10
-0.0795000000000001
 20
1.147121219134616
 30
0.0
 11
0.3750000000000002
 21
1.147121219134617
 31
0.0
  0
LINE
  5
173
330
148
100
AcDbEntity
  8
AM_9
100
AcDbLine
 10
0.3750000000000002
 20
-1.147121219134617
 30
0.0
 11
-0.0795000000000001
 21
-1.147121219134616
 31
0.0
  0
LINE
  5
174
330
148
100
AcDbEntity
  8
AM_9
100
AcDbLine
 10
-0.3749999999999999
 20
-1.22045
 30
0.0
 11
-0.0795000000000001
 21
-1.22045
 31
0.0
  0
LINE
  5
175
330
148
100
AcDbEntity
  8
AM_9
100
AcDbLine
 10
-0.0795000000000001
 20
1.22045
 30
0.0
 11
-0.3749999999999999
 21
1.22045
 31
0.0
  0
LINE
  5
176
330
148
100
AcDbEntity
  8
AM_9
100
AcDbLine
 10
-0.3749999999999999
 20
0.425
 30
0.0
 11
-0.3749999999999999
 21
-0.425
 31
0.0
  0
LINE
  5
177
330
148
100
AcDbEntity
  8
AM_9
100
AcDbLine
 10
-0.3846153846153843
 20
-0.4153846153846153
 30
0.0
 11
-0.3846153846153843
 21
0.4153846153846153
 31
0.0
  0
LINE
  5
178
330
148
100
AcDbEntity
  8
AM_9
100
AcDbLine
 10
0.3846153846153848
 20
-0.4153846153846153
 30
0.0
 11
0.3846153846153848
 21
0.4153846153846154
 31
0.0
  0
LINE
  5
179
330
148
100
AcDbEntity
  8
AM_9
100
AcDbLine
 10
-0.5999999999999999
 20
-0.16
 30
0.0
 11
-0.3392644117087898
 21
-0.16
 31
0.0
  0
LINE
  5
17A
330
148
100
AcDbEntity
  8
AM_9
100
AcDbLine
 10
-0.3393323807048853
 20
0.16
 30
0.0
 11
-0.5999999999999999
 21
0.16
 31
0.0
  0
LINE
  5
17B
330
148
100
AcDbEntity
  8
AM_9
100
AcDbLine
 10
0.3393323807048855
 20
-0.16
 30
0.0
 11
0.6
 21
-0.16
 31
0.0
  0
LINE
  5
17C
330
148
100
AcDbEntity
  8
AM_9
100
AcDbLine
 10
0.6
 20
0.16
 30
0.0
 11
0.33926441170879
 21
0.16
 31
0.0
  0
LINE
  5
17D
330
148
100
AcDbEntity
  8
AM_7
100
AcDbLine
 10
0.0000000000000002
 20
-0.3937499999999999
 30
0.0
 11
0.0000000000000002
 21
0.3937499999999999
 31
0.0
  0
LINE
  5
17E
330
148
100
AcDbEntity
  8
AM_7
100
AcDbLine
 10
1.426000046730042
 20
0.0
 30
0.0
 11
-1.766000020503998
 21
0.0
 31
0.0
  0
LINE
  5
17F
330
148
100
AcDbEntity
  8
AM_4
100
AcDbLine
 10
0.3750000000000001
 20
1.9325
 30
0.0
 11
0.3750000000000001
 21
0.4250000000000001
 31
0.0
  0
LINE
  5
180
330
148
100
AcDbEntity
  8
AM_4
100
AcDbLine
 10
0.3750000000000001
 20
1.9325
 30
0.0
 11
0.2425
 21
2.065
 31
0.0
  0
LINE
  5
181
330
148
100
AcDbEntity
  8
AM_4
100
AcDbLine
 10
0.3750000000000001
 20
-0.425
 30
0.0
 11
0.3750000000000001
 21
-1.9325
 31
0.0
  0
LINE
  5
182
330
148
100
AcDbEntity
  8
AM_4
100
AcDbLine
 10
0.2425
 20
-2.065
 30
0.0
 11
0.3750000000000001
 21
-1.9325
 31
0.0
  0
LINE
  5
183
330
148
100
AcDbEntity
  8
AM_4
100
AcDbLine
 10
0.1325000000000001
 20
1.755
 30
0.0
 11
-0.1324999999999999
 21
1.755
 31
0.0
  0
LINE
  5
184
330
148
100
AcDbEntity
  8
AM_4
100
AcDbLine
 10
-0.2424999999999999
 20
2.065
 30
0.0
 11
-0.1324999999999999
 21
2.065
 31
0.0
  0
LINE
  5
185
330
148
100
AcDbEntity
  8
AM_4
100
AcDbLine
 10
-0.1324999999999999
 20
1.755
 30
0.0
 11
-0.1324999999999999
 21
2.065
 31
0.0
  0
LINE
  5
186
330
148
100
AcDbEntity
  8
AM_4
100
AcDbLine
 10
0.2425
 20
2.065
 30
0.0
 11
0.2425000000000001
 21
0.5575000000000001
 31
0.0
  0
LINE
  5
187
330
148
100
AcDbEntity
  8
AM_4
100
AcDbLine
 10
0.1325000000000001
 20
2.065
 30
0.0
 11
0.2425
 21
2.065
 31
0.0
  0
LINE
  5
188
330
148
100
AcDbEntity
  8
AM_4
100
AcDbLine
 10
0.1325000000000001
 20
2.065
 30
0.0
 11
0.1325000000000001
 21
1.755
 31
0.0
  0
LINE
  5
189
330
148
100
AcDbEntity
  8
AM_4
100
AcDbLine
 10
-0.2424999999999999
 20
-2.065
 30
0.0
 11
-0.1324999999999999
 21
-2.065
 31
0.0
  0
LINE
  5
18A
330
148
100
AcDbEntity
  8
AM_4
100
AcDbLine
 10
-0.1324999999999999
 20
-1.755000000000003
 30
0.0
 11
0.1325000000000001
 21
-1.755000000000003
 31
0.0
  0
LINE
  5
18B
330
148
100
AcDbEntity
  8
AM_4
100
AcDbLine
 10
-0.1324999999999999
 20
-2.065
 30
0.0
 11
-0.1324999999999999
 21
-1.755000000000003
 31
0.0
  0
LINE
  5
18C
330
148
100
AcDbEntity
  8
AM_4
100
AcDbLine
 10
0.1325000000000001
 20
-1.755000000000003
 30
0.0
 11
0.1325000000000001
 21
-2.065
 31
0.0
  0
LINE
  5
18D
330
148
100
AcDbEntity
  8
AM_4
100
AcDbLine
 10
0.1325000000000001
 20
-2.065
 30
0.0
 11
0.2425
 21
-2.065
 31
0.0
  0
LINE
  5
18E
330
148
100
AcDbEntity
  8
AM_4
100
AcDbLine
 10
0.2425
 20
-0.5575000000000001
 30
0.0
 11
0.2425
 21
-2.065
 31
0.0
  0
LINE
  5
18F
330
148
100
AcDbEntity
  8
AM_4
100
AcDbLine
 10
-0.3749999999999999
 20
-0.425
 30
0.0
 11
-0.3749999999999999
 21
-1.9325
 31
0.0
  0
LINE
  5
190
330
148
100
AcDbEntity
  8
AM_4
100
AcDbLine
 10
-0.3749999999999999
 20
-1.9325
 30
0.0
 11
-0.2424999999999999
 21
-2.065
 31
0.0
  0
LINE
  5
191
330
148
100
AcDbEntity
  8
AM_4
100
AcDbLine
 10
-0.2424999999999998
 20
-0.5575000000000001
 30
0.0
 11
-0.2424999999999999
 21
-2.065
 31
0.0
  0
LINE
  5
192
330
148
100
AcDbEntity
  8
AM_4
100
AcDbLine
 10
-0.3749999999999999
 20
1.9325
 30
0.0
 11
-0.3749999999999999
 21
0.425
 31
0.0
  0
LINE
  5
193
330
148
100
AcDbEntity
  8
AM_4
100
AcDbLine
 10
-0.2424999999999999
 20
2.065
 30
0.0
 11
-0.3749999999999999
 21
1.9325
 31
0.0
  0
LINE
  5
194
330
148
100
AcDbEntity
  8
AM_4
100
AcDbLine
 10
-0.2424999999999999
 20
2.065
 30
0.0
 11
-0.2424999999999998
 21
0.5575000000000001
 31
0.0
  0
LINE
  5
195
330
148
100
AcDbEntity
  8
AM_4
100
AcDbLine
 10
0.2425
 20
1.309045453756286
 30
0.0
 11
0.3750000000000001
 21
1.251079533842673
 31
0.0
  0
LINE
  5
196
330
148
100
AcDbEntity
  8
AM_4
100
AcDbLine
 10
0.3750000000000001
 20
-1.251079533842673
 30
0.0
 11
0.2425
 21
-1.309045453756286
 31
0.0
  0
LINE
  5
197
330
148
100
AcDbEntity
  8
AM_4
100
AcDbLine
 10
-0.2424999999999999
 20
1.309045453756286
 30
0.0
 11
0.2425
 21
1.309045453756286
 31
0.0
  0
LINE
  5
198
330
148
100
AcDbEntity
  8
AM_4
100
AcDbLine
 10
0.2425
 20
-1.309045453756286
 30
0.0
 11
-0.2424999999999999
 21
-1.309045453756286
 31
0.0
  0
LINE
  5
199
330
148
100
AcDbEntity
  8
AM_4
100
AcDbLine
 10
-0.2424999999999999
 20
-1.309045453756286
 30
0.0
 11
-0.3749999999999999
 21
-1.251079533842673
 31
0.0
  0
LINE
  5
19A
330
148
100
AcDbEntity
  8
AM_4
100
AcDbLine
 10
-0.3749999999999999
 20
1.251079533842673
 30
0.0
 11
-0.2424999999999999
 21
1.309045453756286
 31
0.0
  0
LINE
  5
19B
330
148
100
AcDbEntity
  8
AM_4
100
AcDbLine
 10
0.2000000000000003
 20
0.6
 30
0.0
 11
-0.1999999999999998
 21
0.6
 31
0.0
  0
LINE
  5
19C
330
148
100
AcDbEntity
  8
AM_4
100
AcDbLine
 10
-0.1999999999999998
 20
0.6
 30
0.0
 11
-0.5999999999999999
 21
0.2
 31
0.0
  0
LINE
  5
19D
330
148
100
AcDbEntity
  8
AM_4
100
AcDbLine
 10
-0.5999999999999999
 20
-0.2
 30
0.0
 11
-0.1999999999999998
 21
-0.6
 31
0.0
  0
LINE
  5
19E
330
148
100
AcDbEntity
  8
AM_4
100
AcDbLine
 10
0.2000000000000002
 20
-0.6
 30
0.0
 11
0.6000000000000002
 21
-0.2
 31
0.0
  0
LINE
  5
19F
330
148
100
AcDbEntity
  8
AM_4
100
AcDbLine
 10
0.6000000000000002
 20
0.2
 30
0.0
 11
0.2000000000000003
 21
0.6
 31
0.0
  0
CIRCLE
  5
1A0
330
148
100
AcDbEntity
  8
AM_4
100
AcDbCircle
 10
0.0000000000000002
 20
0.0
 30
0.0
 40
0.3749999999999999
  0
LINE
  5
1A1
330
148
100
AcDbEntity
  8
AM_4
100
AcDbLine
 10
-0.5999999999999999
 20
0.2
 30
0.0
 11
-0.5999999999999999
 21
-0.2
 31
0.0
  0
LINE
  5
1A2
330
148
100
AcDbEntity
  8
AM_4
100
AcDbLine
 10
-0.1999999999999998
 20
-0.6
 30
0.0
 11
0.2000000000000002
 21
-0.6
 31
0.0
  0
LINE
  5
1A3
330
148
100
AcDbEntity
  8
AM_4
100
AcDbLine
 10
0.6000000000000002
 20
-0.2
 30
0.0
 11
0.6000000000000002
 21
0.2
 31
0.0
  0
ENDBLK
  5
14B
330
148
100
AcDbEntity
  8
0
100
AcDbBlockEnd
  0
ENDSEC
  0
SECTION
  2
ENTITIES
  0
INSERT
  5
6F
330
1F
100
AcDbEntity
  8
0
100
AcDbBlockReference
  2
1_136836_2
 10
0.0
 20
0.0
 30
0.0
  0
POINT
  5
1A5
330
1F
100
AcDbEntity
  8
ConnectionPoints
100
AcDbPoint
 10
0.58
 20
0.0
 30
0.0
  0
POINT
  5
1A6
330
1F
100
AcDbEntity
  8
ConnectionPoints
100
AcDbPoint
 10
-0.94
 20
0.0
 30
0.0000000000000001
  0
POINT
  5
1A7
330
1F
100
AcDbEntity
  8
ConnectionPoints
100
AcDbPoint
 10
-0.0000000000000001
 20
-0.9049999999999999
 30
-1.567505980849834
  0
POINT
  5
1A8
330
1F
100
AcDbEntity
  8
ConnectionPoints
100
AcDbPoint
 10
-0.94
 20
0.0
 30
0.0000000000000001
  0
ENDSEC
  0
SECTION
  2
OBJECTS
  0
DICTIONARY
  5
C
330
0
100
AcDbDictionary
281
     1
  3
ACAD_DETAILVIEWSTYLE
350
1B0
  3
ACAD_GROUP
350
D
  3
ACAD_LAYOUT
350
1A
  3
ACAD_MATERIAL
350
43
  3
ACAD_MLEADERSTYLE
350
6B
  3
ACAD_MLINESTYLE
350
17
  3
ACAD_PLOTSETTINGS
350
19
  3
ACAD_PLOTSTYLENAME
350
E
  3
ACAD_SCALELIST
350
47
  3
ACAD_SECTIONVIEWSTYLE
350
1B1
  3
ACAD_TABLESTYLE
350
69
  3
ACAD_VISUALSTYLE
350
2A
  3
ACDB_RECOMPOSE_DATA
350
1AD
  3
AcDbVariableDictionary
350
1A9
  0
SUN
  5
6D
330
29
100
AcDbSun
 90
        1
290
     0
 63
     7
421
 16777215
 40
1.0
291
     1
 91
  2455826
 92
 54000000
292
     0
 70
     2
 71
   256
280
     1
  0
DICTIONARY
  5
1B0
102
{ACAD_REACTORS
330
C
102
}
330
C
100
AcDbDictionary
281
     1
  0
DICTIONARY
  5
D
102
{ACAD_REACTORS
330
C
102
}
330
C
100
AcDbDictionary
281
     1
  0
DICTIONARY
  5
1A
102
{ACAD_REACTORS
330
C
102
}
330
C
100
AcDbDictionary
281
     1
  3
Layout1
350
1E
  3
Layout2
350
26
  3
Model
350
22
  0
DICTIONARY
  5
43
102
{ACAD_REACTORS
330
C
102
}
330
C
100
AcDbDictionary
281
     1
  3
ByBlock
350
45
  3
ByLayer
350
44
  3
Global
350
46
  0
DICTIONARY
  5
6B
102
{ACAD_REACTORS
330
C
102
}
330
C
100
AcDbDictionary
281
     1
  3
Standard
350
6C
  0
DICTIONARY
  5
17
102
{ACAD_REACTORS
330
C
102
}
330
C
100
AcDbDictionary
281
     1
  3
Standard
350
18
  0
DICTIONARY
  5
19
102
{ACAD_REACTORS
330
C
102
}
330
C
100
AcDbDictionary
281
     1
  0
ACDBDICTIONARYWDFLT
  5
E
102
{ACAD_REACTORS
330
C
102
}
330
C
100
AcDbDictionary
281
     1
  3
Normal
350
F
100
AcDbDictionaryWithDefault
340
F
  0
DICTIONARY
  5
47
102
{ACAD_REACTORS
330
C
102
}
330
C
100
AcDbDictionary
281
     1
  3
A0
350
48
  3
A1
350
49
  3
A2
350
4A
  3
A3
350
4B
  3
A4
350
4C
  3
A5
350
4D
  3
A6
350
4E
  3
A7
350
4F
  3
A8
350
50
  3
A9
350
51
  3
B0
350
52
  3
B1
350
53
  3
B2
350
54
  3
B3
350
55
  3
B4
350
56
  3
B5
350
57
  3
B6
350
58
  3
B7
350
59
  3
B8
350
5A
  3
B9
350
5B
  3
C0
350
5C
  3
C1
350
5D
  3
C2
350
5E
  3
C3
350
5F
  3
C4
350
60
  3
C5
350
61
  3
C6
350
62
  3
C7
350
63
  3
C8
350
64
  3
C9
350
65
  3
D0
350
66
  3
D1
350
67
  3
D2
350
68
  0
DICTIONARY
  5
1B1
102
{ACAD_REACTORS
330
C
102
}
330
C
100
AcDbDictionary
281
     1
  0
DICTIONARY
  5
69
102
{ACAD_REACTORS
330
C
102
}
330
C
100
AcDbDictionary
281
     1
  3
Standard
350
6A
  0
DICTIONARY
  5
2A
102
{ACAD_REACTORS
330
C
102
}
330
C
100
AcDbDictionary
281
     1
  3
2dWireframe
350
2F
  3
Basic
350
32
  3
Brighten
350
36
  3
ColorChange
350
3A
  3
Conceptual
350
34
  3
Dim
350
35
  3
EdgeColorOff
350
3D
  3
Facepattern
350
39
  3
Flat
350
2B
  3
FlatWithEdges
350
2C
  3
Gouraud
350
2D
  3
GouraudWithEdges
350
2E
  3
Hidden
350
31
  3
JitterOff
350
3B
  3
Linepattern
350
38
  3
OverhangOff
350
3C
  3
Realistic
350
33
  3
Shaded
350
42
  3
Shaded with edges
350
41
  3
Shades of Gray
350
3E
  3
Sketchy
350
3F
  3
Thicken
350
37
  3
Wireframe
350
30
  3
X-Ray
350
40
  0
XRECORD
  5
1AD
102
{ACAD_REACTORS
330
C
102
}
330
C
100
AcDbXrecord
280
     1
 90
        1
330
6A
  0
DICTIONARY
  5
1A9
102
{ACAD_REACTORS
330
C
102
}
330
C
100
AcDbDictionary
281
     1
  3
CANNOSCALE
350
1AA
  3
CMLEADERSTYLE
350
1AF
  3
CTABLESTYLE
350
1AE
  0
LAYOUT
  5
1E
102
{ACAD_REACTORS
330
1A
102
}
330
1A
100
AcDbPlotSettings
  1

  2
none_device
  4

  6

 40
0.0
 41
0.0
 42
0.0
 43
0.0
 44
0.0
 45
0.0
 46
0.0
 47
0.0
 48
0.0
 49
0.0
140
0.0
141
0.0
142
1.0
143
1.0
 70
   688
 72
     0
 73
     0
 74
     5
  7

 75
    16
 76
     0
 77
     2
 78
   300
147
1.0
148
0.0
149
0.0
100
AcDbLayout
  1
Layout1
 70
     1
 71
     1
 10
0.0
 20
0.0
 11
12.0
 21
9.0
 12
0.0
 22
0.0
 32
0.0
 14
1.000000000000000E+20
 24
1.000000000000000E+20
 34
1.000000000000000E+20
 15
-1.000000000000000E+20
 25
-1.000000000000000E+20
 35
-1.000000000000000E+20
146
0.0
 13
0.0
 23
0.0
 33
0.0
 16
1.0
 26
0.0
 36
0.0
 17
0.0
 27
1.0
 37
0.0
 76
     0
330
1B
  0
LAYOUT
  5
26
102
{ACAD_REACTORS
330
1A
102
}
330
1A
100
AcDbPlotSettings
  1

  2
none_device
  4

  6

 40
0.0
 41
0.0
 42
0.0
 43
0.0
 44
0.0
 45
0.0
 46
0.0
 47
0.0
 48
0.0
 49
0.0
140
0.0
141
0.0
142
1.0
143
1.0
 70
   688
 72
     0
 73
     0
 74
     5
  7

 75
    16
 76
     0
 77
     2
 78
   300
147
1.0
148
0.0
149
0.0
100
AcDbLayout
  1
Layout2
 70
     1
 71
     2
 10
0.0
 20
0.0
 11
0.0
 21
0.0
 12
0.0
 22
0.0
 32
0.0
 14
0.0
 24
0.0
 34
0.0
 15
0.0
 25
0.0
 35
0.0
146
0.0
 13
0.0
 23
0.0
 33
0.0
 16
1.0
 26
0.0
 36
0.0
 17
0.0
 27
1.0
 37
0.0
 76
     0
330
23
  0
LAYOUT
  5
22
102
{ACAD_REACTORS
330
1A
102
}
330
1A
100
AcDbPlotSettings
  1

  2
none_device
  4
Letter_(8.50_x_11.00_Inches)
  6

 40
6.35
 41
6.35
 42
6.35000508
 43
6.35000508
 44
215.9
 45
279.4
 46
0.0
 47
0.0
 48
0.0
 49
0.0
140
0.0
141
0.0
142
1.0
143
1.0
 70
  1712
 72
     0
 73
     0
 74
     0
  7

 75
     0
 76
     0
 77
     2
 78
   300
147
1.0
148
0.0
149
0.0
100
AcDbLayout
  1
Model
 70
     1
 71
     0
 10
0.0
 20
0.0
 11
12.0
 21
9.0
 12
0.0
 22
0.0
 32
0.0
 14
1.000000000000000E+20
 24
1.000000000000000E+20
 34
1.000000000000000E+20
 15
-1.000000000000000E+20
 25
-1.000000000000000E+20
 35
-1.000000000000000E+20
146
0.0
 13
0.0
 23
0.0
 33
0.0
 16
1.0
 26
0.0
 36
0.0
 17
0.0
 27
1.0
 37
0.0
 76
     0
330
1F
331
29
  0
MATERIAL
  5
45
102
{ACAD_REACTORS
330
43
102
}
330
43
100
AcDbMaterial
  1
ByBlock
 72
     1
 94
      127
  0
MATERIAL
  5
44
102
{ACAD_REACTORS
330
43
102
}
330
43
100
AcDbMaterial
  1
ByLayer
 72
     1
 94
      127
  0
MATERIAL
  5
46
102
{ACAD_REACTORS
330
43
102
}
330
43
100
AcDbMaterial
  1
Global
 72
     1
 94
      127
  0
MLEADERSTYLE
  5
6C
102
{ACAD_REACTORS
330
6B
102
}
330
6B
100
AcDbMLeaderStyle
179
     2
170
     2
171
     1
172
     0
 90
        2
 40
0.0
 41
0.0
173
     1
 91
-1056964608
340
14
 92
       -2
290
     1
 42
0.09
291
     1
 43
0.36
  3
Standard
341
0
 44
0.18
300

342
11
174
     1
178
     6
175
     1
176
     0
 93
-1056964608
 45
0.18
292
     0
297
     0
 46
0.18
343
0
 94
-1056964608
 47
1.0
 49
1.0
140
1.0
293
     1
141
0.0
294
     1
177
     0
142
1.0
295
     0
296
     0
143
0.125
271
     0
272
     9
273
     9
298
     0
  0
MLINESTYLE
  5
18
102
{ACAD_REACTORS
330
17
102
}
330
17
100
AcDbMlineStyle
  2
Standard
 70
     0
  3

 62
   256
 51
90.0
 52
90.0
 71
     2
 49
0.5
 62
   256
  6
BYLAYER
 49
-0.5
 62
   256
  6
BYLAYER
  0
ACDBPLACEHOLDER
  5
F
102
{ACAD_REACTORS
330
E
102
}
330
E
  0
SCALE
  5
48
102
{ACAD_REACTORS
330
47
102
}
330
47
100
AcDbScale
 70
     0
300
1:1
140
1.0
141
1.0
290
     1
  0
SCALE
  5
49
102
{ACAD_REACTORS
330
47
102
}
330
47
100
AcDbScale
 70
     0
300
1:2
140
1.0
141
2.0
290
     0
  0
SCALE
  5
4A
102
{ACAD_REACTORS
330
47
102
}
330
47
100
AcDbScale
 70
     0
300
1:4
140
1.0
141
4.0
290
     0
  0
SCALE
  5
4B
102
{ACAD_REACTORS
330
47
102
}
330
47
100
AcDbScale
 70
     0
300
1:5
140
1.0
141
5.0
290
     0
  0
SCALE
  5
4C
102
{ACAD_REACTORS
330
47
102
}
330
47
100
AcDbScale
 70
     0
300
1:8
140
1.0
141
8.0
290
     0
  0
SCALE
  5
4D
102
{ACAD_REACTORS
330
47
102
}
330
47
100
AcDbScale
 70
     0
300
1:10
140
1.0
141
10.0
290
     0
  0
SCALE
  5
4E
102
{ACAD_REACTORS
330
47
102
}
330
47
100
AcDbScale
 70
     0
300
1:16
140
1.0
141
16.0
290
     0
  0
SCALE
  5
4F
102
{ACAD_REACTORS
330
47
102
}
330
47
100
AcDbScale
 70
     0
300
1:20
140
1.0
141
20.0
290
     0
  0
SCALE
  5
50
102
{ACAD_REACTORS
330
47
102
}
330
47
100
AcDbScale
 70
     0
300
1:30
140
1.0
141
30.0
290
     0
  0
SCALE
  5
51
102
{ACAD_REACTORS
330
47
102
}
330
47
100
AcDbScale
 70
     0
300
1:40
140
1.0
141
40.0
290
     0
  0
SCALE
  5
52
102
{ACAD_REACTORS
330
47
102
}
330
47
100
AcDbScale
 70
     0
300
1:50
140
1.0
141
50.0
290
     0
  0
SCALE
  5
53
102
{ACAD_REACTORS
330
47
102
}
330
47
100
AcDbScale
 70
     0
300
1:100
140
1.0
141
100.0
290
     0
  0
SCALE
  5
54
102
{ACAD_REACTORS
330
47
102
}
330
47
100
AcDbScale
 70
     0
300
2:1
140
2.0
141
1.0
290
     0
  0
SCALE
  5
55
102
{ACAD_REACTORS
330
47
102
}
330
47
100
AcDbScale
 70
     0
300
4:1
140
4.0
141
1.0
290
     0
  0
SCALE
  5
56
102
{ACAD_REACTORS
330
47
102
}
330
47
100
AcDbScale
 70
     0
300
8:1
140
8.0
141
1.0
290
     0
  0
SCALE
  5
57
102
{ACAD_REACTORS
330
47
102
}
330
47
100
AcDbScale
 70
     0
300
10:1
140
10.0
141
1.0
290
     0
  0
SCALE
  5
58
102
{ACAD_REACTORS
330
47
102
}
330
47
100
AcDbScale
 70
     0
300
100:1
140
100.0
141
1.0
290
     0
  0
SCALE
  5
59
102
{ACAD_REACTORS
330
47
102
}
330
47
100
AcDbScale
 70
     0
300
1/128" = 1'-0"
140
0.0078125
141
12.0
290
     0
  0
SCALE
  5
5A
102
{ACAD_REACTORS
330
47
102
}
330
47
100
AcDbScale
 70
     0
300
1/64" = 1'-0"
140
0.015625
141
12.0
290
     0
  0
SCALE
  5
5B
102
{ACAD_REACTORS
330
47
102
}
330
47
100
AcDbScale
 70
     0
300
1/32" = 1'-0"
140
0.03125
141
12.0
290
     0
  0
SCALE
  5
5C
102
{ACAD_REACTORS
330
47
102
}
330
47
100
AcDbScale
 70
     0
300
1/16" = 1'-0"
140
0.0625
141
12.0
290
     0
  0
SCALE
  5
5D
102
{ACAD_REACTORS
330
47
102
}
330
47
100
AcDbScale
 70
     0
300
3/32" = 1'-0"
140
0.09375
141
12.0
290
     0
  0
SCALE
  5
5E
102
{ACAD_REACTORS
330
47
102
}
330
47
100
AcDbScale
 70
     0
300
1/8" = 1'-0"
140
0.125
141
12.0
290
     0
  0
SCALE
  5
5F
102
{ACAD_REACTORS
330
47
102
}
330
47
100
AcDbScale
 70
     0
300
3/16" = 1'-0"
140
0.1875
141
12.0
290
     0
  0
SCALE
  5
60
102
{ACAD_REACTORS
330
47
102
}
330
47
100
AcDbScale
 70
     0
300
1/4" = 1'-0"
140
0.25
141
12.0
290
     0
  0
SCALE
  5
61
102
{ACAD_REACTORS
330
47
102
}
330
47
100
AcDbScale
 70
     0
300
3/8" = 1'-0"
140
0.375
141
12.0
290
     0
  0
SCALE
  5
62
102
{ACAD_REACTORS
330
47
102
}
330
47
100
AcDbScale
 70
     0
300
1/2" = 1'-0"
140
0.5
141
12.0
290
     0
  0
SCALE
  5
63
102
{ACAD_REACTORS
330
47
102
}
330
47
100
AcDbScale
 70
     0
300
3/4" = 1'-0"
140
0.75
141
12.0
290
     0
  0
SCALE
  5
64
102
{ACAD_REACTORS
330
47
102
}
330
47
100
AcDbScale
 70
     0
300
1" = 1'-0"
140
1.0
141
12.0
290
     0
  0
SCALE
  5
65
102
{ACAD_REACTORS
330
47
102
}
330
47
100
AcDbScale
 70
     0
300
1-1/2" = 1'-0"
140
1.5
141
12.0
290
     0
  0
SCALE
  5
66
102
{ACAD_REACTORS
330
47
102
}
330
47
100
AcDbScale
 70
     0
300
3" = 1'-0"
140
3.0
141
12.0
290
     0
  0
SCALE
  5
67
102
{ACAD_REACTORS
330
47
102
}
330
47
100
AcDbScale
 70
     0
300
6" = 1'-0"
140
6.0
141
12.0
290
     0
  0
SCALE
  5
68
102
{ACAD_REACTORS
330
47
102
}
330
47
100
AcDbScale
 70
     0
300
1'-0" = 1'-0"
140
12.0
141
12.0
290
     0
  0
TABLESTYLE
  5
6A
102
{ACAD_REACTORS
330
69
102
}
102
{ACAD_XDICTIONARY
360
1AB
102
}
330
69
100
AcDbTableStyle
  3
Standard
 70
     0
 71
     0
 40
0.06
 41
0.06
280
     0
281
     0
  7
Standard
140
0.18
170
     2
 62
     0
 63
   257
283
     0
 90
        4
 91
        0
  1

274
    -2
284
     1
 64
     0
275
    -2
285
     1
 65
     0
276
    -2
286
     1
 66
     0
277
    -2
287
     1
 67
     0
278
    -2
288
     1
 68
     0
279
    -2
289
     1
 69
     0
  7
Standard
140
0.25
170
     5
 62
     0
 63
   257
283
     0
 90
        4
 91
        0
  1

274
    -2
284
     1
 64
     0
275
    -2
285
     1
 65
     0
276
    -2
286
     1
 66
     0
277
    -2
287
     1
 67
     0
278
    -2
288
     1
 68
     0
279
    -2
289
     1
 69
     0
  7
Standard
140
0.18
170
     5
 62
     0
 63
   257
283
     0
 90
        4
 91
        0
  1

274
    -2
284
     1
 64
     0
275
    -2
285
     1
 65
     0
276
    -2
286
     1
 66
     0
277
    -2
287
     1
 67
     0
278
    -2
288
     1
 68
     0
279
    -2
289
     1
 69
     0
  0
VISUALSTYLE
  5
2F
102
{ACAD_REACTORS
330
2A
102
}
330
2A
100
AcDbVisualStyle
  2
2dWireframe
 70
     4
177
     3
291
     0
 70
    58
 90
        0
176
     1
 90
        2
176
     1
 90
        0
176
     1
 90
        0
176
     1
 40
0.6
176
     1
 40
30.0
176
     1
 62
     7
420
 16777215
176
     1
 90
        1
176
     1
 90
        4
176
     1
 62
     7
176
     1
 62
   257
176
     1
 90
        1
176
     1
 90
        1
176
     1
 40
1.0
176
     1
 90
        0
176
     1
 62
   257
176
     1
 40
1.0
176
     1
 90
        1
176
     1
 90
        6
176
     1
 90
        2
176
     1
 62
     7
176
     1
 90
        5
176
     1
 90
        0
176
     1
 90
        0
176
     1
290
     0
176
     1
 90
        1
176
     1
 40
0.0
176
     1
 90
        0
176
     1
290
     1
176
     1
290
     1
176
     1
290
     0
176
     1
290
     0
176
     1
290
     0
176
     1
290
     0
176
     1
290
     0
176
     1
290
     0
176
     1
290
     0
176
     1
 90
       50
176
     1
 40
0.0
176
     1
 40
1.0
176
     1
 90
        0
176
     1
 62
    18
420
        0
176
     1
 90
       50
176
     1
 90
        3
176
     1
 62
     5
420
      255
176
     1
290
     0
176
     1
 90
       50
176
     1
 90
       50
176
     1
 90
       50
176
     1
290
     0
176
     1
 90
       50
176
     1
 62
   256
176
     0
 40
1.0
176
     0
 90
        2
176
     1
  1
strokes_ogs.tif
176
     1
290
     0
176
     1
 40
1.0
176
     1
 40
1.0
176
     1
  0
VISUALSTYLE
  5
32
102
{ACAD_REACTORS
330
2A
102
}
330
2A
100
AcDbVisualStyle
  2
Basic
 70
     7
177
     3
291
     1
 70
    58
 90
        1
176
     1
 90
        0
176
     1
 90
        1
176
     1
 90
        0
176
     1
 40
0.6
176
     1
 40
30.0
176
     1
 62
     7
420
 16777215
176
     1
 90
        0
176
     1
 90
        4
176
     1
 62
     7
176
     1
 62
   257
176
     1
 90
        1
176
     1
 90
        1
176
     1
 40
1.0
176
     1
 90
        8
176
     1
 62
     7
176
     1
 40
1.0
176
     1
 90
        1
176
     1
 90
        6
176
     1
 90
        2
176
     1
 62
     7
176
     1
 90
        5
176
     1
 90
        0
176
     1
 90
        0
176
     1
290
     0
176
     1
 90
        1
176
     1
 40
0.0
176
     1
 90
        0
176
     1
290
     0
176
     1
290
     1
176
     1
290
     1
176
     1
290
     0
176
     1
290
     0
176
     1
290
     0
176
     1
290
     0
176
     1
290
     0
176
     1
290
     0
176
     1
 90
       50
176
     1
 40
0.0
176
     1
 40
1.0
176
     1
 90
        0
176
     1
 62
    18
420
        0
176
     1
 90
       50
176
     1
 90
        3
176
     1
 62
     5
420
      255
176
     1
290
     0
176
     1
 90
       50
176
     1
 90
       50
176
     1
 90
       50
176
     1
290
     0
176
     1
 90
       50
176
     1
 62
   256
176
     0
 40
1.0
176
     0
 90
        2
176
     1
  1
strokes_ogs.tif
176
     1
290
     0
176
     1
 40
1.0
176
     1
 40
1.0
176
     1
  0
VISUALSTYLE
  5
36
102
{ACAD_REACTORS
330
2A
102
}
330
2A
100
AcDbVisualStyle
  2
Brighten
 70
    12
177
     3
291
     1
 70
    58
 90
        2
176
     1
 90
        2
176
     1
 90
        0
176
     1
 90
        0
176
     1
 40
0.6
176
     1
 40
30.0
176
     1
 62
     7
420
 16777215
176
     1
 90
        1
176
     1
 90
        4
176
     1
 62
     7
176
     1
 62
   257
176
     1
 90
        1
176
     1
 90
        1
176
     1
 40
1.0
176
     1
 90
        8
176
     1
 62
     7
176
     1
 40
1.0
176
     1
 90
        1
176
     1
 90
        6
176
     1
 90
        2
176
     1
 62
     7
176
     1
 90
        5
176
     1
 90
        0
176
     1
 90
        0
176
     1
290
     0
176
     1
 90
        1
176
     1
 40
50.0
176
     1
 90
        0
176
     1
290
     0
176
     1
290
     1
176
     1
290
     1
176
     1
290
     0
176
     1
290
     0
176
     1
290
     0
176
     1
290
     0
176
     1
290
     0
176
     1
290
     0
176
     1
 90
       50
176
     1
 40
0.0
176
     1
 40
1.0
176
     1
 90
        0
176
     1
 62
    18
420
        0
176
     1
 90
       50
176
     1
 90
        3
176
     1
 62
     5
420
      255
176
     1
290
     0
176
     1
 90
       50
176
     1
 90
       50
176
     1
 90
       50
176
     1
290
     0
176
     1
 90
       50
176
     1
 62
   256
176
     0
 40
1.0
176
     0
 90
        2
176
     1
  1
strokes_ogs.tif
176
     1
290
     0
176
     1
 40
1.0
176
     1
 40
1.0
176
     1
  0
VISUALSTYLE
  5
3A
102
{ACAD_REACTORS
330
2A
102
}
330
2A
100
AcDbVisualStyle
  2
ColorChange
 70
    16
177
     3
291
     1
 70
    58
 90
        2
176
     1
 90
        2
176
     1
 90
        3
176
     1
 90
        0
176
     1
 40
0.6
176
     1
 40
30.0
176
     1
 62
     8
420
  8421504
176
     1
 90
        1
176
     1
 90
        4
176
     1
 62
     7
176
     1
 62
   257
176
     1
 90
        1
176
     1
 90
        1
176
     1
 40
1.0
176
     1
 90
        8
176
     1
 62
     8
420
  8421504
176
     1
 40
1.0
176
     1
 90
        1
176
     1
 90
        6
176
     1
 90
        2
176
     1
 62
     7
176
     1
 90
        5
176
     1
 90
        0
176
     1
 90
        0
176
     1
290
     0
176
     1
 90
        1
176
     1
 40
0.0
176
     1
 90
        0
176
     1
290
     0
176
     1
290
     1
176
     1
290
     1
176
     1
290
     0
176
     1
290
     0
176
     1
290
     0
176
     1
290
     0
176
     1
290
     0
176
     1
290
     0
176
     1
 90
       50
176
     1
 40
0.0
176
     1
 40
1.0
176
     1
 90
        0
176
     1
 62
    18
420
        0
176
     1
 90
       50
176
     1
 90
        3
176
     1
 62
     5
420
      255
176
     1
290
     0
176
     1
 90
       50
176
     1
 90
       50
176
     1
 90
       50
176
     1
290
     0
176
     1
 90
       50
176
     1
 62
   256
176
     0
 40
1.0
176
     0
 90
        2
176
     1
  1
strokes_ogs.tif
176
     1
290
     0
176
     1
 40
1.0
176
     1
 40
1.0
176
     1
  0
VISUALSTYLE
  5
34
102
{ACAD_REACTORS
330
2A
102
}
330
2A
100
AcDbVisualStyle
  2
Conceptual
 70
     9
177
     3
291
     0
 70
    58
 90
        3
176
     1
 90
        2
176
     1
 90
        0
176
     1
 90
        0
176
     1
 40
0.6
176
     1
 40
30.0
176
     1
 62
     7
420
 16777215
176
     1
 90
        2
176
     1
 90
        2
176
     1
 62
     7
176
     1
 62
   257
176
     1
 90
        1
176
     1
 90
        1
176
     1
 40
179.0
176
     1
 90
        8
176
     1
 62
     7
176
     1
 40
1.0
176
     1
 90
        1
176
     1
 90
        6
176
     1
 90
        2
176
     1
 62
     7
176
     1
 90
        3
176
     1
 90
        0
176
     1
 90
        0
176
     1
290
     0
176
     1
 90
        1
176
     1
 40
0.0
176
     1
 90
        0
176
     1
290
     0
176
     1
290
     1
176
     1
290
     1
176
     1
290
     0
176
     1
290
     0
176
     1
290
     0
176
     1
290
     0
176
     1
290
     0
176
     1
290
     0
176
     1
 90
       50
176
     1
 40
0.0
176
     1
 40
1.0
176
     1
 90
        0
176
     1
 62
    18
420
        0
176
     1
 90
       50
176
     1
 90
        3
176
     1
 62
     5
420
      255
176
     1
290
     0
176
     1
 90
       50
176
     1
 90
       50
176
     1
 90
       50
176
     1
290
     0
176
     1
 90
       50
176
     1
 62
   256
176
     0
 40
1.0
176
     0
 90
        2
176
     1
  1
strokes_ogs.tif
176
     1
290
     0
176
     1
 40
1.0
176
     1
 40
1.0
176
     1
  0
VISUALSTYLE
  5
35
102
{ACAD_REACTORS
330
2A
102
}
330
2A
100
AcDbVisualStyle
  2
Dim
 70
    11
177
     3
291
     1
 70
    58
 90
        2
176
     1
 90
        2
176
     1
 90
        0
176
     1
 90
        0
176
     1
 40
0.6
176
     1
 40
30.0
176
     1
 62
     7
420
 16777215
176
     1
 90
        1
176
     1
 90
        4
176
     1
 62
     7
176
     1
 62
   257
176
     1
 90
        1
176
     1
 90
        1
176
     1
 40
1.0
176
     1
 90
        8
176
     1
 62
     7
176
     1
 40
1.0
176
     1
 90
        1
176
     1
 90
        6
176
     1
 90
        2
176
     1
 62
     7
176
     1
 90
        5
176
     1
 90
        0
176
     1
 90
        0
176
     1
290
     0
176
     1
 90
        1
176
     1
 40
-50.0
176
     1
 90
        0
176
     1
290
     0
176
     1
290
     1
176
     1
290
     1
176
     1
290
     0
176
     1
290
     0
176
     1
290
     0
176
     1
290
     0
176
     1
290
     0
176
     1
290
     0
176
     1
 90
       50
176
     1
 40
0.0
176
     1
 40
1.0
176
     1
 90
        0
176
     1
 62
    18
420
        0
176
     1
 90
       50
176
     1
 90
        3
176
     1
 62
     5
420
      255
176
     1
290
     0
176
     1
 90
       50
176
     1
 90
       50
176
     1
 90
       50
176
     1
290
     0
176
     1
 90
       50
176
     1
 62
   256
176
     0
 40
1.0
176
     0
 90
        2
176
     1
  1
strokes_ogs.tif
176
     1
290
     0
176
     1
 40
1.0
176
     1
 40
1.0
176
     1
  0
VISUALSTYLE
  5
3D
102
{ACAD_REACTORS
330
2A
102
}
330
2A
100
AcDbVisualStyle
  2
EdgeColorOff
 70
    22
177
     3
291
     1
 70
    58
 90
        2
176
     0
 90
        2
176
     0
 90
        0
176
     0
 90
        0
176
     0
 40
0.6
176
     0
 40
30.0
176
     0
 62
     7
420
 16777215
176
     0
 90
        1
176
     0
 90
        4
176
     0
 62
     7
176
     0
 62
   257
176
     0
 90
        1
176
     0
 90
        1
176
     0
 40
1.0
176
     0
 90
        8
176
     2
 62
     7
176
     0
 40
1.0
176
     0
 90
        1
176
     0
 90
        6
176
     0
 90
        2
176
     0
 62
     7
176
     0
 90
        5
176
     0
 90
        0
176
     0
 90
        0
176
     0
290
     0
176
     0
 90
        1
176
     0
 40
0.0
176
     0
 90
        0
176
     0
290
     0
176
     0
290
     1
176
     0
290
     1
176
     0
290
     0
176
     0
290
     0
176
     0
290
     0
176
     0
290
     0
176
     0
290
     0
176
     0
290
     0
176
     0
 90
       50
176
     0
 40
0.0
176
     0
 40
1.0
176
     0
 90
        0
176
     0
 62
    18
420
        0
176
     0
 90
       50
176
     0
 90
        3
176
     0
 62
     5
420
      255
176
     0
290
     0
176
     0
 90
       50
176
     0
 90
       50
176
     0
 90
       50
176
     0
290
     0
176
     0
 90
       50
176
     0
 62
   256
176
     0
 40
1.0
176
     0
 90
        2
176
     0
  1
strokes_ogs.tif
176
     0
290
     0
176
     0
 40
1.0
176
     0
 40
1.0
176
     0
  0
VISUALSTYLE
  5
39
102
{ACAD_REACTORS
330
2A
102
}
330
2A
100
AcDbVisualStyle
  2
Facepattern
 70
    15
177
     3
291
     1
 70
    58
 90
        2
176
     1
 90
        2
176
     1
 90
        0
176
     1
 90
        0
176
     1
 40
0.6
176
     1
 40
30.0
176
     1
 62
     7
420
 16777215
176
     1
 90
        1
176
     1
 90
        4
176
     1
 62
     7
176
     1
 62
   257
176
     1
 90
        1
176
     1
 90
        1
176
     1
 40
1.0
176
     1
 90
        8
176
     1
 62
     7
176
     1
 40
1.0
176
     1
 90
        1
176
     1
 90
        6
176
     1
 90
        2
176
     1
 62
     7
176
     1
 90
        5
176
     1
 90
        0
176
     1
 90
        0
176
     1
290
     0
176
     1
 90
        1
176
     1
 40
0.0
176
     1
 90
        0
176
     1
290
     0
176
     1
290
     1
176
     1
290
     1
176
     1
290
     0
176
     1
290
     0
176
     1
290
     0
176
     1
290
     0
176
     1
290
     0
176
     1
290
     0
176
     1
 90
       50
176
     1
 40
0.0
176
     1
 40
1.0
176
     1
 90
        0
176
     1
 62
    18
420
        0
176
     1
 90
       50
176
     1
 90
        3
176
     1
 62
     5
420
      255
176
     1
290
     0
176
     1
 90
       50
176
     1
 90
       50
176
     1
 90
       50
176
     1
290
     0
176
     1
 90
       50
176
     1
 62
   256
176
     0
 40
1.0
176
     0
 90
        2
176
     1
  1
strokes_ogs.tif
176
     1
290
     0
176
     1
 40
1.0
176
     1
 40
1.0
176
     1
  0
VISUALSTYLE
  5
2B
102
{ACAD_REACTORS
330
2A
102
}
330
2A
100
AcDbVisualStyle
  2
Flat
 70
     0
177
     3
291
     1
 70
    58
 90
        2
176
     1
 90
        1
176
     1
 90
        1
176
     1
 90
        2
176
     1
 40
0.6
176
     1
 40
30.0
176
     1
 62
     7
420
 16777215
176
     1
 90
        0
176
     1
 90
        0
176
     1
 62
     7
176
     1
 62
   257
176
     1
 90
        1
176
     1
 90
        1
176
     1
 40
1.0
176
     1
 90
        8
176
     1
 62
     7
176
     1
 40
1.0
176
     1
 90
        1
176
     1
 90
        6
176
     1
 90
        2
176
     1
 62
     7
176
     1
 90
        5
176
     1
 90
        0
176
     1
 90
        0
176
     1
290
     0
176
     1
 90
       13
176
     1
 40
0.0
176
     1
 90
        0
176
     1
290
     0
176
     1
290
     1
176
     1
290
     1
176
     1
290
     0
176
     1
290
     0
176
     1
290
     0
176
     1
290
     0
176
     1
290
     0
176
     1
290
     0
176
     1
 90
       50
176
     1
 40
0.0
176
     1
 40
1.0
176
     1
 90
        0
176
     1
 62
    18
420
        0
176
     1
 90
       50
176
     1
 90
        3
176
     1
 62
     5
420
      255
176
     1
290
     0
176
     1
 90
       50
176
     1
 90
       50
176
     1
 90
       50
176
     1
290
     0
176
     1
 90
       50
176
     1
 62
   256
176
     0
 40
1.0
176
     0
 90
        2
176
     1
  1
strokes_ogs.tif
176
     1
290
     0
176
     1
 40
1.0
176
     1
 40
1.0
176
     1
  0
VISUALSTYLE
  5
2C
102
{ACAD_REACTORS
330
2A
102
}
330
2A
100
AcDbVisualStyle
  2
FlatWithEdges
 70
     1
177
     3
291
     1
 70
    58
 90
        2
176
     1
 90
        1
176
     1
 90
        1
176
     1
 90
        2
176
     1
 40
0.6
176
     1
 40
30.0
176
     1
 62
     7
420
 16777215
176
     1
 90
        1
176
     1
 90
        0
176
     1
 62
     7
176
     1
 62
   257
176
     1
 90
        1
176
     1
 90
        1
176
     1
 40
1.0
176
     1
 90
        0
176
     1
 62
   257
176
     1
 40
1.0
176
     1
 90
        1
176
     1
 90
        6
176
     1
 90
        2
176
     1
 62
     7
176
     1
 90
        5
176
     1
 90
        0
176
     1
 90
        0
176
     1
290
     0
176
     1
 90
       13
176
     1
 40
0.0
176
     1
 90
        0
176
     1
290
     0
176
     1
290
     1
176
     1
290
     1
176
     1
290
     0
176
     1
290
     0
176
     1
290
     0
176
     1
290
     0
176
     1
290
     0
176
     1
290
     0
176
     1
 90
       50
176
     1
 40
0.0
176
     1
 40
1.0
176
     1
 90
        0
176
     1
 62
    18
420
        0
176
     1
 90
       50
176
     1
 90
        3
176
     1
 62
     5
420
      255
176
     1
290
     0
176
     1
 90
       50
176
     1
 90
       50
176
     1
 90
       50
176
     1
290
     0
176
     1
 90
       50
176
     1
 62
   256
176
     0
 40
1.0
176
     0
 90
        2
176
     1
  1
strokes_ogs.tif
176
     1
290
     0
176
     1
 40
1.0
176
     1
 40
1.0
176
     1
  0
VISUALSTYLE
  5
2D
102
{ACAD_REACTORS
330
2A
102
}
330
2A
100
AcDbVisualStyle
  2
Gouraud
 70
     2
177
     3
291
     1
 70
    58
 90
        2
176
     1
 90
        2
176
     1
 90
        1
176
     1
 90
        2
176
     1
 40
0.6
176
     1
 40
30.0
176
     1
 62
     7
420
 16777215
176
     1
 90
        0
176
     1
 90
        0
176
     1
 62
     7
176
     1
 62
   257
176
     1
 90
        1
176
     1
 90
        1
176
     1
 40
1.0
176
     1
 90
        0
176
     1
 62
     7
176
     1
 40
1.0
176
     1
 90
        1
176
     1
 90
        6
176
     1
 90
        2
176
     1
 62
     7
176
     1
 90
        5
176
     1
 90
        0
176
     1
 90
        0
176
     1
290
     0
176
     1
 90
       13
176
     1
 40
0.0
176
     1
 90
        0
176
     1
290
     0
176
     1
290
     1
176
     1
290
     1
176
     1
290
     0
176
     1
290
     0
176
     1
290
     0
176
     1
290
     0
176
     1
290
     0
176
     1
290
     0
176
     1
 90
       50
176
     1
 40
0.0
176
     1
 40
1.0
176
     1
 90
        0
176
     1
 62
    18
420
        0
176
     1
 90
       50
176
     1
 90
        3
176
     1
 62
     5
420
      255
176
     1
290
     0
176
     1
 90
       50
176
     1
 90
       50
176
     1
 90
       50
176
     1
290
     0
176
     1
 90
       50
176
     1
 62
   256
176
     0
 40
1.0
176
     0
 90
        2
176
     1
  1
strokes_ogs.tif
176
     1
290
     0
176
     1
 40
1.0
176
     1
 40
1.0
176
     1
  0
VISUALSTYLE
  5
2E
102
{ACAD_REACTORS
330
2A
102
}
330
2A
100
AcDbVisualStyle
  2
GouraudWithEdges
 70
     3
177
     3
291
     1
 70
    58
 90
        2
176
     1
 90
        2
176
     1
 90
        1
176
     1
 90
        2
176
     1
 40
0.6
176
     1
 40
30.0
176
     1
 62
     7
420
 16777215
176
     1
 90
        1
176
     1
 90
        0
176
     1
 62
     7
176
     1
 62
   257
176
     1
 90
        1
176
     1
 90
        1
176
     1
 40
1.0
176
     1
 90
        0
176
     1
 62
   257
176
     1
 40
1.0
176
     1
 90
        1
176
     1
 90
        6
176
     1
 90
        2
176
     1
 62
     7
176
     1
 90
        5
176
     1
 90
        0
176
     1
 90
        0
176
     1
290
     0
176
     1
 90
       13
176
     1
 40
0.0
176
     1
 90
        0
176
     1
290
     0
176
     1
290
     1
176
     1
290
     1
176
     1
290
     0
176
     1
290
     0
176
     1
290
     0
176
     1
290
     0
176
     1
290
     0
176
     1
290
     0
176
     1
 90
       50
176
     1
 40
0.0
176
     1
 40
1.0
176
     1
 90
        0
176
     1
 62
    18
420
        0
176
     1
 90
       50
176
     1
 90
        3
176
     1
 62
     5
420
      255
176
     1
290
     0
176
     1
 90
       50
176
     1
 90
       50
176
     1
 90
       50
176
     1
290
     0
176
     1
 90
       50
176
     1
 62
   256
176
     0
 40
1.0
176
     0
 90
        2
176
     1
  1
strokes_ogs.tif
176
     1
290
     0
176
     1
 40
1.0
176
     1
 40
1.0
176
     1
  0
VISUALSTYLE
  5
31
102
{ACAD_REACTORS
330
2A
102
}
330
2A
100
AcDbVisualStyle
  2
Hidden
 70
     6
177
     3
291
     0
 70
    58
 90
        1
176
     1
 90
        2
176
     1
 90
        2
176
     1
 90
        0
176
     1
 40
0.6
176
     1
 40
30.0
176
     1
 62
     7
420
 16777215
176
     1
 90
        2
176
     1
 90
        2
176
     1
 62
     7
176
     1
 62
   257
176
     1
 90
        2
176
     1
 90
        1
176
     1
 40
40.0
176
     1
 90
        0
176
     1
 62
   257
176
     1
 40
1.0
176
     1
 90
        1
176
     1
 90
        6
176
     1
 90
        2
176
     1
 62
     7
176
     1
 90
        3
176
     1
 90
        0
176
     1
 90
        0
176
     1
290
     0
176
     1
 90
        1
176
     1
 40
0.0
176
     1
 90
        0
176
     1
290
     0
176
     1
290
     1
176
     1
290
     1
176
     1
290
     0
176
     1
290
     0
176
     1
290
     0
176
     1
290
     0
176
     1
290
     0
176
     1
290
     0
176
     1
 90
       50
176
     1
 40
0.0
176
     1
 40
1.0
176
     1
 90
        0
176
     1
 62
    18
420
        0
176
     1
 90
       50
176
     1
 90
        3
176
     1
 62
     5
420
      255
176
     1
290
     0
176
     1
 90
       50
176
     1
 90
       50
176
     1
 90
       50
176
     1
290
     0
176
     1
 90
       50
176
     1
 62
   256
176
     0
 40
1.0
176
     0
 90
        2
176
     1
  1
strokes_ogs.tif
176
     1
290
     0
176
     1
 40
1.0
176
     1
 40
1.0
176
     1
  0
VISUALSTYLE
  5
3B
102
{ACAD_REACTORS
330
2A
102
}
330
2A
100
AcDbVisualStyle
  2
JitterOff
 70
    20
177
     3
291
     1
 70
    58
 90
        2
176
     0
 90
        2
176
     0
 90
        0
176
     0
 90
        0
176
     0
 40
0.6
176
     0
 40
30.0
176
     0
 62
     7
420
 16777215
176
     0
 90
        1
176
     0
 90
        4
176
     0
 62
     7
176
     0
 62
   257
176
     0
 90
        1
176
     0
 90
        1
176
     0
 40
1.0
176
     0
 90
       10
176
     2
 62
     7
176
     0
 40
1.0
176
     0
 90
        1
176
     0
 90
        6
176
     0
 90
        2
176
     0
 62
     7
176
     0
 90
        5
176
     0
 90
        0
176
     0
 90
        0
176
     0
290
     0
176
     0
 90
        1
176
     0
 40
0.0
176
     0
 90
        0
176
     0
290
     0
176
     0
290
     1
176
     0
290
     1
176
     0
290
     0
176
     0
290
     0
176
     0
290
     0
176
     0
290
     0
176
     0
290
     0
176
     0
290
     0
176
     0
 90
       50
176
     0
 40
0.0
176
     0
 40
1.0
176
     0
 90
        0
176
     0
 62
    18
420
        0
176
     0
 90
       50
176
     0
 90
        3
176
     0
 62
     5
420
      255
176
     0
290
     0
176
     0
 90
       50
176
     0
 90
       50
176
     0
 90
       50
176
     0
290
     0
176
     0
 90
       50
176
     0
 62
   256
176
     0
 40
1.0
176
     0
 90
        2
176
     0
  1
strokes_ogs.tif
176
     0
290
     0
176
     0
 40
1.0
176
     0
 40
1.0
176
     0
  0
VISUALSTYLE
  5
38
102
{ACAD_REACTORS
330
2A
102
}
330
2A
100
AcDbVisualStyle
  2
Linepattern
 70
    14
177
     3
291
     1
 70
    58
 90
        2
176
     1
 90
        2
176
     1
 90
        0
176
     1
 90
        0
176
     1
 40
0.6
176
     1
 40
30.0
176
     1
 62
     7
420
 16777215
176
     1
 90
        1
176
     1
 90
        4
176
     1
 62
     7
176
     1
 62
   257
176
     1
 90
        7
176
     1
 90
        7
176
     1
 40
1.0
176
     1
 90
        8
176
     1
 62
     7
176
     1
 40
1.0
176
     1
 90
        1
176
     1
 90
        6
176
     1
 90
        2
176
     1
 62
     7
176
     1
 90
        5
176
     1
 90
        0
176
     1
 90
        0
176
     1
290
     0
176
     1
 90
        1
176
     1
 40
0.0
176
     1
 90
        0
176
     1
290
     0
176
     1
290
     1
176
     1
290
     1
176
     1
290
     0
176
     1
290
     0
176
     1
290
     0
176
     1
290
     0
176
     1
290
     0
176
     1
290
     0
176
     1
 90
       50
176
     1
 40
0.0
176
     1
 40
1.0
176
     1
 90
        0
176
     1
 62
    18
420
        0
176
     1
 90
       50
176
     1
 90
        3
176
     1
 62
     5
420
      255
176
     1
290
     0
176
     1
 90
       50
176
     1
 90
       50
176
     1
 90
       50
176
     1
290
     0
176
     1
 90
       50
176
     1
 62
   256
176
     0
 40
1.0
176
     0
 90
        2
176
     1
  1
strokes_ogs.tif
176
     1
290
     0
176
     1
 40
1.0
176
     1
 40
1.0
176
     1
  0
VISUALSTYLE
  5
3C
102
{ACAD_REACTORS
330
2A
102
}
330
2A
100
AcDbVisualStyle
  2
OverhangOff
 70
    21
177
     3
291
     1
 70
    58
 90
        2
176
     0
 90
        2
176
     0
 90
        0
176
     0
 90
        0
176
     0
 40
0.6
176
     0
 40
30.0
176
     0
 62
     7
420
 16777215
176
     0
 90
        1
176
     0
 90
        4
176
     0
 62
     7
176
     0
 62
   257
176
     0
 90
        1
176
     0
 90
        1
176
     0
 40
1.0
176
     0
 90
        9
176
     2
 62
     7
176
     0
 40
1.0
176
     0
 90
        1
176
     0
 90
        6
176
     0
 90
        2
176
     0
 62
     7
176
     0
 90
        5
176
     0
 90
        0
176
     0
 90
        0
176
     0
290
     0
176
     0
 90
        1
176
     0
 40
0.0
176
     0
 90
        0
176
     0
290
     0
176
     0
290
     1
176
     0
290
     1
176
     0
290
     0
176
     0
290
     0
176
     0
290
     0
176
     0
290
     0
176
     0
290
     0
176
     0
290
     0
176
     0
 90
       50
176
     0
 40
0.0
176
     0
 40
1.0
176
     0
 90
        0
176
     0
 62
    18
420
        0
176
     0
 90
       50
176
     0
 90
        3
176
     0
 62
     5
420
      255
176
     0
290
     0
176
     0
 90
       50
176
     0
 90
       50
176
     0
 90
       50
176
     0
290
     0
176
     0
 90
       50
176
     0
 62
   256
176
     0
 40
1.0
176
     0
 90
        2
176
     0
  1
strokes_ogs.tif
176
     0
290
     0
176
     0
 40
1.0
176
     0
 40
1.0
176
     0
  0
VISUALSTYLE
  5
33
102
{ACAD_REACTORS
330
2A
102
}
330
2A
100
AcDbVisualStyle
  2
Realistic
 70
     8
177
     3
291
     0
 70
    58
 90
        2
176
     1
 90
        3
176
     1
 90
        0
176
     1
 90
        2
176
     1
 40
0.6
176
     1
 40
30.0
176
     1
 62
     7
420
 16777215
176
     1
 90
        0
176
     1
 90
        0
176
     1
 62
     7
176
     1
 62
   257
176
     1
 90
        1
176
     1
 90
        1
176
     1
 40
1.0
176
     1
 90
        8
176
     1
 62
   257
176
     1
 40
1.0
176
     1
 90
        1
176
     1
 90
        6
176
     1
 90
        2
176
     1
 62
     7
176
     1
 90
        3
176
     1
 90
        0
176
     1
 90
        0
176
     1
290
     0
176
     1
 90
       13
176
     1
 40
0.0
176
     1
 90
        0
176
     1
290
     0
176
     1
290
     1
176
     1
290
     1
176
     1
290
     0
176
     1
290
     0
176
     1
290
     0
176
     1
290
     0
176
     1
290
     0
176
     1
290
     0
176
     1
 90
       50
176
     1
 40
0.0
176
     1
 40
1.0
176
     1
 90
        0
176
     1
 62
    18
420
        0
176
     1
 90
       50
176
     1
 90
        3
176
     1
 62
     5
420
      255
176
     1
290
     0
176
     1
 90
       50
176
     1
 90
       50
176
     1
 90
       50
176
     1
290
     0
176
     1
 90
       50
176
     1
 62
   256
176
     0
 40
1.0
176
     0
 90
        2
176
     1
  1
strokes_ogs.tif
176
     1
290
     0
176
     1
 40
1.0
176
     1
 40
1.0
176
     1
  0
VISUALSTYLE
  5
42
102
{ACAD_REACTORS
330
2A
102
}
330
2A
100
AcDbVisualStyle
  2
Shaded
 70
    27
177
     3
291
     0
 70
    58
 90
        2
176
     1
 90
        2
176
     1
 90
        1
176
     1
 90
        2
176
     1
 40
0.6
176
     1
 40
30.0
176
     1
 62
     7
420
 16777215
176
     1
 90
        0
176
     1
 90
        4
176
     1
 62
     7
176
     1
 62
   257
176
     1
 90
        1
176
     1
 90
        1
176
     1
 40
1.0
176
     1
 90
        8
176
     1
 62
   257
176
     1
 40
1.0
176
     1
 90
        1
176
     1
 90
        6
176
     1
 90
        2
176
     1
 62
     8
420
  7895160
176
     1
 90
        3
176
     1
 90
        0
176
     1
 90
        0
176
     1
290
     0
176
     1
 90
        5
176
     1
 40
0.0
176
     1
 90
        0
176
     1
290
     0
176
     1
290
     1
176
     1
290
     1
176
     1
290
     0
176
     1
290
     0
176
     1
290
     0
176
     1
290
     0
176
     1
290
     0
176
     1
290
     0
176
     1
 90
       50
176
     1
 40
0.0
176
     1
 40
1.0
176
     1
 90
        0
176
     1
 62
    18
420
        0
176
     1
 90
       50
176
     1
 90
        3
176
     1
 62
     5
420
      255
176
     1
290
     0
176
     1
 90
       50
176
     1
 90
       50
176
     1
 90
       50
176
     1
290
     0
176
     1
 90
       50
176
     1
 62
   256
176
     0
 40
1.0
176
     0
 90
        2
176
     1
  1
strokes_ogs.tif
176
     1
290
     0
176
     1
 40
1.0
176
     1
 40
1.0
176
     1
  0
VISUALSTYLE
  5
41
102
{ACAD_REACTORS
330
2A
102
}
330
2A
100
AcDbVisualStyle
  2
Shaded with edges
 70
    26
177
     3
291
     0
 70
    58
 90
        2
176
     1
 90
        2
176
     1
 90
        1
176
     1
 90
        2
176
     1
 40
0.6
176
     1
 40
30.0
176
     1
 62
     7
420
 16777215
176
     1
 90
        1
176
     1
 90
       10
176
     1
 62
     7
176
     1
 62
   257
176
     1
 90
        2
176
     1
 90
        1
176
     1
 40
1.0
176
     1
 90
        8
176
     1
 62
   257
176
     1
 40
1.0
176
     1
 90
        1
176
     1
 90
        6
176
     1
 90
        2
176
     1
 62
     7
176
     1
 90
        3
176
     1
 90
        0
176
     1
 90
        0
176
     1
290
     0
176
     1
 90
        5
176
     1
 40
0.0
176
     1
 90
        0
176
     1
290
     0
176
     1
290
     1
176
     1
290
     1
176
     1
290
     0
176
     1
290
     0
176
     1
290
     0
176
     1
290
     0
176
     1
290
     0
176
     1
290
     0
176
     1
 90
       50
176
     1
 40
0.0
176
     1
 40
1.0
176
     1
 90
        0
176
     1
 62
    18
420
        0
176
     1
 90
       50
176
     1
 90
        3
176
     1
 62
     5
420
      255
176
     1
290
     0
176
     1
 90
       50
176
     1
 90
       50
176
     1
 90
       50
176
     1
290
     0
176
     1
 90
       50
176
     1
 62
   256
176
     0
 40
1.0
176
     0
 90
        2
176
     1
  1
strokes_ogs.tif
176
     1
290
     0
176
     1
 40
1.0
176
     1
 40
1.0
176
     1
  0
VISUALSTYLE
  5
3E
102
{ACAD_REACTORS
330
2A
102
}
330
2A
100
AcDbVisualStyle
  2
Shades of Gray
 70
    23
177
     3
291
     0
 70
    58
 90
        2
176
     1
 90
        2
176
     1
 90
        3
176
     1
 90
        0
176
     1
 40
0.6
176
     1
 40
30.0
176
     1
 62
     7
420
 16777215
176
     1
 90
        2
176
     1
 90
        2
176
     1
 62
     7
176
     1
 62
     7
176
     1
 90
        1
176
     1
 90
        1
176
     1
 40
40.0
176
     1
 90
        8
176
     1
 62
     7
176
     1
 40
1.0
176
     1
 90
        1
176
     1
 90
        6
176
     1
 90
        2
176
     1
 62
     7
176
     1
 90
        3
176
     1
 90
        0
176
     1
 90
        0
176
     1
290
     0
176
     1
 90
        1
176
     1
 40
0.0
176
     1
 90
        0
176
     1
290
     0
176
     1
290
     1
176
     1
290
     1
176
     1
290
     0
176
     1
290
     0
176
     1
290
     0
176
     1
290
     0
176
     1
290
     0
176
     1
290
     0
176
     1
 90
       50
176
     1
 40
0.0
176
     1
 40
1.0
176
     1
 90
        0
176
     1
 62
    18
420
        0
176
     1
 90
       50
176
     1
 90
        3
176
     1
 62
     5
420
      255
176
     1
290
     0
176
     1
 90
       50
176
     1
 90
       50
176
     1
 90
       50
176
     1
290
     0
176
     1
 90
       50
176
     1
 62
   256
176
     0
 40
1.0
176
     0
 90
        2
176
     1
  1
strokes_ogs.tif
176
     1
290
     0
176
     1
 40
1.0
176
     1
 40
1.0
176
     1
  0
VISUALSTYLE
  5
3F
102
{ACAD_REACTORS
330
2A
102
}
330
2A
100
AcDbVisualStyle
  2
Sketchy
 70
    24
177
     3
291
     0
 70
    58
 90
        1
176
     1
 90
        2
176
     1
 90
        2
176
     1
 90
        0
176
     1
 40
0.6
176
     1
 40
30.0
176
     1
 62
     7
420
 16777215
176
     1
 90
        2
176
     1
 90
        2
176
     1
 62
     7
176
     1
 62
     7
176
     1
 90
        1
176
     1
 90
        1
176
     1
 40
40.0
176
     1
 90
       11
176
     1
 62
     7
176
     1
 40
1.0
176
     1
 90
        1
176
     1
 90
        6
176
     1
 90
        2
176
     1
 62
     7
176
     1
 90
        6
176
     1
 90
        0
176
     1
 90
        0
176
     1
290
     0
176
     1
 90
        1
176
     1
 40
0.0
176
     1
 90
        0
176
     1
290
     0
176
     1
290
     1
176
     1
290
     1
176
     1
290
     0
176
     1
290
     0
176
     1
290
     0
176
     1
290
     0
176
     1
290
     0
176
     1
290
     0
176
     1
 90
       50
176
     1
 40
0.0
176
     1
 40
1.0
176
     1
 90
        0
176
     1
 62
    18
420
        0
176
     1
 90
       50
176
     1
 90
        3
176
     1
 62
     5
420
      255
176
     1
290
     0
176
     1
 90
       50
176
     1
 90
       50
176
     1
 90
       50
176
     1
290
     0
176
     1
 90
       50
176
     1
 62
   256
176
     0
 40
1.0
176
     0
 90
        2
176
     1
  1
strokes_ogs.tif
176
     1
290
     0
176
     1
 40
1.0
176
     1
 40
1.0
176
     1
  0
VISUALSTYLE
  5
37
102
{ACAD_REACTORS
330
2A
102
}
330
2A
100
AcDbVisualStyle
  2
Thicken
 70
    13
177
     3
291
     1
 70
    58
 90
        2
176
     1
 90
        2
176
     1
 90
        0
176
     1
 90
        0
176
     1
 40
0.6
176
     1
 40
30.0
176
     1
 62
     7
420
 16777215
176
     1
 90
        1
176
     1
 90
        4
176
     1
 62
     7
176
     1
 62
   257
176
     1
 90
        1
176
     1
 90
        1
176
     1
 40
1.0
176
     1
 90
       12
176
     1
 62
     7
176
     1
 40
1.0
176
     1
 90
        1
176
     1
 90
        6
176
     1
 90
        2
176
     1
 62
     7
176
     1
 90
        5
176
     1
 90
        0
176
     1
 90
        0
176
     1
290
     0
176
     1
 90
        1
176
     1
 40
0.0
176
     1
 90
        0
176
     1
290
     0
176
     1
290
     1
176
     1
290
     1
176
     1
290
     0
176
     1
290
     0
176
     1
290
     0
176
     1
290
     0
176
     1
290
     0
176
     1
290
     0
176
     1
 90
       50
176
     1
 40
0.0
176
     1
 40
1.0
176
     1
 90
        0
176
     1
 62
    18
420
        0
176
     1
 90
       50
176
     1
 90
        3
176
     1
 62
     5
420
      255
176
     1
290
     0
176
     1
 90
       50
176
     1
 90
       50
176
     1
 90
       50
176
     1
290
     0
176
     1
 90
       50
176
     1
 62
   256
176
     0
 40
1.0
176
     0
 90
        2
176
     1
  1
strokes_ogs.tif
176
     1
290
     0
176
     1
 40
1.0
176
     1
 40
1.0
176
     1
  0
VISUALSTYLE
  5
30
102
{ACAD_REACTORS
330
2A
102
}
330
2A
100
AcDbVisualStyle
  2
Wireframe
 70
     5
177
     3
291
     0
 70
    58
 90
        0
176
     1
 90
        2
176
     1
 90
        0
176
     1
 90
        0
176
     1
 40
0.6
176
     1
 40
30.0
176
     1
 62
     7
420
 16777215
176
     1
 90
        1
176
     1
 90
        4
176
     1
 62
     7
176
     1
 62
   257
176
     1
 90
        1
176
     1
 90
        1
176
     1
 40
1.0
176
     1
 90
        0
176
     1
 62
   257
176
     1
 40
1.0
176
     1
 90
        1
176
     1
 90
        6
176
     1
 90
        2
176
     1
 62
     7
176
     1
 90
        3
176
     1
 90
        0
176
     1
 90
        0
176
     1
290
     0
176
     1
 90
        1
176
     1
 40
0.0
176
     1
 90
        0
176
     1
290
     0
176
     1
290
     1
176
     1
290
     1
176
     1
290
     0
176
     1
290
     0
176
     1
290
     0
176
     1
290
     0
176
     1
290
     0
176
     1
290
     0
176
     1
 90
       50
176
     1
 40
0.0
176
     1
 40
1.0
176
     1
 90
        0
176
     1
 62
    18
420
        0
176
     1
 90
       50
176
     1
 90
        3
176
     1
 62
     5
420
      255
176
     1
290
     0
176
     1
 90
       50
176
     1
 90
       50
176
     1
 90
       50
176
     1
290
     0
176
     1
 90
       50
176
     1
 62
   256
176
     0
 40
1.0
176
     0
 90
        2
176
     1
  1
strokes_ogs.tif
176
     1
290
     0
176
     1
 40
1.0
176
     1
 40
1.0
176
     1
  0
VISUALSTYLE
  5
40
102
{ACAD_REACTORS
330
2A
102
}
330
2A
100
AcDbVisualStyle
  2
X-Ray
 70
    25
177
     3
291
     0
 70
    58
 90
        2
176
     1
 90
        2
176
     1
 90
        1
176
     1
 90
        1
176
     1
 40
0.5
176
     1
 40
30.0
176
     1
 62
     7
420
 16777215
176
     1
 90
        1
176
     1
 90
        0
176
     1
 62
     7
176
     1
 62
   257
176
     1
 90
        1
176
     1
 90
        1
176
     1
 40
1.0
176
     1
 90
        8
176
     1
 62
     7
176
     1
 40
1.0
176
     1
 90
        1
176
     1
 90
        6
176
     1
 90
        2
176
     1
 62
     7
176
     1
 90
        3
176
     1
 90
        0
176
     1
 90
        0
176
     1
290
     0
176
     1
 90
       13
176
     1
 40
0.0
176
     1
 90
        0
176
     1
290
     0
176
     1
290
     1
176
     1
290
     1
176
     1
290
     0
176
     1
290
     0
176
     1
290
     0
176
     1
290
     0
176
     1
290
     0
176
     1
290
     0
176
     1
 90
       50
176
     1
 40
0.0
176
     1
 40
1.0
176
     1
 90
        0
176
     1
 62
    18
420
        0
176
     1
 90
       50
176
     1
 90
        3
176
     1
 62
     5
420
      255
176
     1
290
     0
176
     1
 90
       50
176
     1
 90
       50
176
     1
 90
       50
176
     1
290
     0
176
     1
 90
       50
176
     1
 62
   256
176
     0
 40
1.0
176
     0
 90
        2
176
     1
  1
strokes_ogs.tif
176
     1
290
     0
176
     1
 40
1.0
176
     1
 40
1.0
176
     1
  0
DICTIONARYVAR
  5
1AA
102
{ACAD_REACTORS
330
1A9
102
}
330
1A9
100
DictionaryVariables
280
     0
  1
1:1
  0
DICTIONARYVAR
  5
1AF
102
{ACAD_REACTORS
330
1A9
102
}
330
1A9
100
DictionaryVariables
280
     0
  1
Standard
  0
DICTIONARYVAR
  5
1AE
102
{ACAD_REACTORS
330
1A9
102
}
330
1A9
100
DictionaryVariables
280
     0
  1
Standard
  0
DICTIONARY
  5
1AB
330
6A
100
AcDbDictionary
280
     1
281
     1
  3
ACAD_ROUNDTRIP_2008_TABLESTYLE_CELLSTYLEMAP
360
1AC
  0
CELLSTYLEMAP
  5
1AC
102
{ACAD_REACTORS
330
1AB
102
}
330
1AB
100
AcDbCellStyleMap
 90
        3
300
CELLSTYLE
  1
TABLEFORMAT_BEGIN
 90
        5
170
     1
 91
        0
 92
    32768
 62
   257
 93
        1
300
CONTENTFORMAT
  1
CONTENTFORMAT_BEGIN
 90
        0
 91
        0
 92
        4
 93
        0
300

 40
0.0
140
1.0
 94
        5
 62
     0
340
11
144
0.25
309
CONTENTFORMAT_END
171
     1
301
MARGIN
  1
CELLMARGIN_BEGIN
 40
0.06
 40
0.06
 40
0.06
 40
0.06
 40
0.06
 40
0.06
309
CELLMARGIN_END
 94
        6
 95
        1
302
GRIDFORMAT
  1
GRIDFORMAT_BEGIN
 90
        0
 91
        1
 62
     0
 92
       -2
340
14
 93
        0
 40
0.045
309
GRIDFORMAT_END
 95
        2
302
GRIDFORMAT
  1
GRIDFORMAT_BEGIN
 90
        0
 91
        1
 62
     0
 92
       -2
340
14
 93
        0
 40
0.045
309
GRIDFORMAT_END
 95
        4
302
GRIDFORMAT
  1
GRIDFORMAT_BEGIN
 90
        0
 91
        1
 62
     0
 92
       -2
340
14
 93
        0
 40
0.045
309
GRIDFORMAT_END
 95
        8
302
GRIDFORMAT
  1
GRIDFORMAT_BEGIN
 90
        0
 91
        1
 62
     0
 92
       -2
340
14
 93
        0
 40
0.045
309
GRIDFORMAT_END
 95
       16
302
GRIDFORMAT
  1
GRIDFORMAT_BEGIN
 90
        0
 91
        1
 62
     0
 92
       -2
340
14
 93
        0
 40
0.045
309
GRIDFORMAT_END
 95
       32
302
GRIDFORMAT
  1
GRIDFORMAT_BEGIN
 90
        0
 91
        1
 62
     0
 92
       -2
340
14
 93
        0
 40
0.045
309
GRIDFORMAT_END
309
TABLEFORMAT_END
  1
CELLSTYLE_BEGIN
 90
        1
 91
        1
300
_TITLE
309
CELLSTYLE_END
300
CELLSTYLE
  1
TABLEFORMAT_BEGIN
 90
        5
170
     1
 91
        0
 92
        0
 62
   257
 93
        1
300
CONTENTFORMAT
  1
CONTENTFORMAT_BEGIN
 90
        0
 91
        0
 92
        4
 93
        0
300

 40
0.0
140
1.0
 94
        5
 62
     0
340
11
144
0.18
309
CONTENTFORMAT_END
171
     1
301
MARGIN
  1
CELLMARGIN_BEGIN
 40
0.06
 40
0.06
 40
0.06
 40
0.06
 40
0.06
 40
0.06
309
CELLMARGIN_END
 94
        6
 95
        1
302
GRIDFORMAT
  1
GRIDFORMAT_BEGIN
 90
        0
 91
        1
 62
     0
 92
       -2
340
14
 93
        0
 40
0.045
309
GRIDFORMAT_END
 95
        2
302
GRIDFORMAT
  1
GRIDFORMAT_BEGIN
 90
        0
 91
        1
 62
     0
 92
       -2
340
14
 93
        0
 40
0.045
309
GRIDFORMAT_END
 95
        4
302
GRIDFORMAT
  1
GRIDFORMAT_BEGIN
 90
        0
 91
        1
 62
     0
 92
       -2
340
14
 93
        0
 40
0.045
309
GRIDFORMAT_END
 95
        8
302
GRIDFORMAT
  1
GRIDFORMAT_BEGIN
 90
        0
 91
        1
 62
     0
 92
       -2
340
14
 93
        0
 40
0.045
309
GRIDFORMAT_END
 95
       16
302
GRIDFORMAT
  1
GRIDFORMAT_BEGIN
 90
        0
 91
        1
 62
     0
 92
       -2
340
14
 93
        0
 40
0.045
309
GRIDFORMAT_END
 95
       32
302
GRIDFORMAT
  1
GRIDFORMAT_BEGIN
 90
        0
 91
        1
 62
     0
 92
       -2
340
14
 93
        0
 40
0.045
309
GRIDFORMAT_END
309
TABLEFORMAT_END
  1
CELLSTYLE_BEGIN
 90
        2
 91
        1
300
_HEADER
309
CELLSTYLE_END
300
CELLSTYLE
  1
TABLEFORMAT_BEGIN
 90
        5
170
     1
 91
        0
 92
        0
 62
   257
 93
        1
300
CONTENTFORMAT
  1
CONTENTFORMAT_BEGIN
 90
        0
 91
        0
 92
        4
 93
        0
300

 40
0.0
140
1.0
 94
        2
 62
     0
340
11
144
0.18
309
CONTENTFORMAT_END
171
     1
301
MARGIN
  1
CELLMARGIN_BEGIN
 40
0.06
 40
0.06
 40
0.06
 40
0.06
 40
0.06
 40
0.06
309
CELLMARGIN_END
 94
        6
 95
        1
302
GRIDFORMAT
  1
GRIDFORMAT_BEGIN
 90
        0
 91
        1
 62
     0
 92
       -2
340
14
 93
        0
 40
0.045
309
GRIDFORMAT_END
 95
        2
302
GRIDFORMAT
  1
GRIDFORMAT_BEGIN
 90
        0
 91
        1
 62
     0
 92
       -2
340
14
 93
        0
 40
0.045
309
GRIDFORMAT_END
 95
        4
302
GRIDFORMAT
  1
GRIDFORMAT_BEGIN
 90
        0
 91
        1
 62
     0
 92
       -2
340
14
 93
        0
 40
0.045
309
GRIDFORMAT_END
 95
        8
302
GRIDFORMAT
  1
GRIDFORMAT_BEGIN
 90
        0
 91
        1
 62
     0
 92
       -2
340
14
 93
        0
 40
0.045
309
GRIDFORMAT_END
 95
       16
302
GRIDFORMAT
  1
GRIDFORMAT_BEGIN
 90
        0
 91
        1
 62
     0
 92
       -2
340
14
 93
        0
 40
0.045
309
GRIDFORMAT_END
 95
       32
302
GRIDFORMAT
  1
GRIDFORMAT_BEGIN
 90
        0
 91
        1
 62
     0
 92
       -2
340
14
 93
        0
 40
0.045
309
GRIDFORMAT_END
309
TABLEFORMAT_END
  1
CELLSTYLE_BEGIN
 90
        3
 91
        2
300
_DATA
309
CELLSTYLE_END
  0
ENDSEC
  0
EOF