0
SECTION
  2
HEADER
  9
$ACADVER
  1
AC1027
  9
$ACADMAINTVER
 70
     8
  9
$DWGCODEPAGE
  3
ANSI_1252
  9
$REQUIREDVERSIONS
160
                 0
  9
$COMMENTS
  1
File was created by Cadenas
  9
$CUSTOMPROPERTYTAG
  1
NN
  9
$CUSTOMPROPERTY
  1
Set Screw Narrow Slot Take Up Inch Bore - Stainless Housing, Stainless Steel Insert
  9
$CUSTOMPROPERTYTAG
  1
NT
  9
$CUSTOMPROPERTY
  1
SC Take-Up Bearings -Wide Slot -(Normal Duty) -Polymer Housed -Corrosion Resistant Insert -E-Z KLEEN
  9
$CUSTOMPROPERTYTAG
  1
NB
  9
$CUSTOMPROPERTY
  1
136833
  9
$CUSTOMPROPERTYTAG
  1
NBSYN
  9
$CUSTOMPROPERTY
  1
$PN.
  9
$CUSTOMPROPERTYTAG
  1
LINA
  9
$CUSTOMPROPERTY
  1
136833
  9
$CUSTOMPROPERTYTAG
  1
SERIES
  9
$CUSTOMPROPERTY
  1
204
  9
$CUSTOMPROPERTYTAG
  1
SS
  9
$CUSTOMPROPERTY
  1
3/4
  9
$CUSTOMPROPERTYTAG
  1
PN
  9
$CUSTOMPROPERTY
  1
136833
  9
$CUSTOMPROPERTYTAG
  1
DESCRIPTION
  9
$CUSTOMPROPERTY
  1
NSTU-SCEZ-012-SHSS
  9
$CUSTOMPROPERTYTAG
  1
W
  9
$CUSTOMPROPERTY
  1
1.16
  9
$CUSTOMPROPERTYTAG
  1
FS
  9
$CUSTOMPROPERTY
  1
NS210
  9
$CUSTOMPROPERTYTAG
  1
A
  9
$CUSTOMPROPERTY
  1
1.23
  9
$CUSTOMPROPERTYTAG
  1
B
  9
$CUSTOMPROPERTY
  1
3.49
  9
$CUSTOMPROPERTYTAG
  1
C
  9
$CUSTOMPROPERTY
  1
0.265
  9
$CUSTOMPROPERTYTAG
  1
D
  9
$CUSTOMPROPERTY
  1
1.50
  9
$CUSTOMPROPERTYTAG
  1
E
  9
$CUSTOMPROPERTY
  1
2.19
  9
$CUSTOMPROPERTYTAG
  1
F
  9
$CUSTOMPROPERTY
  1
3/4
  9
$CUSTOMPROPERTYTAG
  1
G
  9
$CUSTOMPROPERTY
  1
0.44
  9
$CUSTOMPROPERTYTAG
  1
H
  9
$CUSTOMPROPERTY
  1
0.88
  9
$CUSTOMPROPERTYTAG
  1
J
  9
$CUSTOMPROPERTY
  1
1.20
  9
$CUSTOMPROPERTYTAG
  1
L
  9
$CUSTOMPROPERTY
  1
1.11
  9
$CUSTOMPROPERTYTAG
  1
M
  9
$CUSTOMPROPERTY
  1
2.635 / 2.605
  9
$CUSTOMPROPERTYTAG
  1
N
  9
$CUSTOMPROPERTY
  1
3.13
  9
$CUSTOMPROPERTYTAG
  1
P
  9
$CUSTOMPROPERTY
  1
0.32
  9
$CUSTOMPROPERTYTAG
  1
R
  9
$CUSTOMPROPERTY
  1
0.50
  9
$CUSTOMPROPERTYTAG
  1
S
  9
$CUSTOMPROPERTY
  1
0.73
  9
$CUSTOMPROPERTYTAG
  1
COMPANY
  9
$CUSTOMPROPERTY
  1
baldor
  9
$INSBASE
 10
0.0
 20
0.0
 30
0.0
  9
$EXTMIN
 10
1.000000000000000E+20
 20
1.000000000000000E+20
 30
1.000000000000000E+20
  9
$EXTMAX
 10
-1.000000000000000E+20
 20
-1.000000000000000E+20
 30
-1.000000000000000E+20
  9
$LIMMIN
 10
0.0
 20
0.0
  9
$LIMMAX
 10
12.0
 20
9.0
  9
$ORTHOMODE
 70
     0
  9
$REGENMODE
 70
     1
  9
$FILLMODE
 70
     1
  9
$QTEXTMODE
 70
     0
  9
$MIRRTEXT
 70
     1
  9
$LTSCALE
 40
1.0
  9
$ATTMODE
 70
     1
  9
$TEXTSIZE
 40
0.2
  9
$TRACEWID
 40
0.05
  9
$TEXTSTYLE
  7
Standard
  9
$CLAYER
  8
0
  9
$CELTYPE
  6
ByLayer
  9
$CECOLOR
 62
   256
  9
$CELTSCALE
 40
1.0
  9
$DISPSILH
 70
     0
  9
$DIMSCALE
 40
1.0
  9
$DIMASZ
 40
0.18
  9
$DIMEXO
 40
0.0625
  9
$DIMDLI
 40
0.38
  9
$DIMRND
 40
0.0
  9
$DIMDLE
 40
0.0
  9
$DIMEXE
 40
0.18
  9
$DIMTP
 40
0.0
  9
$DIMTM
 40
0.0
  9
$DIMTXT
 40
0.18
  9
$DIMCEN
 40
0.09
  9
$DIMTSZ
 40
0.0
  9
$DIMTOL
 70
     0
  9
$DIMLIM
 70
     0
  9
$DIMTIH
 70
     1
  9
$DIMTOH
 70
     1
  9
$DIMSE1
 70
     0
  9
$DIMSE2
 70
     0
  9
$DIMTAD
 70
     0
  9
$DIMZIN
 70
     0
  9
$DIMBLK
  1

  9
$DIMASO
 70
     1
  9
$DIMSHO
 70
     1
  9
$DIMPOST
  1

  9
$DIMAPOST
  1

  9
$DIMALT
 70
     0
  9
$DIMALTD
 70
     2
  9
$DIMALTF
 40
25.4
  9
$DIMLFAC
 40
1.0
  9
$DIMTOFL
 70
     0
  9
$DIMTVP
 40
0.0
  9
$DIMTIX
 70
     0
  9
$DIMSOXD
 70
     0
  9
$DIMSAH
 70
     0
  9
$DIMBLK1
  1

  9
$DIMBLK2
  1

  9
$DIMSTYLE
  2
Standard
  9
$DIMCLRD
 70
     0
  9
$DIMCLRE
 70
     0
  9
$DIMCLRT
 70
     0
  9
$DIMTFAC
 40
1.0
  9
$DIMGAP
 40
0.09
  9
$DIMJUST
 70
     0
  9
$DIMSD1
 70
     0
  9
$DIMSD2
 70
     0
  9
$DIMTOLJ
 70
     1
  9
$DIMTZIN
 70
     0
  9
$DIMALTZ
 70
     0
  9
$DIMALTTZ
 70
     0
  9
$DIMUPT
 70
     0
  9
$DIMDEC
 70
     4
  9
$DIMTDEC
 70
     4
  9
$DIMALTU
 70
     2
  9
$DIMALTTD
 70
     2
  9
$DIMTXSTY
  7
Standard
  9
$DIMAUNIT
 70
     0
  9
$DIMADEC
 70
     0
  9
$DIMALTRND
 40
0.0
  9
$DIMAZIN
 70
     0
  9
$DIMDSEP
 70
    46
  9
$DIMATFIT
 70
     3
  9
$DIMFRAC
 70
     0
  9
$DIMLDRBLK
  1

  9
$DIMLUNIT
 70
     2
  9
$DIMLWD
 70
    -2
  9
$DIMLWE
 70
    -2
  9
$DIMTMOVE
 70
     0
  9
$DIMFXL
 40
1.0
  9
$DIMFXLON
 70
     0
  9
$DIMJOGANG
 40
0.7853981633974483
  9
$DIMTFILL
 70
     0
  9
$DIMTFILLCLR
 70
     0
  9
$DIMARCSYM
 70
     0
  9
$DIMLTYPE
  6

  9
$DIMLTEX1
  6

  9
$DIMLTEX2
  6

  9
$DIMTXTDIRECTION
 70
     0
  9
$LUNITS
 70
     2
  9
$LUPREC
 70
     4
  9
$SKETCHINC
 40
0.1
  9
$FILLETRAD
 40
0.5
  9
$AUNITS
 70
     0
  9
$AUPREC
 70
     0
  9
$MENU
  1
.
  9
$ELEVATION
 40
0.0
  9
$PELEVATION
 40
0.0
  9
$THICKNESS
 40
0.0
  9
$LIMCHECK
 70
     0
  9
$CHAMFERA
 40
0.0
  9
$CHAMFERB
 40
0.0
  9
$CHAMFERC
 40
0.0
  9
$CHAMFERD
 40
0.0
  9
$SKPOLY
 70
     0
  9
$TDCREATE
 40
2458168.892304352
  9
$TDUCREATE
 40
2458168.850637685
  9
$TDUPDATE
 40
2458168.892304537
  9
$TDUUPDATE
 40
2458168.85063787
  9
$TDINDWG
 40
0.0000000116
  9
$TDUSRTIMER
 40
0.0000000116
  9
$USRTIMER
 70
     1
  9
$ANGBASE
 50
0.0
  9
$ANGDIR
 70
     0
  9
$PDMODE
 70
     0
  9
$PDSIZE
 40
0.0
  9
$PLINEWID
 40
0.0
  9
$SPLFRAME
 70
     0
  9
$SPLINETYPE
 70
     6
  9
$SPLINESEGS
 70
     8
  9
$HANDSEED
  5
1A6
  9
$SURFTAB1
 70
     6
  9
$SURFTAB2
 70
     6
  9
$SURFTYPE
 70
     6
  9
$SURFU
 70
     6
  9
$SURFV
 70
     6
  9
$UCSBASE
  2

  9
$UCSNAME
  2

  9
$UCSORG
 10
0.0
 20
0.0
 30
0.0
  9
$UCSXDIR
 10
1.0
 20
0.0
 30
0.0
  9
$UCSYDIR
 10
0.0
 20
1.0
 30
0.0
  9
$UCSORTHOREF
  2

  9
$UCSORTHOVIEW
 70
     0
  9
$UCSORGTOP
 10
0.0
 20
0.0
 30
0.0
  9
$UCSORGBOTTOM
 10
0.0
 20
0.0
 30
0.0
  9
$UCSORGLEFT
 10
0.0
 20
0.0
 30
0.0
  9
$UCSORGRIGHT
 10
0.0
 20
0.0
 30
0.0
  9
$UCSORGFRONT
 10
0.0
 20
0.0
 30
0.0
  9
$UCSORGBACK
 10
0.0
 20
0.0
 30
0.0
  9
$PUCSBASE
  2

  9
$PUCSNAME
  2

  9
$PUCSORG
 10
0.0
 20
0.0
 30
0.0
  9
$PUCSXDIR
 10
1.0
 20
0.0
 30
0.0
  9
$PUCSYDIR
 10
0.0
 20
1.0
 30
0.0
  9
$PUCSORTHOREF
  2

  9
$PUCSORTHOVIEW
 70
     0
  9
$PUCSORGTOP
 10
0.0
 20
0.0
 30
0.0
  9
$PUCSORGBOTTOM
 10
0.0
 20
0.0
 30
0.0
  9
$PUCSORGLEFT
 10
0.0
 20
0.0
 30
0.0
  9
$PUCSORGRIGHT
 10
0.0
 20
0.0
 30
0.0
  9
$PUCSORGFRONT
 10
0.0
 20
0.0
 30
0.0
  9
$PUCSORGBACK
 10
0.0
 20
0.0
 30
0.0
  9
$USERI1
 70
     0
  9
$USERI2
 70
     0
  9
$USERI3
 70
     0
  9
$USERI4
 70
     0
  9
$USERI5
 70
     0
  9
$USERR1
 40
0.0
  9
$USERR2
 40
0.0
  9
$USERR3
 40
0.0
  9
$USERR4
 40
0.0
  9
$USERR5
 40
0.0
  9
$WORLDVIEW
 70
     1
  9
$SHADEDGE
 70
     3
  9
$SHADEDIF
 70
    70
  9
$TILEMODE
 70
     1
  9
$MAXACTVP
 70
    64
  9
$PINSBASE
 10
0.0
 20
0.0
 30
0.0
  9
$PLIMCHECK
 70
     0
  9
$PEXTMIN
 10
1.000000000000000E+20
 20
1.000000000000000E+20
 30
1.000000000000000E+20
  9
$PEXTMAX
 10
-1.000000000000000E+20
 20
-1.000000000000000E+20
 30
-1.000000000000000E+20
  9
$PLIMMIN
 10
0.0
 20
0.0
  9
$PLIMMAX
 10
12.0
 20
9.0
  9
$UNITMODE
 70
     0
  9
$VISRETAIN
 70
     1
  9
$PLINEGEN
 70
     0
  9
$PSLTSCALE
 70
     1
  9
$TREEDEPTH
 70
  3020
  9
$CMLSTYLE
  2
Standard
  9
$CMLJUST
 70
     0
  9
$CMLSCALE
 40
1.0
  9
$PROXYGRAPHICS
 70
     1
  9
$MEASUREMENT
 70
     0
  9
$CELWEIGHT
370
    -1
  9
$ENDCAPS
280
     0
  9
$JOINSTYLE
280
     0
  9
$LWDISPLAY
290
     0
  9
$INSUNITS
 70
     1
  9
$HYPERLINKBASE
  1

  9
$STYLESHEET
  1

  9
$XEDIT
290
     1
  9
$CEPSNTYPE
380
     0
  9
$PSTYLEMODE
290
     1
  9
$FINGERPRINTGUID
  2
{6103ED52-28AA-4FC5-91E5-DA5BE2046A1B}
  9
$VERSIONGUID
  2
{FAEB1C32-E019-11D5-929B-00C0DF256EC4}
  9
$EXTNAMES
290
     1
  9
$PSVPSCALE
 40
0.0
  9
$OLESTARTUP
290
     0
  9
$SORTENTS
280
   127
  9
$INDEXCTL
280
     0
  9
$HIDETEXT
280
     1
  9
$XCLIPFRAME
280
     2
  9
$HALOGAP
280
     0
  9
$OBSCOLOR
 70
   257
  9
$OBSLTYPE
280
     0
  9
$INTERSECTIONDISPLAY
280
     0
  9
$INTERSECTIONCOLOR
 70
   257
  9
$DIMASSOC
280
     2
  9
$PROJECTNAME
  1

  9
$CAMERADISPLAY
290
     0
  9
$LENSLENGTH
 40
50.0
  9
$CAMERAHEIGHT
 40
0.0
  9
$STEPSPERSEC
 40
2.0
  9
$STEPSIZE
 40
6.0
  9
$3DDWFPREC
 40
2.0
  9
$PSOLWIDTH
 40
0.25
  9
$PSOLHEIGHT
 40
4.0
  9
$LOFTANG1
 40
1.570796326794897
  9
$LOFTANG2
 40
1.570796326794897
  9
$LOFTMAG1
 40
0.0
  9
$LOFTMAG2
 40
0.0
  9
$LOFTPARAM
 70
     7
  9
$LOFTNORMALS
280
     1
  9
$LATITUDE
 40
37.795
  9
$LONGITUDE
 40
-122.394
  9
$NORTHDIRECTION
 40
0.0
  9
$TIMEZONE
 70
 -8000
  9
$LIGHTGLYPHDISPLAY
280
     1
  9
$TILEMODELIGHTSYNCH
280
     1
  9
$CMATERIAL
347
44
  9
$SOLIDHIST
280
     0
  9
$SHOWHIST
280
     1
  9
$DWFFRAME
280
     2
  9
$DGNFRAME
280
     2
  9
$REALWORLDSCALE
290
     1
  9
$INTERFERECOLOR
 62
   256
  9
$CSHADOW
280
     0
  9
$SHADOWPLANELOCATION
 40
0.0
  0
ENDSEC
  0
SECTION
  2
CLASSES
  0
CLASS
  1
ACDBDICTIONARYWDFLT
  2
AcDbDictionaryWithDefault
  3
ObjectDBX Classes
 90
        0
 91
        4
280
     0
281
     0
  0
CLASS
  1
VISUALSTYLE
  2
AcDbVisualStyle
  3
ObjectDBX Classes
 90
     4095
 91
        4
280
     0
281
     0
  0
CLASS
  1
MATERIAL
  2
AcDbMaterial
  3
ObjectDBX Classes
 90
     1153
 91
        4
280
     0
281
     0
  0
CLASS
  1
SCALE
  2
AcDbScale
  3
ObjectDBX Classes
 90
     1153
 91
        4
280
     0
281
     0
  0
CLASS
  1
TABLESTYLE
  2
AcDbTableStyle
  3
ObjectDBX Classes
 90
     4095
 91
        4
280
     0
281
     0
  0
CLASS
  1
MLEADERSTYLE
  2
AcDbMLeaderStyle
  3
ACDB_MLEADERSTYLE_CLASS
 90
     4095
 91
        4
280
     0
281
     0
  0
CLASS
  1
SUN
  2
AcDbSun
  3
SCENEOE
 90
     1153
 91
        4
280
     0
281
     0
  0
CLASS
  1
DICTIONARYVAR
  2
AcDbDictionaryVar
  3
ObjectDBX Classes
 90
        0
 91
        4
280
     0
281
     0
  0
CLASS
  1
CELLSTYLEMAP
  2
AcDbCellStyleMap
  3
ObjectDBX Classes
 90
     1152
 91
        4
280
     0
281
     0
  0
ENDSEC
  0
SECTION
  2
TABLES
  0
TABLE
  2
VPORT
  5
8
330
0
100
AcDbSymbolTable
 70
     1
  0
VPORT
  5
29
330
8
100
AcDbSymbolTableRecord
100
AcDbViewportTableRecord
  2
*Active
 70
     0
 10
0.0
 20
0.0
 11
1.0
 21
1.0
 12
0.3828233503518685
 22
-0.0649999976158142
 13
0.0
 23
0.0
 14
0.5
 24
0.5
 15
0.5
 25
0.5
 16
0.0
 26
0.0
 36
1.0
 17
0.0
 27
0.0
 37
0.0
 40
2.849212729628528
 41
1.325418887123442
 42
50.0
 43
0.0
 44
0.0
 50
0.0
 51
0.0
 71
     0
 72
   100
 73
     1
 74
     3
 75
     0
 76
     0
 77
     0
 78
     0
281
     0
 65
     1
110
0.0
120
0.0
130
0.0
111
1.0
121
0.0
131
0.0
112
0.0
122
1.0
132
0.0
 79
     0
146
0.0
348
2F
 60
     3
 61
     5
292
     1
282
     1
141
0.0
142
0.0
 63
   250
361
6D
  0
ENDTAB
  0
TABLE
  2
LTYPE
  5
5
330
0
100
AcDbSymbolTable
 70
     3
  0
LTYPE
  5
14
330
5
100
AcDbSymbolTableRecord
100
AcDbLinetypeTableRecord
  2
ByBlock
 70
     0
  3

 72
    65
 73
     0
 40
0.0
  0
LTYPE
  5
15
330
5
100
AcDbSymbolTableRecord
100
AcDbLinetypeTableRecord
  2
ByLayer
 70
     0
  3

 72
    65
 73
     0
 40
0.0
  0
LTYPE
  5
16
330
5
100
AcDbSymbolTableRecord
100
AcDbLinetypeTableRecord
  2
Continuous
 70
     0
  3
Solid line
 72
    65
 73
     0
 40
0.0
  0
LTYPE
  5
A0
330
5
100
AcDbSymbolTableRecord
100
AcDbLinetypeTableRecord
  2
Dashed
 70
     0
  3

 72
    65
 73
     2
 40
2.0
 49
1.0
 74
     0
 49
-1.0
 74
     0
  0
LTYPE
  5
127
330
5
100
AcDbSymbolTableRecord
100
AcDbLinetypeTableRecord
  2
Center
 70
     0
  3

 72
    65
 73
     4
 40
1.5
 49
0.45
 74
     0
 49
-0.5
 74
     0
 49
0.05
 74
     0
 49
-0.5
 74
     0
  0
ENDTAB
  0
TABLE
  2
LAYER
  5
2
330
0
100
AcDbSymbolTable
 70
     7
  0
LAYER
  5
10
330
2
100
AcDbSymbolTableRecord
100
AcDbLayerTableRecord
  2
0
 70
     0
 62
     7
  6
Continuous
370
    -3
390
F
347
46
348
0
  0
LAYER
  5
72
330
2
100
AcDbSymbolTableRecord
100
AcDbLayerTableRecord
  2
AM_6
 70
     0
 62
    -2
  6
Continuous
370
    35
390
F
347
46
348
0
  0
LAYER
  5
A1
330
2
100
AcDbSymbolTableRecord
100
AcDbLayerTableRecord
  2
AM_9
 70
     0
 62
     6
  6
Dashed
370
    25
390
F
347
46
348
0
  0
LAYER
  5
E0
330
2
100
AcDbSymbolTableRecord
100
AcDbLayerTableRecord
  2
AM_4
 70
     0
 62
     7
  6
Continuous
370
    50
390
F
347
46
348
0
  0
LAYER
  5
128
330
2
100
AcDbSymbolTableRecord
100
AcDbLayerTableRecord
  2
AM_7
 70
     0
 62
     7
  6
Center
370
    25
390
F
347
46
348
0
  0
LAYER
  5
13C
330
2
100
AcDbSymbolTableRecord
100
AcDbLayerTableRecord
  2
AM_5
 70
     0
 62
     3
  6
Continuous
370
    25
390
F
347
46
348
0
  0
LAYER
  5
198
330
2
100
AcDbSymbolTableRecord
100
AcDbLayerTableRecord
  2
ConnectionPoints
 70
     0
 62
     7
  6
Continuous
370
    50
390
F
347
46
348
0
  0
ENDTAB
  0
TABLE
  2
STYLE
  5
3
330
0
100
AcDbSymbolTable
 70
     1
  0
STYLE
  5
11
330
3
100
AcDbSymbolTableRecord
100
AcDbTextStyleTableRecord
  2
Standard
 70
     0
 40
0.0
 41
1.0
 50
0.0
 71
     0
 42
0.2
  3
txt
  4

  0
ENDTAB
  0
TABLE
  2
VIEW
  5
6
330
0
100
AcDbSymbolTable
 70
     0
  0
ENDTAB
  0
TABLE
  2
UCS
  5
7
330
0
100
AcDbSymbolTable
 70
     0
  0
ENDTAB
  0
TABLE
  2
APPID
  5
9
330
0
100
AcDbSymbolTable
 70
     1
  0
APPID
  5
12
330
9
100
AcDbSymbolTableRecord
100
AcDbRegAppTableRecord
  2
ACAD
 70
     0
  0
ENDTAB
  0
TABLE
  2
DIMSTYLE
  5
A
330
0
100
AcDbSymbolTable
 70
     1
100
AcDbDimStyleTable
  0
DIMSTYLE
105
27
330
A
100
AcDbSymbolTableRecord
100
AcDbDimStyleTableRecord
  2
Standard
 70
     0
178
     0
340
11
  0
ENDTAB
  0
TABLE
  2
BLOCK_RECORD
  5
1
330
0
100
AcDbSymbolTable
 70
     5
  0
BLOCK_RECORD
  5
1F
330
1
100
AcDbSymbolTableRecord
100
AcDbBlockTableRecord
  2
*Model_Space
340
22
 70
     0
280
     1
281
     0
  0
BLOCK_RECORD
  5
1B
330
1
100
AcDbSymbolTableRecord
100
AcDbBlockTableRecord
  2
*Paper_Space
340
1E
 70
     0
280
     1
281
     0
  0
BLOCK_RECORD
  5
23
330
1
100
AcDbSymbolTableRecord
100
AcDbBlockTableRecord
  2
*Paper_Space0
340
26
 70
     0
280
     1
281
     0
  0
BLOCK_RECORD
  5
6E
330
1
100
AcDbSymbolTableRecord
100
AcDbBlockTableRecord
  2
1_136833_4
340
0
102
{BLKREFS
331
6F
102
}
 70
     0
280
     1
281
     0
  0
BLOCK_RECORD
  5
8E
330
1
100
AcDbSymbolTableRecord
100
AcDbBlockTableRecord
  2
2_405020c_Inch_0_in_136833_4
340
0
102
{BLKREFS
331
8F
102
}
 70
     0
280
     1
281
     0
  0
BLOCK_RECORD
  5
EE
330
1
100
AcDbSymbolTableRecord
100
AcDbBlockTableRecord
  2
3_127818_0_in_136833_4
340
0
102
{BLKREFS
331
EF
102
}
 70
     0
280
     1
281
     0
  0
BLOCK_RECORD
  5
13F
330
1
100
AcDbSymbolTableRecord
100
AcDbBlockTableRecord
  2
4_136833H_0_in_136833_4
340
0
102
{BLKREFS
331
140
102
}
 70
     0
280
     1
281
     0
  0
ENDTAB
  0
ENDSEC
  0
SECTION
  2
BLOCKS
  0
BLOCK
  5
20
330
1F
100
AcDbEntity
  8
0
100
AcDbBlockBegin
  2
*Model_Space
 70
     0
 10
0.0
 20
0.0
 30
0.0
  3
*Model_Space
  1

  0
ENDBLK
  5
21
330
1F
100
AcDbEntity
  8
0
100
AcDbBlockEnd
  0
BLOCK
  5
1C
330
1B
100
AcDbEntity
 67
     1
  8
0
100
AcDbBlockBegin
  2
*Paper_Space
 70
     0
 10
0.0
 20
0.0
 30
0.0
  3
*Paper_Space
  1

  0
ENDBLK
  5
1D
330
1B
100
AcDbEntity
 67
     1
  8
0
100
AcDbBlockEnd
  0
BLOCK
  5
24
330
23
100
AcDbEntity
  8
0
100
AcDbBlockBegin
  2
*Paper_Space0
 70
     0
 10
0.0
 20
0.0
 30
0.0
  3
*Paper_Space0
  1

  0
ENDBLK
  5
25
330
23
100
AcDbEntity
  8
0
100
AcDbBlockEnd
  0
BLOCK
  5
70
330
6E
100
AcDbEntity
  8
0
100
AcDbBlockBegin
  2
1_136833_4
 70
     2
 10
0.0
 20
0.0
 30
0.0
  3
1_136833_4
  1

  0
ATTDEF
  5
73
330
6E
100
AcDbEntity
  8
AM_6
100
AcDbText
 10
7.234
 20
1.331672909064837
 30
0.0
 40
0.5
  1
Set Screw Narrow Slot Take Up Inch Bore - Stainless Housing, Stainless Steel Insert
100
AcDbAttributeDefinition
  3

  2
NN
 70
     8
280
     0
  0
ATTDEF
  5
74
330
6E
100
AcDbEntity
  8
AM_6
100
AcDbText
 10
7.234
 20
0.8316729090648374
 30
0.0
 40
0.5
  1
SC Take-Up Bearings -Wide Slot -(Normal Duty) -Polymer Housed -Corrosion Resistant Insert -E-Z KLEEN
100
AcDbAttributeDefinition
  3

  2
NT
 70
     8
280
     0
  0
ATTDEF
  5
75
330
6E
100
AcDbEntity
  8
AM_6
100
AcDbText
 10
7.234
 20
0.3316729090648374
 30
0.0
 40
0.5
  1
136833
100
AcDbAttributeDefinition
  3

  2
NB
 70
     8
280
     0
  0
ATTDEF
  5
76
330
6E
100
AcDbEntity
  8
AM_6
100
AcDbText
 10
7.234
 20
-0.1683270909351626
 30
0.0
 40
0.5
  1
$PN.
100
AcDbAttributeDefinition
  3

  2
NBSYN
 70
     8
280
     0
  0
ATTDEF
  5
77
330
6E
100
AcDbEntity
  8
AM_6
100
AcDbText
 10
7.234
 20
-0.6683270909351626
 30
0.0
 40
0.5
  1
136833
100
AcDbAttributeDefinition
  3

  2
LINA
 70
     8
280
     0
  0
ATTDEF
  5
78
330
6E
100
AcDbEntity
  8
AM_6
100
AcDbText
 10
7.234
 20
-1.168327090935163
 30
0.0
 40
0.5
  1
204
100
AcDbAttributeDefinition
  3

  2
SERIES
 70
     8
280
     0
  0
ATTDEF
  5
79
330
6E
100
AcDbEntity
  8
AM_6
100
AcDbText
 10
7.234
 20
-1.668327090935163
 30
0.0
 40
0.5
  1
3/4
100
AcDbAttributeDefinition
  3

  2
SS
 70
     8
280
     0
  0
ATTDEF
  5
7A
330
6E
100
AcDbEntity
  8
AM_6
100
AcDbText
 10
7.234
 20
-2.168327090935163
 30
0.0
 40
0.5
  1
136833
100
AcDbAttributeDefinition
  3

  2
PN
 70
     8
280
     0
  0
ATTDEF
  5
7B
330
6E
100
AcDbEntity
  8
AM_6
100
AcDbText
 10
7.234
 20
-2.668327090935163
 30
0.0
 40
0.5
  1
NSTU-SCEZ-012-SHSS
100
AcDbAttributeDefinition
  3

  2
DESCRIPTION
 70
     8
280
     0
  0
ATTDEF
  5
7C
330
6E
100
AcDbEntity
  8
AM_6
100
AcDbText
 10
7.234
 20
-3.168327090935163
 30
0.0
 40
0.5
  1
1.16
100
AcDbAttributeDefinition
  3

  2
W
 70
     8
280
     0
  0
ATTDEF
  5
7D
330
6E
100
AcDbEntity
  8
AM_6
100
AcDbText
 10
7.234
 20
-3.668327090935163
 30
0.0
 40
0.5
  1
NS210
100
AcDbAttributeDefinition
  3

  2
FS
 70
     8
280
     0
  0
ATTDEF
  5
7E
330
6E
100
AcDbEntity
  8
AM_6
100
AcDbText
 10
7.234
 20
-4.168327090935163
 30
0.0
 40
0.5
  1
1.23
100
AcDbAttributeDefinition
  3

  2
A
 70
     8
280
     0
  0
ATTDEF
  5
7F
330
6E
100
AcDbEntity
  8
AM_6
100
AcDbText
 10
7.234
 20
-4.668327090935163
 30
0.0
 40
0.5
  1
3.49
100
AcDbAttributeDefinition
  3

  2
B
 70
     8
280
     0
  0
ATTDEF
  5
80
330
6E
100
AcDbEntity
  8
AM_6
100
AcDbText
 10
7.234
 20
-5.168327090935163
 30
0.0
 40
0.5
  1
0.265
100
AcDbAttributeDefinition
  3

  2
C
 70
     8
280
     0
  0
ATTDEF
  5
81
330
6E
100
AcDbEntity
  8
AM_6
100
AcDbText
 10
7.234
 20
-5.668327090935163
 30
0.0
 40
0.5
  1
1.50
100
AcDbAttributeDefinition
  3

  2
D
 70
     8
280
     0
  0
ATTDEF
  5
82
330
6E
100
AcDbEntity
  8
AM_6
100
AcDbText
 10
7.234
 20
-6.168327090935163
 30
0.0
 40
0.5
  1
2.19
100
AcDbAttributeDefinition
  3

  2
E
 70
     8
280
     0
  0
ATTDEF
  5
83
330
6E
100
AcDbEntity
  8
AM_6
100
AcDbText
 10
7.234
 20
-6.668327090935163
 30
0.0
 40
0.5
  1
3/4
100
AcDbAttributeDefinition
  3

  2
F
 70
     8
280
     0
  0
ATTDEF
  5
84
330
6E
100
AcDbEntity
  8
AM_6
100
AcDbText
 10
7.234
 20
-7.168327090935163
 30
0.0
 40
0.5
  1
0.44
100
AcDbAttributeDefinition
  3

  2
G
 70
     8
280
     0
  0
ATTDEF
  5
85
330
6E
100
AcDbEntity
  8
AM_6
100
AcDbText
 10
7.234
 20
-7.668327090935163
 30
0.0
 40
0.5
  1
0.88
100
AcDbAttributeDefinition
  3

  2
H
 70
     8
280
     0
  0
ATTDEF
  5
86
330
6E
100
AcDbEntity
  8
AM_6
100
AcDbText
 10
7.234
 20
-8.168327090935163
 30
0.0
 40
0.5
  1
1.20
100
AcDbAttributeDefinition
  3

  2
J
 70
     8
280
     0
  0
ATTDEF
  5
87
330
6E
100
AcDbEntity
  8
AM_6
100
AcDbText
 10
7.234
 20
-8.668327090935163
 30
0.0
 40
0.5
  1
1.11
100
AcDbAttributeDefinition
  3

  2
L
 70
     8
280
     0
  0
ATTDEF
  5
88
330
6E
100
AcDbEntity
  8
AM_6
100
AcDbText
 10
7.234
 20
-9.168327090935163
 30
0.0
 40
0.5
  1
2.635 / 2.605
100
AcDbAttributeDefinition
  3

  2
M
 70
     8
280
     0
  0
ATTDEF
  5
89
330
6E
100
AcDbEntity
  8
AM_6
100
AcDbText
 10
7.234
 20
-9.668327090935163
 30
0.0
 40
0.5
  1
3.13
100
AcDbAttributeDefinition
  3

  2
N
 70
     8
280
     0
  0
ATTDEF
  5
8A
330
6E
100
AcDbEntity
  8
AM_6
100
AcDbText
 10
7.234
 20
-10.16832709093516
 30
0.0
 40
0.5
  1
0.32
100
AcDbAttributeDefinition
  3

  2
P
 70
     8
280
     0
  0
ATTDEF
  5
8B
330
6E
100
AcDbEntity
  8
AM_6
100
AcDbText
 10
7.234
 20
-10.66832709093516
 30
0.0
 40
0.5
  1
0.50
100
AcDbAttributeDefinition
  3

  2
R
 70
     8
280
     0
  0
ATTDEF
  5
8C
330
6E
100
AcDbEntity
  8
AM_6
100
AcDbText
 10
7.234
 20
-11.16832709093516
 30
0.0
 40
0.5
  1
0.73
100
AcDbAttributeDefinition
  3

  2
S
 70
     8
280
     0
  0
ATTDEF
  5
8D
330
6E
100
AcDbEntity
  8
AM_6
100
AcDbText
 10
7.234
 20
-11.66832709093516
 30
0.0
 40
0.5
  1
baldor
100
AcDbAttributeDefinition
  3

  2
COMPANY
 70
     8
280
     0
  0
INSERT
  5
8F
330
6E
100
AcDbEntity
  8
0
100
AcDbBlockReference
  2
2_405020c_Inch_0_in_136833_4
 10
0.0
 20
0.0
 30
0.0
  0
INSERT
  5
EF
330
6E
100
AcDbEntity
  8
0
100
AcDbBlockReference
  2
3_127818_0_in_136833_4
 10
0.0
 20
0.0
 30
0.0
  0
INSERT
  5
140
330
6E
100
AcDbEntity
  8
0
100
AcDbBlockReference
  2
4_136833H_0_in_136833_4
 10
0.0
 20
0.0
 30
0.0
  0
ENDBLK
  5
71
330
6E
100
AcDbEntity
  8
0
100
AcDbBlockEnd
  0
BLOCK
  5
90
330
8E
100
AcDbEntity
  8
0
100
AcDbBlockBegin
  2
2_405020c_Inch_0_in_136833_4
 70
     2
 10
0.0
 20
0.0
 30
0.0
  3
2_405020c_Inch_0_in_136833_4
  1

  0
ATTDEF
  5
92
330
8E
100
AcDbEntity
  8
AM_6
100
AcDbText
 10
4.097416367188894
 20
0.1624086307230417
 30
0.0
 40
0.5
  1
405020C -Inch
100
AcDbAttributeDefinition
  3

  2
NN
 70
     8
280
     0
  0
ATTDEF
  5
93
330
8E
100
AcDbEntity
  8
AM_6
100
AcDbText
 10
4.097416367188894
 20
-0.3375913692769583
 30
0.0
 40
0.5
  1
Grease fitting
100
AcDbAttributeDefinition
  3

  2
NT
 70
     8
280
     0
  0
ATTDEF
  5
94
330
8E
100
AcDbEntity
  8
AM_6
100
AcDbText
 10
4.097416367188894
 20
-0.8375913692769583
 30
0.0
 40
0.5
  1
405020c-Inch
100
AcDbAttributeDefinition
  3

  2
NB
 70
     8
280
     0
  0
ATTDEF
  5
95
330
8E
100
AcDbEntity
  8
AM_6
100
AcDbText
 10
4.097416367188894
 20
-1.337591369276958
 30
0.0
 40
0.5
  1
$MN.-Inch
100
AcDbAttributeDefinition
  3

  2
NBSYN
 70
     8
280
     0
  0
ATTDEF
  5
96
330
8E
100
AcDbEntity
  8
AM_6
100
AcDbText
 10
4.097416367188894
 20
-1.837591369276958
 30
0.0
 40
0.5
  1
405020c
100
AcDbAttributeDefinition
  3

  2
LINA
 70
     8
280
     0
  0
ATTDEF
  5
97
330
8E
100
AcDbEntity
  8
AM_6
100
AcDbText
 10
4.097416367188894
 20
-2.337591369276958
 30
0.0
 40
0.5
  1
405020c
100
AcDbAttributeDefinition
  3

  2
MN
 70
     8
280
     0
  0
ATTDEF
  5
98
330
8E
100
AcDbEntity
  8
AM_6
100
AcDbText
 10
4.097416367188894
 20
-2.837591369276958
 30
0.0
 40
0.5
  1
0.230
100
AcDbAttributeDefinition
  3

  2
NDR
 70
     8
280
     0
  0
ATTDEF
  5
99
330
8E
100
AcDbEntity
  8
AM_6
100
AcDbText
 10
4.097416367188894
 20
-3.337591369276958
 30
0.0
 40
0.5
  1
0.210
100
AcDbAttributeDefinition
  3

  2
KDR
 70
     8
280
     0
  0
ATTDEF
  5
9A
330
8E
100
AcDbEntity
  8
AM_6
100
AcDbText
 10
4.097416367188894
 20
-3.837591369276958
 30
0.0
 40
0.5
  1
0.157
100
AcDbAttributeDefinition
  3

  2
BZE
 70
     8
280
     0
  0
ATTDEF
  5
9B
330
8E
100
AcDbEntity
  8
AM_6
100
AcDbText
 10
4.097416367188894
 20
-4.337591369276958
 30
0.0
 40
0.5
  1
9/32
100
AcDbAttributeDefinition
  3

  2
WAF
 70
     8
280
     0
  0
ATTDEF
  5
9C
330
8E
100
AcDbEntity
  8
AM_6
100
AcDbText
 10
4.097416367188894
 20
-4.837591369276958
 30
0.0
 40
0.5
  1
0.2813
100
AcDbAttributeDefinition
  3

  2
WAF1
 70
     8
280
     0
  0
ATTDEF
  5
9D
330
8E
100
AcDbEntity
  8
AM_6
100
AcDbText
 10
4.097416367188894
 20
-5.337591369276958
 30
0.0
 40
0.5
  1
0.545
100
AcDbAttributeDefinition
  3

  2
BL
 70
     8
280
     0
  0
ATTDEF
  5
9E
330
8E
100
AcDbEntity
  8
AM_6
100
AcDbText
 10
4.097416367188894
 20
-5.837591369276958
 30
0.0
 40
0.5
  1
0.200
100
AcDbAttributeDefinition
  3

  2
TL
 70
     8
280
     0
  0
ATTDEF
  5
9F
330
8E
100
AcDbEntity
  8
AM_6
100
AcDbText
 10
4.097416367188894
 20
-6.337591369276958
 30
0.0
 40
0.5
  1
baldor
100
AcDbAttributeDefinition
  3

  2
COMPANY
 70
     8
280
     0
  0
LINE
  5
A2
330
8E
100
AcDbEntity
  8
AM_9
100
AcDbLine
 10
-1.108193944007858
 20
-0.0812043153615209
 30
0.0
 11
-1.060557132750645
 21
-0.0812043153615209
 31
0.0
  0
LINE
  5
A3
330
8E
100
AcDbEntity
  8
AM_9
100
AcDbLine
 10
-1.108193944007858
 20
0.0812043153615208
 30
0.0
 11
-1.060557132750645
 21
0.0812043153615208
 31
0.0
  0
LWPOLYLINE
  5
A4
330
8E
100
AcDbEntity
  8
AM_9
100
AcDbPolyline
 90
        3
 70
     0
 43
0.0
 10
-1.113243051838733
 20
0.0
 10
-1.111910346594974
 20
-0.0406021576807605
 10
-1.108193944007858
 20
-0.0812043153615209
  0
LWPOLYLINE
  5
A5
330
8E
100
AcDbEntity
  8
AM_9
100
AcDbPolyline
 90
        4
 70
     0
 43
0.0
 10
-1.108193944007858
 20
0.0812043153615208
 10
-1.110184424671893
 20
0.0623017518439031
 10
-1.112447528062879
 20
0.0312428256208204
 10
-1.113243051838733
 20
0.0
  0
LWPOLYLINE
  5
A6
330
8E
100
AcDbEntity
  8
AM_9
100
AcDbPolyline
 90
        3
 70
     0
 43
0.0
 10
-1.148405551838733
 20
0.1218064730422812
 10
-1.129491596594974
 20
0.101505394201901
 10
-1.108193944007858
 20
0.0812043153615208
  0
LWPOLYLINE
  5
A7
330
8E
100
AcDbEntity
  8
AM_9
100
AcDbPolyline
 90
        3
 70
     0
 43
0.0
 10
-1.108193944007858
 20
-0.0812043153615209
 10
-1.129400772864305
 20
-0.1014141150849086
 10
-1.148405551838733
 20
-0.1218064730422813
  0
ELLIPSE
  5
A8
330
8E
100
AcDbEntity
  8
AM_9
100
AcDbEllipse
 10
-1.424611789225402
 20
-0.0000000000000001
 30
0.0
 11
4.947966775155827E-18
 21
0.08080642971672804
 31
0.0
210
0.0
220
0.0
230
1.0
 40
0.4999999999999992
 41
0.0
 42
6.283185307179586
  0
LINE
  5
A9
330
8E
100
AcDbEntity
  8
AM_9
100
AcDbLine
 10
-1.084837780337575
 20
0.1148895458551331
 30
0.0
 11
-1.090670524919771
 21
0.1218064730422812
 31
0.0
  0
LWPOLYLINE
  5
AA
330
8E
100
AcDbEntity
  8
AM_9
100
AcDbPolyline
 90
        3
 70
     0
 43
0.0
 10
-1.060557132750645
 20
0.0812043153615208
 10
-1.074354703825898
 20
0.1014141150849085
 10
-1.084837780337575
 20
0.1148895458551331
  0
LWPOLYLINE
  5
AB
330
8E
100
AcDbEntity
  8
AM_9
100
AcDbPolyline
 90
        4
 70
     0
 43
0.0
 10
-1.055508024919771
 20
0.0
 10
-1.056298928335861
 20
0.0311508759219515
 10
-1.058566652086611
 20
0.0623017518439031
 10
-1.060557132750645
 20
0.0812043153615208
  0
LWPOLYLINE
  5
AC
330
8E
100
AcDbEntity
  8
AM_9
100
AcDbPolyline
 90
        3
 70
     0
 43
0.0
 10
-1.084837744863126
 20
-0.1148895026250832
 10
-1.074421980163529
 20
-0.1015053942019011
 10
-1.060557132750645
 20
-0.0812043153615209
  0
LINE
  5
AD
330
8E
100
AcDbEntity
  8
AM_9
100
AcDbLine
 10
-1.090670524919771
 20
-0.1218064730422813
 30
0.0
 11
-1.084837744863126
 21
-0.1148895026250832
 31
0.0
  0
LWPOLYLINE
  5
AE
330
8E
100
AcDbEntity
  8
AM_9
100
AcDbPolyline
 90
        3
 70
     0
 43
0.0
 10
-1.060557132750645
 20
-0.0812043153615209
 10
-1.056852503860049
 20
-0.0407847159147455
 10
-1.055508024919771
 20
0.0
  0
ELLIPSE
  5
AF
330
8E
100
AcDbEntity
  8
AM_9
100
AcDbEllipse
 10
-1.411420731213809
 20
0.0000000000000006
 30
0.0
 11
-1.907125028439286E-17
 21
-0.1038190510530384
 31
0.0
210
0.0
220
0.0
230
1.0
 40
0.5000000000000128
 41
6.035592743710462
 42
9.672370524238506
  0
LWPOLYLINE
  5
B0
330
8E
100
AcDbEntity
  8
AM_9
100
AcDbPolyline
 90
        3
 70
     0
 43
0.0
 10
-1.178518944007858
 20
0.1624086307230417
 10
-1.164721372932606
 20
0.142198830999654
 10
-1.148405551838733
 20
0.1218064730422812
  0
LWPOLYLINE
  5
B1
330
8E
100
AcDbEntity
  8
AM_9
100
AcDbPolyline
 90
        3
 70
     0
 43
0.0
 10
-1.148405551838733
 20
-0.1218064730422813
 10
-1.164654096594975
 20
-0.1421075518826616
 10
-1.178518944007858
 20
-0.1624086307230418
  0
ELLIPSE
  5
B2
330
8E
100
AcDbEntity
  8
AM_9
100
AcDbEllipse
 10
-1.354023581283407
 20
-0.0000000000000056
 30
0.0
 11
-2.423914593631889E-17
 21
-0.1319517646676856
 31
0.0
210
0.0
220
0.0
230
1.0
 40
0.4999999999999898
 41
3.141592653589793
 42
3.392194683687598
  0
LINE
  5
B3
330
8E
100
AcDbEntity
  8
AM_9
100
AcDbLine
 10
-1.246234715948966
 20
0.0957004741016685
 30
0.0
 11
-1.3
 21
0.1257600217155468
 31
0.0
  0
LINE
  5
B4
330
8E
100
AcDbEntity
  8
AM_9
100
AcDbLine
 10
-1.3
 20
-0.125760021715547
 30
0.0
 11
-1.246234715948966
 21
-0.0957004741016686
 31
0.0
  0
ELLIPSE
  5
B5
330
8E
100
AcDbEntity
  8
AM_9
100
AcDbEllipse
 10
-1.318804519578808
 20
0.0000000000000003
 30
0.0
 11
-2.410874799674261E-17
 21
-0.131241911346891
 31
0.0
210
0.0
220
0.0
230
1.0
 40
0.4999999999999967
 41
0.2725859983187853
 42
2.869006655271008
  0
ELLIPSE
  5
B6
330
8E
100
AcDbEntity
  8
AM_9
100
AcDbEllipse
 10
-1.25961097262046
 20
-0.0000000000000003
 30
0.0
 11
-1.825386269924896E-17
 21
-0.09936940028726655
 31
0.0
210
0.0
220
0.0
230
1.0
 40
0.500000000000003
 41
5.334059423994566
 42
10.37390384395439
  0
LWPOLYLINE
  5
B7
330
8E
100
AcDbEntity
  8
AM_9
100
AcDbPolyline
 90
        5
 70
     0
 43
0.0
 10
-1.241311065081927
 20
0.0946847896390988
 10
-1.242483768618345
 20
0.0947347825717729
 10
-1.244701047532024
 20
0.0951221921035235
 10
-1.245900040759639
 20
0.0955379404042314
 10
-1.246236317962747
 20
0.0957013711622627
  0
LWPOLYLINE
  5
B8
330
8E
100
AcDbEntity
  8
AM_9
100
AcDbPolyline
 90
        4
 70
     0
 43
0.0
 10
-1.237135289062867
 20
-0.0953721747152712
 10
-1.236956620261922
 20
-0.0954403067514647
 10
-1.236391453568892
 20
-0.095698224076919
 10
-1.236372537818946
 20
-0.0957089489758414
  0
LWPOLYLINE
  5
B9
330
8E
100
AcDbEntity
  8
AM_9
100
AcDbPolyline
 90
        3
 70
     0
 43
0.0
 10
-1.239437694696936
 20
-0.0948134859791126
 10
-1.238405651503029
 20
-0.0950012260639048
 10
-1.238085741367351
 20
-0.0950785182663401
  0
LWPOLYLINE
  5
BA
330
8E
100
AcDbEntity
  8
AM_9
100
AcDbPolyline
 90
        6
 70
     0
 43
0.0
 10
-1.246230578642628
 20
-0.0956981697134773
 10
-1.246129056491163
 20
-0.0956449653487583
 10
-1.245280150106536
 20
-0.0952990993920472
 10
-1.243578196500771
 20
-0.0948745895824613
 10
-1.241043216489131
 20
-0.0946873843256046
 10
-1.239437694696936
 20
-0.0948134859791126
  0
LWPOLYLINE
  5
BB
330
8E
100
AcDbEntity
  8
AM_9
100
AcDbPolyline
 90
        3
 70
     0
 43
0.0
 10
-1.240638799647047
 20
-0.0914204308395793
 10
-1.240848097858532
 20
-0.0911559634219459
 10
-1.242129651193053
 20
-0.0894410008067656
  0
LWPOLYLINE
  5
BC
330
8E
100
AcDbEntity
  8
AM_9
100
AcDbPolyline
 90
        3
 70
     0
 43
0.0
 10
-1.236372537818946
 20
-0.0957089489758414
 10
-1.23657792557981
 20
-0.0955709202261864
 10
-1.237148195749009
 20
-0.0951254562126428
  0
LWPOLYLINE
  5
BD
330
8E
100
AcDbEntity
  8
AM_9
100
AcDbPolyline
 90
        3
 70
     0
 43
0.0
 10
-1.236951305617607
 20
0.0952868469015745
 10
-1.236602327702421
 20
0.0955534196899745
 10
-1.236372537818946
 20
0.0957089489758413
  0
LINE
  5
BE
330
8E
100
AcDbEntity
  8
AM_9
100
AcDbLine
 10
-1.242204195305085
 20
0.089336217858628
 30
0.0
 11
-1.241362455447156
 21
0.090487327024473
 31
0.0
  0
LWPOLYLINE
  5
BF
330
8E
100
AcDbEntity
  8
AM_9
100
AcDbPolyline
 90
        3
 70
     0
 43
0.0
 10
-1.239464907972041
 20
0.0948097212604326
 10
-1.240612650279993
 20
0.0947024596473185
 10
-1.241311065081927
 20
0.0946847896390988
  0
LWPOLYLINE
  5
C0
330
8E
100
AcDbEntity
  8
AM_9
100
AcDbPolyline
 90
        3
 70
     0
 43
0.0
 10
-1.238098674357773
 20
0.0950752027997544
 10
-1.238355521906576
 20
0.0950127003996574
 10
-1.239464907972041
 20
0.0948097212604326
  0
LWPOLYLINE
  5
C1
330
8E
100
AcDbEntity
  8
AM_9
100
AcDbPolyline
 90
        4
 70
     0
 43
0.0
 10
-1.236372537818946
 20
0.0957089489758413
 10
-1.236389519412693
 20
0.0956992994177048
 10
-1.236952517722968
 20
0.0954419302644283
 10
-1.237133919958533
 20
0.0953726785113726
  0
LWPOLYLINE
  5
C2
330
8E
100
AcDbEntity
  8
AM_9
100
AcDbPolyline
 90
        3
 70
     0
 43
0.0
 10
-1.090670524919771
 20
0.1218064730422812
 10
-1.109584480163529
 20
0.1421075518826615
 10
-1.130882132750646
 20
0.1624086307230417
  0
LWPOLYLINE
  5
C3
330
8E
100
AcDbEntity
  8
AM_9
100
AcDbPolyline
 90
        3
 70
     0
 43
0.0
 10
-1.130882132750646
 20
-0.1624086307230418
 10
-1.109675303894199
 20
-0.1421988309996541
 10
-1.090670524919771
 20
-0.1218064730422813
  0
ELLIPSE
  5
C4
330
8E
100
AcDbEntity
  8
AM_9
100
AcDbEllipse
 10
-1.210692443297135
 20
-0.0000000000000002
 30
0.0
 11
-2.008349425575840E-17
 21
-0.1093294505797716
 31
0.0
210
0.0
220
0.0
230
1.0
 40
0.5000000000000058
 41
3.141592653589793
 42
5.667705598509172
  0
LINE
  5
C5
330
8E
100
AcDbEntity
  8
AM_9
100
AcDbLine
 10
-1.24225313715843
 20
-0.0892671225930902
 30
0.0
 11
-1.224170209519494
 21
-0.1148402441074848
 31
0.0
  0
LINE
  5
C6
330
8E
100
AcDbEntity
  8
AM_9
100
AcDbLine
 10
-1.224170209519494
 20
0.1148402441074847
 30
0.0
 11
-1.24225313715843
 21
0.0892671225930901
 31
0.0
  0
LINE
  5
C7
330
8E
100
AcDbEntity
  8
AM_9
100
AcDbLine
 10
-1.178518944007858
 20
-0.1624086307230418
 30
0.0
 11
-1.130882132750646
 21
-0.1624086307230418
 31
0.0
  0
LWPOLYLINE
  5
C8
330
8E
100
AcDbEntity
  8
AM_9
100
AcDbPolyline
 90
        3
 70
     0
 43
0.0
 10
-1.160995524919771
 20
-0.1218064730422813
 10
-1.144746980163529
 20
-0.1421075518826616
 10
-1.130882132750646
 20
-0.1624086307230418
  0
LWPOLYLINE
  5
C9
330
8E
100
AcDbEntity
  8
AM_9
100
AcDbPolyline
 90
        3
 70
     0
 43
0.0
 10
-1.218730551838733
 20
-0.1218064730422813
 10
-1.234979096594975
 20
-0.1015053942019011
 10
-1.248843944007858
 20
-0.0812043153615209
  0
LWPOLYLINE
  5
CA
330
8E
100
AcDbEntity
  8
AM_9
100
AcDbPolyline
 90
        3
 70
     0
 43
0.0
 10
-1.178518944007858
 20
-0.1624086307230418
 10
-1.199725772864305
 20
-0.1421988309996541
 10
-1.218730551838733
 20
-0.1218064730422813
  0
LWPOLYLINE
  5
CB
330
8E
100
AcDbEntity
  8
AM_9
100
AcDbPolyline
 90
        3
 70
     0
 43
0.0
 10
-1.201207132750645
 20
-0.0812043153615209
 10
-1.180000303894199
 20
-0.1014141150849086
 10
-1.160995524919771
 20
-0.1218064730422813
  0
LINE
  5
CC
330
8E
100
AcDbEntity
  8
AM_9
100
AcDbLine
 10
-1.248843944007858
 20
-0.0812043153615209
 30
0.0
 11
-1.201207132750645
 21
-0.0812043153615209
 31
0.0
  0
LWPOLYLINE
  5
CD
330
8E
100
AcDbEntity
  8
AM_9
100
AcDbPolyline
 90
        3
 70
     0
 43
0.0
 10
-1.196158024919771
 20
0.0
 10
-1.197490730163529
 20
-0.0406021576807605
 10
-1.201207132750645
 20
-0.0812043153615209
  0
LWPOLYLINE
  5
CE
330
8E
100
AcDbEntity
  8
AM_9
100
AcDbPolyline
 90
        4
 70
     0
 43
0.0
 10
-1.201207132750645
 20
0.0812043153615208
 10
-1.199216652086611
 20
0.0623017518439031
 10
-1.196953548695625
 20
0.0312428256208204
 10
-1.196158024919771
 20
0.0
  0
LWPOLYLINE
  5
CF
330
8E
100
AcDbEntity
  8
AM_9
100
AcDbPolyline
 90
        4
 70
     0
 43
0.0
 10
-1.253893051838733
 20
0.0
 10
-1.253102148422643
 20
0.0311508759219515
 10
-1.250834424671893
 20
0.0623017518439031
 10
-1.248843944007858
 20
0.0812043153615208
  0
LWPOLYLINE
  5
D0
330
8E
100
AcDbEntity
  8
AM_9
100
AcDbPolyline
 90
        3
 70
     0
 43
0.0
 10
-1.248843944007858
 20
-0.0812043153615209
 10
-1.252548572898455
 20
-0.0407847159147455
 10
-1.253893051838733
 20
0.0
  0
LINE
  5
D1
330
8E
100
AcDbEntity
  8
AM_9
100
AcDbLine
 10
-1.248843944007858
 20
0.0812043153615208
 30
0.0
 11
-1.201207132750645
 21
0.0812043153615208
 31
0.0
  0
LWPOLYLINE
  5
D2
330
8E
100
AcDbEntity
  8
AM_9
100
AcDbPolyline
 90
        3
 70
     0
 43
0.0
 10
-1.160995524919771
 20
0.1218064730422813
 10
-1.179909480163529
 20
0.1015053942019011
 10
-1.201207132750645
 20
0.0812043153615208
  0
LWPOLYLINE
  5
D3
330
8E
100
AcDbEntity
  8
AM_9
100
AcDbPolyline
 90
        3
 70
     0
 43
0.0
 10
-1.130882132750646
 20
0.1624086307230417
 10
-1.144679703825898
 20
0.142198830999654
 10
-1.160995524919771
 20
0.1218064730422813
  0
LINE
  5
D4
330
8E
100
AcDbEntity
  8
AM_9
100
AcDbLine
 10
-1.178518944007858
 20
0.1624086307230417
 30
0.0
 11
-1.130882132750646
 21
0.1624086307230417
 31
0.0
  0
LWPOLYLINE
  5
D5
330
8E
100
AcDbEntity
  8
AM_9
100
AcDbPolyline
 90
        3
 70
     0
 43
0.0
 10
-1.218730551838733
 20
0.1218064730422813
 10
-1.199816596594974
 20
0.1421075518826615
 10
-1.178518944007858
 20
0.1624086307230417
  0
LWPOLYLINE
  5
D6
330
8E
100
AcDbEntity
  8
AM_9
100
AcDbPolyline
 90
        3
 70
     0
 43
0.0
 10
-1.248843944007858
 20
0.0812043153615208
 10
-1.235046372932606
 20
0.1014141150849085
 10
-1.218730551838733
 20
0.1218064730422813
  0
LINE
  5
D7
330
8E
100
AcDbEntity
  8
AM_9
100
AcDbLine
 10
-0.9605758143988025
 20
0.1103982849382551
 30
0.0
 11
-1.124781956178815
 21
0.1163248245922478
 31
0.0
  0
LINE
  5
D8
330
8E
100
AcDbEntity
  8
AM_9
100
AcDbLine
 10
-1.124781956178815
 20
-0.1163248245922479
 30
0.0
 11
-0.9605758143988025
 21
-0.1103982849382552
 31
0.0
  0
LINE
  5
D9
330
8E
100
AcDbEntity
  8
AM_9
100
AcDbLine
 10
-0.923734847532495
 20
0.0817220182273017
 30
0.0
 11
-0.9296975114712206
 21
0.0901544984373204
 31
0.0
  0
LINE
  5
DA
330
8E
100
AcDbEntity
  8
AM_9
100
AcDbLine
 10
-0.9296975114712206
 20
-0.0901544984373204
 30
0.0
 11
-0.923734847532495
 21
-0.0817220182273018
 31
0.0
  0
ELLIPSE
  5
DB
330
8E
100
AcDbEntity
  8
AM_9
100
AcDbEllipse
 10
-1.183568051838733
 20
0.0000000000000001
 30
0.0
 11
-2.583698584501133E-17
 21
-0.1406500000000003
 31
0.0
210
0.0
220
0.0
230
1.0
 40
0.4999999999999988
 41
0.0
 42
6.283185307179586
  0
ELLIPSE
  5
DC
330
8E
100
AcDbEntity
  8
AM_9
100
AcDbEllipse
 10
-1.125833024919774
 20
0.0000000000000017
 30
0.0
 11
-2.583698584501157E-17
 21
-0.1406500000000016
 31
0.0
210
0.0
220
0.0
230
1.0
 40
0.5000000000000069
 41
0.0
 42
6.283185307179586
  0
ELLIPSE
  5
DD
330
8E
100
AcDbEntity
  8
AM_9
100
AcDbEllipse
 10
-1.125833024920728
 20
-0.0000000000003606
 30
0.0
 11
-2.137201249166810E-17
 21
-0.1163438171536377
 31
0.0
210
0.0
220
0.0
230
1.0
 40
0.5000000000000537
 41
0.0
 42
6.283185307179586
  0
ELLIPSE
  5
DE
330
8E
100
AcDbEntity
  8
AM_9
100
AcDbEllipse
 10
-0.9615719400709719
 20
0.0000000000000003
 30
0.0
 11
-2.028313783284036E-17
 21
-0.1104162595939895
 31
0.0
210
0.0
220
0.0
230
1.0
 40
0.5000000000000021
 41
0.0
 42
6.283185307179586
  0
ELLIPSE
  5
DF
330
8E
100
AcDbEntity
  8
AM_9
100
AcDbEllipse
 10
-0.9526279441628668
 20
0.0000000000001457
 30
0.0
 11
-1.838598171373175E-17
 21
-0.1000886227034755
 31
0.0
210
0.0
220
0.0
230
1.0
 40
0.5000000000002316
 41
0.0
 42
6.283185307179586
  0
LINE
  5
E1
330
8E
100
AcDbEntity
  8
AM_4
100
AcDbLine
 10
-1.426820760854903
 20
-0.0991978151429884
 30
0.0
 11
-1.424629921034566
 21
-0.1004032586197049
 31
0.0
  0
LWPOLYLINE
  5
E2
330
8E
100
AcDbEntity
  8
AM_4
100
AcDbPolyline
 90
       28
 70
     0
 43
0.0
 10
-1.424382870101461
 20
0.1005306541526286
 10
-1.426653473106664
 20
0.0992947426864717
 10
-1.432308370080364
 20
0.0955404526365864
 10
-1.437694705460376
 20
0.0909443912447609
 10
-1.442799478912677
 20
0.0854803226506424
 10
-1.447584141356409
 20
0.0791369569360776
 10
-1.451982202951553
 20
0.071953329178371
 10
-1.455918119711867
 20
0.0640314860959584
 10
-1.459330490131211
 20
0.0555205707463199
 10
-1.462193555870164
 20
0.046556319262569
 10
-1.46450671458934
 20
0.0372365998395591
 10
-1.46627491879735
 20
0.0276438070553093
 10
-1.467503243087332
 20
0.0178530056630051
 10
-1.468195312687065
 20
0.0079368352120812
 10
-1.468353299296263
 20
-0.002032499247429
 10
-1.46797820173238
 20
-0.0119829590878408
 10
-1.467070433376952
 20
-0.0218384555492729
 10
-1.465629338024086
 20
-0.0315275483420295
 10
-1.463651558353355
 20
-0.0409834070802978
 10
-1.461129381633731
 20
-0.0501419428054818
 10
-1.45804861215054
 20
-0.0589406364799287
 10
-1.454386823516475
 20
-0.0673146124852548
 10
-1.450114502940061
 20
-0.0751878635724276
 10
-1.44520480786366
 20
-0.0824582109576037
 10
-1.439686461988339
 20
-0.0889535262348886
 10
-1.434373114278291
 20
-0.0939060511612768
 10
-1.428799813912384
 20
-0.0979877689161311
 10
-1.427235027786611
 20
-0.0989542390207191
  0
LINE
  5
E3
330
8E
100
AcDbEntity
  8
AM_4
100
AcDbLine
 10
-1.424142232344795
 20
-0.1006531122094679
 30
0.0
 11
-1.370192333611874
 21
-0.1279279249869864
 31
0.0
  0
LINE
  5
E4
330
8E
100
AcDbEntity
  8
AM_4
100
AcDbLine
 10
-1.370192333611874
 20
0.1279279249869864
 30
0.0
 11
-1.424142232344795
 21
0.1006531122094678
 31
0.0
  0
ELLIPSE
  5
E5
330
8E
100
AcDbEntity
  8
AM_4
100
AcDbEllipse
 10
-1.411420731213818
 20
-0.0000000000000001
 30
0.0
 11
-1.907125028439301E-17
 21
-0.1038190510530392
 31
0.0
210
0.0
220
0.0
230
1.0
 40
0.5000000000000047
 41
3.38918521705876
 42
6.029418707650563
  0
LWPOLYLINE
  5
E6
330
8E
100
AcDbEntity
  8
AM_4
100
AcDbPolyline
 90
        6
 70
     0
 43
0.0
 10
-1.337104427117341
 20
0.1359265219950579
 10
-1.345016818233616
 20
0.1354875627222358
 10
-1.353103446894619
 20
0.1341184268742077
 10
-1.360932238922282
 20
0.1318665924339652
 10
-1.368462790599348
 20
0.1287754234704926
 10
-1.370565393648603
 20
0.1277380562455449
  0
LWPOLYLINE
  5
E7
330
8E
100
AcDbEntity
  8
AM_4
100
AcDbPolyline
 90
       11
 70
     0
 43
0.0
 10
-1.370368413300723
 20
-0.1278386249164661
 10
-1.365997151650967
 20
-0.129892644354081
 10
-1.357673945390266
 20
-0.1329182692432439
 10
-1.349244369176128
 20
-0.1348898301815956
 10
-1.340820489795111
 20
-0.1358298792985432
 10
-1.332484290557705
 20
-0.1357770923261505
 10
-1.324309734638935
 20
-0.1347742674975245
 10
-1.316372378746638
 20
-0.1328697356256247
 10
-1.308718582511328
 20
-0.1301093747229882
 10
-1.301380987392092
 20
-0.1265315529685191
 10
-1.301046596682835
 20
-0.1263450823404278
  0
LWPOLYLINE
  5
E8
330
8E
100
AcDbEntity
  8
AM_4
100
AcDbPolyline
 90
        6
 70
     0
 43
0.0
 10
-1.300759527719945
 20
0.1261832969335221
 10
-1.305804699855295
 20
0.1288032224599308
 10
-1.313210676597866
 20
0.1318435799941894
 10
-1.321597042791433
 20
0.134228859879392
 10
-1.330033125396064
 20
0.1355760937904466
 10
-1.337104427117341
 20
0.1359265219950579
  0
ELLIPSE
  5
E9
330
8E
100
AcDbEntity
  8
AM_4
100
AcDbEllipse
 10
-1.354023581283395
 20
0.0
 30
0.0
 11
-2.423914593631788E-17
 21
-0.13195176466768
 31
0.0
210
0.0
220
0.0
230
1.0
 40
0.4999999999999989
 41
3.392194683687784
 42
6.034311517633141
  0
ELLIPSE
  5
EA
330
8E
100
AcDbEntity
  8
AM_4
100
AcDbEllipse
 10
-1.318804519578808
 20
0.0
 30
0.0
 11
-2.410874799674252E-17
 21
-0.1312419113468905
 31
0.0
210
0.0
220
0.0
230
1.0
 40
0.5000000000000037
 41
2.869006655271007
 42
6.555771305498372
  0
LINE
  5
EB
330
8E
100
AcDbEntity
  8
AM_4
100
AcDbLine
 10
-1.3
 20
0.1257600217155468
 30
0.0
 11
-1.301137858743998
 21
0.1263961853608576
 31
0.0
  0
LINE
  5
EC
330
8E
100
AcDbEntity
  8
AM_4
100
AcDbLine
 10
-1.301137858743998
 20
-0.1263961853608578
 30
0.0
 11
-1.3
 21
-0.125760021715547
 31
0.0
  0
ELLIPSE
  5
ED
330
8E
100
AcDbEntity
  8
AM_4
100
AcDbEllipse
 10
-1.25961097262046
 20
0.0
 30
0.0
 11
-1.825386269924891E-17
 21
-0.09936940028726626
 31
0.0
210
0.0
220
0.0
230
1.0
 40
0.5000000000000046
 41
4.090718536774807
 42
5.334059423994574
  0
ENDBLK
  5
91
330
8E
100
AcDbEntity
  8
0
100
AcDbBlockEnd
  0
BLOCK
  5
F0
330
EE
100
AcDbEntity
  8
0
100
AcDbBlockBegin
  2
3_127818_0_in_136833_4
 70
     2
 10
0.0
 20
0.0
 30
0.0
  3
3_127818_0_in_136833_4
  1

  0
ATTDEF
  5
F2
330
EE
100
AcDbEntity
  8
AM_6
100
AcDbText
 10
5.924466108268558
 20
0.5
 30
0.0
 40
0.5
  1
Set Screw Insert Inch Bore - Stainless Steel
100
AcDbAttributeDefinition
  3

  2
NN
 70
     8
280
     0
  0
ATTDEF
  5
F3
330
EE
100
AcDbEntity
  8
AM_6
100
AcDbText
 10
5.924466108268558
 20
0.0
 30
0.0
 40
0.5
  1
SC Medium Duty Bearing Inserts
100
AcDbAttributeDefinition
  3

  2
NT
 70
     8
280
     0
  0
ATTDEF
  5
F4
330
EE
100
AcDbEntity
  8
AM_6
100
AcDbText
 10
5.924466108268558
 20
-0.5
 30
0.0
 40
0.5
  1
127818
100
AcDbAttributeDefinition
  3

  2
NB
 70
     8
280
     0
  0
ATTDEF
  5
F5
330
EE
100
AcDbEntity
  8
AM_6
100
AcDbText
 10
5.924466108268558
 20
-1.0
 30
0.0
 40
0.5
  1
$PN.
100
AcDbAttributeDefinition
  3

  2
NBSYN
 70
     8
280
     0
  0
ATTDEF
  5
F6
330
EE
100
AcDbEntity
  8
AM_6
100
AcDbText
 10
5.924466108268558
 20
-1.5
 30
0.0
 40
0.5
  1
127818
100
AcDbAttributeDefinition
  3

  2
LINA
 70
     8
280
     0
  0
ATTDEF
  5
F7
330
EE
100
AcDbEntity
  8
AM_6
100
AcDbText
 10
5.924466108268558
 20
-2.0
 30
0.0
 40
0.5
  1
204
100
AcDbAttributeDefinition
  3

  2
SERIES
 70
     8
280
     0
  0
ATTDEF
  5
F8
330
EE
100
AcDbEntity
  8
AM_6
100
AcDbText
 10
5.924466108268558
 20
-2.5
 30
0.0
 40
0.5
  1
3/4
100
AcDbAttributeDefinition
  3

  2
SS
 70
     8
280
     0
  0
ATTDEF
  5
F9
330
EE
100
AcDbEntity
  8
AM_6
100
AcDbText
 10
5.924466108268558
 20
-3.0
 30
0.0
 40
0.5
  1
127818
100
AcDbAttributeDefinition
  3

  2
PN
 70
     8
280
     0
  0
ATTDEF
  5
FA
330
EE
100
AcDbEntity
  8
AM_6
100
AcDbText
 10
5.924466108268558
 20
-3.5
 30
0.0
 40
0.5
  1
INS-SC-012-SS
100
AcDbAttributeDefinition
  3

  2
DESCRIPTION
 70
     8
280
     0
  0
ATTDEF
  5
FB
330
EE
100
AcDbEntity
  8
AM_6
100
AcDbText
 10
5.924466108268558
 20
-4.0
 30
0.0
 40
0.5
  1
0.32
100
AcDbAttributeDefinition
  3

  2
WEIGHT
 70
     8
280
     0
  0
ATTDEF
  5
FC
330
EE
100
AcDbEntity
  8
AM_6
100
AcDbText
 10
5.924466108268558
 20
-4.5
 30
0.0
 40
0.5
  1
1.23
100
AcDbAttributeDefinition
  3

  2
A
 70
     8
280
     0
  0
ATTDEF
  5
FD
330
EE
100
AcDbEntity
  8
AM_6
100
AcDbText
 10
5.924466108268558
 20
-5.0
 30
0.0
 40
0.5
  1
0.58
100
AcDbAttributeDefinition
  3

  2
C
 70
     8
280
     0
  0
ATTDEF
  5
FE
330
EE
100
AcDbEntity
  8
AM_6
100
AcDbText
 10
5.924466108268558
 20
-5.5
 30
0.0
 40
0.5
  1
1.8504
100
AcDbAttributeDefinition
  3

  2
D
 70
     8
280
     0
  0
ATTDEF
  5
FF
330
EE
100
AcDbEntity
  8
AM_6
100
AcDbText
 10
5.924466108268558
 20
-6.0
 30
0.0
 40
0.5
  1
0.15
100
AcDbAttributeDefinition
  3

  2
J
 70
     8
280
     0
  0
ATTDEF
  5
100
330
EE
100
AcDbEntity
  8
AM_6
100
AcDbText
 10
5.924466108268558
 20
-6.5
 30
0.0
 40
0.5
  1
1.11
100
AcDbAttributeDefinition
  3

  2
L
 70
     8
280
     0
  0
ATTDEF
  5
101
330
EE
100
AcDbEntity
  8
AM_6
100
AcDbText
 10
5.924466108268558
 20
-7.0
 30
0.0
 40
0.5
  1
1/4-28
100
AcDbAttributeDefinition
  3

  2
N
 70
     8
280
     0
  0
ATTDEF
  5
102
330
EE
100
AcDbEntity
  8
AM_6
100
AcDbText
 10
5.924466108268558
 20
-7.5
 30
0.0
 40
0.5
  1
0.50
100
AcDbAttributeDefinition
  3

  2
W
 70
     8
280
     0
  0
ATTDEF
  5
103
330
EE
100
AcDbEntity
  8
AM_6
100
AcDbText
 10
5.924466108268558
 20
-8.0
 30
0.0
 40
0.5
  1
0.73
100
AcDbAttributeDefinition
  3

  2
Y
 70
     8
280
     0
  0
ATTDEF
  5
104
330
EE
100
AcDbEntity
  8
AM_6
100
AcDbText
 10
5.924466108268558
 20
-8.5
 30
0.0
 40
0.5
  1
baldor
100
AcDbAttributeDefinition
  3

  2
COMPANY
 70
     8
280
     0
  0
LINE
  5
105
330
EE
100
AcDbEntity
  8
AM_9
100
AcDbLine
 10
0.3397842015890075
 20
-0.60795
 30
0.0
 11
0.4836876143811731
 21
-0.60795
 31
0.0
  0
LINE
  5
106
330
EE
100
AcDbEntity
  8
AM_9
100
AcDbLine
 10
0.4836876143811731
 20
-0.41205
 30
0.0
 11
0.3398067368629529
 21
-0.41205
 31
0.0
  0
LWPOLYLINE
  5
107
330
EE
100
AcDbEntity
  8
AM_9
100
AcDbPolyline
 90
       21
 70
     0
 43
0.0
 10
0.3398632728115212
 20
-0.607949999868219
 10
0.3438753192396902
 20
-0.6074624618212048
 10
0.3497718891187488
 20
-0.6046346008587062
 10
0.3549928139832208
 20
-0.5991859665075956
 10
0.3592455948525246
 20
-0.5914893685118215
 10
0.3627302904967276
 20
-0.5813852155884643
 10
0.3653866203785233
 20
-0.569302847918643
 10
0.3673443813848677
 20
-0.5551504407175449
 10
0.368597180058657
 20
-0.5400087815193831
 10
0.3692959225632537
 20
-0.5234778337280104
 10
0.3694566708754689
 20
-0.5074960200991306
 10
0.3691317047773002
 20
-0.4911112481772997
 10
0.3683325957063341
 20
-0.4760019371282764
 10
0.3669539056563919
 20
-0.4614231863236533
 10
0.3649416910309473
 20
-0.4482620483641475
 10
0.362111533944043
 20
-0.4364582727574652
 10
0.3584230191766982
 20
-0.426708743550394
 10
0.3536656363664293
 20
-0.4190907618482306
 10
0.3481564111918055
 20
-0.4142978320639303
 10
0.3415959622728053
 20
-0.4121376963329348
 10
0.3398695175260866
 20
-0.4120500004798508
  0
LWPOLYLINE
  5
108
330
EE
100
AcDbEntity
  8
AM_9
100
AcDbPolyline
 90
       11
 70
     0
 43
0.0
 10
0.3398695175260866
 20
-0.4120500004798508
 10
0.3347397861187748
 20
-0.4127554377099704
 10
0.3272137299776955
 20
-0.4160584065381958
 10
0.3197527120737292
 20
-0.4217155754837578
 10
0.3121943706817681
 20
-0.4298789607936331
 10
0.3050830103008682
 20
-0.4401765330601251
 10
0.2985708763734328
 20
-0.4527168246927418
 10
0.2932455400775618
 20
-0.4667920756634117
 10
0.2892625003178603
 20
-0.4826003062585235
 10
0.2873412772642957
 20
-0.4960046447318032
 10
0.2866714327803305
 20
-0.51
  0
ELLIPSE
  5
109
330
EE
100
AcDbEntity
  8
AM_9
100
AcDbEllipse
 10
0.483687614381173
 20
-0.5100000000000002
 30
0.0
 11
-1.799312309647242E-17
 21
-0.09794999999999965
 31
0.0
210
0.0
220
0.0
230
1.0
 40
0.4226182617407004
 41
3.457194951880211
 42
5.964199174271971
  0
LINE
  5
10A
330
EE
100
AcDbEntity
  8
AM_9
100
AcDbLine
 10
0.4643845949590369
 20
-0.5966487849718648
 30
0.0
 11
0.4775229379765707
 21
-0.6130360639759243
 31
0.0
  0
LINE
  5
10B
330
EE
100
AcDbEntity
  8
AM_9
100
AcDbLine
 10
0.4774462899406516
 20
-0.4070595380910977
 30
0.0
 11
0.4643845949590369
 21
-0.4233512150281353
 31
0.0
  0
LWPOLYLINE
  5
10C
330
EE
100
AcDbEntity
  8
AM_9
100
AcDbPolyline
 90
       11
 70
     0
 43
0.0
 10
0.2866714327803305
 20
-0.51
 10
0.2875362110833311
 20
-0.52589463422829
 10
0.2901748270342946
 20
-0.54178926845658
 10
0.2942728680373088
 20
-0.5563354272382511
 10
0.2998149357995215
 20
-0.5699829735649076
 10
0.3063605355915968
 20
-0.5818938860680541
 10
0.3138258098174384
 20
-0.5921038417430645
 10
0.3215700151087856
 20
-0.599875896410435
 10
0.3295805531896678
 20
-0.6052492163271499
 10
0.3368977643854594
 20
-0.6077076207806985
 10
0.3398632728115212
 20
-0.607949999868219
  0
LINE
  5
10D
330
EE
100
AcDbEntity
  8
AM_9
100
AcDbLine
 10
0.3749999999999999
 20
-0.7078
 30
0.0
 11
0.3749999999999999
 21
0.4777999999999999
 31
0.0
  0
LINE
  5
10E
330
EE
100
AcDbEntity
  8
AM_9
100
AcDbLine
 10
-0.3749999999999999
 20
0.4777999999999999
 30
0.0
 11
-0.3749999999999999
 21
-0.7078
 31
0.0
  0
LINE
  5
10F
330
EE
100
AcDbEntity
  8
AM_9
100
AcDbLine
 10
0.3749999999999999
 20
0.4777999999999999
 30
0.0
 11
0.3972
 21
0.5
 31
0.0
  0
LINE
  5
110
330
EE
100
AcDbEntity
  8
AM_9
100
AcDbLine
 10
-0.3972
 20
0.5
 30
0.0
 11
-0.3749999999999999
 21
0.4777999999999999
 31
0.0
  0
LINE
  5
111
330
EE
100
AcDbEntity
  8
AM_9
100
AcDbLine
 10
-0.3749999999999999
 20
-0.7078
 30
0.0
 11
-0.3972
 21
-0.73
 31
0.0
  0
LINE
  5
112
330
EE
100
AcDbEntity
  8
AM_9
100
AcDbLine
 10
0.3972
 20
-0.73
 30
0.0
 11
0.3749999999999999
 21
-0.7078
 31
0.0
  0
LINE
  5
113
330
EE
100
AcDbEntity
  8
AM_9
100
AcDbLine
 10
0.5549999999999998
 20
-0.3750000000000001
 30
0.0
 11
0.5549999999999998
 21
-0.29
 31
0.0
  0
LINE
  5
114
330
EE
100
AcDbEntity
  8
AM_9
100
AcDbLine
 10
-0.5549999999999998
 20
-0.29
 30
0.0
 11
-0.5549999999999998
 21
-0.3750000000000001
 31
0.0
  0
LINE
  5
115
330
EE
100
AcDbEntity
  8
AM_9
100
AcDbLine
 10
0.5550000000000003
 20
0.29
 30
0.0
 11
0.5550000000000003
 21
0.3749999999999996
 31
0.0
  0
LINE
  5
116
330
EE
100
AcDbEntity
  8
AM_9
100
AcDbLine
 10
-0.5550000000000003
 20
0.3749999999999996
 30
0.0
 11
-0.5550000000000003
 21
0.29
 31
0.0
  0
LINE
  5
117
330
EE
100
AcDbEntity
  8
AM_9
100
AcDbLine
 10
0.8752
 20
-0.1799999999999999
 30
0.0
 11
0.8752
 21
-0.12
 31
0.0
  0
LINE
  5
118
330
EE
100
AcDbEntity
  8
AM_9
100
AcDbLine
 10
-0.8752
 20
-0.12
 30
0.0
 11
-0.8752
 21
-0.1799999999999999
 31
0.0
  0
LINE
  5
119
330
EE
100
AcDbEntity
  8
AM_9
100
AcDbLine
 10
-0.8566113709062414
 20
-0.29
 30
0.0
 11
0.8566113709058405
 21
-0.29
 31
0.0
  0
ARC
  5
11A
330
EE
100
AcDbEntity
  8
AM_9
100
AcDbCircle
 10
0.8566113704592067
 20
-0.2599999999999999
 30
0.0
 40
0.0300000000000001
100
AcDbArc
 50
270.0
 51
343.1158262695214
  0
ARC
  5
11B
330
EE
100
AcDbEntity
  8
AM_9
100
AcDbCircle
 10
-0.8566113704592067
 20
-0.2599999999999999
 30
0.0
 40
0.03
100
AcDbArc
 50
196.8841737304786
 51
270.0
  0
LINE
  5
11C
330
EE
100
AcDbEntity
  8
AM_9
100
AcDbLine
 10
-0.8566113704592067
 20
0.29
 30
0.0
 11
0.8566113704588058
 21
0.29
 31
0.0
  0
ARC
  5
11D
330
EE
100
AcDbEntity
  8
AM_9
100
AcDbCircle
 10
0.8566113704592069
 20
0.2600000000000003
 30
0.0
 40
0.0299999999999997
100
AcDbArc
 50
16.88416970378539
 51
90.0
  0
ARC
  5
11E
330
EE
100
AcDbEntity
  8
AM_9
100
AcDbCircle
 10
-0.8566113704592069
 20
0.2600000000000003
 30
0.0
 40
0.0299999999999997
100
AcDbArc
 50
90.0
 51
163.1158302962146
  0
LINE
  5
11F
330
EE
100
AcDbEntity
  8
AM_9
100
AcDbLine
 10
-0.907521371649175
 20
-0.18
 30
0.0
 11
0.9075213716491937
 21
-0.18
 31
0.0
  0
LINE
  5
120
330
EE
100
AcDbEntity
  8
AM_9
100
AcDbLine
 10
-0.885318185823121
 20
-0.2687131367292226
 30
0.0
 11
0.8853181858231396
 21
-0.2687131367292226
 31
0.0
  0
ARC
  5
121
330
EE
100
AcDbEntity
  8
AM_9
100
AcDbCircle
 10
0.0000000000143271
 20
-0.000000000003581
 30
0.0
 40
0.9251999999852683
100
AcDbArc
 50
343.1158262694767
 51
348.7814152155348
  0
ARC
  5
122
330
EE
100
AcDbEntity
  8
AM_9
100
AcDbCircle
 10
-0.0000000000143695
 20
-0.0000000000035916
 30
0.0
 40
0.9251999999852246
100
AcDbArc
 50
191.2185847844651
 51
196.8841737305234
  0
LINE
  5
123
330
EE
100
AcDbEntity
  8
AM_9
100
AcDbLine
 10
-0.917384891961929
 20
-0.12
 30
0.0
 11
0.9173848919619264
 21
-0.12
 31
0.0
  0
LINE
  5
124
330
EE
100
AcDbEntity
  8
AM_9
100
AcDbLine
 10
-0.8853181864354719
 20
0.2687131347117351
 30
0.0
 11
0.8853181864354693
 21
0.2687131347117351
 31
0.0
  0
ARC
  5
125
330
EE
100
AcDbEntity
  8
AM_9
100
AcDbCircle
 10
-0.0000000000000486
 20
-0.0000000000000038
 30
0.0
 40
0.9252000000000452
100
AcDbArc
 50
352.5476457553009
 51
16.88417359991036
  0
ARC
  5
126
330
EE
100
AcDbEntity
  8
AM_9
100
AcDbCircle
 10
-0.0000000000008459
 20
0.00000000000007
 30
0.0
 40
0.9251999999991678
100
AcDbArc
 50
163.115826400078
 51
187.4523542447106
  0
LINE
  5
129
330
EE
100
AcDbEntity
  8
AM_7
100
AcDbLine
 10
-0.1028475
 20
-0.51
 30
0.0
 11
0.1028475
 21
-0.51
 31
0.0
  0
ELLIPSE
  5
12A
330
EE
100
AcDbEntity
  8
AM_4
100
AcDbEllipse
 10
0.4836876143811731
 20
-0.51
 30
0.0
 11
-1.799312309647248E-17
 21
-0.09794999999999998
 31
0.0
210
0.0
220
0.0
230
1.0
 40
0.4226182617407
 41
5.964199174271967
 42
9.740380259059803
  0
LWPOLYLINE
  5
12B
330
EE
100
AcDbEntity
  8
AM_4
100
AcDbPolyline
 90
       14
 70
     0
 43
0.0
 10
0.4775987684719997
 20
-0.6131306452885473
 10
0.4718312129462868
 20
-0.6050217119275922
 10
0.4652203682232385
 20
-0.593159028935483
 10
0.4589382251881408
 20
-0.5782707477098458
 10
0.4538550171015623
 20
-0.5618175701571843
 10
0.4499228016272578
 20
-0.5426343697648358
 10
0.4477849891750748
 20
-0.5226143261535294
 10
0.4475988783289076
 20
-0.5013303793487864
 10
0.4494832458577716
 20
-0.4802870289551116
 10
0.4534308174128208
 20
-0.4598946363306921
 10
0.4592132465763412
 20
-0.4409633000238717
 10
0.4664153149408217
 20
-0.4244734051855243
 10
0.4747815513609691
 20
-0.4105941847755964
 10
0.4775869848900511
 20
-0.4068840596866392
  0
LWPOLYLINE
  5
12C
330
EE
100
AcDbEntity
  8
AM_4
100
AcDbPolyline
 90
        9
 70
     0
 43
0.0
 10
0.4775869848900511
 20
-0.4068840596866392
 10
0.4832630761208098
 20
-0.4006198032031368
 10
0.4920216218452751
 20
-0.3939117891379276
 10
0.4997715913394878
 20
-0.3910441562010037
 10
0.5071399441208333
 20
-0.3912492820868129
 10
0.5134621836607349
 20
-0.3942643952051239
 10
0.5191139350820497
 20
-0.3998302153622459
 10
0.522750728728091
 20
-0.4053723763775618
 10
0.5259846069342886
 20
-0.4120455694675042
  0
CIRCLE
  5
12D
330
EE
100
AcDbEntity
  8
AM_4
100
AcDbCircle
 10
0.0
 20
-0.51
 30
0.0
 40
0.09795
  0
LINE
  5
12E
330
EE
100
AcDbEntity
  8
AM_4
100
AcDbLine
 10
-0.5327999999999999
 20
0.5
 30
0.0
 11
0.5327999999999999
 21
0.5
 31
0.0
  0
LINE
  5
12F
330
EE
100
AcDbEntity
  8
AM_4
100
AcDbLine
 10
-0.5327999999999999
 20
0.5
 30
0.0
 11
-0.5549999999999999
 21
0.4778
 31
0.0
  0
LINE
  5
130
330
EE
100
AcDbEntity
  8
AM_4
100
AcDbLine
 10
0.5549999999999999
 20
0.4778
 30
0.0
 11
0.5327999999999999
 21
0.5
 31
0.0
  0
LINE
  5
131
330
EE
100
AcDbEntity
  8
AM_4
100
AcDbLine
 10
-0.5328
 20
-0.73
 30
0.0
 11
0.5328
 21
-0.73
 31
0.0
  0
LINE
  5
132
330
EE
100
AcDbEntity
  8
AM_4
100
AcDbLine
 10
0.5328
 20
-0.73
 30
0.0
 11
0.555
 21
-0.7078
 31
0.0
  0
LINE
  5
133
330
EE
100
AcDbEntity
  8
AM_4
100
AcDbLine
 10
-0.555
 20
-0.7078
 30
0.0
 11
-0.5328
 21
-0.73
 31
0.0
  0
LINE
  5
134
330
EE
100
AcDbEntity
  8
AM_4
100
AcDbLine
 10
-0.555
 20
-0.7078
 30
0.0
 11
0.5549999999999998
 21
-0.7078
 31
0.0
  0
LWPOLYLINE
  5
135
330
EE
100
AcDbEntity
  8
AM_4
100
AcDbPolyline
 90
       39
 70
     0
 43
0.0
 10
-0.0792260024215936
 20
-0.4286198368269442
 10
-0.0675768811297826
 20
-0.4167886518855524
 10
-0.0539753097148422
 20
-0.4066125364795212
 10
-0.0374336781897928
 20
-0.3980993511817716
 10
-0.0189547260208448
 20
-0.3925841183059891
 10
-0.0021060302982153
 20
-0.390762826683931
 10
0.0153497831451372
 20
-0.3919462759293633
 10
0.031000097505543
 20
-0.3957372678649753
 10
0.0462239298863691
 20
-0.4021573809712902
 10
0.0603282005148261
 20
-0.4109554242939521
 10
0.0732080334173936
 20
-0.4220779022199907
 10
0.0849204743174077
 20
-0.4358696046363531
 10
0.094608965009843
 20
-0.4516865216317218
 10
0.102200841931151
 20
-0.4699481124131388
 10
0.1069493641964491
 20
-0.4897067191843871
 10
0.1085413104653202
 20
-0.5105255371540447
 10
0.1066829954830849
 20
-0.5319111599372641
 10
0.1014090315375945
 20
-0.5524008576826146
 10
0.0925016739971076
 20
-0.5722494248875435
 10
0.0808510042010034
 20
-0.5894283757075168
 10
0.0658320287363184
 20
-0.6047091318912624
 10
0.0498673944995028
 20
-0.6158571251673556
 10
0.0314374168759258
 20
-0.6241176297664524
 10
0.0143721703823698
 20
-0.628203104366951
 10
-0.0037599427648175
 20
-0.6291877387204412
 10
-0.0198804927542579
 20
-0.6272298114456372
 10
-0.0358921291799964
 20
-0.6225117126436119
 10
-0.050584764509894
 20
-0.6154439091588084
 10
-0.0643223145957915
 20
-0.6059555484187888
 10
-0.077023022764944
 20
-0.5938939294111566
 10
-0.0879849457974599
 20
-0.5796902853820413
 10
-0.0972429356120544
 20
-0.5628451124670716
 10
-0.1039345437943931
 20
-0.5442775405549412
 10
-0.1077820268242171
 20
-0.5240463726650206
 10
-0.1083475317241265
 20
-0.5028805004510339
 10
-0.1054751126499105
 20
-0.4819349278917693
 10
-0.0989835285449374
 20
-0.4611947373396192
 10
-0.0905102032725911
 20
-0.4443204793098001
 10
-0.0792260025839172
 20
-0.4286198367187966
  0
LWPOLYLINE
  5
136
330
EE
100
AcDbEntity
  8
AM_4
100
AcDbPolyline
 90
       20
 70
     0
 43
0.0
 10
0.5259846069342886
 20
-0.4120455694675042
 10
0.5299486961453241
 20
-0.4234616678050496
 10
0.5331255458704315
 20
-0.4366544082265098
 10
0.5358237205471136
 20
-0.4532067244752316
 10
0.5376855932179542
 20
-0.4711163641413449
 10
0.5388326172398616
 20
-0.4913459002256335
 10
0.5391555711599121
 20
-0.5120697214313005
 10
0.5386423153064858
 20
-0.5333887115530227
 10
0.5372410805610244
 20
-0.5540466234202472
 10
0.5348761805058246
 20
-0.5734213413491442
 10
0.5314468541721404
 20
-0.5909143791261249
 10
0.527011952548262
 20
-0.6053701364771289
 10
0.5214014776979953
 20
-0.61689852994684
 10
0.5152175303197131
 20
-0.6243281400321277
 10
0.5081170461356016
 20
-0.6284736595844262
 10
0.5010619132924284
 20
-0.6291411682820864
 10
0.4936072915056038
 20
-0.6269163993924911
 10
0.4862768642646459
 20
-0.6220936658776427
 10
0.4790438827438693
 20
-0.6148801110936601
 10
0.4775987684719997
 20
-0.6131306452885473
  0
LINE
  5
137
330
EE
100
AcDbEntity
  8
AM_4
100
AcDbLine
 10
0.5549999999999998
 20
-0.7078
 30
0.0
 11
0.5549999999999998
 21
-0.3750000000000001
 31
0.0
  0
LINE
  5
138
330
EE
100
AcDbEntity
  8
AM_4
100
AcDbLine
 10
-0.5549999999999998
 20
-0.3750000000000001
 30
0.0
 11
-0.5549999999999998
 21
-0.7078
 31
0.0
  0
LINE
  5
139
330
EE
100
AcDbEntity
  8
AM_4
100
AcDbLine
 10
-0.5549999999999999
 20
0.4778
 30
0.0
 11
0.5550000000000003
 21
0.4778
 31
0.0
  0
LINE
  5
13A
330
EE
100
AcDbEntity
  8
AM_4
100
AcDbLine
 10
0.5550000000000003
 20
0.3749999999999996
 30
0.0
 11
0.5550000000000003
 21
0.4778
 31
0.0
  0
LINE
  5
13B
330
EE
100
AcDbEntity
  8
AM_4
100
AcDbLine
 10
-0.5550000000000003
 20
0.4778
 30
0.0
 11
-0.5550000000000003
 21
0.3749999999999996
 31
0.0
  0
ARC
  5
13D
330
EE
100
AcDbEntity
  8
AM_5
100
AcDbCircle
 10
-0.0000000000000001
 20
-0.5100000000000001
 30
0.0
 40
0.1250000000000001
100
AcDbArc
 50
74.99999999999996
 51
15.00000000000002
  0
ARC
  5
13E
330
EE
100
AcDbEntity
  8
AM_5
100
AcDbCircle
 10
-0.0000000000000001
 20
-0.48
 30
0.0
 40
0.1250000000000001
100
AcDbArc
 50
75.0
 51
15.0
  0
ENDBLK
  5
F1
330
EE
100
AcDbEntity
  8
0
100
AcDbBlockEnd
  0
BLOCK
  5
141
330
13F
100
AcDbEntity
  8
0
100
AcDbBlockBegin
  2
4_136833H_0_in_136833_4
 70
     2
 10
0.0
 20
0.0
 30
0.0
  3
4_136833H_0_in_136833_4
  1

  0
ATTDEF
  5
143
330
13F
100
AcDbEntity
  8
AM_6
100
AcDbText
 10
7.234
 20
1.331672909064837
 30
0.0
 40
0.5
  1
NSTU-SCEZ-SHSS - Inch - housing
100
AcDbAttributeDefinition
  3

  2
NN
 70
     8
280
     0
  0
ATTDEF
  5
144
330
13F
100
AcDbEntity
  8
AM_6
100
AcDbText
 10
7.234
 20
0.8316729090648374
 30
0.0
 40
0.5
  1
SC Take-Up Bearings -Wide Slot -(Normal Duty) -Polymer Housed -Corrosion Resistant Insert -E-Z KLEEN
100
AcDbAttributeDefinition
  3

  2
NT
 70
     8
280
     0
  0
ATTDEF
  5
145
330
13F
100
AcDbEntity
  8
AM_6
100
AcDbText
 10
7.234
 20
0.3316729090648374
 30
0.0
 40
0.5
  1
136833H
100
AcDbAttributeDefinition
  3

  2
NB
 70
     8
280
     0
  0
ATTDEF
  5
146
330
13F
100
AcDbEntity
  8
AM_6
100
AcDbText
 10
7.234
 20
-0.1683270909351626
 30
0.0
 40
0.5
  1
$PN.H
100
AcDbAttributeDefinition
  3

  2
NBSYN
 70
     8
280
     0
  0
ATTDEF
  5
147
330
13F
100
AcDbEntity
  8
AM_6
100
AcDbText
 10
7.234
 20
-0.6683270909351626
 30
0.0
 40
0.5
  1
136833
100
AcDbAttributeDefinition
  3

  2
LINA
 70
     8
280
     0
  0
ATTDEF
  5
148
330
13F
100
AcDbEntity
  8
AM_6
100
AcDbText
 10
7.234
 20
-1.168327090935163
 30
0.0
 40
0.5
  1
204
100
AcDbAttributeDefinition
  3

  2
SERIES
 70
     8
280
     0
  0
ATTDEF
  5
149
330
13F
100
AcDbEntity
  8
AM_6
100
AcDbText
 10
7.234
 20
-1.668327090935163
 30
0.0
 40
0.5
  1
3/4
100
AcDbAttributeDefinition
  3

  2
SS
 70
     8
280
     0
  0
ATTDEF
  5
14A
330
13F
100
AcDbEntity
  8
AM_6
100
AcDbText
 10
7.234
 20
-2.168327090935163
 30
0.0
 40
0.5
  1
136833
100
AcDbAttributeDefinition
  3

  2
PN
 70
     8
280
     0
  0
ATTDEF
  5
14B
330
13F
100
AcDbEntity
  8
AM_6
100
AcDbText
 10
7.234
 20
-2.668327090935163
 30
0.0
 40
0.5
  1
NSTU-SCEZ-012-SHSS
100
AcDbAttributeDefinition
  3

  2
DESCRIPTION
 70
     8
280
     0
  0
ATTDEF
  5
14C
330
13F
100
AcDbEntity
  8
AM_6
100
AcDbText
 10
7.234
 20
-3.168327090935163
 30
0.0
 40
0.5
  1
1.16
100
AcDbAttributeDefinition
  3

  2
W
 70
     8
280
     0
  0
ATTDEF
  5
14D
330
13F
100
AcDbEntity
  8
AM_6
100
AcDbText
 10
7.234
 20
-3.668327090935163
 30
0.0
 40
0.5
  1
NS210
100
AcDbAttributeDefinition
  3

  2
FS
 70
     8
280
     0
  0
ATTDEF
  5
14E
330
13F
100
AcDbEntity
  8
AM_6
100
AcDbText
 10
7.234
 20
-4.168327090935163
 30
0.0
 40
0.5
  1
1.23
100
AcDbAttributeDefinition
  3

  2
A
 70
     8
280
     0
  0
ATTDEF
  5
14F
330
13F
100
AcDbEntity
  8
AM_6
100
AcDbText
 10
7.234
 20
-4.668327090935163
 30
0.0
 40
0.5
  1
3.49
100
AcDbAttributeDefinition
  3

  2
B
 70
     8
280
     0
  0
ATTDEF
  5
150
330
13F
100
AcDbEntity
  8
AM_6
100
AcDbText
 10
7.234
 20
-5.168327090935163
 30
0.0
 40
0.5
  1
0.265
100
AcDbAttributeDefinition
  3

  2
C
 70
     8
280
     0
  0
ATTDEF
  5
151
330
13F
100
AcDbEntity
  8
AM_6
100
AcDbText
 10
7.234
 20
-5.668327090935163
 30
0.0
 40
0.5
  1
1.50
100
AcDbAttributeDefinition
  3

  2
D
 70
     8
280
     0
  0
ATTDEF
  5
152
330
13F
100
AcDbEntity
  8
AM_6
100
AcDbText
 10
7.234
 20
-6.168327090935163
 30
0.0
 40
0.5
  1
2.19
100
AcDbAttributeDefinition
  3

  2
E
 70
     8
280
     0
  0
ATTDEF
  5
153
330
13F
100
AcDbEntity
  8
AM_6
100
AcDbText
 10
7.234
 20
-6.668327090935163
 30
0.0
 40
0.5
  1
3/4
100
AcDbAttributeDefinition
  3

  2
F
 70
     8
280
     0
  0
ATTDEF
  5
154
330
13F
100
AcDbEntity
  8
AM_6
100
AcDbText
 10
7.234
 20
-7.168327090935163
 30
0.0
 40
0.5
  1
0.44
100
AcDbAttributeDefinition
  3

  2
G
 70
     8
280
     0
  0
ATTDEF
  5
155
330
13F
100
AcDbEntity
  8
AM_6
100
AcDbText
 10
7.234
 20
-7.668327090935163
 30
0.0
 40
0.5
  1
0.88
100
AcDbAttributeDefinition
  3

  2
H
 70
     8
280
     0
  0
ATTDEF
  5
156
330
13F
100
AcDbEntity
  8
AM_6
100
AcDbText
 10
7.234
 20
-8.168327090935163
 30
0.0
 40
0.5
  1
1.20
100
AcDbAttributeDefinition
  3

  2
J
 70
     8
280
     0
  0
ATTDEF
  5
157
330
13F
100
AcDbEntity
  8
AM_6
100
AcDbText
 10
7.234
 20
-8.668327090935163
 30
0.0
 40
0.5
  1
1.11
100
AcDbAttributeDefinition
  3

  2
L
 70
     8
280
     0
  0
ATTDEF
  5
158
330
13F
100
AcDbEntity
  8
AM_6
100
AcDbText
 10
7.234
 20
-9.168327090935163
 30
0.0
 40
0.5
  1
2.635 / 2.605
100
AcDbAttributeDefinition
  3

  2
M
 70
     8
280
     0
  0
ATTDEF
  5
159
330
13F
100
AcDbEntity
  8
AM_6
100
AcDbText
 10
7.234
 20
-9.668327090935163
 30
0.0
 40
0.5
  1
3.13
100
AcDbAttributeDefinition
  3

  2
N
 70
     8
280
     0
  0
ATTDEF
  5
15A
330
13F
100
AcDbEntity
  8
AM_6
100
AcDbText
 10
7.234
 20
-10.16832709093516
 30
0.0
 40
0.5
  1
0.32
100
AcDbAttributeDefinition
  3

  2
P
 70
     8
280
     0
  0
ATTDEF
  5
15B
330
13F
100
AcDbEntity
  8
AM_6
100
AcDbText
 10
7.234
 20
-10.66832709093516
 30
0.0
 40
0.5
  1
0.50
100
AcDbAttributeDefinition
  3

  2
R
 70
     8
280
     0
  0
ATTDEF
  5
15C
330
13F
100
AcDbEntity
  8
AM_6
100
AcDbText
 10
7.234
 20
-11.16832709093516
 30
0.0
 40
0.5
  1
0.73
100
AcDbAttributeDefinition
  3

  2
S
 70
     8
280
     0
  0
ATTDEF
  5
15D
330
13F
100
AcDbEntity
  8
AM_6
100
AcDbText
 10
7.234
 20
-11.66832709093516
 30
0.0
 40
0.5
  1
1390
100
AcDbAttributeDefinition
  3

  2
CAPS
 70
     8
280
     0
  0
ATTDEF
  5
15E
330
13F
100
AcDbEntity
  8
AM_6
100
AcDbText
 10
7.234
 20
-12.16832709093516
 30
0.0
 40
0.5
  1
2899
100
AcDbAttributeDefinition
  3

  2
CAPD
 70
     8
280
     0
  0
ATTDEF
  5
15F
330
13F
100
AcDbEntity
  8
AM_6
100
AcDbText
 10
7.234
 20
-12.66832709093516
 30
0.0
 40
0.5
  1
baldor
100
AcDbAttributeDefinition
  3

  2
COMPANY
 70
     8
280
     0
  0
LINE
  5
160
330
13F
100
AcDbEntity
  8
AM_9
100
AcDbLine
 10
1.91
 20
0.3749999999999999
 30
0.0
 11
1.91
 21
0.5999999999999999
 31
0.0
  0
LINE
  5
161
330
13F
100
AcDbEntity
  8
AM_9
100
AcDbLine
 10
1.59
 20
0.5999999999999999
 30
0.0
 11
1.59
 21
0.3749999999999999
 31
0.0
  0
LINE
  5
162
330
13F
100
AcDbEntity
  8
AM_9
100
AcDbLine
 10
1.91
 20
-0.6
 30
0.0
 11
1.91
 21
-0.3749999999999999
 31
0.0
  0
LINE
  5
163
330
13F
100
AcDbEntity
  8
AM_9
100
AcDbLine
 10
1.59
 20
-0.3749999999999999
 30
0.0
 11
1.59
 21
-0.6
 31
0.0
  0
LINE
  5
164
330
13F
100
AcDbEntity
  8
AM_9
100
AcDbLine
 10
1.908544393967797
 20
-0.3743812560193365
 30
0.0
 11
1.909999999999838
 21
-0.3749999999999311
 31
0.0
  0
LWPOLYLINE
  5
165
330
13F
100
AcDbEntity
  8
AM_9
100
AcDbPolyline
 90
       34
 70
     0
 43
0.0
 10
1.59
 20
0.3749999999999999
 10
1.590501704745129
 20
0.3747859472383379
 10
1.591997302716337
 20
0.3741521780625
 10
1.594566057696336
 20
0.3730744187682131
 10
1.59814675046068
 20
0.3715971062799747
 10
1.607847339836107
 20
0.3677395529334196
 10
1.621303694897208
 20
0.3627502432075143
 10
1.629421060706251
 20
0.3599503750143659
 10
1.638316092112752
 20
0.3570690343350532
 10
1.648202750867213
 20
0.3541013569871689
 10
1.658801894212291
 20
0.3512009318029581
 10
1.670320343423407
 20
0.3483878963074087
 10
1.682458004417134
 20
0.3458134195882453
 10
1.695558913146996
 20
0.3434959376175933
 10
1.709146153092783
 20
0.341605088965487
 10
1.721973781999233
 20
0.3403103687329567
 10
1.735026893722942
 20
0.3394837167105133
 10
1.74865923041244
 20
0.3391573339968932
 10
1.762303401167014
 20
0.3393764483288085
 10
1.786264691059636
 20
0.3410866866613981
 10
1.809876996401682
 20
0.3443983953186876
 10
1.831806646858942
 20
0.3488801047212404
 10
1.852173194557665
 20
0.354209488419097
 10
1.861987630541774
 20
0.3571641955050824
 10
1.871040615752141
 20
0.3601053049618367
 10
1.879492667371132
 20
0.3630334616060772
 10
1.88702794679631
 20
0.3657890897815468
 10
1.893556751367147
 20
0.3682844045657949
 10
1.899066055755283
 20
0.3704668527391314
 10
1.903628137484356
 20
0.3723256007841406
 10
1.906995108612056
 20
0.3737277941605512
 10
1.908971285427142
 20
0.3745619528159198
 10
1.909915232500955
 20
0.3749638403710875
 10
1.909999999999838
 20
0.3749999999999311
  0
LINE
  5
166
330
13F
100
AcDbEntity
  8
AM_9
100
AcDbLine
 10
1.31
 20
0.3749999999999999
 30
0.0
 11
1.31
 21
-0.3749999999999999
 31
0.0
  0
LINE
  5
167
330
13F
100
AcDbEntity
  8
AM_9
100
AcDbLine
 10
1.31
 20
-0.3749999999999999
 30
0.0
 11
1.59
 21
-0.3749999999999999
 31
0.0
  0
LINE
  5
168
330
13F
100
AcDbEntity
  8
AM_9
100
AcDbLine
 10
1.91
 20
-0.3750000000000001
 30
0.0
 11
2.19
 21
-0.3749999999999999
 31
0.0
  0
LINE
  5
169
330
13F
100
AcDbEntity
  8
AM_9
100
AcDbLine
 10
2.19
 20
0.3749999999999999
 30
0.0
 11
1.91
 21
0.3749999999999999
 31
0.0
  0
LINE
  5
16A
330
13F
100
AcDbEntity
  8
AM_9
100
AcDbLine
 10
1.59
 20
0.3749999999999999
 30
0.0
 11
1.31
 21
0.3749999999999999
 31
0.0
  0
LWPOLYLINE
  5
16B
330
13F
100
AcDbEntity
  8
AM_9
100
AcDbPolyline
 90
       32
 70
     0
 43
0.0
 10
1.909999999999838
 20
-0.3749999999999311
 10
1.909791031844761
 20
-0.374910553229746
 10
1.90855716354838
 20
-0.3743866639084619
 10
1.903437731240092
 20
-0.3722474141859237
 10
1.894514866612369
 20
-0.3686591198817559
 10
1.882103194651517
 20
-0.363972875414002
 10
1.866150676689222
 20
-0.358491254698583
 10
1.856616018310809
 20
-0.3555165797048293
 10
1.846341326701011
 20
-0.352571483858963
 10
1.835063660531432
 20
-0.3496584921532261
 10
1.823127369711886
 20
-0.3469475640510808
 10
1.810773405403725
 20
-0.3445560512271155
 10
1.797926259976097
 20
-0.3425228844840829
 10
1.784212346590341
 20
-0.3408758561502758
 10
1.770180233674187
 20
-0.3397532072418813
 10
1.757525599097767
 20
-0.3392378284496339
 10
1.744813423645203
 20
-0.33919301374628
 10
1.731732500385785
 20
-0.3396460265737412
 10
1.718799019351194
 20
-0.3405855269876381
 10
1.695671685337975
 20
-0.3434771692180079
 10
1.673381571482429
 20
-0.3477001345822317
 10
1.652316745298556
 20
-0.3529405307542152
 10
1.633287630616721
 20
-0.3586736360078045
 10
1.624471221516436
 20
-0.3616385479601839
 10
1.616533015818854
 20
-0.364470075405938
 10
1.609337067970987
 20
-0.3671660757127287
 10
1.603192978009165
 20
-0.3695636639414343
 10
1.59837174892374
 20
-0.3715049659114002
 10
1.594606770532534
 20
-0.3730577110372181
 10
1.591871743738536
 20
-0.3742048378039797
 10
1.590341538009763
 20
-0.3748544043826721
 10
1.59
 20
-0.3749999999999999
  0
LINE
  5
16C
330
13F
100
AcDbEntity
  8
AM_9
100
AcDbLine
 10
1.909999999999838
 20
0.3749999999999311
 30
0.0
 11
1.908483062245337
 21
0.3743552871520039
 31
0.0
  0
LINE
  5
16D
330
13F
100
AcDbEntity
  8
AM_9
100
AcDbLine
 10
1.317500000000003
 20
0.3846153846153846
 30
0.0
 11
1.413395409143375
 21
0.6
 31
0.0
  0
LINE
  5
16E
330
13F
100
AcDbEntity
  8
AM_9
100
AcDbLine
 10
1.317500000000003
 20
0.3846153846153846
 30
0.0
 11
1.250304711381103
 21
0.3846153846153846
 31
0.0
  0
LINE
  5
16F
330
13F
100
AcDbEntity
  8
AM_9
100
AcDbLine
 10
1.417935495602614
 20
-0.5999999999999999
 30
0.0
 11
1.317499999999999
 21
-0.3846153846153846
 31
0.0
  0
LINE
  5
170
330
13F
100
AcDbEntity
  8
AM_9
100
AcDbLine
 10
1.317499999999999
 20
-0.3846153846153846
 30
0.0
 11
1.250304711381098
 21
-0.3846153846153846
 31
0.0
  0
LINE
  5
171
330
13F
100
AcDbEntity
  8
AM_9
100
AcDbLine
 10
0.9252
 20
-0.3846153846153845
 30
0.0
 11
0.9252
 21
0.3846153846153845
 31
0.0
  0
LINE
  5
172
330
13F
100
AcDbEntity
  8
AM_9
100
AcDbLine
 10
-0.9252
 20
0.3749999999999997
 30
0.0
 11
-0.9252
 21
-0.3749999999999999
 31
0.0
  0
LINE
  5
173
330
13F
100
AcDbEntity
  8
AM_9
100
AcDbLine
 10
-0.25
 20
-0.0795
 30
0.0
 11
-0.25
 21
0.3750000000000001
 31
0.0
  0
LINE
  5
174
330
13F
100
AcDbEntity
  8
AM_9
100
AcDbLine
 10
0.25
 20
-0.0795
 30
0.0
 11
0.25
 21
0.3750000000000001
 31
0.0
  0
LINE
  5
175
330
13F
100
AcDbEntity
  8
AM_9
100
AcDbLine
 10
0.25
 20
-0.0795
 30
0.0
 11
-0.25
 21
-0.0795
 31
0.0
  0
LINE
  5
176
330
13F
100
AcDbEntity
  8
AM_7
100
AcDbLine
 10
1.75
 20
0.8249999999999998
 30
0.0
 11
1.75
 21
-0.8249999999999998
 31
0.0
  0
LINE
  5
177
330
13F
100
AcDbEntity
  8
AM_7
100
AcDbLine
 10
2.234
 20
0.0
 30
0.0
 11
1.266
 21
0.0
 31
0.0
  0
LINE
  5
178
330
13F
100
AcDbEntity
  8
AM_7
100
AcDbLine
 10
0.0
 20
1.331672909064837
 30
0.0
 11
0.0
 21
-1.461672904296466
 31
0.0
  0
LINE
  5
179
330
13F
100
AcDbEntity
  8
AM_4
100
AcDbLine
 10
1.399173535551458
 20
0.6000000000000001
 30
0.0
 11
2.19
 21
0.6000000000000001
 31
0.0
  0
LWPOLYLINE
  5
17A
330
13F
100
AcDbEntity
  8
AM_4
100
AcDbPolyline
 90
        3
 70
     0
 43
0.0
 10
1.399173535551459
 20
0.6000000000000004
 10
1.313130568064313
 20
0.4677467946635284
 10
1.250304711381104
 20
0.3846153846153845
  0
LINE
  5
17B
330
13F
100
AcDbEntity
  8
AM_4
100
AcDbLine
 10
1.250304711381103
 20
0.3846153846153846
 30
0.0
 11
0.8267107482679626
 21
0.3846153846153846
 31
0.0
  0
LINE
  5
17C
330
13F
100
AcDbEntity
  8
AM_4
100
AcDbLine
 10
1.15325625946708
 20
0.2000000000000001
 30
0.0
 11
2.19
 21
0.2000000000000001
 31
0.0
  0
LINE
  5
17D
330
13F
100
AcDbEntity
  8
AM_4
100
AcDbLine
 10
2.19
 20
0.6000000000000001
 30
0.0
 11
2.19
 21
-0.6
 31
0.0
  0
LINE
  5
17E
330
13F
100
AcDbEntity
  8
AM_4
100
AcDbLine
 10
0.8267107482679631
 20
-0.3846153846153845
 30
0.0
 11
1.250304711381098
 21
-0.3846153846153846
 31
0.0
  0
LWPOLYLINE
  5
17F
330
13F
100
AcDbEntity
  8
AM_4
100
AcDbPolyline
 90
        3
 70
     0
 43
0.0
 10
1.250304711381098
 20
-0.3846153846153842
 10
1.347000567019665
 20
-0.5128065429380734
 10
1.403759619625038
 20
-0.6000000000000004
  0
LINE
  5
180
330
13F
100
AcDbEntity
  8
AM_4
100
AcDbLine
 10
1.403759619625037
 20
-0.5999999999999999
 30
0.0
 11
2.19
 21
-0.6
 31
0.0
  0
LINE
  5
181
330
13F
100
AcDbEntity
  8
AM_4
100
AcDbLine
 10
1.15325625946708
 20
-0.2
 30
0.0
 11
2.19
 21
-0.2
 31
0.0
  0
LINE
  5
182
330
13F
100
AcDbEntity
  8
AM_4
100
AcDbLine
 10
0.8218090045746642
 20
-0.3750000000000001
 30
0.0
 11
0.8267107482679631
 21
-0.3846153846153845
 31
0.0
  0
LINE
  5
183
330
13F
100
AcDbEntity
  8
AM_4
100
AcDbLine
 10
0.8267107482679631
 20
0.3846153846153849
 30
0.0
 11
0.8218090045746639
 21
0.3749999999999999
 31
0.0
  0
LWPOLYLINE
  5
184
330
13F
100
AcDbEntity
  8
AM_4
100
AcDbPolyline
 90
        3
 70
     0
 43
0.0
 10
1.087396546803419
 20
-0.3749999999999999
 10
1.131576837103336
 20
-0.3089832402230402
 10
1.174390799521182
 20
-0.2425
  0
LINE
  5
185
330
13F
100
AcDbEntity
  8
AM_4
100
AcDbLine
 10
-1.3
 20
0.2424999999999999
 30
0.0
 11
-1.3
 21
-0.2425
 31
0.0
  0
LINE
  5
186
330
13F
100
AcDbEntity
  8
AM_4
100
AcDbLine
 10
1.087396546803419
 20
-0.3749999999999999
 30
0.0
 11
-1.1675
 21
-0.3749999999999999
 31
0.0
  0
LINE
  5
187
330
13F
100
AcDbEntity
  8
AM_4
100
AcDbLine
 10
-1.3
 20
-0.2425
 30
0.0
 11
-1.1675
 21
-0.3749999999999999
 31
0.0
  0
LINE
  5
188
330
13F
100
AcDbEntity
  8
AM_4
100
AcDbLine
 10
-1.1675
 20
0.3749999999999999
 30
0.0
 11
-1.3
 21
0.2424999999999999
 31
0.0
  0
LINE
  5
189
330
13F
100
AcDbEntity
  8
AM_4
100
AcDbLine
 10
1.087396546803419
 20
0.3749999999999999
 30
0.0
 11
-1.1675
 21
0.3749999999999999
 31
0.0
  0
LWPOLYLINE
  5
18A
330
13F
100
AcDbEntity
  8
AM_4
100
AcDbPolyline
 90
        3
 70
     0
 43
0.0
 10
1.174390799521182
 20
0.2424999999999999
 10
1.131586226360646
 20
0.3089689308490755
 10
1.087396546803419
 20
0.3749999999999999
  0
LINE
  5
18B
330
13F
100
AcDbEntity
  8
AM_4
100
AcDbLine
 10
1.174390799521182
 20
-0.2425
 30
0.0
 11
-1.3
 21
-0.2425
 31
0.0
  0
LINE
  5
18C
330
13F
100
AcDbEntity
  8
AM_4
100
AcDbLine
 10
1.174390799521182
 20
-0.2424999999999999
 30
0.0
 11
1.15325625946708
 21
-0.1999999999999998
 31
0.0
  0
LINE
  5
18D
330
13F
100
AcDbEntity
  8
AM_4
100
AcDbLine
 10
1.15325625946708
 20
-0.2
 30
0.0
 11
1.15325625946708
 21
0.2000000000000001
 31
0.0
  0
LINE
  5
18E
330
13F
100
AcDbEntity
  8
AM_4
100
AcDbLine
 10
1.15325625946708
 20
0.2000000000000001
 30
0.0
 11
1.174390799521182
 21
0.2424999999999999
 31
0.0
  0
LINE
  5
18F
330
13F
100
AcDbEntity
  8
AM_4
100
AcDbLine
 10
1.174390799521182
 20
0.2424999999999999
 30
0.0
 11
-1.3
 21
0.2424999999999999
 31
0.0
  0
LINE
  5
190
330
13F
100
AcDbEntity
  8
AM_4
100
AcDbLine
 10
0.6174999999999999
 20
0.3750000000000001
 30
0.0
 11
0.7500000000000002
 21
0.2425
 31
0.0
  0
LINE
  5
191
330
13F
100
AcDbEntity
  8
AM_4
100
AcDbLine
 10
-0.7499999999999993
 20
0.2425000000000002
 30
0.0
 11
-0.6174999999999999
 21
0.3750000000000001
 31
0.0
  0
LINE
  5
192
330
13F
100
AcDbEntity
  8
AM_4
100
AcDbLine
 10
0.7499999999999999
 20
-0.2424999999999999
 30
0.0
 11
0.6174999999999999
 21
-0.3749999999999999
 31
0.0
  0
LINE
  5
193
330
13F
100
AcDbEntity
  8
AM_4
100
AcDbLine
 10
-0.6174999999999999
 20
-0.3749999999999999
 30
0.0
 11
-0.7499999999999999
 21
-0.2424999999999999
 31
0.0
  0
LINE
  5
194
330
13F
100
AcDbEntity
  8
AM_4
100
AcDbLine
 10
-0.7499999999999993
 20
0.2425000000000002
 30
0.0
 11
-0.7499999999999999
 21
-0.2424999999999999
 31
0.0
  0
LINE
  5
195
330
13F
100
AcDbEntity
  8
AM_4
100
AcDbLine
 10
0.7499999999999999
 20
0.1325000000000001
 30
0.0
 11
-0.7499999999999999
 21
0.1325000000000001
 31
0.0
  0
LINE
  5
196
330
13F
100
AcDbEntity
  8
AM_4
100
AcDbLine
 10
0.7499999999999999
 20
-0.2424999999999999
 30
0.0
 11
0.7500000000000002
 21
0.2425
 31
0.0
  0
LINE
  5
197
330
13F
100
AcDbEntity
  8
AM_4
100
AcDbLine
 10
0.7499999999999999
 20
-0.1324999999999999
 30
0.0
 11
-0.7499999999999999
 21
-0.1324999999999999
 31
0.0
  0
ENDBLK
  5
142
330
13F
100
AcDbEntity
  8
0
100
AcDbBlockEnd
  0
ENDSEC
  0
SECTION
  2
ENTITIES
  0
INSERT
  5
6F
330
1F
100
AcDbEntity
  8
0
100
AcDbBlockReference
  2
1_136833_4
 10
0.0
 20
0.0
 30
0.0
  0
POINT
  5
199
330
1F
100
AcDbEntity
  8
ConnectionPoints
100
AcDbPoint
 10
0.0
 20
0.5
 30
0.0
  0
POINT
  5
19A
330
1F
100
AcDbEntity
  8
ConnectionPoints
100
AcDbPoint
 10
0.0
 20
-0.73
 30
0.0
  0
POINT
  5
19B
330
1F
100
AcDbEntity
  8
ConnectionPoints
100
AcDbPoint
 10
-1.125833024919771
 20
0.0
 30
-0.65
  0
POINT
  5
19C
330
1F
100
AcDbEntity
  8
ConnectionPoints
100
AcDbPoint
 10
0.0
 20
-0.73
 30
0.0
  0
ENDSEC
  0
SECTION
  2
OBJECTS
  0
DICTIONARY
  5
C
330
0
100
AcDbDictionary
281
     1
  3
ACAD_DETAILVIEWSTYLE
350
1A4
  3
ACAD_GROUP
350
D
  3
ACAD_LAYOUT
350
1A
  3
ACAD_MATERIAL
350
43
  3
ACAD_MLEADERSTYLE
350
6B
  3
ACAD_MLINESTYLE
350
17
  3
ACAD_PLOTSETTINGS
350
19
  3
ACAD_PLOTSTYLENAME
350
E
  3
ACAD_SCALELIST
350
47
  3
ACAD_SECTIONVIEWSTYLE
350
1A5
  3
ACAD_TABLESTYLE
350
69
  3
ACAD_VISUALSTYLE
350
2A
  3
ACDB_RECOMPOSE_DATA
350
1A1
  3
AcDbVariableDictionary
350
19D
  0
SUN
  5
6D
330
29
100
AcDbSun
 90
        1
290
     0
 63
     7
421
 16777215
 40
1.0
291
     1
 91
  2455826
 92
 54000000
292
     0
 70
     2
 71
   256
280
     1
  0
DICTIONARY
  5
1A4
102
{ACAD_REACTORS
330
C
102
}
330
C
100
AcDbDictionary
281
     1
  0
DICTIONARY
  5
D
102
{ACAD_REACTORS
330
C
102
}
330
C
100
AcDbDictionary
281
     1
  0
DICTIONARY
  5
1A
102
{ACAD_REACTORS
330
C
102
}
330
C
100
AcDbDictionary
281
     1
  3
Layout1
350
1E
  3
Layout2
350
26
  3
Model
350
22
  0
DICTIONARY
  5
43
102
{ACAD_REACTORS
330
C
102
}
330
C
100
AcDbDictionary
281
     1
  3
ByBlock
350
45
  3
ByLayer
350
44
  3
Global
350
46
  0
DICTIONARY
  5
6B
102
{ACAD_REACTORS
330
C
102
}
330
C
100
AcDbDictionary
281
     1
  3
Standard
350
6C
  0
DICTIONARY
  5
17
102
{ACAD_REACTORS
330
C
102
}
330
C
100
AcDbDictionary
281
     1
  3
Standard
350
18
  0
DICTIONARY
  5
19
102
{ACAD_REACTORS
330
C
102
}
330
C
100
AcDbDictionary
281
     1
  0
ACDBDICTIONARYWDFLT
  5
E
102
{ACAD_REACTORS
330
C
102
}
330
C
100
AcDbDictionary
281
     1
  3
Normal
350
F
100
AcDbDictionaryWithDefault
340
F
  0
DICTIONARY
  5
47
102
{ACAD_REACTORS
330
C
102
}
330
C
100
AcDbDictionary
281
     1
  3
A0
350
48
  3
A1
350
49
  3
A2
350
4A
  3
A3
350
4B
  3
A4
350
4C
  3
A5
350
4D
  3
A6
350
4E
  3
A7
350
4F
  3
A8
350
50
  3
A9
350
51
  3
B0
350
52
  3
B1
350
53
  3
B2
350
54
  3
B3
350
55
  3
B4
350
56
  3
B5
350
57
  3
B6
350
58
  3
B7
350
59
  3
B8
350
5A
  3
B9
350
5B
  3
C0
350
5C
  3
C1
350
5D
  3
C2
350
5E
  3
C3
350
5F
  3
C4
350
60
  3
C5
350
61
  3
C6
350
62
  3
C7
350
63
  3
C8
350
64
  3
C9
350
65
  3
D0
350
66
  3
D1
350
67
  3
D2
350
68
  0
DICTIONARY
  5
1A5
102
{ACAD_REACTORS
330
C
102
}
330
C
100
AcDbDictionary
281
     1
  0
DICTIONARY
  5
69
102
{ACAD_REACTORS
330
C
102
}
330
C
100
AcDbDictionary
281
     1
  3
Standard
350
6A
  0
DICTIONARY
  5
2A
102
{ACAD_REACTORS
330
C
102
}
330
C
100
AcDbDictionary
281
     1
  3
2dWireframe
350
2F
  3
Basic
350
32
  3
Brighten
350
36
  3
ColorChange
350
3A
  3
Conceptual
350
34
  3
Dim
350
35
  3
EdgeColorOff
350
3D
  3
Facepattern
350
39
  3
Flat
350
2B
  3
FlatWithEdges
350
2C
  3
Gouraud
350
2D
  3
GouraudWithEdges
350
2E
  3
Hidden
350
31
  3
JitterOff
350
3B
  3
Linepattern
350
38
  3
OverhangOff
350
3C
  3
Realistic
350
33
  3
Shaded
350
42
  3
Shaded with edges
350
41
  3
Shades of Gray
350
3E
  3
Sketchy
350
3F
  3
Thicken
350
37
  3
Wireframe
350
30
  3
X-Ray
350
40
  0
XRECORD
  5
1A1
102
{ACAD_REACTORS
330
C
102
}
330
C
100
AcDbXrecord
280
     1
 90
        1
330
6A
  0
DICTIONARY
  5
19D
102
{ACAD_REACTORS
330
C
102
}
330
C
100
AcDbDictionary
281
     1
  3
CANNOSCALE
350
19E
  3
CMLEADERSTYLE
350
1A3
  3
CTABLESTYLE
350
1A2
  0
LAYOUT
  5
1E
102
{ACAD_REACTORS
330
1A
102
}
330
1A
100
AcDbPlotSettings
  1

  2
none_device
  4

  6

 40
0.0
 41
0.0
 42
0.0
 43
0.0
 44
0.0
 45
0.0
 46
0.0
 47
0.0
 48
0.0
 49
0.0
140
0.0
141
0.0
142
1.0
143
1.0
 70
   688
 72
     0
 73
     0
 74
     5
  7

 75
    16
 76
     0
 77
     2
 78
   300
147
1.0
148
0.0
149
0.0
100
AcDbLayout
  1
Layout1
 70
     1
 71
     1
 10
0.0
 20
0.0
 11
12.0
 21
9.0
 12
0.0
 22
0.0
 32
0.0
 14
1.000000000000000E+20
 24
1.000000000000000E+20
 34
1.000000000000000E+20
 15
-1.000000000000000E+20
 25
-1.000000000000000E+20
 35
-1.000000000000000E+20
146
0.0
 13
0.0
 23
0.0
 33
0.0
 16
1.0
 26
0.0
 36
0.0
 17
0.0
 27
1.0
 37
0.0
 76
     0
330
1B
  0
LAYOUT
  5
26
102
{ACAD_REACTORS
330
1A
102
}
330
1A
100
AcDbPlotSettings
  1

  2
none_device
  4

  6

 40
0.0
 41
0.0
 42
0.0
 43
0.0
 44
0.0
 45
0.0
 46
0.0
 47
0.0
 48
0.0
 49
0.0
140
0.0
141
0.0
142
1.0
143
1.0
 70
   688
 72
     0
 73
     0
 74
     5
  7

 75
    16
 76
     0
 77
     2
 78
   300
147
1.0
148
0.0
149
0.0
100
AcDbLayout
  1
Layout2
 70
     1
 71
     2
 10
0.0
 20
0.0
 11
0.0
 21
0.0
 12
0.0
 22
0.0
 32
0.0
 14
0.0
 24
0.0
 34
0.0
 15
0.0
 25
0.0
 35
0.0
146
0.0
 13
0.0
 23
0.0
 33
0.0
 16
1.0
 26
0.0
 36
0.0
 17
0.0
 27
1.0
 37
0.0
 76
     0
330
23
  0
LAYOUT
  5
22
102
{ACAD_REACTORS
330
1A
102
}
330
1A
100
AcDbPlotSettings
  1

  2
none_device
  4
Letter_(8.50_x_11.00_Inches)
  6

 40
6.35
 41
6.35
 42
6.35000508
 43
6.35000508
 44
215.9
 45
279.4
 46
0.0
 47
0.0
 48
0.0
 49
0.0
140
0.0
141
0.0
142
1.0
143
1.0
 70
  1712
 72
     0
 73
     0
 74
     0
  7

 75
     0
 76
     0
 77
     2
 78
   300
147
1.0
148
0.0
149
0.0
100
AcDbLayout
  1
Model
 70
     1
 71
     0
 10
0.0
 20
0.0
 11
12.0
 21
9.0
 12
0.0
 22
0.0
 32
0.0
 14
1.000000000000000E+20
 24
1.000000000000000E+20
 34
1.000000000000000E+20
 15
-1.000000000000000E+20
 25
-1.000000000000000E+20
 35
-1.000000000000000E+20
146
0.0
 13
0.0
 23
0.0
 33
0.0
 16
1.0
 26
0.0
 36
0.0
 17
0.0
 27
1.0
 37
0.0
 76
     0
330
1F
331
29
  0
MATERIAL
  5
45
102
{ACAD_REACTORS
330
43
102
}
330
43
100
AcDbMaterial
  1
ByBlock
 72
     1
 94
      127
  0
MATERIAL
  5
44
102
{ACAD_REACTORS
330
43
102
}
330
43
100
AcDbMaterial
  1
ByLayer
 72
     1
 94
      127
  0
MATERIAL
  5
46
102
{ACAD_REACTORS
330
43
102
}
330
43
100
AcDbMaterial
  1
Global
 72
     1
 94
      127
  0
MLEADERSTYLE
  5
6C
102
{ACAD_REACTORS
330
6B
102
}
330
6B
100
AcDbMLeaderStyle
179
     2
170
     2
171
     1
172
     0
 90
        2
 40
0.0
 41
0.0
173
     1
 91
-1056964608
340
14
 92
       -2
290
     1
 42
0.09
291
     1
 43
0.36
  3
Standard
341
0
 44
0.18
300

342
11
174
     1
178
     6
175
     1
176
     0
 93
-1056964608
 45
0.18
292
     0
297
     0
 46
0.18
343
0
 94
-1056964608
 47
1.0
 49
1.0
140
1.0
293
     1
141
0.0
294
     1
177
     0
142
1.0
295
     0
296
     0
143
0.125
271
     0
272
     9
273
     9
298
     0
  0
MLINESTYLE
  5
18
102
{ACAD_REACTORS
330
17
102
}
330
17
100
AcDbMlineStyle
  2
Standard
 70
     0
  3

 62
   256
 51
90.0
 52
90.0
 71
     2
 49
0.5
 62
   256
  6
BYLAYER
 49
-0.5
 62
   256
  6
BYLAYER
  0
ACDBPLACEHOLDER
  5
F
102
{ACAD_REACTORS
330
E
102
}
330
E
  0
SCALE
  5
48
102
{ACAD_REACTORS
330
47
102
}
330
47
100
AcDbScale
 70
     0
300
1:1
140
1.0
141
1.0
290
     1
  0
SCALE
  5
49
102
{ACAD_REACTORS
330
47
102
}
330
47
100
AcDbScale
 70
     0
300
1:2
140
1.0
141
2.0
290
     0
  0
SCALE
  5
4A
102
{ACAD_REACTORS
330
47
102
}
330
47
100
AcDbScale
 70
     0
300
1:4
140
1.0
141
4.0
290
     0
  0
SCALE
  5
4B
102
{ACAD_REACTORS
330
47
102
}
330
47
100
AcDbScale
 70
     0
300
1:5
140
1.0
141
5.0
290
     0
  0
SCALE
  5
4C
102
{ACAD_REACTORS
330
47
102
}
330
47
100
AcDbScale
 70
     0
300
1:8
140
1.0
141
8.0
290
     0
  0
SCALE
  5
4D
102
{ACAD_REACTORS
330
47
102
}
330
47
100
AcDbScale
 70
     0
300
1:10
140
1.0
141
10.0
290
     0
  0
SCALE
  5
4E
102
{ACAD_REACTORS
330
47
102
}
330
47
100
AcDbScale
 70
     0
300
1:16
140
1.0
141
16.0
290
     0
  0
SCALE
  5
4F
102
{ACAD_REACTORS
330
47
102
}
330
47
100
AcDbScale
 70
     0
300
1:20
140
1.0
141
20.0
290
     0
  0
SCALE
  5
50
102
{ACAD_REACTORS
330
47
102
}
330
47
100
AcDbScale
 70
     0
300
1:30
140
1.0
141
30.0
290
     0
  0
SCALE
  5
51
102
{ACAD_REACTORS
330
47
102
}
330
47
100
AcDbScale
 70
     0
300
1:40
140
1.0
141
40.0
290
     0
  0
SCALE
  5
52
102
{ACAD_REACTORS
330
47
102
}
330
47
100
AcDbScale
 70
     0
300
1:50
140
1.0
141
50.0
290
     0
  0
SCALE
  5
53
102
{ACAD_REACTORS
330
47
102
}
330
47
100
AcDbScale
 70
     0
300
1:100
140
1.0
141
100.0
290
     0
  0
SCALE
  5
54
102
{ACAD_REACTORS
330
47
102
}
330
47
100
AcDbScale
 70
     0
300
2:1
140
2.0
141
1.0
290
     0
  0
SCALE
  5
55
102
{ACAD_REACTORS
330
47
102
}
330
47
100
AcDbScale
 70
     0
300
4:1
140
4.0
141
1.0
290
     0
  0
SCALE
  5
56
102
{ACAD_REACTORS
330
47
102
}
330
47
100
AcDbScale
 70
     0
300
8:1
140
8.0
141
1.0
290
     0
  0
SCALE
  5
57
102
{ACAD_REACTORS
330
47
102
}
330
47
100
AcDbScale
 70
     0
300
10:1
140
10.0
141
1.0
290
     0
  0
SCALE
  5
58
102
{ACAD_REACTORS
330
47
102
}
330
47
100
AcDbScale
 70
     0
300
100:1
140
100.0
141
1.0
290
     0
  0
SCALE
  5
59
102
{ACAD_REACTORS
330
47
102
}
330
47
100
AcDbScale
 70
     0
300
1/128" = 1'-0"
140
0.0078125
141
12.0
290
     0
  0
SCALE
  5
5A
102
{ACAD_REACTORS
330
47
102
}
330
47
100
AcDbScale
 70
     0
300
1/64" = 1'-0"
140
0.015625
141
12.0
290
     0
  0
SCALE
  5
5B
102
{ACAD_REACTORS
330
47
102
}
330
47
100
AcDbScale
 70
     0
300
1/32" = 1'-0"
140
0.03125
141
12.0
290
     0
  0
SCALE
  5
5C
102
{ACAD_REACTORS
330
47
102
}
330
47
100
AcDbScale
 70
     0
300
1/16" = 1'-0"
140
0.0625
141
12.0
290
     0
  0
SCALE
  5
5D
102
{ACAD_REACTORS
330
47
102
}
330
47
100
AcDbScale
 70
     0
300
3/32" = 1'-0"
140
0.09375
141
12.0
290
     0
  0
SCALE
  5
5E
102
{ACAD_REACTORS
330
47
102
}
330
47
100
AcDbScale
 70
     0
300
1/8" = 1'-0"
140
0.125
141
12.0
290
     0
  0
SCALE
  5
5F
102
{ACAD_REACTORS
330
47
102
}
330
47
100
AcDbScale
 70
     0
300
3/16" = 1'-0"
140
0.1875
141
12.0
290
     0
  0
SCALE
  5
60
102
{ACAD_REACTORS
330
47
102
}
330
47
100
AcDbScale
 70
     0
300
1/4" = 1'-0"
140
0.25
141
12.0
290
     0
  0
SCALE
  5
61
102
{ACAD_REACTORS
330
47
102
}
330
47
100
AcDbScale
 70
     0
300
3/8" = 1'-0"
140
0.375
141
12.0
290
     0
  0
SCALE
  5
62
102
{ACAD_REACTORS
330
47
102
}
330
47
100
AcDbScale
 70
     0
300
1/2" = 1'-0"
140
0.5
141
12.0
290
     0
  0
SCALE
  5
63
102
{ACAD_REACTORS
330
47
102
}
330
47
100
AcDbScale
 70
     0
300
3/4" = 1'-0"
140
0.75
141
12.0
290
     0
  0
SCALE
  5
64
102
{ACAD_REACTORS
330
47
102
}
330
47
100
AcDbScale
 70
     0
300
1" = 1'-0"
140
1.0
141
12.0
290
     0
  0
SCALE
  5
65
102
{ACAD_REACTORS
330
47
102
}
330
47
100
AcDbScale
 70
     0
300
1-1/2" = 1'-0"
140
1.5
141
12.0
290
     0
  0
SCALE
  5
66
102
{ACAD_REACTORS
330
47
102
}
330
47
100
AcDbScale
 70
     0
300
3" = 1'-0"
140
3.0
141
12.0
290
     0
  0
SCALE
  5
67
102
{ACAD_REACTORS
330
47
102
}
330
47
100
AcDbScale
 70
     0
300
6" = 1'-0"
140
6.0
141
12.0
290
     0
  0
SCALE
  5
68
102
{ACAD_REACTORS
330
47
102
}
330
47
100
AcDbScale
 70
     0
300
1'-0" = 1'-0"
140
12.0
141
12.0
290
     0
  0
TABLESTYLE
  5
6A
102
{ACAD_REACTORS
330
69
102
}
102
{ACAD_XDICTIONARY
360
19F
102
}
330
69
100
AcDbTableStyle
  3
Standard
 70
     0
 71
     0
 40
0.06
 41
0.06
280
     0
281
     0
  7
Standard
140
0.18
170
     2
 62
     0
 63
   257
283
     0
 90
        4
 91
        0
  1

274
    -2
284
     1
 64
     0
275
    -2
285
     1
 65
     0
276
    -2
286
     1
 66
     0
277
    -2
287
     1
 67
     0
278
    -2
288
     1
 68
     0
279
    -2
289
     1
 69
     0
  7
Standard
140
0.25
170
     5
 62
     0
 63
   257
283
     0
 90
        4
 91
        0
  1

274
    -2
284
     1
 64
     0
275
    -2
285
     1
 65
     0
276
    -2
286
     1
 66
     0
277
    -2
287
     1
 67
     0
278
    -2
288
     1
 68
     0
279
    -2
289
     1
 69
     0
  7
Standard
140
0.18
170
     5
 62
     0
 63
   257
283
     0
 90
        4
 91
        0
  1

274
    -2
284
     1
 64
     0
275
    -2
285
     1
 65
     0
276
    -2
286
     1
 66
     0
277
    -2
287
     1
 67
     0
278
    -2
288
     1
 68
     0
279
    -2
289
     1
 69
     0
  0
VISUALSTYLE
  5
2F
102
{ACAD_REACTORS
330
2A
102
}
330
2A
100
AcDbVisualStyle
  2
2dWireframe
 70
     4
177
     3
291
     0
 70
    58
 90
        0
176
     1
 90
        2
176
     1
 90
        0
176
     1
 90
        0
176
     1
 40
0.6
176
     1
 40
30.0
176
     1
 62
     7
420
 16777215
176
     1
 90
        1
176
     1
 90
        4
176
     1
 62
     7
176
     1
 62
   257
176
     1
 90
        1
176
     1
 90
        1
176
     1
 40
1.0
176
     1
 90
        0
176
     1
 62
   257
176
     1
 40
1.0
176
     1
 90
        1
176
     1
 90
        6
176
     1
 90
        2
176
     1
 62
     7
176
     1
 90
        5
176
     1
 90
        0
176
     1
 90
        0
176
     1
290
     0
176
     1
 90
        1
176
     1
 40
0.0
176
     1
 90
        0
176
     1
290
     1
176
     1
290
     1
176
     1
290
     0
176
     1
290
     0
176
     1
290
     0
176
     1
290
     0
176
     1
290
     0
176
     1
290
     0
176
     1
290
     0
176
     1
 90
       50
176
     1
 40
0.0
176
     1
 40
1.0
176
     1
 90
        0
176
     1
 62
    18
420
        0
176
     1
 90
       50
176
     1
 90
        3
176
     1
 62
     5
420
      255
176
     1
290
     0
176
     1
 90
       50
176
     1
 90
       50
176
     1
 90
       50
176
     1
290
     0
176
     1
 90
       50
176
     1
 62
   256
176
     0
 40
1.0
176
     0
 90
        2
176
     1
  1
strokes_ogs.tif
176
     1
290
     0
176
     1
 40
1.0
176
     1
 40
1.0
176
     1
  0
VISUALSTYLE
  5
32
102
{ACAD_REACTORS
330
2A
102
}
330
2A
100
AcDbVisualStyle
  2
Basic
 70
     7
177
     3
291
     1
 70
    58
 90
        1
176
     1
 90
        0
176
     1
 90
        1
176
     1
 90
        0
176
     1
 40
0.6
176
     1
 40
30.0
176
     1
 62
     7
420
 16777215
176
     1
 90
        0
176
     1
 90
        4
176
     1
 62
     7
176
     1
 62
   257
176
     1
 90
        1
176
     1
 90
        1
176
     1
 40
1.0
176
     1
 90
        8
176
     1
 62
     7
176
     1
 40
1.0
176
     1
 90
        1
176
     1
 90
        6
176
     1
 90
        2
176
     1
 62
     7
176
     1
 90
        5
176
     1
 90
        0
176
     1
 90
        0
176
     1
290
     0
176
     1
 90
        1
176
     1
 40
0.0
176
     1
 90
        0
176
     1
290
     0
176
     1
290
     1
176
     1
290
     1
176
     1
290
     0
176
     1
290
     0
176
     1
290
     0
176
     1
290
     0
176
     1
290
     0
176
     1
290
     0
176
     1
 90
       50
176
     1
 40
0.0
176
     1
 40
1.0
176
     1
 90
        0
176
     1
 62
    18
420
        0
176
     1
 90
       50
176
     1
 90
        3
176
     1
 62
     5
420
      255
176
     1
290
     0
176
     1
 90
       50
176
     1
 90
       50
176
     1
 90
       50
176
     1
290
     0
176
     1
 90
       50
176
     1
 62
   256
176
     0
 40
1.0
176
     0
 90
        2
176
     1
  1
strokes_ogs.tif
176
     1
290
     0
176
     1
 40
1.0
176
     1
 40
1.0
176
     1
  0
VISUALSTYLE
  5
36
102
{ACAD_REACTORS
330
2A
102
}
330
2A
100
AcDbVisualStyle
  2
Brighten
 70
    12
177
     3
291
     1
 70
    58
 90
        2
176
     1
 90
        2
176
     1
 90
        0
176
     1
 90
        0
176
     1
 40
0.6
176
     1
 40
30.0
176
     1
 62
     7
420
 16777215
176
     1
 90
        1
176
     1
 90
        4
176
     1
 62
     7
176
     1
 62
   257
176
     1
 90
        1
176
     1
 90
        1
176
     1
 40
1.0
176
     1
 90
        8
176
     1
 62
     7
176
     1
 40
1.0
176
     1
 90
        1
176
     1
 90
        6
176
     1
 90
        2
176
     1
 62
     7
176
     1
 90
        5
176
     1
 90
        0
176
     1
 90
        0
176
     1
290
     0
176
     1
 90
        1
176
     1
 40
50.0
176
     1
 90
        0
176
     1
290
     0
176
     1
290
     1
176
     1
290
     1
176
     1
290
     0
176
     1
290
     0
176
     1
290
     0
176
     1
290
     0
176
     1
290
     0
176
     1
290
     0
176
     1
 90
       50
176
     1
 40
0.0
176
     1
 40
1.0
176
     1
 90
        0
176
     1
 62
    18
420
        0
176
     1
 90
       50
176
     1
 90
        3
176
     1
 62
     5
420
      255
176
     1
290
     0
176
     1
 90
       50
176
     1
 90
       50
176
     1
 90
       50
176
     1
290
     0
176
     1
 90
       50
176
     1
 62
   256
176
     0
 40
1.0
176
     0
 90
        2
176
     1
  1
strokes_ogs.tif
176
     1
290
     0
176
     1
 40
1.0
176
     1
 40
1.0
176
     1
  0
VISUALSTYLE
  5
3A
102
{ACAD_REACTORS
330
2A
102
}
330
2A
100
AcDbVisualStyle
  2
ColorChange
 70
    16
177
     3
291
     1
 70
    58
 90
        2
176
     1
 90
        2
176
     1
 90
        3
176
     1
 90
        0
176
     1
 40
0.6
176
     1
 40
30.0
176
     1
 62
     8
420
  8421504
176
     1
 90
        1
176
     1
 90
        4
176
     1
 62
     7
176
     1
 62
   257
176
     1
 90
        1
176
     1
 90
        1
176
     1
 40
1.0
176
     1
 90
        8
176
     1
 62
     8
420
  8421504
176
     1
 40
1.0
176
     1
 90
        1
176
     1
 90
        6
176
     1
 90
        2
176
     1
 62
     7
176
     1
 90
        5
176
     1
 90
        0
176
     1
 90
        0
176
     1
290
     0
176
     1
 90
        1
176
     1
 40
0.0
176
     1
 90
        0
176
     1
290
     0
176
     1
290
     1
176
     1
290
     1
176
     1
290
     0
176
     1
290
     0
176
     1
290
     0
176
     1
290
     0
176
     1
290
     0
176
     1
290
     0
176
     1
 90
       50
176
     1
 40
0.0
176
     1
 40
1.0
176
     1
 90
        0
176
     1
 62
    18
420
        0
176
     1
 90
       50
176
     1
 90
        3
176
     1
 62
     5
420
      255
176
     1
290
     0
176
     1
 90
       50
176
     1
 90
       50
176
     1
 90
       50
176
     1
290
     0
176
     1
 90
       50
176
     1
 62
   256
176
     0
 40
1.0
176
     0
 90
        2
176
     1
  1
strokes_ogs.tif
176
     1
290
     0
176
     1
 40
1.0
176
     1
 40
1.0
176
     1
  0
VISUALSTYLE
  5
34
102
{ACAD_REACTORS
330
2A
102
}
330
2A
100
AcDbVisualStyle
  2
Conceptual
 70
     9
177
     3
291
     0
 70
    58
 90
        3
176
     1
 90
        2
176
     1
 90
        0
176
     1
 90
        0
176
     1
 40
0.6
176
     1
 40
30.0
176
     1
 62
     7
420
 16777215
176
     1
 90
        2
176
     1
 90
        2
176
     1
 62
     7
176
     1
 62
   257
176
     1
 90
        1
176
     1
 90
        1
176
     1
 40
179.0
176
     1
 90
        8
176
     1
 62
     7
176
     1
 40
1.0
176
     1
 90
        1
176
     1
 90
        6
176
     1
 90
        2
176
     1
 62
     7
176
     1
 90
        3
176
     1
 90
        0
176
     1
 90
        0
176
     1
290
     0
176
     1
 90
        1
176
     1
 40
0.0
176
     1
 90
        0
176
     1
290
     0
176
     1
290
     1
176
     1
290
     1
176
     1
290
     0
176
     1
290
     0
176
     1
290
     0
176
     1
290
     0
176
     1
290
     0
176
     1
290
     0
176
     1
 90
       50
176
     1
 40
0.0
176
     1
 40
1.0
176
     1
 90
        0
176
     1
 62
    18
420
        0
176
     1
 90
       50
176
     1
 90
        3
176
     1
 62
     5
420
      255
176
     1
290
     0
176
     1
 90
       50
176
     1
 90
       50
176
     1
 90
       50
176
     1
290
     0
176
     1
 90
       50
176
     1
 62
   256
176
     0
 40
1.0
176
     0
 90
        2
176
     1
  1
strokes_ogs.tif
176
     1
290
     0
176
     1
 40
1.0
176
     1
 40
1.0
176
     1
  0
VISUALSTYLE
  5
35
102
{ACAD_REACTORS
330
2A
102
}
330
2A
100
AcDbVisualStyle
  2
Dim
 70
    11
177
     3
291
     1
 70
    58
 90
        2
176
     1
 90
        2
176
     1
 90
        0
176
     1
 90
        0
176
     1
 40
0.6
176
     1
 40
30.0
176
     1
 62
     7
420
 16777215
176
     1
 90
        1
176
     1
 90
        4
176
     1
 62
     7
176
     1
 62
   257
176
     1
 90
        1
176
     1
 90
        1
176
     1
 40
1.0
176
     1
 90
        8
176
     1
 62
     7
176
     1
 40
1.0
176
     1
 90
        1
176
     1
 90
        6
176
     1
 90
        2
176
     1
 62
     7
176
     1
 90
        5
176
     1
 90
        0
176
     1
 90
        0
176
     1
290
     0
176
     1
 90
        1
176
     1
 40
-50.0
176
     1
 90
        0
176
     1
290
     0
176
     1
290
     1
176
     1
290
     1
176
     1
290
     0
176
     1
290
     0
176
     1
290
     0
176
     1
290
     0
176
     1
290
     0
176
     1
290
     0
176
     1
 90
       50
176
     1
 40
0.0
176
     1
 40
1.0
176
     1
 90
        0
176
     1
 62
    18
420
        0
176
     1
 90
       50
176
     1
 90
        3
176
     1
 62
     5
420
      255
176
     1
290
     0
176
     1
 90
       50
176
     1
 90
       50
176
     1
 90
       50
176
     1
290
     0
176
     1
 90
       50
176
     1
 62
   256
176
     0
 40
1.0
176
     0
 90
        2
176
     1
  1
strokes_ogs.tif
176
     1
290
     0
176
     1
 40
1.0
176
     1
 40
1.0
176
     1
  0
VISUALSTYLE
  5
3D
102
{ACAD_REACTORS
330
2A
102
}
330
2A
100
AcDbVisualStyle
  2
EdgeColorOff
 70
    22
177
     3
291
     1
 70
    58
 90
        2
176
     0
 90
        2
176
     0
 90
        0
176
     0
 90
        0
176
     0
 40
0.6
176
     0
 40
30.0
176
     0
 62
     7
420
 16777215
176
     0
 90
        1
176
     0
 90
        4
176
     0
 62
     7
176
     0
 62
   257
176
     0
 90
        1
176
     0
 90
        1
176
     0
 40
1.0
176
     0
 90
        8
176
     2
 62
     7
176
     0
 40
1.0
176
     0
 90
        1
176
     0
 90
        6
176
     0
 90
        2
176
     0
 62
     7
176
     0
 90
        5
176
     0
 90
        0
176
     0
 90
        0
176
     0
290
     0
176
     0
 90
        1
176
     0
 40
0.0
176
     0
 90
        0
176
     0
290
     0
176
     0
290
     1
176
     0
290
     1
176
     0
290
     0
176
     0
290
     0
176
     0
290
     0
176
     0
290
     0
176
     0
290
     0
176
     0
290
     0
176
     0
 90
       50
176
     0
 40
0.0
176
     0
 40
1.0
176
     0
 90
        0
176
     0
 62
    18
420
        0
176
     0
 90
       50
176
     0
 90
        3
176
     0
 62
     5
420
      255
176
     0
290
     0
176
     0
 90
       50
176
     0
 90
       50
176
     0
 90
       50
176
     0
290
     0
176
     0
 90
       50
176
     0
 62
   256
176
     0
 40
1.0
176
     0
 90
        2
176
     0
  1
strokes_ogs.tif
176
     0
290
     0
176
     0
 40
1.0
176
     0
 40
1.0
176
     0
  0
VISUALSTYLE
  5
39
102
{ACAD_REACTORS
330
2A
102
}
330
2A
100
AcDbVisualStyle
  2
Facepattern
 70
    15
177
     3
291
     1
 70
    58
 90
        2
176
     1
 90
        2
176
     1
 90
        0
176
     1
 90
        0
176
     1
 40
0.6
176
     1
 40
30.0
176
     1
 62
     7
420
 16777215
176
     1
 90
        1
176
     1
 90
        4
176
     1
 62
     7
176
     1
 62
   257
176
     1
 90
        1
176
     1
 90
        1
176
     1
 40
1.0
176
     1
 90
        8
176
     1
 62
     7
176
     1
 40
1.0
176
     1
 90
        1
176
     1
 90
        6
176
     1
 90
        2
176
     1
 62
     7
176
     1
 90
        5
176
     1
 90
        0
176
     1
 90
        0
176
     1
290
     0
176
     1
 90
        1
176
     1
 40
0.0
176
     1
 90
        0
176
     1
290
     0
176
     1
290
     1
176
     1
290
     1
176
     1
290
     0
176
     1
290
     0
176
     1
290
     0
176
     1
290
     0
176
     1
290
     0
176
     1
290
     0
176
     1
 90
       50
176
     1
 40
0.0
176
     1
 40
1.0
176
     1
 90
        0
176
     1
 62
    18
420
        0
176
     1
 90
       50
176
     1
 90
        3
176
     1
 62
     5
420
      255
176
     1
290
     0
176
     1
 90
       50
176
     1
 90
       50
176
     1
 90
       50
176
     1
290
     0
176
     1
 90
       50
176
     1
 62
   256
176
     0
 40
1.0
176
     0
 90
        2
176
     1
  1
strokes_ogs.tif
176
     1
290
     0
176
     1
 40
1.0
176
     1
 40
1.0
176
     1
  0
VISUALSTYLE
  5
2B
102
{ACAD_REACTORS
330
2A
102
}
330
2A
100
AcDbVisualStyle
  2
Flat
 70
     0
177
     3
291
     1
 70
    58
 90
        2
176
     1
 90
        1
176
     1
 90
        1
176
     1
 90
        2
176
     1
 40
0.6
176
     1
 40
30.0
176
     1
 62
     7
420
 16777215
176
     1
 90
        0
176
     1
 90
        0
176
     1
 62
     7
176
     1
 62
   257
176
     1
 90
        1
176
     1
 90
        1
176
     1
 40
1.0
176
     1
 90
        8
176
     1
 62
     7
176
     1
 40
1.0
176
     1
 90
        1
176
     1
 90
        6
176
     1
 90
        2
176
     1
 62
     7
176
     1
 90
        5
176
     1
 90
        0
176
     1
 90
        0
176
     1
290
     0
176
     1
 90
       13
176
     1
 40
0.0
176
     1
 90
        0
176
     1
290
     0
176
     1
290
     1
176
     1
290
     1
176
     1
290
     0
176
     1
290
     0
176
     1
290
     0
176
     1
290
     0
176
     1
290
     0
176
     1
290
     0
176
     1
 90
       50
176
     1
 40
0.0
176
     1
 40
1.0
176
     1
 90
        0
176
     1
 62
    18
420
        0
176
     1
 90
       50
176
     1
 90
        3
176
     1
 62
     5
420
      255
176
     1
290
     0
176
     1
 90
       50
176
     1
 90
       50
176
     1
 90
       50
176
     1
290
     0
176
     1
 90
       50
176
     1
 62
   256
176
     0
 40
1.0
176
     0
 90
        2
176
     1
  1
strokes_ogs.tif
176
     1
290
     0
176
     1
 40
1.0
176
     1
 40
1.0
176
     1
  0
VISUALSTYLE
  5
2C
102
{ACAD_REACTORS
330
2A
102
}
330
2A
100
AcDbVisualStyle
  2
FlatWithEdges
 70
     1
177
     3
291
     1
 70
    58
 90
        2
176
     1
 90
        1
176
     1
 90
        1
176
     1
 90
        2
176
     1
 40
0.6
176
     1
 40
30.0
176
     1
 62
     7
420
 16777215
176
     1
 90
        1
176
     1
 90
        0
176
     1
 62
     7
176
     1
 62
   257
176
     1
 90
        1
176
     1
 90
        1
176
     1
 40
1.0
176
     1
 90
        0
176
     1
 62
   257
176
     1
 40
1.0
176
     1
 90
        1
176
     1
 90
        6
176
     1
 90
        2
176
     1
 62
     7
176
     1
 90
        5
176
     1
 90
        0
176
     1
 90
        0
176
     1
290
     0
176
     1
 90
       13
176
     1
 40
0.0
176
     1
 90
        0
176
     1
290
     0
176
     1
290
     1
176
     1
290
     1
176
     1
290
     0
176
     1
290
     0
176
     1
290
     0
176
     1
290
     0
176
     1
290
     0
176
     1
290
     0
176
     1
 90
       50
176
     1
 40
0.0
176
     1
 40
1.0
176
     1
 90
        0
176
     1
 62
    18
420
        0
176
     1
 90
       50
176
     1
 90
        3
176
     1
 62
     5
420
      255
176
     1
290
     0
176
     1
 90
       50
176
     1
 90
       50
176
     1
 90
       50
176
     1
290
     0
176
     1
 90
       50
176
     1
 62
   256
176
     0
 40
1.0
176
     0
 90
        2
176
     1
  1
strokes_ogs.tif
176
     1
290
     0
176
     1
 40
1.0
176
     1
 40
1.0
176
     1
  0
VISUALSTYLE
  5
2D
102
{ACAD_REACTORS
330
2A
102
}
330
2A
100
AcDbVisualStyle
  2
Gouraud
 70
     2
177
     3
291
     1
 70
    58
 90
        2
176
     1
 90
        2
176
     1
 90
        1
176
     1
 90
        2
176
     1
 40
0.6
176
     1
 40
30.0
176
     1
 62
     7
420
 16777215
176
     1
 90
        0
176
     1
 90
        0
176
     1
 62
     7
176
     1
 62
   257
176
     1
 90
        1
176
     1
 90
        1
176
     1
 40
1.0
176
     1
 90
        0
176
     1
 62
     7
176
     1
 40
1.0
176
     1
 90
        1
176
     1
 90
        6
176
     1
 90
        2
176
     1
 62
     7
176
     1
 90
        5
176
     1
 90
        0
176
     1
 90
        0
176
     1
290
     0
176
     1
 90
       13
176
     1
 40
0.0
176
     1
 90
        0
176
     1
290
     0
176
     1
290
     1
176
     1
290
     1
176
     1
290
     0
176
     1
290
     0
176
     1
290
     0
176
     1
290
     0
176
     1
290
     0
176
     1
290
     0
176
     1
 90
       50
176
     1
 40
0.0
176
     1
 40
1.0
176
     1
 90
        0
176
     1
 62
    18
420
        0
176
     1
 90
       50
176
     1
 90
        3
176
     1
 62
     5
420
      255
176
     1
290
     0
176
     1
 90
       50
176
     1
 90
       50
176
     1
 90
       50
176
     1
290
     0
176
     1
 90
       50
176
     1
 62
   256
176
     0
 40
1.0
176
     0
 90
        2
176
     1
  1
strokes_ogs.tif
176
     1
290
     0
176
     1
 40
1.0
176
     1
 40
1.0
176
     1
  0
VISUALSTYLE
  5
2E
102
{ACAD_REACTORS
330
2A
102
}
330
2A
100
AcDbVisualStyle
  2
GouraudWithEdges
 70
     3
177
     3
291
     1
 70
    58
 90
        2
176
     1
 90
        2
176
     1
 90
        1
176
     1
 90
        2
176
     1
 40
0.6
176
     1
 40
30.0
176
     1
 62
     7
420
 16777215
176
     1
 90
        1
176
     1
 90
        0
176
     1
 62
     7
176
     1
 62
   257
176
     1
 90
        1
176
     1
 90
        1
176
     1
 40
1.0
176
     1
 90
        0
176
     1
 62
   257
176
     1
 40
1.0
176
     1
 90
        1
176
     1
 90
        6
176
     1
 90
        2
176
     1
 62
     7
176
     1
 90
        5
176
     1
 90
        0
176
     1
 90
        0
176
     1
290
     0
176
     1
 90
       13
176
     1
 40
0.0
176
     1
 90
        0
176
     1
290
     0
176
     1
290
     1
176
     1
290
     1
176
     1
290
     0
176
     1
290
     0
176
     1
290
     0
176
     1
290
     0
176
     1
290
     0
176
     1
290
     0
176
     1
 90
       50
176
     1
 40
0.0
176
     1
 40
1.0
176
     1
 90
        0
176
     1
 62
    18
420
        0
176
     1
 90
       50
176
     1
 90
        3
176
     1
 62
     5
420
      255
176
     1
290
     0
176
     1
 90
       50
176
     1
 90
       50
176
     1
 90
       50
176
     1
290
     0
176
     1
 90
       50
176
     1
 62
   256
176
     0
 40
1.0
176
     0
 90
        2
176
     1
  1
strokes_ogs.tif
176
     1
290
     0
176
     1
 40
1.0
176
     1
 40
1.0
176
     1
  0
VISUALSTYLE
  5
31
102
{ACAD_REACTORS
330
2A
102
}
330
2A
100
AcDbVisualStyle
  2
Hidden
 70
     6
177
     3
291
     0
 70
    58
 90
        1
176
     1
 90
        2
176
     1
 90
        2
176
     1
 90
        0
176
     1
 40
0.6
176
     1
 40
30.0
176
     1
 62
     7
420
 16777215
176
     1
 90
        2
176
     1
 90
        2
176
     1
 62
     7
176
     1
 62
   257
176
     1
 90
        2
176
     1
 90
        1
176
     1
 40
40.0
176
     1
 90
        0
176
     1
 62
   257
176
     1
 40
1.0
176
     1
 90
        1
176
     1
 90
        6
176
     1
 90
        2
176
     1
 62
     7
176
     1
 90
        3
176
     1
 90
        0
176
     1
 90
        0
176
     1
290
     0
176
     1
 90
        1
176
     1
 40
0.0
176
     1
 90
        0
176
     1
290
     0
176
     1
290
     1
176
     1
290
     1
176
     1
290
     0
176
     1
290
     0
176
     1
290
     0
176
     1
290
     0
176
     1
290
     0
176
     1
290
     0
176
     1
 90
       50
176
     1
 40
0.0
176
     1
 40
1.0
176
     1
 90
        0
176
     1
 62
    18
420
        0
176
     1
 90
       50
176
     1
 90
        3
176
     1
 62
     5
420
      255
176
     1
290
     0
176
     1
 90
       50
176
     1
 90
       50
176
     1
 90
       50
176
     1
290
     0
176
     1
 90
       50
176
     1
 62
   256
176
     0
 40
1.0
176
     0
 90
        2
176
     1
  1
strokes_ogs.tif
176
     1
290
     0
176
     1
 40
1.0
176
     1
 40
1.0
176
     1
  0
VISUALSTYLE
  5
3B
102
{ACAD_REACTORS
330
2A
102
}
330
2A
100
AcDbVisualStyle
  2
JitterOff
 70
    20
177
     3
291
     1
 70
    58
 90
        2
176
     0
 90
        2
176
     0
 90
        0
176
     0
 90
        0
176
     0
 40
0.6
176
     0
 40
30.0
176
     0
 62
     7
420
 16777215
176
     0
 90
        1
176
     0
 90
        4
176
     0
 62
     7
176
     0
 62
   257
176
     0
 90
        1
176
     0
 90
        1
176
     0
 40
1.0
176
     0
 90
       10
176
     2
 62
     7
176
     0
 40
1.0
176
     0
 90
        1
176
     0
 90
        6
176
     0
 90
        2
176
     0
 62
     7
176
     0
 90
        5
176
     0
 90
        0
176
     0
 90
        0
176
     0
290
     0
176
     0
 90
        1
176
     0
 40
0.0
176
     0
 90
        0
176
     0
290
     0
176
     0
290
     1
176
     0
290
     1
176
     0
290
     0
176
     0
290
     0
176
     0
290
     0
176
     0
290
     0
176
     0
290
     0
176
     0
290
     0
176
     0
 90
       50
176
     0
 40
0.0
176
     0
 40
1.0
176
     0
 90
        0
176
     0
 62
    18
420
        0
176
     0
 90
       50
176
     0
 90
        3
176
     0
 62
     5
420
      255
176
     0
290
     0
176
     0
 90
       50
176
     0
 90
       50
176
     0
 90
       50
176
     0
290
     0
176
     0
 90
       50
176
     0
 62
   256
176
     0
 40
1.0
176
     0
 90
        2
176
     0
  1
strokes_ogs.tif
176
     0
290
     0
176
     0
 40
1.0
176
     0
 40
1.0
176
     0
  0
VISUALSTYLE
  5
38
102
{ACAD_REACTORS
330
2A
102
}
330
2A
100
AcDbVisualStyle
  2
Linepattern
 70
    14
177
     3
291
     1
 70
    58
 90
        2
176
     1
 90
        2
176
     1
 90
        0
176
     1
 90
        0
176
     1
 40
0.6
176
     1
 40
30.0
176
     1
 62
     7
420
 16777215
176
     1
 90
        1
176
     1
 90
        4
176
     1
 62
     7
176
     1
 62
   257
176
     1
 90
        7
176
     1
 90
        7
176
     1
 40
1.0
176
     1
 90
        8
176
     1
 62
     7
176
     1
 40
1.0
176
     1
 90
        1
176
     1
 90
        6
176
     1
 90
        2
176
     1
 62
     7
176
     1
 90
        5
176
     1
 90
        0
176
     1
 90
        0
176
     1
290
     0
176
     1
 90
        1
176
     1
 40
0.0
176
     1
 90
        0
176
     1
290
     0
176
     1
290
     1
176
     1
290
     1
176
     1
290
     0
176
     1
290
     0
176
     1
290
     0
176
     1
290
     0
176
     1
290
     0
176
     1
290
     0
176
     1
 90
       50
176
     1
 40
0.0
176
     1
 40
1.0
176
     1
 90
        0
176
     1
 62
    18
420
        0
176
     1
 90
       50
176
     1
 90
        3
176
     1
 62
     5
420
      255
176
     1
290
     0
176
     1
 90
       50
176
     1
 90
       50
176
     1
 90
       50
176
     1
290
     0
176
     1
 90
       50
176
     1
 62
   256
176
     0
 40
1.0
176
     0
 90
        2
176
     1
  1
strokes_ogs.tif
176
     1
290
     0
176
     1
 40
1.0
176
     1
 40
1.0
176
     1
  0
VISUALSTYLE
  5
3C
102
{ACAD_REACTORS
330
2A
102
}
330
2A
100
AcDbVisualStyle
  2
OverhangOff
 70
    21
177
     3
291
     1
 70
    58
 90
        2
176
     0
 90
        2
176
     0
 90
        0
176
     0
 90
        0
176
     0
 40
0.6
176
     0
 40
30.0
176
     0
 62
     7
420
 16777215
176
     0
 90
        1
176
     0
 90
        4
176
     0
 62
     7
176
     0
 62
   257
176
     0
 90
        1
176
     0
 90
        1
176
     0
 40
1.0
176
     0
 90
        9
176
     2
 62
     7
176
     0
 40
1.0
176
     0
 90
        1
176
     0
 90
        6
176
     0
 90
        2
176
     0
 62
     7
176
     0
 90
        5
176
     0
 90
        0
176
     0
 90
        0
176
     0
290
     0
176
     0
 90
        1
176
     0
 40
0.0
176
     0
 90
        0
176
     0
290
     0
176
     0
290
     1
176
     0
290
     1
176
     0
290
     0
176
     0
290
     0
176
     0
290
     0
176
     0
290
     0
176
     0
290
     0
176
     0
290
     0
176
     0
 90
       50
176
     0
 40
0.0
176
     0
 40
1.0
176
     0
 90
        0
176
     0
 62
    18
420
        0
176
     0
 90
       50
176
     0
 90
        3
176
     0
 62
     5
420
      255
176
     0
290
     0
176
     0
 90
       50
176
     0
 90
       50
176
     0
 90
       50
176
     0
290
     0
176
     0
 90
       50
176
     0
 62
   256
176
     0
 40
1.0
176
     0
 90
        2
176
     0
  1
strokes_ogs.tif
176
     0
290
     0
176
     0
 40
1.0
176
     0
 40
1.0
176
     0
  0
VISUALSTYLE
  5
33
102
{ACAD_REACTORS
330
2A
102
}
330
2A
100
AcDbVisualStyle
  2
Realistic
 70
     8
177
     3
291
     0
 70
    58
 90
        2
176
     1
 90
        3
176
     1
 90
        0
176
     1
 90
        2
176
     1
 40
0.6
176
     1
 40
30.0
176
     1
 62
     7
420
 16777215
176
     1
 90
        0
176
     1
 90
        0
176
     1
 62
     7
176
     1
 62
   257
176
     1
 90
        1
176
     1
 90
        1
176
     1
 40
1.0
176
     1
 90
        8
176
     1
 62
   257
176
     1
 40
1.0
176
     1
 90
        1
176
     1
 90
        6
176
     1
 90
        2
176
     1
 62
     7
176
     1
 90
        3
176
     1
 90
        0
176
     1
 90
        0
176
     1
290
     0
176
     1
 90
       13
176
     1
 40
0.0
176
     1
 90
        0
176
     1
290
     0
176
     1
290
     1
176
     1
290
     1
176
     1
290
     0
176
     1
290
     0
176
     1
290
     0
176
     1
290
     0
176
     1
290
     0
176
     1
290
     0
176
     1
 90
       50
176
     1
 40
0.0
176
     1
 40
1.0
176
     1
 90
        0
176
     1
 62
    18
420
        0
176
     1
 90
       50
176
     1
 90
        3
176
     1
 62
     5
420
      255
176
     1
290
     0
176
     1
 90
       50
176
     1
 90
       50
176
     1
 90
       50
176
     1
290
     0
176
     1
 90
       50
176
     1
 62
   256
176
     0
 40
1.0
176
     0
 90
        2
176
     1
  1
strokes_ogs.tif
176
     1
290
     0
176
     1
 40
1.0
176
     1
 40
1.0
176
     1
  0
VISUALSTYLE
  5
42
102
{ACAD_REACTORS
330
2A
102
}
330
2A
100
AcDbVisualStyle
  2
Shaded
 70
    27
177
     3
291
     0
 70
    58
 90
        2
176
     1
 90
        2
176
     1
 90
        1
176
     1
 90
        2
176
     1
 40
0.6
176
     1
 40
30.0
176
     1
 62
     7
420
 16777215
176
     1
 90
        0
176
     1
 90
        4
176
     1
 62
     7
176
     1
 62
   257
176
     1
 90
        1
176
     1
 90
        1
176
     1
 40
1.0
176
     1
 90
        8
176
     1
 62
   257
176
     1
 40
1.0
176
     1
 90
        1
176
     1
 90
        6
176
     1
 90
        2
176
     1
 62
     8
420
  7895160
176
     1
 90
        3
176
     1
 90
        0
176
     1
 90
        0
176
     1
290
     0
176
     1
 90
        5
176
     1
 40
0.0
176
     1
 90
        0
176
     1
290
     0
176
     1
290
     1
176
     1
290
     1
176
     1
290
     0
176
     1
290
     0
176
     1
290
     0
176
     1
290
     0
176
     1
290
     0
176
     1
290
     0
176
     1
 90
       50
176
     1
 40
0.0
176
     1
 40
1.0
176
     1
 90
        0
176
     1
 62
    18
420
        0
176
     1
 90
       50
176
     1
 90
        3
176
     1
 62
     5
420
      255
176
     1
290
     0
176
     1
 90
       50
176
     1
 90
       50
176
     1
 90
       50
176
     1
290
     0
176
     1
 90
       50
176
     1
 62
   256
176
     0
 40
1.0
176
     0
 90
        2
176
     1
  1
strokes_ogs.tif
176
     1
290
     0
176
     1
 40
1.0
176
     1
 40
1.0
176
     1
  0
VISUALSTYLE
  5
41
102
{ACAD_REACTORS
330
2A
102
}
330
2A
100
AcDbVisualStyle
  2
Shaded with edges
 70
    26
177
     3
291
     0
 70
    58
 90
        2
176
     1
 90
        2
176
     1
 90
        1
176
     1
 90
        2
176
     1
 40
0.6
176
     1
 40
30.0
176
     1
 62
     7
420
 16777215
176
     1
 90
        1
176
     1
 90
       10
176
     1
 62
     7
176
     1
 62
   257
176
     1
 90
        2
176
     1
 90
        1
176
     1
 40
1.0
176
     1
 90
        8
176
     1
 62
   257
176
     1
 40
1.0
176
     1
 90
        1
176
     1
 90
        6
176
     1
 90
        2
176
     1
 62
     7
176
     1
 90
        3
176
     1
 90
        0
176
     1
 90
        0
176
     1
290
     0
176
     1
 90
        5
176
     1
 40
0.0
176
     1
 90
        0
176
     1
290
     0
176
     1
290
     1
176
     1
290
     1
176
     1
290
     0
176
     1
290
     0
176
     1
290
     0
176
     1
290
     0
176
     1
290
     0
176
     1
290
     0
176
     1
 90
       50
176
     1
 40
0.0
176
     1
 40
1.0
176
     1
 90
        0
176
     1
 62
    18
420
        0
176
     1
 90
       50
176
     1
 90
        3
176
     1
 62
     5
420
      255
176
     1
290
     0
176
     1
 90
       50
176
     1
 90
       50
176
     1
 90
       50
176
     1
290
     0
176
     1
 90
       50
176
     1
 62
   256
176
     0
 40
1.0
176
     0
 90
        2
176
     1
  1
strokes_ogs.tif
176
     1
290
     0
176
     1
 40
1.0
176
     1
 40
1.0
176
     1
  0
VISUALSTYLE
  5
3E
102
{ACAD_REACTORS
330
2A
102
}
330
2A
100
AcDbVisualStyle
  2
Shades of Gray
 70
    23
177
     3
291
     0
 70
    58
 90
        2
176
     1
 90
        2
176
     1
 90
        3
176
     1
 90
        0
176
     1
 40
0.6
176
     1
 40
30.0
176
     1
 62
     7
420
 16777215
176
     1
 90
        2
176
     1
 90
        2
176
     1
 62
     7
176
     1
 62
     7
176
     1
 90
        1
176
     1
 90
        1
176
     1
 40
40.0
176
     1
 90
        8
176
     1
 62
     7
176
     1
 40
1.0
176
     1
 90
        1
176
     1
 90
        6
176
     1
 90
        2
176
     1
 62
     7
176
     1
 90
        3
176
     1
 90
        0
176
     1
 90
        0
176
     1
290
     0
176
     1
 90
        1
176
     1
 40
0.0
176
     1
 90
        0
176
     1
290
     0
176
     1
290
     1
176
     1
290
     1
176
     1
290
     0
176
     1
290
     0
176
     1
290
     0
176
     1
290
     0
176
     1
290
     0
176
     1
290
     0
176
     1
 90
       50
176
     1
 40
0.0
176
     1
 40
1.0
176
     1
 90
        0
176
     1
 62
    18
420
        0
176
     1
 90
       50
176
     1
 90
        3
176
     1
 62
     5
420
      255
176
     1
290
     0
176
     1
 90
       50
176
     1
 90
       50
176
     1
 90
       50
176
     1
290
     0
176
     1
 90
       50
176
     1
 62
   256
176
     0
 40
1.0
176
     0
 90
        2
176
     1
  1
strokes_ogs.tif
176
     1
290
     0
176
     1
 40
1.0
176
     1
 40
1.0
176
     1
  0
VISUALSTYLE
  5
3F
102
{ACAD_REACTORS
330
2A
102
}
330
2A
100
AcDbVisualStyle
  2
Sketchy
 70
    24
177
     3
291
     0
 70
    58
 90
        1
176
     1
 90
        2
176
     1
 90
        2
176
     1
 90
        0
176
     1
 40
0.6
176
     1
 40
30.0
176
     1
 62
     7
420
 16777215
176
     1
 90
        2
176
     1
 90
        2
176
     1
 62
     7
176
     1
 62
     7
176
     1
 90
        1
176
     1
 90
        1
176
     1
 40
40.0
176
     1
 90
       11
176
     1
 62
     7
176
     1
 40
1.0
176
     1
 90
        1
176
     1
 90
        6
176
     1
 90
        2
176
     1
 62
     7
176
     1
 90
        6
176
     1
 90
        0
176
     1
 90
        0
176
     1
290
     0
176
     1
 90
        1
176
     1
 40
0.0
176
     1
 90
        0
176
     1
290
     0
176
     1
290
     1
176
     1
290
     1
176
     1
290
     0
176
     1
290
     0
176
     1
290
     0
176
     1
290
     0
176
     1
290
     0
176
     1
290
     0
176
     1
 90
       50
176
     1
 40
0.0
176
     1
 40
1.0
176
     1
 90
        0
176
     1
 62
    18
420
        0
176
     1
 90
       50
176
     1
 90
        3
176
     1
 62
     5
420
      255
176
     1
290
     0
176
     1
 90
       50
176
     1
 90
       50
176
     1
 90
       50
176
     1
290
     0
176
     1
 90
       50
176
     1
 62
   256
176
     0
 40
1.0
176
     0
 90
        2
176
     1
  1
strokes_ogs.tif
176
     1
290
     0
176
     1
 40
1.0
176
     1
 40
1.0
176
     1
  0
VISUALSTYLE
  5
37
102
{ACAD_REACTORS
330
2A
102
}
330
2A
100
AcDbVisualStyle
  2
Thicken
 70
    13
177
     3
291
     1
 70
    58
 90
        2
176
     1
 90
        2
176
     1
 90
        0
176
     1
 90
        0
176
     1
 40
0.6
176
     1
 40
30.0
176
     1
 62
     7
420
 16777215
176
     1
 90
        1
176
     1
 90
        4
176
     1
 62
     7
176
     1
 62
   257
176
     1
 90
        1
176
     1
 90
        1
176
     1
 40
1.0
176
     1
 90
       12
176
     1
 62
     7
176
     1
 40
1.0
176
     1
 90
        1
176
     1
 90
        6
176
     1
 90
        2
176
     1
 62
     7
176
     1
 90
        5
176
     1
 90
        0
176
     1
 90
        0
176
     1
290
     0
176
     1
 90
        1
176
     1
 40
0.0
176
     1
 90
        0
176
     1
290
     0
176
     1
290
     1
176
     1
290
     1
176
     1
290
     0
176
     1
290
     0
176
     1
290
     0
176
     1
290
     0
176
     1
290
     0
176
     1
290
     0
176
     1
 90
       50
176
     1
 40
0.0
176
     1
 40
1.0
176
     1
 90
        0
176
     1
 62
    18
420
        0
176
     1
 90
       50
176
     1
 90
        3
176
     1
 62
     5
420
      255
176
     1
290
     0
176
     1
 90
       50
176
     1
 90
       50
176
     1
 90
       50
176
     1
290
     0
176
     1
 90
       50
176
     1
 62
   256
176
     0
 40
1.0
176
     0
 90
        2
176
     1
  1
strokes_ogs.tif
176
     1
290
     0
176
     1
 40
1.0
176
     1
 40
1.0
176
     1
  0
VISUALSTYLE
  5
30
102
{ACAD_REACTORS
330
2A
102
}
330
2A
100
AcDbVisualStyle
  2
Wireframe
 70
     5
177
     3
291
     0
 70
    58
 90
        0
176
     1
 90
        2
176
     1
 90
        0
176
     1
 90
        0
176
     1
 40
0.6
176
     1
 40
30.0
176
     1
 62
     7
420
 16777215
176
     1
 90
        1
176
     1
 90
        4
176
     1
 62
     7
176
     1
 62
   257
176
     1
 90
        1
176
     1
 90
        1
176
     1
 40
1.0
176
     1
 90
        0
176
     1
 62
   257
176
     1
 40
1.0
176
     1
 90
        1
176
     1
 90
        6
176
     1
 90
        2
176
     1
 62
     7
176
     1
 90
        3
176
     1
 90
        0
176
     1
 90
        0
176
     1
290
     0
176
     1
 90
        1
176
     1
 40
0.0
176
     1
 90
        0
176
     1
290
     0
176
     1
290
     1
176
     1
290
     1
176
     1
290
     0
176
     1
290
     0
176
     1
290
     0
176
     1
290
     0
176
     1
290
     0
176
     1
290
     0
176
     1
 90
       50
176
     1
 40
0.0
176
     1
 40
1.0
176
     1
 90
        0
176
     1
 62
    18
420
        0
176
     1
 90
       50
176
     1
 90
        3
176
     1
 62
     5
420
      255
176
     1
290
     0
176
     1
 90
       50
176
     1
 90
       50
176
     1
 90
       50
176
     1
290
     0
176
     1
 90
       50
176
     1
 62
   256
176
     0
 40
1.0
176
     0
 90
        2
176
     1
  1
strokes_ogs.tif
176
     1
290
     0
176
     1
 40
1.0
176
     1
 40
1.0
176
     1
  0
VISUALSTYLE
  5
40
102
{ACAD_REACTORS
330
2A
102
}
330
2A
100
AcDbVisualStyle
  2
X-Ray
 70
    25
177
     3
291
     0
 70
    58
 90
        2
176
     1
 90
        2
176
     1
 90
        1
176
     1
 90
        1
176
     1
 40
0.5
176
     1
 40
30.0
176
     1
 62
     7
420
 16777215
176
     1
 90
        1
176
     1
 90
        0
176
     1
 62
     7
176
     1
 62
   257
176
     1
 90
        1
176
     1
 90
        1
176
     1
 40
1.0
176
     1
 90
        8
176
     1
 62
     7
176
     1
 40
1.0
176
     1
 90
        1
176
     1
 90
        6
176
     1
 90
        2
176
     1
 62
     7
176
     1
 90
        3
176
     1
 90
        0
176
     1
 90
        0
176
     1
290
     0
176
     1
 90
       13
176
     1
 40
0.0
176
     1
 90
        0
176
     1
290
     0
176
     1
290
     1
176
     1
290
     1
176
     1
290
     0
176
     1
290
     0
176
     1
290
     0
176
     1
290
     0
176
     1
290
     0
176
     1
290
     0
176
     1
 90
       50
176
     1
 40
0.0
176
     1
 40
1.0
176
     1
 90
        0
176
     1
 62
    18
420
        0
176
     1
 90
       50
176
     1
 90
        3
176
     1
 62
     5
420
      255
176
     1
290
     0
176
     1
 90
       50
176
     1
 90
       50
176
     1
 90
       50
176
     1
290
     0
176
     1
 90
       50
176
     1
 62
   256
176
     0
 40
1.0
176
     0
 90
        2
176
     1
  1
strokes_ogs.tif
176
     1
290
     0
176
     1
 40
1.0
176
     1
 40
1.0
176
     1
  0
DICTIONARYVAR
  5
19E
102
{ACAD_REACTORS
330
19D
102
}
330
19D
100
DictionaryVariables
280
     0
  1
1:1
  0
DICTIONARYVAR
  5
1A3
102
{ACAD_REACTORS
330
19D
102
}
330
19D
100
DictionaryVariables
280
     0
  1
Standard
  0
DICTIONARYVAR
  5
1A2
102
{ACAD_REACTORS
330
19D
102
}
330
19D
100
DictionaryVariables
280
     0
  1
Standard
  0
DICTIONARY
  5
19F
330
6A
100
AcDbDictionary
280
     1
281
     1
  3
ACAD_ROUNDTRIP_2008_TABLESTYLE_CELLSTYLEMAP
360
1A0
  0
CELLSTYLEMAP
  5
1A0
102
{ACAD_REACTORS
330
19F
102
}
330
19F
100
AcDbCellStyleMap
 90
        3
300
CELLSTYLE
  1
TABLEFORMAT_BEGIN
 90
        5
170
     1
 91
        0
 92
    32768
 62
   257
 93
        1
300
CONTENTFORMAT
  1
CONTENTFORMAT_BEGIN
 90
        0
 91
        0
 92
        4
 93
        0
300

 40
0.0
140
1.0
 94
        5
 62
     0
340
11
144
0.25
309
CONTENTFORMAT_END
171
     1
301
MARGIN
  1
CELLMARGIN_BEGIN
 40
0.06
 40
0.06
 40
0.06
 40
0.06
 40
0.06
 40
0.06
309
CELLMARGIN_END
 94
        6
 95
        1
302
GRIDFORMAT
  1
GRIDFORMAT_BEGIN
 90
        0
 91
        1
 62
     0
 92
       -2
340
14
 93
        0
 40
0.045
309
GRIDFORMAT_END
 95
        2
302
GRIDFORMAT
  1
GRIDFORMAT_BEGIN
 90
        0
 91
        1
 62
     0
 92
       -2
340
14
 93
        0
 40
0.045
309
GRIDFORMAT_END
 95
        4
302
GRIDFORMAT
  1
GRIDFORMAT_BEGIN
 90
        0
 91
        1
 62
     0
 92
       -2
340
14
 93
        0
 40
0.045
309
GRIDFORMAT_END
 95
        8
302
GRIDFORMAT
  1
GRIDFORMAT_BEGIN
 90
        0
 91
        1
 62
     0
 92
       -2
340
14
 93
        0
 40
0.045
309
GRIDFORMAT_END
 95
       16
302
GRIDFORMAT
  1
GRIDFORMAT_BEGIN
 90
        0
 91
        1
 62
     0
 92
       -2
340
14
 93
        0
 40
0.045
309
GRIDFORMAT_END
 95
       32
302
GRIDFORMAT
  1
GRIDFORMAT_BEGIN
 90
        0
 91
        1
 62
     0
 92
       -2
340
14
 93
        0
 40
0.045
309
GRIDFORMAT_END
309
TABLEFORMAT_END
  1
CELLSTYLE_BEGIN
 90
        1
 91
        1
300
_TITLE
309
CELLSTYLE_END
300
CELLSTYLE
  1
TABLEFORMAT_BEGIN
 90
        5
170
     1
 91
        0
 92
        0
 62
   257
 93
        1
300
CONTENTFORMAT
  1
CONTENTFORMAT_BEGIN
 90
        0
 91
        0
 92
        4
 93
        0
300

 40
0.0
140
1.0
 94
        5
 62
     0
340
11
144
0.18
309
CONTENTFORMAT_END
171
     1
301
MARGIN
  1
CELLMARGIN_BEGIN
 40
0.06
 40
0.06
 40
0.06
 40
0.06
 40
0.06
 40
0.06
309
CELLMARGIN_END
 94
        6
 95
        1
302
GRIDFORMAT
  1
GRIDFORMAT_BEGIN
 90
        0
 91
        1
 62
     0
 92
       -2
340
14
 93
        0
 40
0.045
309
GRIDFORMAT_END
 95
        2
302
GRIDFORMAT
  1
GRIDFORMAT_BEGIN
 90
        0
 91
        1
 62
     0
 92
       -2
340
14
 93
        0
 40
0.045
309
GRIDFORMAT_END
 95
        4
302
GRIDFORMAT
  1
GRIDFORMAT_BEGIN
 90
        0
 91
        1
 62
     0
 92
       -2
340
14
 93
        0
 40
0.045
309
GRIDFORMAT_END
 95
        8
302
GRIDFORMAT
  1
GRIDFORMAT_BEGIN
 90
        0
 91
        1
 62
     0
 92
       -2
340
14
 93
        0
 40
0.045
309
GRIDFORMAT_END
 95
       16
302
GRIDFORMAT
  1
GRIDFORMAT_BEGIN
 90
        0
 91
        1
 62
     0
 92
       -2
340
14
 93
        0
 40
0.045
309
GRIDFORMAT_END
 95
       32
302
GRIDFORMAT
  1
GRIDFORMAT_BEGIN
 90
        0
 91
        1
 62
     0
 92
       -2
340
14
 93
        0
 40
0.045
309
GRIDFORMAT_END
309
TABLEFORMAT_END
  1
CELLSTYLE_BEGIN
 90
        2
 91
        1
300
_HEADER
309
CELLSTYLE_END
300
CELLSTYLE
  1
TABLEFORMAT_BEGIN
 90
        5
170
     1
 91
        0
 92
        0
 62
   257
 93
        1
300
CONTENTFORMAT
  1
CONTENTFORMAT_BEGIN
 90
        0
 91
        0
 92
        4
 93
        0
300

 40
0.0
140
1.0
 94
        2
 62
     0
340
11
144
0.18
309
CONTENTFORMAT_END
171
     1
301
MARGIN
  1
CELLMARGIN_BEGIN
 40
0.06
 40
0.06
 40
0.06
 40
0.06
 40
0.06
 40
0.06
309
CELLMARGIN_END
 94
        6
 95
        1
302
GRIDFORMAT
  1
GRIDFORMAT_BEGIN
 90
        0
 91
        1
 62
     0
 92
       -2
340
14
 93
        0
 40
0.045
309
GRIDFORMAT_END
 95
        2
302
GRIDFORMAT
  1
GRIDFORMAT_BEGIN
 90
        0
 91
        1
 62
     0
 92
       -2
340
14
 93
        0
 40
0.045
309
GRIDFORMAT_END
 95
        4
302
GRIDFORMAT
  1
GRIDFORMAT_BEGIN
 90
        0
 91
        1
 62
     0
 92
       -2
340
14
 93
        0
 40
0.045
309
GRIDFORMAT_END
 95
        8
302
GRIDFORMAT
  1
GRIDFORMAT_BEGIN
 90
        0
 91
        1
 62
     0
 92
       -2
340
14
 93
        0
 40
0.045
309
GRIDFORMAT_END
 95
       16
302
GRIDFORMAT
  1
GRIDFORMAT_BEGIN
 90
        0
 91
        1
 62
     0
 92
       -2
340
14
 93
        0
 40
0.045
309
GRIDFORMAT_END
 95
       32
302
GRIDFORMAT
  1
GRIDFORMAT_BEGIN
 90
        0
 91
        1
 62
     0
 92
       -2
340
14
 93
        0
 40
0.045
309
GRIDFORMAT_END
309
TABLEFORMAT_END
  1
CELLSTYLE_BEGIN
 90
        3
 91
        2
300
_DATA
309
CELLSTYLE_END
  0
ENDSEC
  0
EOF