0
SECTION
  2
HEADER
  9
$ACADVER
  1
AC1027
  9
$ACADMAINTVER
 70
     8
  9
$DWGCODEPAGE
  3
ANSI_1252
  9
$REQUIREDVERSIONS
160
                 0
  9
$COMMENTS
  1
File was created by Cadenas
  9
$CUSTOMPROPERTYTAG
  1
NN
  9
$CUSTOMPROPERTY
  1
Set Screw Tapped Base Inch Bore - Stainless Housing, Stainless Steel Insert
  9
$CUSTOMPROPERTYTAG
  1
NT
  9
$CUSTOMPROPERTY
  1
SC Pillow Block Bearings -(Normal Duty) -Corrosion Resistant Insert -Polymer Housed -Tapped Base Housing -E-Z KLEEN
  9
$CUSTOMPROPERTYTAG
  1
NB
  9
$CUSTOMPROPERTY
  1
136787
  9
$CUSTOMPROPERTYTAG
  1
NBSYN
  9
$CUSTOMPROPERTY
  1
$PN.
  9
$CUSTOMPROPERTYTAG
  1
LINA
  9
$CUSTOMPROPERTY
  1
136787
  9
$CUSTOMPROPERTYTAG
  1
SERIES
  9
$CUSTOMPROPERTY
  1
206
  9
$CUSTOMPROPERTYTAG
  1
SS
  9
$CUSTOMPROPERTY
  1
1-1/4
  9
$CUSTOMPROPERTYTAG
  1
PN
  9
$CUSTOMPROPERTY
  1
136787
  9
$CUSTOMPROPERTYTAG
  1
DESCRIPTION
  9
$CUSTOMPROPERTY
  1
TB-SCEZ-104S-SHSS
  9
$CUSTOMPROPERTYTAG
  1
W
  9
$CUSTOMPROPERTY
  1
2.49
  9
$CUSTOMPROPERTYTAG
  1
A
  9
$CUSTOMPROPERTY
  1
1.52
  9
$CUSTOMPROPERTYTAG
  1
B
  9
$CUSTOMPROPERTY
  1
3.84
  9
$CUSTOMPROPERTYTAG
  1
C
  9
$CUSTOMPROPERTY
  1
1.50
  9
$CUSTOMPROPERTYTAG
  1
D
  9
$CUSTOMPROPERTY
  1
3.00
  9
$CUSTOMPROPERTYTAG
  1
J
  9
$CUSTOMPROPERTY
  1
3.22
  9
$CUSTOMPROPERTYTAG
  1
L
  9
$CUSTOMPROPERTY
  1
1.57
  9
$CUSTOMPROPERTYTAG
  1
M
  9
$CUSTOMPROPERTY
  1
1.69
  9
$CUSTOMPROPERTYTAG
  1
N
  9
$CUSTOMPROPERTY
  1
0.88
  9
$CUSTOMPROPERTYTAG
  1
R
  9
$CUSTOMPROPERTY
  1
7/16-14
  9
$CUSTOMPROPERTYTAG
  1
S
  9
$CUSTOMPROPERTY
  1
0.94
  9
$CUSTOMPROPERTYTAG
  1
COMPANY
  9
$CUSTOMPROPERTY
  1
baldor
  9
$INSBASE
 10
0.0
 20
0.0
 30
0.0
  9
$EXTMIN
 10
1.000000000000000E+20
 20
1.000000000000000E+20
 30
1.000000000000000E+20
  9
$EXTMAX
 10
-1.000000000000000E+20
 20
-1.000000000000000E+20
 30
-1.000000000000000E+20
  9
$LIMMIN
 10
0.0
 20
0.0
  9
$LIMMAX
 10
12.0
 20
9.0
  9
$ORTHOMODE
 70
     0
  9
$REGENMODE
 70
     1
  9
$FILLMODE
 70
     1
  9
$QTEXTMODE
 70
     0
  9
$MIRRTEXT
 70
     1
  9
$LTSCALE
 40
1.0
  9
$ATTMODE
 70
     1
  9
$TEXTSIZE
 40
0.2
  9
$TRACEWID
 40
0.05
  9
$TEXTSTYLE
  7
Standard
  9
$CLAYER
  8
0
  9
$CELTYPE
  6
ByLayer
  9
$CECOLOR
 62
   256
  9
$CELTSCALE
 40
1.0
  9
$DISPSILH
 70
     0
  9
$DIMSCALE
 40
1.0
  9
$DIMASZ
 40
0.18
  9
$DIMEXO
 40
0.0625
  9
$DIMDLI
 40
0.38
  9
$DIMRND
 40
0.0
  9
$DIMDLE
 40
0.0
  9
$DIMEXE
 40
0.18
  9
$DIMTP
 40
0.0
  9
$DIMTM
 40
0.0
  9
$DIMTXT
 40
0.18
  9
$DIMCEN
 40
0.09
  9
$DIMTSZ
 40
0.0
  9
$DIMTOL
 70
     0
  9
$DIMLIM
 70
     0
  9
$DIMTIH
 70
     1
  9
$DIMTOH
 70
     1
  9
$DIMSE1
 70
     0
  9
$DIMSE2
 70
     0
  9
$DIMTAD
 70
     0
  9
$DIMZIN
 70
     0
  9
$DIMBLK
  1

  9
$DIMASO
 70
     1
  9
$DIMSHO
 70
     1
  9
$DIMPOST
  1

  9
$DIMAPOST
  1

  9
$DIMALT
 70
     0
  9
$DIMALTD
 70
     2
  9
$DIMALTF
 40
25.4
  9
$DIMLFAC
 40
1.0
  9
$DIMTOFL
 70
     0
  9
$DIMTVP
 40
0.0
  9
$DIMTIX
 70
     0
  9
$DIMSOXD
 70
     0
  9
$DIMSAH
 70
     0
  9
$DIMBLK1
  1

  9
$DIMBLK2
  1

  9
$DIMSTYLE
  2
Standard
  9
$DIMCLRD
 70
     0
  9
$DIMCLRE
 70
     0
  9
$DIMCLRT
 70
     0
  9
$DIMTFAC
 40
1.0
  9
$DIMGAP
 40
0.09
  9
$DIMJUST
 70
     0
  9
$DIMSD1
 70
     0
  9
$DIMSD2
 70
     0
  9
$DIMTOLJ
 70
     1
  9
$DIMTZIN
 70
     0
  9
$DIMALTZ
 70
     0
  9
$DIMALTTZ
 70
     0
  9
$DIMUPT
 70
     0
  9
$DIMDEC
 70
     4
  9
$DIMTDEC
 70
     4
  9
$DIMALTU
 70
     2
  9
$DIMALTTD
 70
     2
  9
$DIMTXSTY
  7
Standard
  9
$DIMAUNIT
 70
     0
  9
$DIMADEC
 70
     0
  9
$DIMALTRND
 40
0.0
  9
$DIMAZIN
 70
     0
  9
$DIMDSEP
 70
    46
  9
$DIMATFIT
 70
     3
  9
$DIMFRAC
 70
     0
  9
$DIMLDRBLK
  1

  9
$DIMLUNIT
 70
     2
  9
$DIMLWD
 70
    -2
  9
$DIMLWE
 70
    -2
  9
$DIMTMOVE
 70
     0
  9
$DIMFXL
 40
1.0
  9
$DIMFXLON
 70
     0
  9
$DIMJOGANG
 40
0.7853981633974483
  9
$DIMTFILL
 70
     0
  9
$DIMTFILLCLR
 70
     0
  9
$DIMARCSYM
 70
     0
  9
$DIMLTYPE
  6

  9
$DIMLTEX1
  6

  9
$DIMLTEX2
  6

  9
$DIMTXTDIRECTION
 70
     0
  9
$LUNITS
 70
     2
  9
$LUPREC
 70
     4
  9
$SKETCHINC
 40
0.1
  9
$FILLETRAD
 40
0.5
  9
$AUNITS
 70
     0
  9
$AUPREC
 70
     0
  9
$MENU
  1
.
  9
$ELEVATION
 40
0.0
  9
$PELEVATION
 40
0.0
  9
$THICKNESS
 40
0.0
  9
$LIMCHECK
 70
     0
  9
$CHAMFERA
 40
0.0
  9
$CHAMFERB
 40
0.0
  9
$CHAMFERC
 40
0.0
  9
$CHAMFERD
 40
0.0
  9
$SKPOLY
 70
     0
  9
$TDCREATE
 40
2458168.892354803
  9
$TDUCREATE
 40
2458168.850688137
  9
$TDUPDATE
 40
2458168.892354988
  9
$TDUUPDATE
 40
2458168.850688322
  9
$TDINDWG
 40
0.0000000116
  9
$TDUSRTIMER
 40
0.0000000116
  9
$USRTIMER
 70
     1
  9
$ANGBASE
 50
0.0
  9
$ANGDIR
 70
     0
  9
$PDMODE
 70
     0
  9
$PDSIZE
 40
0.0
  9
$PLINEWID
 40
0.0
  9
$SPLFRAME
 70
     0
  9
$SPLINETYPE
 70
     6
  9
$SPLINESEGS
 70
     8
  9
$HANDSEED
  5
195
  9
$SURFTAB1
 70
     6
  9
$SURFTAB2
 70
     6
  9
$SURFTYPE
 70
     6
  9
$SURFU
 70
     6
  9
$SURFV
 70
     6
  9
$UCSBASE
  2

  9
$UCSNAME
  2

  9
$UCSORG
 10
0.0
 20
0.0
 30
0.0
  9
$UCSXDIR
 10
1.0
 20
0.0
 30
0.0
  9
$UCSYDIR
 10
0.0
 20
1.0
 30
0.0
  9
$UCSORTHOREF
  2

  9
$UCSORTHOVIEW
 70
     0
  9
$UCSORGTOP
 10
0.0
 20
0.0
 30
0.0
  9
$UCSORGBOTTOM
 10
0.0
 20
0.0
 30
0.0
  9
$UCSORGLEFT
 10
0.0
 20
0.0
 30
0.0
  9
$UCSORGRIGHT
 10
0.0
 20
0.0
 30
0.0
  9
$UCSORGFRONT
 10
0.0
 20
0.0
 30
0.0
  9
$UCSORGBACK
 10
0.0
 20
0.0
 30
0.0
  9
$PUCSBASE
  2

  9
$PUCSNAME
  2

  9
$PUCSORG
 10
0.0
 20
0.0
 30
0.0
  9
$PUCSXDIR
 10
1.0
 20
0.0
 30
0.0
  9
$PUCSYDIR
 10
0.0
 20
1.0
 30
0.0
  9
$PUCSORTHOREF
  2

  9
$PUCSORTHOVIEW
 70
     0
  9
$PUCSORGTOP
 10
0.0
 20
0.0
 30
0.0
  9
$PUCSORGBOTTOM
 10
0.0
 20
0.0
 30
0.0
  9
$PUCSORGLEFT
 10
0.0
 20
0.0
 30
0.0
  9
$PUCSORGRIGHT
 10
0.0
 20
0.0
 30
0.0
  9
$PUCSORGFRONT
 10
0.0
 20
0.0
 30
0.0
  9
$PUCSORGBACK
 10
0.0
 20
0.0
 30
0.0
  9
$USERI1
 70
     0
  9
$USERI2
 70
     0
  9
$USERI3
 70
     0
  9
$USERI4
 70
     0
  9
$USERI5
 70
     0
  9
$USERR1
 40
0.0
  9
$USERR2
 40
0.0
  9
$USERR3
 40
0.0
  9
$USERR4
 40
0.0
  9
$USERR5
 40
0.0
  9
$WORLDVIEW
 70
     1
  9
$SHADEDGE
 70
     3
  9
$SHADEDIF
 70
    70
  9
$TILEMODE
 70
     1
  9
$MAXACTVP
 70
    64
  9
$PINSBASE
 10
0.0
 20
0.0
 30
0.0
  9
$PLIMCHECK
 70
     0
  9
$PEXTMIN
 10
1.000000000000000E+20
 20
1.000000000000000E+20
 30
1.000000000000000E+20
  9
$PEXTMAX
 10
-1.000000000000000E+20
 20
-1.000000000000000E+20
 30
-1.000000000000000E+20
  9
$PLIMMIN
 10
0.0
 20
0.0
  9
$PLIMMAX
 10
12.0
 20
9.0
  9
$UNITMODE
 70
     0
  9
$VISRETAIN
 70
     1
  9
$PLINEGEN
 70
     0
  9
$PSLTSCALE
 70
     1
  9
$TREEDEPTH
 70
  3020
  9
$CMLSTYLE
  2
Standard
  9
$CMLJUST
 70
     0
  9
$CMLSCALE
 40
1.0
  9
$PROXYGRAPHICS
 70
     1
  9
$MEASUREMENT
 70
     0
  9
$CELWEIGHT
370
    -1
  9
$ENDCAPS
280
     0
  9
$JOINSTYLE
280
     0
  9
$LWDISPLAY
290
     0
  9
$INSUNITS
 70
     1
  9
$HYPERLINKBASE
  1

  9
$STYLESHEET
  1

  9
$XEDIT
290
     1
  9
$CEPSNTYPE
380
     0
  9
$PSTYLEMODE
290
     1
  9
$FINGERPRINTGUID
  2
{A26B045D-1F9A-432E-B183-A174F1A04228}
  9
$VERSIONGUID
  2
{FAEB1C32-E019-11D5-929B-00C0DF256EC4}
  9
$EXTNAMES
290
     1
  9
$PSVPSCALE
 40
0.0
  9
$OLESTARTUP
290
     0
  9
$SORTENTS
280
   127
  9
$INDEXCTL
280
     0
  9
$HIDETEXT
280
     1
  9
$XCLIPFRAME
280
     2
  9
$HALOGAP
280
     0
  9
$OBSCOLOR
 70
   257
  9
$OBSLTYPE
280
     0
  9
$INTERSECTIONDISPLAY
280
     0
  9
$INTERSECTIONCOLOR
 70
   257
  9
$DIMASSOC
280
     2
  9
$PROJECTNAME
  1

  9
$CAMERADISPLAY
290
     0
  9
$LENSLENGTH
 40
50.0
  9
$CAMERAHEIGHT
 40
0.0
  9
$STEPSPERSEC
 40
2.0
  9
$STEPSIZE
 40
6.0
  9
$3DDWFPREC
 40
2.0
  9
$PSOLWIDTH
 40
0.25
  9
$PSOLHEIGHT
 40
4.0
  9
$LOFTANG1
 40
1.570796326794897
  9
$LOFTANG2
 40
1.570796326794897
  9
$LOFTMAG1
 40
0.0
  9
$LOFTMAG2
 40
0.0
  9
$LOFTPARAM
 70
     7
  9
$LOFTNORMALS
280
     1
  9
$LATITUDE
 40
37.795
  9
$LONGITUDE
 40
-122.394
  9
$NORTHDIRECTION
 40
0.0
  9
$TIMEZONE
 70
 -8000
  9
$LIGHTGLYPHDISPLAY
280
     1
  9
$TILEMODELIGHTSYNCH
280
     1
  9
$CMATERIAL
347
44
  9
$SOLIDHIST
280
     0
  9
$SHOWHIST
280
     1
  9
$DWFFRAME
280
     2
  9
$DGNFRAME
280
     2
  9
$REALWORLDSCALE
290
     1
  9
$INTERFERECOLOR
 62
   256
  9
$CSHADOW
280
     0
  9
$SHADOWPLANELOCATION
 40
0.0
  0
ENDSEC
  0
SECTION
  2
CLASSES
  0
CLASS
  1
ACDBDICTIONARYWDFLT
  2
AcDbDictionaryWithDefault
  3
ObjectDBX Classes
 90
        0
 91
        4
280
     0
281
     0
  0
CLASS
  1
VISUALSTYLE
  2
AcDbVisualStyle
  3
ObjectDBX Classes
 90
     4095
 91
        4
280
     0
281
     0
  0
CLASS
  1
MATERIAL
  2
AcDbMaterial
  3
ObjectDBX Classes
 90
     1153
 91
        4
280
     0
281
     0
  0
CLASS
  1
SCALE
  2
AcDbScale
  3
ObjectDBX Classes
 90
     1153
 91
        4
280
     0
281
     0
  0
CLASS
  1
TABLESTYLE
  2
AcDbTableStyle
  3
ObjectDBX Classes
 90
     4095
 91
        4
280
     0
281
     0
  0
CLASS
  1
MLEADERSTYLE
  2
AcDbMLeaderStyle
  3
ACDB_MLEADERSTYLE_CLASS
 90
     4095
 91
        4
280
     0
281
     0
  0
CLASS
  1
SUN
  2
AcDbSun
  3
SCENEOE
 90
     1153
 91
        4
280
     0
281
     0
  0
CLASS
  1
DICTIONARYVAR
  2
AcDbDictionaryVar
  3
ObjectDBX Classes
 90
        0
 91
        4
280
     0
281
     0
  0
CLASS
  1
CELLSTYLEMAP
  2
AcDbCellStyleMap
  3
ObjectDBX Classes
 90
     1152
 91
        4
280
     0
281
     0
  0
ENDSEC
  0
SECTION
  2
TABLES
  0
TABLE
  2
VPORT
  5
8
330
0
100
AcDbSymbolTable
 70
     1
  0
VPORT
  5
29
330
8
100
AcDbSymbolTableRecord
100
AcDbViewportTableRecord
  2
*Active
 70
     0
 10
0.0
 20
0.0
 11
1.0
 21
1.0
 12
0.0
 22
-0.0955000000000004
 13
0.0
 23
0.0
 14
0.5
 24
0.5
 15
0.5
 25
0.5
 16
0.0
 26
0.0
 36
1.0
 17
0.0
 27
0.0
 37
0.0
 40
1.877819999999999
 41
2.085822922324824
 42
50.0
 43
0.0
 44
0.0
 50
0.0
 51
0.0
 71
     0
 72
   100
 73
     1
 74
     3
 75
     0
 76
     0
 77
     0
 78
     0
281
     0
 65
     1
110
0.0
120
0.0
130
0.0
111
1.0
121
0.0
131
0.0
112
0.0
122
1.0
132
0.0
 79
     0
146
0.0
348
2F
 60
     3
 61
     5
292
     1
282
     1
141
0.0
142
0.0
 63
   250
361
6D
  0
ENDTAB
  0
TABLE
  2
LTYPE
  5
5
330
0
100
AcDbSymbolTable
 70
     3
  0
LTYPE
  5
14
330
5
100
AcDbSymbolTableRecord
100
AcDbLinetypeTableRecord
  2
ByBlock
 70
     0
  3

 72
    65
 73
     0
 40
0.0
  0
LTYPE
  5
15
330
5
100
AcDbSymbolTableRecord
100
AcDbLinetypeTableRecord
  2
ByLayer
 70
     0
  3

 72
    65
 73
     0
 40
0.0
  0
LTYPE
  5
16
330
5
100
AcDbSymbolTableRecord
100
AcDbLinetypeTableRecord
  2
Continuous
 70
     0
  3
Solid line
 72
    65
 73
     0
 40
0.0
  0
LTYPE
  5
9A
330
5
100
AcDbSymbolTableRecord
100
AcDbLinetypeTableRecord
  2
Dashed
 70
     0
  3

 72
    65
 73
     2
 40
2.0
 49
1.0
 74
     0
 49
-1.0
 74
     0
  0
LTYPE
  5
11D
330
5
100
AcDbSymbolTableRecord
100
AcDbLinetypeTableRecord
  2
Center
 70
     0
  3

 72
    65
 73
     4
 40
1.5
 49
0.45
 74
     0
 49
-0.5
 74
     0
 49
0.05
 74
     0
 49
-0.5
 74
     0
  0
ENDTAB
  0
TABLE
  2
LAYER
  5
2
330
0
100
AcDbSymbolTable
 70
     7
  0
LAYER
  5
10
330
2
100
AcDbSymbolTableRecord
100
AcDbLayerTableRecord
  2
0
 70
     0
 62
     7
  6
Continuous
370
    -3
390
F
347
46
348
0
  0
LAYER
  5
72
330
2
100
AcDbSymbolTableRecord
100
AcDbLayerTableRecord
  2
AM_6
 70
     0
 62
    -2
  6
Continuous
370
    35
390
F
347
46
348
0
  0
LAYER
  5
9B
330
2
100
AcDbSymbolTableRecord
100
AcDbLayerTableRecord
  2
AM_9
 70
     0
 62
     6
  6
Dashed
370
    25
390
F
347
46
348
0
  0
LAYER
  5
BD
330
2
100
AcDbSymbolTableRecord
100
AcDbLayerTableRecord
  2
AM_4
 70
     0
 62
     7
  6
Continuous
370
    50
390
F
347
46
348
0
  0
LAYER
  5
11A
330
2
100
AcDbSymbolTableRecord
100
AcDbLayerTableRecord
  2
AM_5
 70
     0
 62
     3
  6
Continuous
370
    25
390
F
347
46
348
0
  0
LAYER
  5
11E
330
2
100
AcDbSymbolTableRecord
100
AcDbLayerTableRecord
  2
AM_7
 70
     0
 62
     7
  6
Center
370
    25
390
F
347
46
348
0
  0
LAYER
  5
187
330
2
100
AcDbSymbolTableRecord
100
AcDbLayerTableRecord
  2
ConnectionPoints
 70
     0
 62
     7
  6
Continuous
370
    50
390
F
347
46
348
0
  0
ENDTAB
  0
TABLE
  2
STYLE
  5
3
330
0
100
AcDbSymbolTable
 70
     1
  0
STYLE
  5
11
330
3
100
AcDbSymbolTableRecord
100
AcDbTextStyleTableRecord
  2
Standard
 70
     0
 40
0.0
 41
1.0
 50
0.0
 71
     0
 42
0.2
  3
txt
  4

  0
ENDTAB
  0
TABLE
  2
VIEW
  5
6
330
0
100
AcDbSymbolTable
 70
     0
  0
ENDTAB
  0
TABLE
  2
UCS
  5
7
330
0
100
AcDbSymbolTable
 70
     0
  0
ENDTAB
  0
TABLE
  2
APPID
  5
9
330
0
100
AcDbSymbolTable
 70
     1
  0
APPID
  5
12
330
9
100
AcDbSymbolTableRecord
100
AcDbRegAppTableRecord
  2
ACAD
 70
     0
  0
ENDTAB
  0
TABLE
  2
DIMSTYLE
  5
A
330
0
100
AcDbSymbolTable
 70
     1
100
AcDbDimStyleTable
  0
DIMSTYLE
105
27
330
A
100
AcDbSymbolTableRecord
100
AcDbDimStyleTableRecord
  2
Standard
 70
     0
178
     0
340
11
  0
ENDTAB
  0
TABLE
  2
BLOCK_RECORD
  5
1
330
0
100
AcDbSymbolTable
 70
     5
  0
BLOCK_RECORD
  5
1F
330
1
100
AcDbSymbolTableRecord
100
AcDbBlockTableRecord
  2
*Model_Space
340
22
 70
     0
280
     1
281
     0
  0
BLOCK_RECORD
  5
1B
330
1
100
AcDbSymbolTableRecord
100
AcDbBlockTableRecord
  2
*Paper_Space
340
1E
 70
     0
280
     1
281
     0
  0
BLOCK_RECORD
  5
23
330
1
100
AcDbSymbolTableRecord
100
AcDbBlockTableRecord
  2
*Paper_Space0
340
26
 70
     0
280
     1
281
     0
  0
BLOCK_RECORD
  5
6E
330
1
100
AcDbSymbolTableRecord
100
AcDbBlockTableRecord
  2
1_136787_4
340
0
102
{BLKREFS
331
6F
102
}
 70
     0
280
     1
281
     0
  0
BLOCK_RECORD
  5
88
330
1
100
AcDbSymbolTableRecord
100
AcDbBlockTableRecord
  2
2_405020c_Inch_0_in_136787_4
340
0
102
{BLKREFS
331
89
102
}
 70
     0
280
     1
281
     0
  0
BLOCK_RECORD
  5
E2
330
1
100
AcDbSymbolTableRecord
100
AcDbBlockTableRecord
  2
3_127821_0_in_136787_4
340
0
102
{BLKREFS
331
E3
102
}
 70
     0
280
     1
281
     0
  0
BLOCK_RECORD
  5
134
330
1
100
AcDbSymbolTableRecord
100
AcDbBlockTableRecord
  2
4_136787H_0_in_136787_4
340
0
102
{BLKREFS
331
135
102
}
 70
     0
280
     1
281
     0
  0
ENDTAB
  0
ENDSEC
  0
SECTION
  2
BLOCKS
  0
BLOCK
  5
20
330
1F
100
AcDbEntity
  8
0
100
AcDbBlockBegin
  2
*Model_Space
 70
     0
 10
0.0
 20
0.0
 30
0.0
  3
*Model_Space
  1

  0
ENDBLK
  5
21
330
1F
100
AcDbEntity
  8
0
100
AcDbBlockEnd
  0
BLOCK
  5
1C
330
1B
100
AcDbEntity
 67
     1
  8
0
100
AcDbBlockBegin
  2
*Paper_Space
 70
     0
 10
0.0
 20
0.0
 30
0.0
  3
*Paper_Space
  1

  0
ENDBLK
  5
1D
330
1B
100
AcDbEntity
 67
     1
  8
0
100
AcDbBlockEnd
  0
BLOCK
  5
24
330
23
100
AcDbEntity
  8
0
100
AcDbBlockBegin
  2
*Paper_Space0
 70
     0
 10
0.0
 20
0.0
 30
0.0
  3
*Paper_Space0
  1

  0
ENDBLK
  5
25
330
23
100
AcDbEntity
  8
0
100
AcDbBlockEnd
  0
BLOCK
  5
70
330
6E
100
AcDbEntity
  8
0
100
AcDbBlockBegin
  2
1_136787_4
 70
     2
 10
0.0
 20
0.0
 30
0.0
  3
1_136787_4
  1

  0
ATTDEF
  5
73
330
6E
100
AcDbEntity
  8
AM_6
100
AcDbText
 10
6.92
 20
0.8249999999999998
 30
0.0
 40
0.5
  1
Set Screw Tapped Base Inch Bore - Stainless Housing, Stainless Steel Insert
100
AcDbAttributeDefinition
  3

  2
NN
 70
     8
280
     0
  0
ATTDEF
  5
74
330
6E
100
AcDbEntity
  8
AM_6
100
AcDbText
 10
6.92
 20
0.3249999999999998
 30
0.0
 40
0.5
  1
SC Pillow Block Bearings -(Normal Duty) -Corrosion Resistant Insert -Polymer Housed -Tapped Base Housing -E-Z KLEEN
100
AcDbAttributeDefinition
  3

  2
NT
 70
     8
280
     0
  0
ATTDEF
  5
75
330
6E
100
AcDbEntity
  8
AM_6
100
AcDbText
 10
6.92
 20
-0.1750000000000002
 30
0.0
 40
0.5
  1
136787
100
AcDbAttributeDefinition
  3

  2
NB
 70
     8
280
     0
  0
ATTDEF
  5
76
330
6E
100
AcDbEntity
  8
AM_6
100
AcDbText
 10
6.92
 20
-0.6750000000000002
 30
0.0
 40
0.5
  1
$PN.
100
AcDbAttributeDefinition
  3

  2
NBSYN
 70
     8
280
     0
  0
ATTDEF
  5
77
330
6E
100
AcDbEntity
  8
AM_6
100
AcDbText
 10
6.92
 20
-1.175
 30
0.0
 40
0.5
  1
136787
100
AcDbAttributeDefinition
  3

  2
LINA
 70
     8
280
     0
  0
ATTDEF
  5
78
330
6E
100
AcDbEntity
  8
AM_6
100
AcDbText
 10
6.92
 20
-1.675
 30
0.0
 40
0.5
  1
206
100
AcDbAttributeDefinition
  3

  2
SERIES
 70
     8
280
     0
  0
ATTDEF
  5
79
330
6E
100
AcDbEntity
  8
AM_6
100
AcDbText
 10
6.92
 20
-2.175
 30
0.0
 40
0.5
  1
1-1/4
100
AcDbAttributeDefinition
  3

  2
SS
 70
     8
280
     0
  0
ATTDEF
  5
7A
330
6E
100
AcDbEntity
  8
AM_6
100
AcDbText
 10
6.92
 20
-2.675
 30
0.0
 40
0.5
  1
136787
100
AcDbAttributeDefinition
  3

  2
PN
 70
     8
280
     0
  0
ATTDEF
  5
7B
330
6E
100
AcDbEntity
  8
AM_6
100
AcDbText
 10
6.92
 20
-3.175
 30
0.0
 40
0.5
  1
TB-SCEZ-104S-SHSS
100
AcDbAttributeDefinition
  3

  2
DESCRIPTION
 70
     8
280
     0
  0
ATTDEF
  5
7C
330
6E
100
AcDbEntity
  8
AM_6
100
AcDbText
 10
6.92
 20
-3.675
 30
0.0
 40
0.5
  1
2.49
100
AcDbAttributeDefinition
  3

  2
W
 70
     8
280
     0
  0
ATTDEF
  5
7D
330
6E
100
AcDbEntity
  8
AM_6
100
AcDbText
 10
6.92
 20
-4.175000000000001
 30
0.0
 40
0.5
  1
1.52
100
AcDbAttributeDefinition
  3

  2
A
 70
     8
280
     0
  0
ATTDEF
  5
7E
330
6E
100
AcDbEntity
  8
AM_6
100
AcDbText
 10
6.92
 20
-4.675000000000001
 30
0.0
 40
0.5
  1
3.84
100
AcDbAttributeDefinition
  3

  2
B
 70
     8
280
     0
  0
ATTDEF
  5
7F
330
6E
100
AcDbEntity
  8
AM_6
100
AcDbText
 10
6.92
 20
-5.175000000000001
 30
0.0
 40
0.5
  1
1.50
100
AcDbAttributeDefinition
  3

  2
C
 70
     8
280
     0
  0
ATTDEF
  5
80
330
6E
100
AcDbEntity
  8
AM_6
100
AcDbText
 10
6.92
 20
-5.675000000000001
 30
0.0
 40
0.5
  1
3.00
100
AcDbAttributeDefinition
  3

  2
D
 70
     8
280
     0
  0
ATTDEF
  5
81
330
6E
100
AcDbEntity
  8
AM_6
100
AcDbText
 10
6.92
 20
-6.175000000000001
 30
0.0
 40
0.5
  1
3.22
100
AcDbAttributeDefinition
  3

  2
J
 70
     8
280
     0
  0
ATTDEF
  5
82
330
6E
100
AcDbEntity
  8
AM_6
100
AcDbText
 10
6.92
 20
-6.675000000000001
 30
0.0
 40
0.5
  1
1.57
100
AcDbAttributeDefinition
  3

  2
L
 70
     8
280
     0
  0
ATTDEF
  5
83
330
6E
100
AcDbEntity
  8
AM_6
100
AcDbText
 10
6.92
 20
-7.175000000000001
 30
0.0
 40
0.5
  1
1.69
100
AcDbAttributeDefinition
  3

  2
M
 70
     8
280
     0
  0
ATTDEF
  5
84
330
6E
100
AcDbEntity
  8
AM_6
100
AcDbText
 10
6.92
 20
-7.675000000000001
 30
0.0
 40
0.5
  1
0.88
100
AcDbAttributeDefinition
  3

  2
N
 70
     8
280
     0
  0
ATTDEF
  5
85
330
6E
100
AcDbEntity
  8
AM_6
100
AcDbText
 10
6.92
 20
-8.175
 30
0.0
 40
0.5
  1
7/16-14
100
AcDbAttributeDefinition
  3

  2
R
 70
     8
280
     0
  0
ATTDEF
  5
86
330
6E
100
AcDbEntity
  8
AM_6
100
AcDbText
 10
6.92
 20
-8.675
 30
0.0
 40
0.5
  1
0.94
100
AcDbAttributeDefinition
  3

  2
S
 70
     8
280
     0
  0
ATTDEF
  5
87
330
6E
100
AcDbEntity
  8
AM_6
100
AcDbText
 10
6.92
 20
-9.175
 30
0.0
 40
0.5
  1
baldor
100
AcDbAttributeDefinition
  3

  2
COMPANY
 70
     8
280
     0
  0
INSERT
  5
89
330
6E
100
AcDbEntity
  8
0
100
AcDbBlockReference
  2
2_405020c_Inch_0_in_136787_4
 10
0.0
 20
0.0
 30
0.0
  0
INSERT
  5
E3
330
6E
100
AcDbEntity
  8
0
100
AcDbBlockReference
  2
3_127821_0_in_136787_4
 10
0.0
 20
0.0
 30
0.0
  0
INSERT
  5
135
330
6E
100
AcDbEntity
  8
0
100
AcDbBlockReference
  2
4_136787H_0_in_136787_4
 10
0.0
 20
0.0
 30
0.0
  0
ENDBLK
  5
71
330
6E
100
AcDbEntity
  8
0
100
AcDbBlockEnd
  0
BLOCK
  5
8A
330
88
100
AcDbEntity
  8
0
100
AcDbBlockBegin
  2
2_405020c_Inch_0_in_136787_4
 70
     2
 10
0.0
 20
0.0
 30
0.0
  3
2_405020c_Inch_0_in_136787_4
  1

  0
ATTDEF
  5
8C
330
88
100
AcDbEntity
  8
AM_6
100
AcDbText
 10
6.3635084992753
 20
0.1624086307230418
 30
0.0
 40
0.5
  1
405020C -Inch
100
AcDbAttributeDefinition
  3

  2
NN
 70
     8
280
     0
  0
ATTDEF
  5
8D
330
88
100
AcDbEntity
  8
AM_6
100
AcDbText
 10
6.3635084992753
 20
-0.3375913692769582
 30
0.0
 40
0.5
  1
Grease fitting
100
AcDbAttributeDefinition
  3

  2
NT
 70
     8
280
     0
  0
ATTDEF
  5
8E
330
88
100
AcDbEntity
  8
AM_6
100
AcDbText
 10
6.3635084992753
 20
-0.8375913692769582
 30
0.0
 40
0.5
  1
405020c-Inch
100
AcDbAttributeDefinition
  3

  2
NB
 70
     8
280
     0
  0
ATTDEF
  5
8F
330
88
100
AcDbEntity
  8
AM_6
100
AcDbText
 10
6.3635084992753
 20
-1.337591369276958
 30
0.0
 40
0.5
  1
$MN.-Inch
100
AcDbAttributeDefinition
  3

  2
NBSYN
 70
     8
280
     0
  0
ATTDEF
  5
90
330
88
100
AcDbEntity
  8
AM_6
100
AcDbText
 10
6.3635084992753
 20
-1.837591369276958
 30
0.0
 40
0.5
  1
405020c
100
AcDbAttributeDefinition
  3

  2
LINA
 70
     8
280
     0
  0
ATTDEF
  5
91
330
88
100
AcDbEntity
  8
AM_6
100
AcDbText
 10
6.3635084992753
 20
-2.337591369276958
 30
0.0
 40
0.5
  1
405020c
100
AcDbAttributeDefinition
  3

  2
MN
 70
     8
280
     0
  0
ATTDEF
  5
92
330
88
100
AcDbEntity
  8
AM_6
100
AcDbText
 10
6.3635084992753
 20
-2.837591369276958
 30
0.0
 40
0.5
  1
0.230
100
AcDbAttributeDefinition
  3

  2
NDR
 70
     8
280
     0
  0
ATTDEF
  5
93
330
88
100
AcDbEntity
  8
AM_6
100
AcDbText
 10
6.3635084992753
 20
-3.337591369276958
 30
0.0
 40
0.5
  1
0.210
100
AcDbAttributeDefinition
  3

  2
KDR
 70
     8
280
     0
  0
ATTDEF
  5
94
330
88
100
AcDbEntity
  8
AM_6
100
AcDbText
 10
6.3635084992753
 20
-3.837591369276958
 30
0.0
 40
0.5
  1
0.157
100
AcDbAttributeDefinition
  3

  2
BZE
 70
     8
280
     0
  0
ATTDEF
  5
95
330
88
100
AcDbEntity
  8
AM_6
100
AcDbText
 10
6.3635084992753
 20
-4.337591369276958
 30
0.0
 40
0.5
  1
9/32
100
AcDbAttributeDefinition
  3

  2
WAF
 70
     8
280
     0
  0
ATTDEF
  5
96
330
88
100
AcDbEntity
  8
AM_6
100
AcDbText
 10
6.3635084992753
 20
-4.837591369276958
 30
0.0
 40
0.5
  1
0.2813
100
AcDbAttributeDefinition
  3

  2
WAF1
 70
     8
280
     0
  0
ATTDEF
  5
97
330
88
100
AcDbEntity
  8
AM_6
100
AcDbText
 10
6.3635084992753
 20
-5.337591369276958
 30
0.0
 40
0.5
  1
0.545
100
AcDbAttributeDefinition
  3

  2
BL
 70
     8
280
     0
  0
ATTDEF
  5
98
330
88
100
AcDbEntity
  8
AM_6
100
AcDbText
 10
6.3635084992753
 20
-5.837591369276958
 30
0.0
 40
0.5
  1
0.200
100
AcDbAttributeDefinition
  3

  2
TL
 70
     8
280
     0
  0
ATTDEF
  5
99
330
88
100
AcDbEntity
  8
AM_6
100
AcDbText
 10
6.3635084992753
 20
-6.337591369276958
 30
0.0
 40
0.5
  1
baldor
100
AcDbAttributeDefinition
  3

  2
COMPANY
 70
     8
280
     0
  0
ELLIPSE
  5
9C
330
88
100
AcDbEntity
  8
AM_9
100
AcDbEllipse
 10
0.9136753708982429
 20
0.0000000000000001
 30
0.0
 11
-1.838598171376523E-17
 21
-0.1000886227036577
 31
0.0
210
0.0
220
0.0
230
1.0
 40
0.7071067811865474
 41
0.0
 42
6.283185307179586
  0
LINE
  5
9D
330
88
100
AcDbEntity
  8
AM_9
100
AcDbLine
 10
1.197569168707899
 20
0.0812043153615209
 30
0.0
 11
1.158673875190085
 21
0.0812043153615209
 31
0.0
  0
LINE
  5
9E
330
88
100
AcDbEntity
  8
AM_9
100
AcDbLine
 10
1.197569168707899
 20
-0.0812043153615208
 30
0.0
 11
1.158673875190085
 21
-0.0812043153615208
 31
0.0
  0
LWPOLYLINE
  5
9F
330
88
100
AcDbEntity
  8
AM_9
100
AcDbPolyline
 90
        4
 70
     0
 43
0.0
 10
1.15455129590944
 20
0.0000000000000001
 10
1.155197065844522
 20
-0.0311508759219515
 10
1.157048654533498
 20
-0.0623017518439031
 10
1.158673875190085
 20
-0.0812043153615208
  0
LWPOLYLINE
  5
A0
330
88
100
AcDbEntity
  8
AM_9
100
AcDbPolyline
 90
        3
 70
     0
 43
0.0
 10
1.158673875190085
 20
0.0812043153615209
 10
1.155649058367307
 20
0.0407847159147455
 10
1.15455129590944
 20
0.0000000000000001
  0
LWPOLYLINE
  5
A1
330
88
100
AcDbEntity
  8
AM_9
100
AcDbPolyline
 90
        3
 70
     0
 43
0.0
 10
1.104824011522496
 20
0.1218064730422813
 10
1.130775802990882
 20
0.1015053942019011
 10
1.158673875190085
 20
0.0812043153615209
  0
LWPOLYLINE
  5
A2
330
88
100
AcDbEntity
  8
AM_9
100
AcDbPolyline
 90
        3
 70
     0
 43
0.0
 10
1.158673875190085
 20
-0.0812043153615208
 10
1.130897209804236
 20
-0.1014141150849085
 10
1.104824011522496
 20
-0.1218064730422812
  0
LWPOLYLINE
  5
A3
330
88
100
AcDbEntity
  8
AM_9
100
AcDbPolyline
 90
        3
 70
     0
 43
0.0
 10
1.197569168707899
 20
0.0812043153615209
 10
1.175842136967607
 20
0.1014141150849086
 10
1.163929176054081
 20
0.1118189926816819
  0
LWPOLYLINE
  5
A4
330
88
100
AcDbEntity
  8
AM_9
100
AcDbPolyline
 90
        3
 70
     0
 43
0.0
 10
1.20167492958296
 20
0.0049977791511097
 10
1.20060359871363
 20
0.0406021576807605
 10
1.197569168707899
 20
0.0812043153615209
  0
LINE
  5
A5
330
88
100
AcDbEntity
  8
AM_9
100
AcDbLine
 10
1.201691747988543
 20
0.0000000000000001
 30
0.0
 11
1.201683040280322
 21
0.0035958663969505
 31
0.0
  0
LWPOLYLINE
  5
A6
330
88
100
AcDbEntity
  8
AM_9
100
AcDbPolyline
 90
        3
 70
     0
 43
0.0
 10
1.163928026083095
 20
-0.1118199743330277
 10
1.175739956520158
 20
-0.101505394201901
 10
1.197569168707899
 20
-0.0812043153615208
  0
LWPOLYLINE
  5
A7
330
88
100
AcDbEntity
  8
AM_9
100
AcDbPolyline
 90
        4
 70
     0
 43
0.0
 10
1.197569168707899
 20
-0.0812043153615208
 10
1.199194389364486
 20
-0.0623017518439031
 10
1.201042205545512
 20
-0.0312428256208203
 10
1.201691747988543
 20
0.0000000000000001
  0
LWPOLYLINE
  5
A8
330
88
100
AcDbEntity
  8
AM_9
100
AcDbPolyline
 90
        3
 70
     0
 43
0.0
 10
1.104824011522496
 20
-0.1218064730422812
 10
1.081048518603938
 20
-0.1421075518826614
 10
1.059219306416197
 20
-0.1624086307230417
  0
LWPOLYLINE
  5
A9
330
88
100
AcDbEntity
  8
AM_9
100
AcDbPolyline
 90
        3
 70
     0
 43
0.0
 10
1.059219306416197
 20
0.1624086307230418
 10
1.080946338156489
 20
0.1421988309996541
 10
1.104824011522496
 20
0.1218064730422813
  0
LINE
  5
AA
330
88
100
AcDbEntity
  8
AM_9
100
AcDbLine
 10
0.9185381133605284
 20
-0.1103623268442186
 30
0.0
 11
1.052525739218737
 21
-0.1162869890918943
 31
0.0
  0
LINE
  5
AB
330
88
100
AcDbEntity
  8
AM_9
100
AcDbLine
 10
1.052525739218737
 20
0.1162869890918944
 30
0.0
 11
0.9185381133605284
 21
0.1103623268442187
 31
0.0
  0
ELLIPSE
  5
AC
330
88
100
AcDbEntity
  8
AM_9
100
AcDbEllipse
 10
1.102237179214656
 20
0.0
 30
0.0
 11
8.612328615003753E-18
 21
0.1406499999999999
 31
0.0
210
0.0
220
0.0
230
1.0
 40
0.7071067811865467
 41
3.798906696793621
 42
5.62587126397576
  0
ELLIPSE
  5
AD
330
88
100
AcDbEntity
  8
AM_9
100
AcDbEllipse
 10
1.12438415210019
 20
0.0000000000000014
 30
0.0
 11
6.694498085252688E-18
 21
0.1093294505797698
 31
0.0
210
0.0
220
0.0
230
1.0
 40
0.707106781186541
 41
5.359453380944831
 42
5.928986666165898
  0
ELLIPSE
  5
AE
330
88
100
AcDbEntity
  8
AM_9
100
AcDbEllipse
 10
1.12438415210019
 20
-0.0000000000000019
 30
0.0
 11
6.694498085252643E-18
 21
0.109329450579769
 31
0.0
210
0.0
220
0.0
230
1.0
 40
0.7071067811865419
 41
3.495791294603485
 42
4.124887765543479
  0
ELLIPSE
  5
AF
330
88
100
AcDbEntity
  8
AM_9
100
AcDbEllipse
 10
1.124384152100162
 20
-0.0000000000001435
 30
0.0
 11
6.694498085228698E-18
 21
0.109329450579378
 31
0.0
210
0.0
220
0.0
230
1.0
 40
0.7071067811889654
 41
4.320441620288181
 42
5.176898176017629
  0
LWPOLYLINE
  5
B0
330
88
100
AcDbEntity
  8
AM_9
100
AcDbPolyline
 90
        4
 70
     0
 43
0.0
 10
1.149384152100188
 20
-0.0946847896390987
 10
1.147855377643026
 20
-0.0946325241573273
 10
1.143498397040858
 20
-0.0939169599500841
 10
1.141243220776018
 20
-0.09322640440607
  0
LWPOLYLINE
  5
B1
330
88
100
AcDbEntity
  8
AM_9
100
AcDbPolyline
 90
       16
 70
     0
 43
0.0
 10
1.138519488492888
 20
0.0921118594854131
 10
1.140451825941149
 20
0.09293385909633
 10
1.14448141275257
 20
0.0941505655050621
 10
1.148616371316472
 20
0.0946715999196319
 10
1.153409058683103
 20
0.0943239752635314
 10
1.157577779258295
 20
0.0932077284381277
 10
1.161734438775062
 20
0.0913771080065291
 10
1.165982624030647
 20
0.0887866962737833
 10
1.170788971676535
 20
0.0849661999144297
 10
1.175532186394671
 20
0.080203223855531
 10
1.180141578259734
 20
0.0744972117592615
 10
1.184530355224576
 20
0.0678657144104878
 10
1.188601603017774
 20
0.0603543128463972
 10
1.192256927344795
 20
0.0520399621731116
 10
1.195408421278081
 20
0.0430178694881443
 10
1.196871557860689
 20
0.0378977858664568
  0
LWPOLYLINE
  5
B2
330
88
100
AcDbEntity
  8
AM_9
100
AcDbPolyline
 90
        4
 70
     0
 43
0.0
 10
1.131751361743611
 20
0.0880456117375784
 10
1.131955802634144
 20
0.0881955596628975
 10
1.13629524707245
 20
0.0909787846817568
 10
1.138519488492888
 20
0.0921118594854131
  0
LWPOLYLINE
  5
B3
330
88
100
AcDbEntity
  8
AM_9
100
AcDbPolyline
 90
       14
 70
     0
 43
0.0
 10
1.196996743179736
 20
-0.0374208985698991
 10
1.196561569615877
 20
-0.0390495252792807
 10
1.193642621066051
 20
-0.0483419212426983
 10
1.190193269366336
 20
-0.0569539973980023
 10
1.186304727318134
 20
-0.0647780093661326
 10
1.182081237944332
 20
-0.0717274409186
 10
1.177636255919389
 20
-0.0777414242426142
 10
1.173094470943145
 20
-0.0827809570537444
 10
1.168572003481146
 20
-0.0868485921754394
 10
1.164166785602469
 20
-0.0899827494467186
 10
1.159938234729559
 20
-0.092254212754719
 10
1.155873757840354
 20
-0.0937530272074769
 10
1.151825288419901
 20
-0.0945516712754302
 10
1.149384152100188
 20
-0.0946847896390987
  0
ELLIPSE
  5
B4
330
88
100
AcDbEntity
  8
AM_9
100
AcDbEllipse
 10
1.164325964036692
 20
-0.0000000000000013
 30
0.0
 11
6.084620899749553E-18
 21
0.09936940028726492
 31
0.0
210
0.0
220
0.0
230
1.0
 40
0.7071067811865457
 41
2.656480407116032
 42
3.141592653589793
  0
ELLIPSE
  5
B5
330
88
100
AcDbEntity
  8
AM_9
100
AcDbEllipse
 10
1.212657292741146
 20
-0.0000000000000717
 30
0.0
 11
8.036249332242678E-18
 21
0.1312419113468116
 31
0.0
210
0.0
220
0.0
230
1.0
 40
0.7071067811865477
 41
-3.626704900063603
 42
-3.556540720369227
  0
ELLIPSE
  5
B6
330
88
100
AcDbEntity
  8
AM_9
100
AcDbEllipse
 10
1.212657292741174
 20
-0.0000000000000022
 30
0.0
 11
8.036249332247362E-18
 21
0.1312419113468881
 31
0.0
210
0.0
220
0.0
230
1.0
 40
0.7071067811865551
 41
2.741683661503056
 42
3.141592653589793
  0
ELLIPSE
  5
B7
330
88
100
AcDbEntity
  8
AM_9
100
AcDbEllipse
 10
1.241413536206447
 20
0.0000000000000001
 30
0.0
 11
8.079715312105972E-18
 21
0.1319517646676803
 31
0.0
210
0.0
220
0.0
230
1.0
 40
0.7071067811865507
 41
3.579974428543803
 42
5.837803107248346
  0
ELLIPSE
  5
B8
330
88
100
AcDbEntity
  8
AM_9
100
AcDbEllipse
 10
1.288278112879634
 20
0.0000000000000002
 30
0.0
 11
6.357083428131002E-18
 21
0.1038190510530392
 31
0.0
210
0.0
220
0.0
230
1.0
 40
0.7071067811865478
 41
3.579974428543796
 42
5.76465788744594
  0
ELLIPSE
  5
B9
330
88
100
AcDbEntity
  8
AM_9
100
AcDbEllipse
 10
1.288278112879668
 20
0.0000000000000919
 30
0.0
 11
6.357083428124641E-18
 21
0.1038190510529353
 31
0.0
210
0.0
220
0.0
230
1.0
 40
0.7071067811865476
 41
-0.5001887464456365
 42
-0.4542652327483774
  0
ELLIPSE
  5
BA
330
88
100
AcDbEntity
  8
AM_9
100
AcDbEllipse
 10
1.055096727135553
 20
0.0000000000000007
 30
0.0
 11
8.612328615003821E-18
 21
0.140650000000001
 31
0.0
210
0.0
220
0.0
230
1.0
 40
0.7071067811865475
 41
0.0
 42
6.283185307179586
  0
ELLIPSE
  5
BB
330
88
100
AcDbEntity
  8
AM_9
100
AcDbEllipse
 10
1.055096727135552
 20
-0.0000000000000355
 30
0.0
 11
7.124004163865108E-18
 21
0.1163438171532415
 31
0.0
210
0.0
220
0.0
230
1.0
 40
0.7071067811865479
 41
0.0
 42
6.283185307179586
  0
ELLIPSE
  5
BC
330
88
100
AcDbEntity
  8
AM_9
100
AcDbEllipse
 10
0.9209781129770279
 20
-0.0000000000000555
 30
0.0
 11
6.761045944276699E-18
 21
0.1104162595939336
 31
0.0
210
0.0
220
0.0
230
1.0
 40
0.707106781186548
 41
0.0
 42
6.283185307179586
  0
LINE
  5
BE
330
88
100
AcDbEntity
  8
AM_4
100
AcDbLine
 10
1.163929176054081
 20
0.1118189926816819
 30
0.0
 11
1.1519644636016
 21
0.1218064730422814
 31
0.0
  0
LINE
  5
BF
330
88
100
AcDbEntity
  8
AM_4
100
AcDbLine
 10
1.1519644636016
 20
-0.1218064730422812
 30
0.0
 11
1.163928026083095
 21
-0.1118199743330277
 31
0.0
  0
LWPOLYLINE
  5
C0
330
88
100
AcDbEntity
  8
AM_4
100
AcDbPolyline
 90
        3
 70
     0
 43
0.0
 10
1.1519644636016
 20
0.1218064730422814
 10
1.126012672133214
 20
0.1421075518826616
 10
1.098114599934011
 20
0.1624086307230418
  0
LWPOLYLINE
  5
C1
330
88
100
AcDbEntity
  8
AM_4
100
AcDbPolyline
 90
        3
 70
     0
 43
0.0
 10
1.098114599934011
 20
-0.1624086307230417
 10
1.12589126531986
 20
-0.142198830999654
 10
1.1519644636016
 20
-0.1218064730422812
  0
LINE
  5
C2
330
88
100
AcDbEntity
  8
AM_4
100
AcDbLine
 10
1.098114599934011
 20
0.1624086307230418
 30
0.0
 11
1.059219306416197
 21
0.1624086307230418
 31
0.0
  0
LWPOLYLINE
  5
C3
330
88
100
AcDbEntity
  8
AM_4
100
AcDbPolyline
 90
        3
 70
     0
 43
0.0
 10
1.005369442748609
 20
0.1218064730422814
 10
1.031321234216994
 20
0.1421075518826616
 10
1.059219306416197
 20
0.1624086307230418
  0
LWPOLYLINE
  5
C4
330
88
100
AcDbEntity
  8
AM_4
100
AcDbPolyline
 90
        3
 70
     0
 43
0.0
 10
0.9597647376423093
 20
0.0812043153615209
 10
0.9814917693826011
 20
0.1014141150849086
 10
1.005369442748609
 20
0.1218064730422814
  0
LWPOLYLINE
  5
C5
330
88
100
AcDbEntity
  8
AM_4
100
AcDbPolyline
 90
        3
 70
     0
 43
0.0
 10
1.098114599934011
 20
0.1624086307230418
 10
1.076387568193719
 20
0.1421988309996541
 10
1.052509894827712
 20
0.1218064730422813
  0
LWPOLYLINE
  5
C6
330
88
100
AcDbEntity
  8
AM_4
100
AcDbPolyline
 90
        3
 70
     0
 43
0.0
 10
1.005369442748609
 20
-0.1218064730422812
 10
0.98159394983005
 20
-0.101505394201901
 10
0.9597647376423093
 20
-0.0812043153615208
  0
LWPOLYLINE
  5
C7
330
88
100
AcDbEntity
  8
AM_4
100
AcDbPolyline
 90
        3
 70
     0
 43
0.0
 10
1.059219306416197
 20
-0.1624086307230417
 10
1.031442641030349
 20
-0.142198830999654
 10
1.005369442748609
 20
-0.1218064730422812
  0
LINE
  5
C8
330
88
100
AcDbEntity
  8
AM_4
100
AcDbLine
 10
1.098114599934011
 20
-0.1624086307230417
 30
0.0
 11
1.059219306416197
 21
-0.1624086307230417
 31
0.0
  0
LWPOLYLINE
  5
C9
330
88
100
AcDbEntity
  8
AM_4
100
AcDbPolyline
 90
        3
 70
     0
 43
0.0
 10
1.052509894827712
 20
-0.1218064730422812
 10
1.07628538774627
 20
-0.1421075518826614
 10
1.098114599934011
 20
-0.1624086307230417
  0
LWPOLYLINE
  5
CA
330
88
100
AcDbEntity
  8
AM_4
100
AcDbPolyline
 90
        3
 70
     0
 43
0.0
 10
0.9986600311601229
 20
-0.0812043153615208
 10
1.026436696545972
 20
-0.1014141150849085
 10
1.052509894827712
 20
-0.1218064730422812
  0
LINE
  5
CB
330
88
100
AcDbEntity
  8
AM_4
100
AcDbLine
 10
0.9986600311601229
 20
0.081204315361521
 30
0.0
 11
0.9597647376423093
 21
0.0812043153615209
 31
0.0
  0
LWPOLYLINE
  5
CC
330
88
100
AcDbEntity
  8
AM_4
100
AcDbPolyline
 90
        3
 70
     0
 43
0.0
 10
0.9556421583616646
 20
0.0000000000000001
 10
0.9567303076365781
 20
0.0406021576807605
 10
0.9597647376423093
 20
0.0812043153615209
  0
LWPOLYLINE
  5
CD
330
88
100
AcDbEntity
  8
AM_4
100
AcDbPolyline
 90
        4
 70
     0
 43
0.0
 10
0.9597647376423093
 20
-0.0812043153615208
 10
0.9581395169857224
 20
-0.0623017518439031
 10
0.9562917008046963
 20
-0.0312428256208203
 10
0.9556421583616646
 20
0.0000000000000001
  0
LINE
  5
CE
330
88
100
AcDbEntity
  8
AM_4
100
AcDbLine
 10
0.9986600311601229
 20
-0.0812043153615208
 30
0.0
 11
0.9597647376423093
 21
-0.0812043153615208
 31
0.0
  0
LWPOLYLINE
  5
CF
330
88
100
AcDbEntity
  8
AM_4
100
AcDbPolyline
 90
        4
 70
     0
 43
0.0
 10
1.002782610440768
 20
0.0000000000000001
 10
1.002136840505686
 20
-0.0311508759219515
 10
1.00028525181671
 20
-0.0623017518439031
 10
0.9986600311601229
 20
-0.0812043153615208
  0
LWPOLYLINE
  5
D0
330
88
100
AcDbEntity
  8
AM_4
100
AcDbPolyline
 90
        3
 70
     0
 43
0.0
 10
1.052509894827712
 20
0.1218064730422813
 10
1.026558103359326
 20
0.1015053942019011
 10
0.9986600311601229
 20
0.081204315361521
  0
LWPOLYLINE
  5
D1
330
88
100
AcDbEntity
  8
AM_4
100
AcDbPolyline
 90
        3
 70
     0
 43
0.0
 10
0.9986600311601229
 20
0.081204315361521
 10
1.001684847982901
 20
0.0407847159147456
 10
1.002782610440768
 20
0.0000000000000001
  0
ELLIPSE
  5
D2
330
88
100
AcDbEntity
  8
AM_4
100
AcDbEllipse
 10
1.102237179214655
 20
0.0000000000000001
 30
0.0
 11
8.612328615003761E-18
 21
0.14065
 31
0.0
210
0.0
220
0.0
230
1.0
 40
0.707106781186546
 41
5.625871263975756
 42
10.08209200397321
  0
ELLIPSE
  5
D3
330
88
100
AcDbEntity
  8
AM_4
100
AcDbEllipse
 10
1.124384152100188
 20
0.0
 30
0.0
 11
6.694498085252785E-18
 21
0.1093294505797713
 31
0.0
210
0.0
220
0.0
230
1.0
 40
0.7071067811865471
 41
5.928986666165877
 42
9.77897660178309
  0
LINE
  5
D4
330
88
100
AcDbEntity
  8
AM_4
100
AcDbLine
 10
1.131560960523032
 20
-0.0879044185632922
 30
0.0
 11
1.169382988237074
 21
-0.116099562589007
 31
0.0
  0
LINE
  5
D5
330
88
100
AcDbEntity
  8
AM_4
100
AcDbLine
 10
1.169382988237074
 20
0.1160995625890071
 30
0.0
 11
1.131560960523032
 21
0.0879044185632924
 31
0.0
  0
ELLIPSE
  5
D6
330
88
100
AcDbEntity
  8
AM_4
100
AcDbEllipse
 10
1.164325964036693
 20
0.0000000000000001
 30
0.0
 11
6.084620899749634E-18
 21
0.09936940028726624
 31
0.0
210
0.0
220
0.0
230
1.0
 40
0.7071067811865452
 41
0.4851122464737774
 42
2.656480407116016
  0
LINE
  5
D7
330
88
100
AcDbEntity
  8
AM_4
100
AcDbLine
 10
1.279569255335155
 20
-0.1204182395151802
 30
0.0
 11
1.319439299412766
 21
-0.0940018950300903
 31
0.0
  0
LWPOLYLINE
  5
D8
330
88
100
AcDbEntity
  8
AM_4
100
AcDbPolyline
 90
        7
 70
     0
 43
0.0
 10
1.227599104677675
 20
-0.1359265219950579
 10
1.235814449143567
 20
-0.1355629725719787
 10
1.246321613498275
 20
-0.1340262860145093
 10
1.25658214271242
 20
-0.1313211537389322
 10
1.266525131380239
 20
-0.1274842537369301
 10
1.276086622096402
 20
-0.1225499395658134
 10
1.278054231115741
 20
-0.1213688123512115
  0
LWPOLYLINE
  5
D9
330
88
100
AcDbEntity
  8
AM_4
100
AcDbPolyline
 90
       13
 70
     0
 43
0.0
 10
1.281777724685735
 20
0.1189664092930178
 10
1.278359116422368
 20
0.1211804294192622
 10
1.268297204651161
 20
0.1266661352619604
 10
1.257897557980973
 20
0.1308844257357709
 10
1.247282156793652
 20
0.1338245426945792
 10
1.236565055168695
 20
0.1354933806018125
 10
1.225851381107486
 20
0.1359100921430645
 10
1.21523693941935
 20
0.1351017563569812
 10
1.204817381333273
 20
0.1331021498598332
 10
1.194673455270475
 20
0.1299487095332133
 10
1.184872789947162
 20
0.1256772933587642
 10
1.175477580315701
 20
0.1203212572052487
 10
1.169176693419671
 20
0.1159453923493469
  0
LWPOLYLINE
  5
DA
330
88
100
AcDbEntity
  8
AM_4
100
AcDbPolyline
 90
        8
 70
     0
 43
0.0
 10
1.168564446598199
 20
-0.1154832961411601
 10
1.170943704197066
 20
-0.1172413162662553
 10
1.180738312331606
 20
-0.1234820828794407
 10
1.190947695626727
 20
-0.1284732148965192
 10
1.201446123848613
 20
-0.132190218620353
 10
1.212114539876434
 20
-0.1346299727912647
 10
1.222842317472283
 20
-0.1358047619430202
 10
1.227599104677675
 20
-0.1359265219950579
  0
ELLIPSE
  5
DB
330
88
100
AcDbEntity
  8
AM_4
100
AcDbEllipse
 10
1.21265729274117
 20
0.0
 30
0.0
 11
8.036249332247510E-18
 21
0.1312419113468905
 31
0.0
210
0.0
220
0.0
230
1.0
 40
0.7071067811865489
 41
0.4869358173635305
 42
2.648498257197604
  0
ELLIPSE
  5
DC
330
88
100
AcDbEntity
  8
AM_4
100
AcDbEllipse
 10
1.299048566644911
 20
0.0000000000000001
 30
0.0
 11
-1.484390032546748E-17
 21
-0.08080642971672804
 31
0.0
210
0.0
220
0.0
230
1.0
 40
0.7071067811865461
 41
0.0
 42
6.283185307179586
  0
LWPOLYLINE
  5
DD
330
88
100
AcDbEntity
  8
AM_4
100
AcDbPolyline
 90
       22
 70
     0
 43
0.0
 10
1.319743903113015
 20
-0.0937988999280452
 10
1.320896130025497
 20
-0.0930118983624767
 10
1.328353628778201
 20
-0.0871291113919635
 10
1.335292226462388
 20
-0.0802221025302581
 10
1.341629504725602
 20
-0.0723522442133792
 10
1.347282150415446
 20
-0.0636045441926214
 10
1.352173601315547
 20
-0.0540865394788514
 10
1.356240377742495
 20
-0.0439216556622732
 10
1.359434530465748
 20
-0.0332414035739169
 10
1.361722548974981
 20
-0.0221811592860207
 10
1.363084431464962
 20
-0.0108684713655653
 10
1.3635084992753
 20
0.000571432775037
 10
1.362989637104218
 20
0.0120152428422932
 10
1.361528489319198
 20
0.0233394739656448
 10
1.359131092454062
 20
0.0344218337361898
 10
1.355808404515332
 20
0.0451413976118071
 10
1.351577164748574
 20
0.0553759309903986
 10
1.346462318553825
 20
0.064999970782089
 10
1.340505711795646
 20
0.0738779703168275
 10
1.333768039147817
 20
0.0818758237150197
 10
1.326335554321446
 20
0.0888640726625848
 10
1.320667752866294
 20
0.0931703134227181
  0
ELLIPSE
  5
DE
330
88
100
AcDbEntity
  8
AM_4
100
AcDbEllipse
 10
1.241413536206447
 20
0.0000000000000002
 30
0.0
 11
8.079715312105960E-18
 21
0.13195176466768
 31
0.0
210
0.0
220
0.0
230
1.0
 40
0.7071067811865502
 41
5.844803532225579
 42
9.863159735723386
  0
ELLIPSE
  5
DF
330
88
100
AcDbEntity
  8
AM_4
100
AcDbEllipse
 10
1.288278112879634
 20
0.0000000000000001
 30
0.0
 11
6.357083428131002E-18
 21
0.1038190510530391
 31
0.0
210
0.0
220
0.0
230
1.0
 40
0.707106781186548
 41
5.844803532225584
 42
9.863159735723382
  0
LINE
  5
E0
330
88
100
AcDbEntity
  8
AM_4
100
AcDbLine
 10
1.319439299412766
 20
0.0940018950300905
 30
0.0
 11
1.281018729188658
 21
0.1194743720494001
 31
0.0
  0
ELLIPSE
  5
E1
330
88
100
AcDbEntity
  8
AM_4
100
AcDbEllipse
 10
1.288278112880522
 20
0.0000000000026208
 30
0.0
 11
6.357083427953052E-18
 21
0.103819051050133
 31
0.0
210
0.0
220
0.0
230
1.0
 40
0.7071067811865474
 41
-0.4542652327486154
 42
-0.4383817749537666
  0
ENDBLK
  5
8B
330
88
100
AcDbEntity
  8
0
100
AcDbBlockEnd
  0
BLOCK
  5
E4
330
E2
100
AcDbEntity
  8
0
100
AcDbBlockBegin
  2
3_127821_0_in_136787_4
 70
     2
 10
0.0
 20
0.0
 30
0.0
  3
3_127821_0_in_136787_4
  1

  0
ATTDEF
  5
E6
330
E2
100
AcDbEntity
  8
AM_6
100
AcDbText
 10
6.219718908983069
 20
0.58
 30
0.0
 40
0.5
  1
Set Screw Insert Inch Bore - Stainless Steel
100
AcDbAttributeDefinition
  3

  2
NN
 70
     8
280
     0
  0
ATTDEF
  5
E7
330
E2
100
AcDbEntity
  8
AM_6
100
AcDbText
 10
6.219718908983069
 20
0.08
 30
0.0
 40
0.5
  1
SC Medium Duty Bearing Inserts
100
AcDbAttributeDefinition
  3

  2
NT
 70
     8
280
     0
  0
ATTDEF
  5
E8
330
E2
100
AcDbEntity
  8
AM_6
100
AcDbText
 10
6.219718908983069
 20
-0.42
 30
0.0
 40
0.5
  1
127821
100
AcDbAttributeDefinition
  3

  2
NB
 70
     8
280
     0
  0
ATTDEF
  5
E9
330
E2
100
AcDbEntity
  8
AM_6
100
AcDbText
 10
6.219718908983069
 20
-0.92
 30
0.0
 40
0.5
  1
$PN.
100
AcDbAttributeDefinition
  3

  2
NBSYN
 70
     8
280
     0
  0
ATTDEF
  5
EA
330
E2
100
AcDbEntity
  8
AM_6
100
AcDbText
 10
6.219718908983069
 20
-1.42
 30
0.0
 40
0.5
  1
127821
100
AcDbAttributeDefinition
  3

  2
LINA
 70
     8
280
     0
  0
ATTDEF
  5
EB
330
E2
100
AcDbEntity
  8
AM_6
100
AcDbText
 10
6.219718908983069
 20
-1.92
 30
0.0
 40
0.5
  1
206
100
AcDbAttributeDefinition
  3

  2
SERIES
 70
     8
280
     0
  0
ATTDEF
  5
EC
330
E2
100
AcDbEntity
  8
AM_6
100
AcDbText
 10
6.219718908983069
 20
-2.42
 30
0.0
 40
0.5
  1
1-1/4
100
AcDbAttributeDefinition
  3

  2
SS
 70
     8
280
     0
  0
ATTDEF
  5
ED
330
E2
100
AcDbEntity
  8
AM_6
100
AcDbText
 10
6.219718908983069
 20
-2.92
 30
0.0
 40
0.5
  1
127821
100
AcDbAttributeDefinition
  3

  2
PN
 70
     8
280
     0
  0
ATTDEF
  5
EE
330
E2
100
AcDbEntity
  8
AM_6
100
AcDbText
 10
6.219718908983069
 20
-3.42
 30
0.0
 40
0.5
  1
INS-SC-104S-SS
100
AcDbAttributeDefinition
  3

  2
DESCRIPTION
 70
     8
280
     0
  0
ATTDEF
  5
EF
330
E2
100
AcDbEntity
  8
AM_6
100
AcDbText
 10
6.219718908983069
 20
-3.92
 30
0.0
 40
0.5
  1
0.58
100
AcDbAttributeDefinition
  3

  2
WEIGHT
 70
     8
280
     0
  0
ATTDEF
  5
F0
330
E2
100
AcDbEntity
  8
AM_6
100
AcDbText
 10
6.219718908983069
 20
-4.42
 30
0.0
 40
0.5
  1
1.52
100
AcDbAttributeDefinition
  3

  2
A
 70
     8
280
     0
  0
ATTDEF
  5
F1
330
E2
100
AcDbEntity
  8
AM_6
100
AcDbText
 10
6.219718908983069
 20
-4.92
 30
0.0
 40
0.5
  1
0.69
100
AcDbAttributeDefinition
  3

  2
C
 70
     8
280
     0
  0
ATTDEF
  5
F2
330
E2
100
AcDbEntity
  8
AM_6
100
AcDbText
 10
6.219718908983069
 20
-5.42
 30
0.0
 40
0.5
  1
2.4409
100
AcDbAttributeDefinition
  3

  2
D
 70
     8
280
     0
  0
ATTDEF
  5
F3
330
E2
100
AcDbEntity
  8
AM_6
100
AcDbText
 10
6.219718908983069
 20
-5.92
 30
0.0
 40
0.5
  1
0.18
100
AcDbAttributeDefinition
  3

  2
J
 70
     8
280
     0
  0
ATTDEF
  5
F4
330
E2
100
AcDbEntity
  8
AM_6
100
AcDbText
 10
6.219718908983069
 20
-6.42
 30
0.0
 40
0.5
  1
1.57
100
AcDbAttributeDefinition
  3

  2
L
 70
     8
280
     0
  0
ATTDEF
  5
F5
330
E2
100
AcDbEntity
  8
AM_6
100
AcDbText
 10
6.219718908983069
 20
-6.92
 30
0.0
 40
0.5
  1
5/16 - 24
100
AcDbAttributeDefinition
  3

  2
N
 70
     8
280
     0
  0
ATTDEF
  5
F6
330
E2
100
AcDbEntity
  8
AM_6
100
AcDbText
 10
6.219718908983069
 20
-7.42
 30
0.0
 40
0.5
  1
0.58
100
AcDbAttributeDefinition
  3

  2
W
 70
     8
280
     0
  0
ATTDEF
  5
F7
330
E2
100
AcDbEntity
  8
AM_6
100
AcDbText
 10
6.219718908983069
 20
-7.92
 30
0.0
 40
0.5
  1
0.94
100
AcDbAttributeDefinition
  3

  2
Y
 70
     8
280
     0
  0
ATTDEF
  5
F8
330
E2
100
AcDbEntity
  8
AM_6
100
AcDbText
 10
6.219718908983069
 20
-8.42
 30
0.0
 40
0.5
  1
baldor
100
AcDbAttributeDefinition
  3

  2
COMPANY
 70
     8
280
     0
  0
LINE
  5
F9
330
E2
100
AcDbEntity
  8
AM_9
100
AcDbLine
 10
-0.5663787362337552
 20
-0.5163
 30
0.0
 11
-0.6904184671652964
 21
-0.5163
 31
0.0
  0
LINE
  5
FA
330
E2
100
AcDbEntity
  8
AM_9
100
AcDbLine
 10
-0.6904184671652964
 20
-0.7687
 30
0.0
 11
-0.5664423668979063
 21
-0.7687
 31
0.0
  0
LWPOLYLINE
  5
FB
330
E2
100
AcDbEntity
  8
AM_9
100
AcDbPolyline
 90
       21
 70
     0
 43
0.0
 10
-0.5664482771368593
 20
-0.516300000774899
 10
-0.5686512802754184
 20
-0.516423890133397
 10
-0.5770046326472191
 20
-0.5190427599480353
 10
-0.5843829657913906
 20
-0.525038813405277
 10
-0.5907691981591352
 20
-0.5341957438889396
 10
-0.5961553051761508
 20
-0.546462541712105
 10
-0.6004790229928214
 20
-0.561369321913566
 10
-0.6038141687676571
 20
-0.5788348273481911
 10
-0.6061603585907505
 20
-0.5981376237362036
 10
-0.6075677502125812
 20
-0.6186469665290224
 10
-0.6081026851423251
 20
-0.6398548791848331
 10
-0.60779418252445
 20
-0.6607492026413626
 10
-0.6066529408497842
 20
-0.68112743135114
 10
-0.6046436254078714
 20
-0.7003596194125905
 10
-0.6017156004074385
 20
-0.7180012123758366
 10
-0.5977208568625613
 20
-0.7338163817607057
 10
-0.5926619709007481
 20
-0.7470869718319575
 10
-0.5864298537726493
 20
-0.7575020840513421
 10
-0.5791243595535537
 20
-0.7646441046603214
 10
-0.5730178976893616
 20
-0.7676769495133609
 10
-0.5664423668979063
 20
-0.7687
  0
LINE
  5
FC
330
E2
100
AcDbEntity
  8
AM_9
100
AcDbLine
 10
-0.6655482165162552
 20
-0.5308606262026614
 30
0.0
 11
-0.6797313883478936
 21
-0.5131701462344193
 31
0.0
  0
LINE
  5
FD
330
E2
100
AcDbEntity
  8
AM_9
100
AcDbLine
 10
-0.6797098491083212
 20
-0.771802988160996
 30
0.0
 11
-0.6655482165162552
 21
-0.7541393737973386
 31
0.0
  0
ELLIPSE
  5
FE
330
E2
100
AcDbEntity
  8
AM_9
100
AcDbEllipse
 10
-0.69041846716532
 20
-0.6424999999999668
 30
0.0
 11
7.727521302617581E-18
 21
0.1261999999999638
 31
0.0
210
0.0
220
0.0
230
1.0
 40
0.4226182617407942
 41
3.500256174222109
 42
5.925953494841719
  0
LWPOLYLINE
  5
FF
330
E2
100
AcDbEntity
  8
AM_9
100
AcDbPolyline
 90
       20
 70
     0
 43
0.0
 10
-0.5664423668979063
 20
-0.7687
 10
-0.5572672762583035
 20
-0.7669363649740827
 10
-0.5477511867228392
 20
-0.7617515117048671
 10
-0.5382341227713249
 20
-0.7532641625038639
 10
-0.5290858526268286
 20
-0.7417620818201975
 10
-0.5205990250289673
 20
-0.7273342165040735
 10
-0.5132691264989303
 20
-0.7105310117737866
 10
-0.507432158137663
 20
-0.6915921229959721
 10
-0.5034499559483493
 20
-0.6712187688123646
 10
-0.5015968180040677
 20
-0.6502691736671785
 10
-0.501875166370793
 20
-0.6290942308389111
 10
-0.5042550299128099
 20
-0.6086297891642326
 10
-0.508554864186542
 20
-0.5891088933001699
 10
-0.5146217654179572
 20
-0.5709597401750335
 10
-0.522099401149993
 20
-0.5547788649164529
 10
-0.5308149806031236
 20
-0.540791477593056
 10
-0.5402313199112471
 20
-0.5296678583760597
 10
-0.5499624534070543
 20
-0.5217607873914887
 10
-0.5596069616468908
 20
-0.5172864693848916
 10
-0.5664482771368593
 20
-0.516300000774899
  0
LINE
  5
100
330
E2
100
AcDbEntity
  8
AM_9
100
AcDbLine
 10
0.625
 20
-0.9086000000000001
 30
0.0
 11
0.625
 21
0.5485999999999999
 31
0.0
  0
LINE
  5
101
330
E2
100
AcDbEntity
  8
AM_9
100
AcDbLine
 10
-0.625
 20
0.5485999999999999
 30
0.0
 11
-0.625
 21
-0.9086000000000001
 31
0.0
  0
LINE
  5
102
330
E2
100
AcDbEntity
  8
AM_9
100
AcDbLine
 10
-0.625
 20
-0.9086000000000001
 30
0.0
 11
-0.6564
 21
-0.9400000000000002
 31
0.0
  0
LINE
  5
103
330
E2
100
AcDbEntity
  8
AM_9
100
AcDbLine
 10
0.6564
 20
-0.9400000000000002
 30
0.0
 11
0.625
 21
-0.9086000000000001
 31
0.0
  0
LINE
  5
104
330
E2
100
AcDbEntity
  8
AM_9
100
AcDbLine
 10
0.625
 20
0.5485999999999999
 30
0.0
 11
0.6564
 21
0.58
 31
0.0
  0
LINE
  5
105
330
E2
100
AcDbEntity
  8
AM_9
100
AcDbLine
 10
-0.6564
 20
0.58
 30
0.0
 11
-0.625
 21
0.5485999999999999
 31
0.0
  0
LINE
  5
106
330
E2
100
AcDbEntity
  8
AM_9
100
AcDbLine
 10
0.7850000000000003
 20
-0.4657183802306055
 30
0.0
 11
0.7850000000000003
 21
-0.3449999999999999
 31
0.0
  0
LINE
  5
107
330
E2
100
AcDbEntity
  8
AM_9
100
AcDbLine
 10
-0.7850000000000003
 20
-0.3449999999999999
 30
0.0
 11
-0.7850000000000003
 21
-0.4657183802306055
 31
0.0
  0
LINE
  5
108
330
E2
100
AcDbEntity
  8
AM_9
100
AcDbLine
 10
0.7850000000000003
 20
0.3449999999999999
 30
0.0
 11
0.7850000000000003
 21
0.4657183802306057
 31
0.0
  0
LINE
  5
109
330
E2
100
AcDbEntity
  8
AM_9
100
AcDbLine
 10
-0.7850000000000003
 20
0.4657183802306057
 30
0.0
 11
-0.7850000000000003
 21
0.3449999999999999
 31
0.0
  0
LINE
  5
10A
330
E2
100
AcDbEntity
  8
AM_9
100
AcDbLine
 10
1.16045
 20
-0.216
 30
0.0
 11
1.16045
 21
-0.144
 31
0.0
  0
LINE
  5
10B
330
E2
100
AcDbEntity
  8
AM_9
100
AcDbLine
 10
-1.16045
 20
-0.144
 30
0.0
 11
-1.16045
 21
-0.216
 31
0.0
  0
LINE
  5
10C
330
E2
100
AcDbEntity
  8
AM_9
100
AcDbLine
 10
-1.143433777050512
 20
0.3449999999999999
 30
0.0
 11
1.143433777050512
 21
0.3449999999999999
 31
0.0
  0
ARC
  5
10D
330
E2
100
AcDbEntity
  8
AM_9
100
AcDbCircle
 10
1.143433777050512
 20
0.3090000000000002
 30
0.0
 40
0.0359999999999997
100
AcDbArc
 50
15.12231890335239
 51
90.0
  0
ARC
  5
10E
330
E2
100
AcDbEntity
  8
AM_9
100
AcDbCircle
 10
-1.143433777050512
 20
0.3090000000000002
 30
0.0
 40
0.0359999999999997
100
AcDbArc
 50
90.0
 51
164.8776810966476
  0
LINE
  5
10F
330
E2
100
AcDbEntity
  8
AM_9
100
AcDbLine
 10
-1.143433777050513
 20
-0.3449999999999999
 30
0.0
 11
1.143433777050513
 21
-0.3449999999999999
 31
0.0
  0
ARC
  5
110
330
E2
100
AcDbEntity
  8
AM_9
100
AcDbCircle
 10
1.143433777050513
 20
-0.3090000000000003
 30
0.0
 40
0.0359999999999996
100
AcDbArc
 50
270.0
 51
344.8776810966482
  0
ARC
  5
111
330
E2
100
AcDbEntity
  8
AM_9
100
AcDbCircle
 10
-1.143433777050513
 20
-0.3090000000000002
 30
0.0
 40
0.0359999999999996
100
AcDbArc
 50
195.1223189033518
 51
270.0
  0
ARC
  5
112
330
E2
100
AcDbEntity
  8
AM_9
100
AcDbCircle
 10
0.0000000000015239
 20
0.0000000000003401
 30
0.0
 40
1.220450000001559
100
AcDbArc
 50
190.1941295136203
 51
195.1223189033493
  0
ARC
  5
113
330
E2
100
AcDbEntity
  8
AM_9
100
AcDbCircle
 10
-0.0000000000306626
 20
0.0000000000068756
 30
0.0
 40
1.220450000031366
100
AcDbArc
 50
344.8776810967111
 51
349.8058704863196
  0
LINE
  5
114
330
E2
100
AcDbEntity
  8
AM_9
100
AcDbLine
 10
-1.178187135971376
 20
-0.3183917007893956
 30
0.0
 11
1.178187135971348
 21
-0.3183917007893956
 31
0.0
  0
LINE
  5
115
330
E2
100
AcDbEntity
  8
AM_9
100
AcDbLine
 10
-1.201183667263253
 20
-0.216
 30
0.0
 11
1.201183667263224
 21
-0.216
 31
0.0
  0
ARC
  5
116
330
E2
100
AcDbEntity
  8
AM_9
100
AcDbCircle
 10
0.0000000000000226
 20
-0.0000000000000016
 30
0.0
 40
1.220450000000022
100
AcDbArc
 50
164.8776810966476
 51
186.776071589367
  0
ARC
  5
117
330
E2
100
AcDbEntity
  8
AM_9
100
AcDbCircle
 10
0.0000000001878577
 20
0.000000000013707
 30
0.0
 40
1.220449999815069
100
AcDbArc
 50
353.2239284089531
 51
15.12231890503215
  0
LINE
  5
118
330
E2
100
AcDbEntity
  8
AM_9
100
AcDbLine
 10
-1.211924998710729
 20
-0.1439999999999999
 30
0.0
 11
1.211924998710726
 21
-0.1439999999999999
 31
0.0
  0
LINE
  5
119
330
E2
100
AcDbEntity
  8
AM_9
100
AcDbLine
 10
-1.178187135971377
 20
0.3183917007893959
 30
0.0
 11
1.178187135971374
 21
0.3183917007893959
 31
0.0
  0
ARC
  5
11B
330
E2
100
AcDbEntity
  8
AM_5
100
AcDbCircle
 10
0.0
 20
-0.6425
 30
0.0
 40
0.1562499999999999
100
AcDbArc
 50
75.0
 51
14.99999999999987
  0
ARC
  5
11C
330
E2
100
AcDbEntity
  8
AM_5
100
AcDbCircle
 10
0.0
 20
-0.6275
 30
0.0
 40
0.15625
100
AcDbArc
 50
75.00000000000001
 51
15.00000000000002
  0
LINE
  5
11F
330
E2
100
AcDbEntity
  8
AM_7
100
AcDbLine
 10
-0.13251
 20
-0.6425000000000001
 30
0.0
 11
0.1325099999999999
 21
-0.6425000000000001
 31
0.0
  0
ELLIPSE
  5
120
330
E2
100
AcDbEntity
  8
AM_4
100
AcDbEllipse
 10
-0.6904184671652964
 20
-0.6425
 30
0.0
 11
7.727521302619798E-18
 21
0.1262
 31
0.0
210
0.0
220
0.0
230
1.0
 40
0.4226182617406994
 41
5.925953494842149
 42
9.78344148140145
  0
LWPOLYLINE
  5
121
330
E2
100
AcDbEntity
  8
AM_4
100
AcDbPolyline
 90
       14
 70
     0
 43
0.0
 10
-0.6798832537099788
 20
-0.5129807309767928
 10
-0.6751509471902102
 20
-0.5193876469329096
 10
-0.6667027451852826
 20
-0.5335458029877105
 10
-0.6586688612678183
 20
-0.5513637642581839
 10
-0.6520219086446751
 20
-0.5712795170929631
 10
-0.6466821357360509
 20
-0.5946069983907917
 10
-0.643443952086688
 20
-0.619151531618249
 10
-0.6424829963170561
 20
-0.6455340501067681
 10
-0.6440193297567203
 20
-0.6718330944034944
 10
-0.6480982819444876
 20
-0.6976607602888316
 10
-0.6544899492268119
 20
-0.7218919248966661
 10
-0.662793258941508
 20
-0.7434087744641652
 10
-0.6726861788375398
 20
-0.7618797088138634
 10
-0.6798841653320103
 20
-0.7720204066148432
  0
LWPOLYLINE
  5
122
330
E2
100
AcDbEntity
  8
AM_4
100
AcDbPolyline
 90
       19
 70
     0
 43
0.0
 10
-0.6798841653320103
 20
-0.7720204066148432
 10
-0.683075566191198
 20
-0.7757709088506944
 10
-0.6940183412607285
 20
-0.7856727997217134
 10
-0.7040310686141029
 20
-0.7907122339292333
 10
-0.7137235371899591
 20
-0.7917906200868995
 10
-0.7221718755540117
 20
-0.7891078964909847
 10
-0.729850888581245
 20
-0.7830393514398176
 10
-0.7366434193777485
 20
-0.7737318422778366
 10
-0.7424681050820099
 20
-0.7615881729748183
 10
-0.7476016497624112
 20
-0.7458995953542508
 10
-0.7516719132887175
 20
-0.727897394924442
 10
-0.7549535603854223
 20
-0.7062632471512134
 10
-0.7571396479103574
 20
-0.6830628268600961
 10
-0.7583321466973827
 20
-0.6573485659122547
 10
-0.7584090406706623
 20
-0.6312350495451327
 10
-0.7573296947254724
 20
-0.6047919846971136
 10
-0.7550377945728524
 20
-0.579423160007814
 10
-0.7519911656731587
 20
-0.5588542495607787
 10
-0.7478950070980945
 20
-0.5401791153960859
  0
CIRCLE
  5
123
330
E2
100
AcDbEntity
  8
AM_4
100
AcDbCircle
 10
0.0
 20
-0.6425000000000001
 30
0.0
 40
0.1262
  0
LINE
  5
124
330
E2
100
AcDbEntity
  8
AM_4
100
AcDbLine
 10
-0.7535999999999999
 20
0.58
 30
0.0
 11
-0.7849999999999998
 21
0.5486
 31
0.0
  0
LINE
  5
125
330
E2
100
AcDbEntity
  8
AM_4
100
AcDbLine
 10
0.7849999999999998
 20
0.5486
 30
0.0
 11
0.7535999999999999
 21
0.58
 31
0.0
  0
LINE
  5
126
330
E2
100
AcDbEntity
  8
AM_4
100
AcDbLine
 10
-0.7535999999999999
 20
0.58
 30
0.0
 11
0.7535999999999999
 21
0.58
 31
0.0
  0
LINE
  5
127
330
E2
100
AcDbEntity
  8
AM_4
100
AcDbLine
 10
0.7535999999999999
 20
-0.9400000000000002
 30
0.0
 11
0.7849999999999998
 21
-0.9086000000000001
 31
0.0
  0
LINE
  5
128
330
E2
100
AcDbEntity
  8
AM_4
100
AcDbLine
 10
-0.7849999999999998
 20
-0.9086000000000001
 30
0.0
 11
-0.7535999999999999
 21
-0.9400000000000002
 31
0.0
  0
LINE
  5
129
330
E2
100
AcDbEntity
  8
AM_4
100
AcDbLine
 10
-0.7535999999999999
 20
-0.9400000000000002
 30
0.0
 11
0.7535999999999999
 21
-0.9400000000000002
 31
0.0
  0
LWPOLYLINE
  5
12A
330
E2
100
AcDbEntity
  8
AM_4
100
AcDbPolyline
 90
       10
 70
     0
 43
0.0
 10
-0.7478950070980945
 20
-0.5401791153960859
 10
-0.7431690196591542
 20
-0.5252382569392922
 10
-0.7374715882996018
 20
-0.5127074529787558
 10
-0.729884673778398
 20
-0.5020229663676615
 10
-0.7211509844914077
 20
-0.4953503430699629
 10
-0.7122600129381034
 20
-0.493125005801926
 10
-0.7028028235712536
 20
-0.4946818518635572
 10
-0.6935115644612855
 20
-0.4996957614206345
 10
-0.684279407248067
 20
-0.5078950991204081
 10
-0.6798832537099788
 20
-0.5129807309767928
  0
LWPOLYLINE
  5
12B
330
E2
100
AcDbEntity
  8
AM_4
100
AcDbPolyline
 90
       39
 70
     0
 43
0.0
 10
0.0063906348144406
 20
-0.4932552940713205
 10
0.0281381316410547
 20
-0.4962797479200316
 10
0.0496790334883456
 20
-0.5032632547473495
 10
0.0682430989868333
 20
-0.5129382239518868
 10
0.0854799857341077
 20
-0.5256979295555658
 10
0.1012113372825347
 20
-0.5416835469878459
 10
0.1146047715115643
 20
-0.5603671135796668
 10
0.1255436057466758
 20
-0.5821322177183739
 10
0.1331185253629272
 20
-0.6059759683212381
 10
0.1369332516258144
 20
-0.631528086923695
 10
0.1365527751866956
 20
-0.6580863516528261
 10
0.1318622380341735
 20
-0.684049157522772
 10
0.1226316529240516
 20
-0.7095599557620527
 10
0.1096893781797121
 20
-0.732215576153245
 10
0.0924317797096402
 20
-0.7528495414996794
 10
0.0733178453974933
 20
-0.7687280514688604
 10
0.0508343285034541
 20
-0.7812401908680116
 10
0.0292535128128919
 20
-0.7884595822862659
 10
0.0059315062996594
 20
-0.7917672936869923
 10
-0.0150690317472855
 20
-0.7910002556879794
 10
-0.0362466349834677
 20
-0.7865808666760421
 10
-0.0555493441862866
 20
-0.7790749195438519
 10
-0.073869726745049
 20
-0.7683456256369642
 10
-0.0907430319971854
 20
-0.7544978135775363
 10
-0.1056266276804528
 20
-0.7378068480233552
 10
-0.1184686313487067
 20
-0.7178791629073163
 10
-0.1282913544494735
 20
-0.6956185019686556
 10
-0.1347664862292685
 20
-0.67102784195045
 10
-0.1372865037150333
 20
-0.6450103370751255
 10
-0.1355537280618723
 20
-0.6187694408017629
 10
-0.1293356611006886
 20
-0.5924568094243534
 10
-0.1190753875275538
 20
-0.5682584091303717
 10
-0.1043545929259192
 20
-0.5455496247713345
 10
-0.0869857468867956
 20
-0.5270232269726404
 10
-0.0658298472837175
 20
-0.5114640287792638
 10
-0.0446538461592796
 20
-0.5012539801978807
 10
-0.0211443084270492
 20
-0.4948839598915225
 10
-0.0075083094555172
 20
-0.4933172254010008
 10
0.0063906317339805
 20
-0.4932552649646034
  0
LINE
  5
12C
330
E2
100
AcDbEntity
  8
AM_4
100
AcDbLine
 10
0.7850000000000003
 20
-0.9086000000000001
 30
0.0
 11
0.7850000000000003
 21
-0.4657183802306055
 31
0.0
  0
LINE
  5
12D
330
E2
100
AcDbEntity
  8
AM_4
100
AcDbLine
 10
-0.7850000000000003
 20
-0.4657183802306055
 30
0.0
 11
-0.7850000000000003
 21
-0.9086000000000001
 31
0.0
  0
LINE
  5
12E
330
E2
100
AcDbEntity
  8
AM_4
100
AcDbLine
 10
-0.7850000000000003
 20
-0.9086000000000001
 30
0.0
 11
0.7850000000000003
 21
-0.9086000000000001
 31
0.0
  0
LINE
  5
12F
330
E2
100
AcDbEntity
  8
AM_4
100
AcDbLine
 10
0.7850000000000003
 20
0.4657183802306057
 30
0.0
 11
0.7850000000000003
 21
0.5486
 31
0.0
  0
LINE
  5
130
330
E2
100
AcDbEntity
  8
AM_4
100
AcDbLine
 10
-0.7850000000000003
 20
0.5486
 30
0.0
 11
-0.7850000000000003
 21
0.4657183802306057
 31
0.0
  0
LINE
  5
131
330
E2
100
AcDbEntity
  8
AM_4
100
AcDbLine
 10
-0.7850000000000003
 20
0.5486
 30
0.0
 11
0.7850000000000003
 21
0.5486
 31
0.0
  0
ARC
  5
132
330
E2
100
AcDbEntity
  8
AM_5
100
AcDbCircle
 10
0.0
 20
-0.6425000000000001
 30
0.0
 40
0.15625
100
AcDbArc
 50
153.8515706674819
 51
93.85157066748188
  0
ARC
  5
133
330
E2
100
AcDbEntity
  8
AM_5
100
AcDbCircle
 10
0.0
 20
-0.6275
 30
0.0
 40
0.15625
100
AcDbArc
 50
165.0
 51
105.0
  0
ENDBLK
  5
E5
330
E2
100
AcDbEntity
  8
0
100
AcDbBlockEnd
  0
BLOCK
  5
136
330
134
100
AcDbEntity
  8
0
100
AcDbBlockBegin
  2
4_136787H_0_in_136787_4
 70
     2
 10
0.0
 20
0.0
 30
0.0
  3
4_136787H_0_in_136787_4
  1

  0
ATTDEF
  5
138
330
134
100
AcDbEntity
  8
AM_6
100
AcDbText
 10
6.92
 20
0.8249999999999998
 30
0.0
 40
0.5
  1
TB-SCEZ-SHSS - Inch - Housing
100
AcDbAttributeDefinition
  3

  2
NN
 70
     8
280
     0
  0
ATTDEF
  5
139
330
134
100
AcDbEntity
  8
AM_6
100
AcDbText
 10
6.92
 20
0.3249999999999998
 30
0.0
 40
0.5
  1
SC Pillow Block Bearings -(Normal Duty) -Corrosion Resistant Insert -Polymer Housed -Tapped Base Housing -E-Z KLEEN
100
AcDbAttributeDefinition
  3

  2
NT
 70
     8
280
     0
  0
ATTDEF
  5
13A
330
134
100
AcDbEntity
  8
AM_6
100
AcDbText
 10
6.92
 20
-0.1750000000000002
 30
0.0
 40
0.5
  1
136787H
100
AcDbAttributeDefinition
  3

  2
NB
 70
     8
280
     0
  0
ATTDEF
  5
13B
330
134
100
AcDbEntity
  8
AM_6
100
AcDbText
 10
6.92
 20
-0.6750000000000002
 30
0.0
 40
0.5
  1
$PN.H
100
AcDbAttributeDefinition
  3

  2
NBSYN
 70
     8
280
     0
  0
ATTDEF
  5
13C
330
134
100
AcDbEntity
  8
AM_6
100
AcDbText
 10
6.92
 20
-1.175
 30
0.0
 40
0.5
  1
136787
100
AcDbAttributeDefinition
  3

  2
LINA
 70
     8
280
     0
  0
ATTDEF
  5
13D
330
134
100
AcDbEntity
  8
AM_6
100
AcDbText
 10
6.92
 20
-1.675
 30
0.0
 40
0.5
  1
206
100
AcDbAttributeDefinition
  3

  2
SERIES
 70
     8
280
     0
  0
ATTDEF
  5
13E
330
134
100
AcDbEntity
  8
AM_6
100
AcDbText
 10
6.92
 20
-2.175
 30
0.0
 40
0.5
  1
1-1/4
100
AcDbAttributeDefinition
  3

  2
SS
 70
     8
280
     0
  0
ATTDEF
  5
13F
330
134
100
AcDbEntity
  8
AM_6
100
AcDbText
 10
6.92
 20
-2.675
 30
0.0
 40
0.5
  1
136787
100
AcDbAttributeDefinition
  3

  2
PN
 70
     8
280
     0
  0
ATTDEF
  5
140
330
134
100
AcDbEntity
  8
AM_6
100
AcDbText
 10
6.92
 20
-3.175
 30
0.0
 40
0.5
  1
TB-SCEZ-104S-SHSS
100
AcDbAttributeDefinition
  3

  2
DESCRIPTION
 70
     8
280
     0
  0
ATTDEF
  5
141
330
134
100
AcDbEntity
  8
AM_6
100
AcDbText
 10
6.92
 20
-3.675
 30
0.0
 40
0.5
  1
2.49
100
AcDbAttributeDefinition
  3

  2
W
 70
     8
280
     0
  0
ATTDEF
  5
142
330
134
100
AcDbEntity
  8
AM_6
100
AcDbText
 10
6.92
 20
-4.175000000000001
 30
0.0
 40
0.5
  1
1.52
100
AcDbAttributeDefinition
  3

  2
A
 70
     8
280
     0
  0
ATTDEF
  5
143
330
134
100
AcDbEntity
  8
AM_6
100
AcDbText
 10
6.92
 20
-4.675000000000001
 30
0.0
 40
0.5
  1
3.84
100
AcDbAttributeDefinition
  3

  2
B
 70
     8
280
     0
  0
ATTDEF
  5
144
330
134
100
AcDbEntity
  8
AM_6
100
AcDbText
 10
6.92
 20
-5.175000000000001
 30
0.0
 40
0.5
  1
1.50
100
AcDbAttributeDefinition
  3

  2
C
 70
     8
280
     0
  0
ATTDEF
  5
145
330
134
100
AcDbEntity
  8
AM_6
100
AcDbText
 10
6.92
 20
-5.675000000000001
 30
0.0
 40
0.5
  1
3.00
100
AcDbAttributeDefinition
  3

  2
D
 70
     8
280
     0
  0
ATTDEF
  5
146
330
134
100
AcDbEntity
  8
AM_6
100
AcDbText
 10
6.92
 20
-6.175000000000001
 30
0.0
 40
0.5
  1
3.22
100
AcDbAttributeDefinition
  3

  2
J
 70
     8
280
     0
  0
ATTDEF
  5
147
330
134
100
AcDbEntity
  8
AM_6
100
AcDbText
 10
6.92
 20
-6.675000000000001
 30
0.0
 40
0.5
  1
1.57
100
AcDbAttributeDefinition
  3

  2
L
 70
     8
280
     0
  0
ATTDEF
  5
148
330
134
100
AcDbEntity
  8
AM_6
100
AcDbText
 10
6.92
 20
-7.175000000000001
 30
0.0
 40
0.5
  1
1.69
100
AcDbAttributeDefinition
  3

  2
M
 70
     8
280
     0
  0
ATTDEF
  5
149
330
134
100
AcDbEntity
  8
AM_6
100
AcDbText
 10
6.92
 20
-7.675000000000001
 30
0.0
 40
0.5
  1
0.88
100
AcDbAttributeDefinition
  3

  2
N
 70
     8
280
     0
  0
ATTDEF
  5
14A
330
134
100
AcDbEntity
  8
AM_6
100
AcDbText
 10
6.92
 20
-8.175
 30
0.0
 40
0.5
  1
7/16-14
100
AcDbAttributeDefinition
  3

  2
R
 70
     8
280
     0
  0
ATTDEF
  5
14B
330
134
100
AcDbEntity
  8
AM_6
100
AcDbText
 10
6.92
 20
-8.675
 30
0.0
 40
0.5
  1
0.94
100
AcDbAttributeDefinition
  3

  2
S
 70
     8
280
     0
  0
ATTDEF
  5
14C
330
134
100
AcDbEntity
  8
AM_6
100
AcDbText
 10
6.92
 20
-9.175
 30
0.0
 40
0.5
  1
2250
100
AcDbAttributeDefinition
  3

  2
CAPS
 70
     8
280
     0
  0
ATTDEF
  5
14D
330
134
100
AcDbEntity
  8
AM_6
100
AcDbText
 10
6.92
 20
-9.675
 30
0.0
 40
0.5
  1
4368
100
AcDbAttributeDefinition
  3

  2
CAPD
 70
     8
280
     0
  0
ATTDEF
  5
14E
330
134
100
AcDbEntity
  8
AM_6
100
AcDbText
 10
6.92
 20
-10.175
 30
0.0
 40
0.5
  1
baldor
100
AcDbAttributeDefinition
  3

  2
COMPANY
 70
     8
280
     0
  0
CIRCLE
  5
14F
330
134
100
AcDbEntity
  8
AM_9
100
AcDbCircle
 10
-1.5
 20
0.0
 30
0.0
 40
0.1849
  0
CIRCLE
  5
150
330
134
100
AcDbEntity
  8
AM_9
100
AcDbCircle
 10
1.5
 20
0.0
 30
0.0
 40
0.1849
  0
LINE
  5
151
330
134
100
AcDbEntity
  8
AM_9
100
AcDbLine
 10
1.28295
 20
-0.2250000000000002
 30
0.0
 11
1.04827153090218
 21
-0.2250000000000002
 31
0.0
  0
LINE
  5
152
330
134
100
AcDbEntity
  8
AM_9
100
AcDbLine
 10
-1.04827153090218
 20
-0.2250000000000002
 30
0.0
 11
-1.28295
 21
-0.2250000000000002
 31
0.0
  0
LINE
  5
153
330
134
100
AcDbEntity
  8
AM_9
100
AcDbLine
 10
-1.04827153090218
 20
-0.2250000000000002
 30
0.0
 11
-1.04827153090218
 21
0.3750000000000001
 31
0.0
  0
LINE
  5
154
330
134
100
AcDbEntity
  8
AM_9
100
AcDbLine
 10
1.04827153090218
 20
0.3750000000000001
 30
0.0
 11
1.04827153090218
 21
-0.2250000000000002
 31
0.0
  0
LINE
  5
155
330
134
100
AcDbEntity
  8
AM_9
100
AcDbLine
 10
1.22045
 20
-0.3749999999999999
 30
0.0
 11
1.22045
 21
-0.2250000000000002
 31
0.0
  0
LINE
  5
156
330
134
100
AcDbEntity
  8
AM_9
100
AcDbLine
 10
-1.22045
 20
-0.2250000000000002
 30
0.0
 11
-1.22045
 21
-0.3749999999999999
 31
0.0
  0
LINE
  5
157
330
134
100
AcDbEntity
  8
AM_9
100
AcDbLine
 10
-1.120417646460461
 20
0.3750000000000001
 30
0.0
 11
1.120417646460462
 21
0.3750000000000001
 31
0.0
  0
LINE
  5
158
330
134
100
AcDbEntity
  8
AM_9
100
AcDbLine
 10
-1.120417646460461
 20
-0.2250000000000002
 30
0.0
 11
-1.120417646460461
 21
0.3750000000000001
 31
0.0
  0
LINE
  5
159
330
134
100
AcDbEntity
  8
AM_9
100
AcDbLine
 10
1.120417646460462
 20
-0.2250000000000002
 30
0.0
 11
1.120417646460462
 21
0.3750000000000001
 31
0.0
  0
LINE
  5
15A
330
134
100
AcDbEntity
  8
AM_9
100
AcDbLine
 10
1.28295
 20
-0.2250000000000002
 30
0.0
 11
1.28295
 21
0.5723738424010066
 31
0.0
  0
LINE
  5
15B
330
134
100
AcDbEntity
  8
AM_9
100
AcDbLine
 10
-1.28295
 20
0.5723738424010066
 30
0.0
 11
-1.28295
 21
-0.2250000000000002
 31
0.0
  0
LINE
  5
15C
330
134
100
AcDbEntity
  8
AM_9
100
AcDbLine
 10
-1.28295
 20
-0.3749999999999999
 30
0.0
 11
1.28295
 21
-0.3749999999999999
 31
0.0
  0
LINE
  5
15D
330
134
100
AcDbEntity
  8
AM_9
100
AcDbLine
 10
1.28295
 20
-0.5723738424010065
 30
0.0
 11
1.28295
 21
-0.3749999999999999
 31
0.0
  0
LINE
  5
15E
330
134
100
AcDbEntity
  8
AM_9
100
AcDbLine
 10
-1.28295
 20
-0.3749999999999999
 30
0.0
 11
-1.28295
 21
-0.5723738424010065
 31
0.0
  0
LWPOLYLINE
  5
15F
330
134
100
AcDbEntity
  8
AM_9
100
AcDbPolyline
 90
        8
 70
     0
 43
0.0
 10
0.1086303441963279
 20
-0.7067330780813027
 10
0.2196318835870467
 20
-0.7052266991260683
 10
0.3289618917263109
 20
-0.702709229712408
 10
0.4357883012369169
 20
-0.6991998293026495
 10
0.5392980986389392
 20
-0.6947252065529448
 10
0.6387035118732239
 20
-0.6893194160442702
 10
0.7332480057224289
 20
-0.6830235991065025
 10
0.7849999999999997
 20
-0.6790293045714076
  0
LINE
  5
160
330
134
100
AcDbEntity
  8
AM_9
100
AcDbLine
 10
-0.1086303441963282
 20
-0.7067330780813027
 30
0.0
 11
0.1086303441963279
 21
-0.7067330780813027
 31
0.0
  0
LWPOLYLINE
  5
161
330
134
100
AcDbEntity
  8
AM_9
100
AcDbPolyline
 90
        6
 70
     0
 43
0.0
 10
-0.6056884957543515
 20
-0.6912439979146916
 10
-0.5048127907111218
 20
-0.6963400328102941
 10
-0.4000951555162837
 20
-0.7004926101440496
 10
-0.2923325546039067
 20
-0.7036701262950535
 10
-0.1823451264357713
 20
-0.70584839844676
 10
-0.1086303441963282
 20
-0.7067330780813027
  0
LINE
  5
162
330
134
100
AcDbEntity
  8
AM_9
100
AcDbLine
 10
-0.7849999999999996
 20
-0.6790293045714076
 30
0.0
 11
-0.6056884957543515
 21
-0.6912439979146916
 31
0.0
  0
LINE
  5
163
330
134
100
AcDbEntity
  8
AM_9
100
AcDbLine
 10
-0.7850000000000004
 20
-0.7500000000000001
 30
0.0
 11
0.7850000000000001
 21
-0.7500000000000001
 31
0.0
  0
LINE
  5
164
330
134
100
AcDbEntity
  8
AM_9
100
AcDbLine
 10
1.295513032738979
 20
-0.1098647849989513
 30
0.0
 11
1.295513032738979
 21
0.1098647849989516
 31
0.0
  0
LINE
  5
165
330
134
100
AcDbEntity
  8
AM_7
100
AcDbLine
 10
-1.7296875
 20
-0.0000000000000001
 30
0.0
 11
-1.2703125
 21
-0.0000000000000001
 31
0.0
  0
LINE
  5
166
330
134
100
AcDbEntity
  8
AM_7
100
AcDbLine
 10
-1.5
 20
-0.2296875000000001
 30
0.0
 11
-1.5
 21
0.2296874999999999
 31
0.0
  0
LINE
  5
167
330
134
100
AcDbEntity
  8
AM_7
100
AcDbLine
 10
1.2703125
 20
-0.0000000000000001
 30
0.0
 11
1.7296875
 21
-0.0000000000000001
 31
0.0
  0
LINE
  5
168
330
134
100
AcDbEntity
  8
AM_7
100
AcDbLine
 10
1.5
 20
-0.2296875000000001
 30
0.0
 11
1.5
 21
0.2296874999999999
 31
0.0
  0
LINE
  5
169
330
134
100
AcDbEntity
  8
AM_7
100
AcDbLine
 10
0.0
 20
-1.016
 30
0.0
 11
0.0
 21
0.8249999999999998
 31
0.0
  0
LINE
  5
16A
330
134
100
AcDbEntity
  8
AM_4
100
AcDbLine
 10
1.919999999999999
 20
-0.7500000000000001
 30
0.0
 11
1.919999999999999
 21
0.7499999999999998
 31
0.0
  0
LINE
  5
16B
330
134
100
AcDbEntity
  8
AM_4
100
AcDbLine
 10
-1.92
 20
-0.7500000000000001
 30
0.0
 11
-1.92
 21
0.7499999999999998
 31
0.0
  0
LWPOLYLINE
  5
16C
330
134
100
AcDbEntity
  8
AM_4
100
AcDbPolyline
 90
       37
 70
     0
 43
0.0
 10
-1.28295
 20
0.5723738424010066
 10
-1.278067987916805
 20
0.5606214588659738
 10
-1.263459106727013
 20
0.5489585180659257
 10
-1.239234538837561
 20
0.5374737820226269
 10
-1.205578647837282
 20
0.5262546565120402
 10
-1.162747575378671
 20
0.5153865258535943
 10
-1.111067291785246
 20
0.5049521030839569
 10
-1.050931115220563
 20
0.4950308004608814
 10
-0.9827967182994939
 20
0.4856981250879759
 10
-0.9071826449232822
 20
0.4770251042600516
 10
-0.8246643638473468
 20
0.469077744902522
 10
-0.735869889016576
 20
0.461916531218845
 10
-0.6414750000000016
 20
0.4555959643692122
 10
-0.5421980989002322
 20
0.4501641476838121
 10
-0.4387947428796686
 20
0.445662420567441
 10
-0.3320518939142811
 20
0.4421250438816717
 10
-0.2227819295377905
 20
0.4395789391990093
 10
-0.1118164601581104
 20
0.438043483913469
 10
-0.0000000000000024
 20
0.437530363766907
 10
0.1118164601581055
 20
0.438043483913469
 10
0.2227819295377857
 20
0.4395789391990092
 10
0.3320518939142764
 20
0.4421250438816715
 10
0.438794742879664
 20
0.4456624205674408
 10
0.5421980989002277
 20
0.4501641476838119
 10
0.6414749999999975
 20
0.455595964369212
 10
0.735869889016572
 20
0.4619165312188447
 10
0.8246643638473431
 20
0.4690777449025217
 10
0.9071826449232787
 20
0.4770251042600512
 10
0.9827967182994907
 20
0.4856981250879754
 10
1.05093111522056
 20
0.495030800460881
 10
1.111067291785244
 20
0.5049521030839564
 10
1.162747575378669
 20
0.5153865258535939
 10
1.20557864783728
 20
0.5262546565120397
 10
1.239234538837559
 20
0.5374737820226264
 10
1.263459106727012
 20
0.5489585180659251
 10
1.278067987916805
 20
0.5606214588659733
 10
1.28295
 20
0.5723738424010062
  0
LWPOLYLINE
  5
16D
330
134
100
AcDbEntity
  8
AM_4
100
AcDbPolyline
 90
       19
 70
     0
 43
0.0
 10
1.28295
 20
0.5723738424010066
 10
1.278067987916805
 20
0.5841262259360396
 10
1.263459106727013
 20
0.5957891667360876
 10
1.239234538837561
 20
0.6072739027793864
 10
1.205578647837282
 20
0.6184930282899731
 10
1.162747575378671
 20
0.6293611589484188
 10
1.111067291785246
 20
0.6397955817180564
 10
1.050931115220563
 20
0.649716884341132
 10
0.982796718299494
 20
0.6590495597140374
 10
0.9071826449232825
 20
0.6677225805419618
 10
0.824664363847347
 20
0.6756699398994912
 10
0.7358698890165761
 20
0.6828311535831683
 10
0.6414750000000017
 20
0.6891517204328009
 10
0.5421980989002323
 20
0.6945835371182012
 10
0.4387947428796687
 20
0.6990852642345723
 10
0.3320518939142812
 20
0.7026226409203415
 10
0.2227819295377906
 20
0.705168745603004
 10
0.1118164601581105
 20
0.7067042008885442
 10
0.0000000000000026
 20
0.7072173210351063
  0
LWPOLYLINE
  5
16E
330
134
100
AcDbEntity
  8
AM_4
100
AcDbPolyline
 90
       12
 70
     0
 43
0.0
 10
0.7849999999999997
 20
-0.6790293045714076
 10
0.8704549069639326
 20
-0.6714325047506386
 10
0.949285126490827
 20
-0.6630818086961333
 10
1.020890713011095
 20
-0.6540407702471546
 10
1.084726704774682
 20
-0.6443781971654273
 10
1.140307271339042
 20
-0.6341676274665248
 10
1.187209411032156
 20
-0.6234867697511661
 10
1.225076170250674
 20
-0.6124169117958432
 10
1.253619360092367
 20
-0.6010423019037593
 10
1.272621749647693
 20
-0.5894495077243704
 10
1.281938719258177
 20
-0.5777267574213021
 10
1.28295
 20
-0.5723738424010065
  0
LWPOLYLINE
  5
16F
330
134
100
AcDbEntity
  8
AM_4
100
AcDbPolyline
 90
       12
 70
     0
 43
0.0
 10
-1.28295
 20
-0.5723738424010065
 10
-1.278067987916805
 20
-0.5841262259360394
 10
-1.263459106727012
 20
-0.5957891667360876
 10
-1.239234538837561
 20
-0.6072739027793863
 10
-1.205578647837281
 20
-0.618493028289973
 10
-1.16274757537867
 20
-0.6293611589484188
 10
-1.111067291785246
 20
-0.6397955817180563
 10
-1.050931115220563
 20
-0.6497168843411317
 10
-0.9827967182994936
 20
-0.6590495597140372
 10
-0.907182644923282
 20
-0.6677225805419615
 10
-0.8246643638473466
 20
-0.6756699398994912
 10
-0.7849999999999996
 20
-0.6790293045714076
  0
LWPOLYLINE
  5
170
330
134
100
AcDbEntity
  8
AM_4
100
AcDbPolyline
 90
       19
 70
     0
 43
0.0
 10
1.28295
 20
-0.5723738424010065
 10
1.278067987916805
 20
-0.5606214588659736
 10
1.263459106727012
 20
-0.5489585180659255
 10
1.239234538837561
 20
-0.5374737820226267
 10
1.205578647837281
 20
-0.5262546565120401
 10
1.16274757537867
 20
-0.5153865258535942
 10
1.111067291785246
 20
-0.5049521030839568
 10
1.050931115220563
 20
-0.4950308004608813
 10
0.9827967182994937
 20
-0.4856981250879757
 10
0.9071826449232823
 20
-0.4770251042600515
 10
0.8246643638473468
 20
-0.4690777449025219
 10
0.735869889016576
 20
-0.4619165312188449
 10
0.6414750000000016
 20
-0.4555959643692121
 10
0.5421980989002322
 20
-0.4501641476838119
 10
0.4387947428796686
 20
-0.4456624205674408
 10
0.3320518939142811
 20
-0.4421250438816715
 10
0.2227819295377906
 20
-0.4395789391990091
 10
0.1118164601581105
 20
-0.4380434839134689
 10
0.0000000000000026
 20
-0.4375303637669068
  0
LWPOLYLINE
  5
171
330
134
100
AcDbEntity
  8
AM_4
100
AcDbPolyline
 90
       19
 70
     0
 43
0.0
 10
0.0
 20
0.7072173210351063
 10
-0.1118164601581081
 20
0.7067042008885442
 10
-0.2227819295377883
 20
0.705168745603004
 10
-0.332051893914279
 20
0.7026226409203417
 10
-0.4387947428796667
 20
0.6990852642345724
 10
-0.5421980989002305
 20
0.6945835371182013
 10
-0.641475
 20
0.6891517204328012
 10
-0.7358698890165748
 20
0.6828311535831684
 10
-0.8246643638473456
 20
0.6756699398994913
 10
-0.9071826449232812
 20
0.6677225805419619
 10
-0.9827967182994931
 20
0.6590495597140376
 10
-1.050931115220562
 20
0.649716884341132
 10
-1.111067291785246
 20
0.6397955817180565
 10
-1.16274757537867
 20
0.6293611589484189
 10
-1.205578647837281
 20
0.6184930282899732
 10
-1.239234538837561
 20
0.6072739027793865
 10
-1.263459106727012
 20
0.5957891667360877
 10
-1.278067987916805
 20
0.5841262259360397
 10
-1.28295
 20
0.5723738424010067
  0
LINE
  5
172
330
134
100
AcDbEntity
  8
AM_4
100
AcDbLine
 10
1.919999999999999
 20
0.7499999999999998
 30
0.0
 11
1.295513032738979
 21
0.4867474797099534
 31
0.0
  0
LINE
  5
173
330
134
100
AcDbEntity
  8
AM_4
100
AcDbLine
 10
-1.92
 20
0.7499999999999998
 30
0.0
 11
1.919999999999999
 21
0.7499999999999998
 31
0.0
  0
LINE
  5
174
330
134
100
AcDbEntity
  8
AM_4
100
AcDbLine
 10
-1.295513032738979
 20
0.4867474797099535
 30
0.0
 11
-1.92
 21
0.7499999999999998
 31
0.0
  0
LWPOLYLINE
  5
175
330
134
100
AcDbEntity
  8
AM_4
100
AcDbPolyline
 90
       19
 70
     0
 43
0.0
 10
0.0
 20
-0.4375303637669068
 10
-0.111816460158108
 20
-0.4380434839134689
 10
-0.2227819295377883
 20
-0.4395789391990091
 10
-0.332051893914279
 20
-0.4421250438816715
 10
-0.4387947428796667
 20
-0.4456624205674407
 10
-0.5421980989002304
 20
-0.4501641476838119
 10
-0.6414749999999999
 20
-0.455595964369212
 10
-0.7358698890165746
 20
-0.4619165312188448
 10
-0.8246643638473455
 20
-0.4690777449025219
 10
-0.907182644923281
 20
-0.4770251042600513
 10
-0.9827967182994929
 20
-0.4856981250879756
 10
-1.050931115220562
 20
-0.4950308004608812
 10
-1.111067291785246
 20
-0.5049521030839567
 10
-1.16274757537867
 20
-0.5153865258535941
 10
-1.205578647837281
 20
-0.52625465651204
 10
-1.23923453883756
 20
-0.5374737820226266
 10
-1.263459106727012
 20
-0.5489585180659253
 10
-1.278067987916805
 20
-0.5606214588659735
 10
-1.28295
 20
-0.5723738424010064
  0
LINE
  5
176
330
134
100
AcDbEntity
  8
AM_4
100
AcDbLine
 10
0.7850000000000001
 20
-0.7500000000000001
 30
0.0
 11
1.919999999999999
 21
-0.7500000000000001
 31
0.0
  0
LINE
  5
177
330
134
100
AcDbEntity
  8
AM_4
100
AcDbLine
 10
-1.92
 20
-0.7500000000000001
 30
0.0
 11
-0.7850000000000004
 21
-0.7500000000000001
 31
0.0
  0
LINE
  5
178
330
134
100
AcDbEntity
  8
AM_4
100
AcDbLine
 10
1.295513032738979
 20
-0.4867474797099535
 30
0.0
 11
1.919999999999999
 21
-0.7500000000000001
 31
0.0
  0
LINE
  5
179
330
134
100
AcDbEntity
  8
AM_4
100
AcDbLine
 10
-1.92
 20
-0.7500000000000001
 30
0.0
 11
-1.295513032738979
 21
-0.4867474797099535
 31
0.0
  0
LINE
  5
17A
330
134
100
AcDbEntity
  8
AM_4
100
AcDbLine
 10
-1.295513032738979
 20
-0.4867474797099535
 30
0.0
 11
-1.295513032738979
 21
0.4867474797099535
 31
0.0
  0
LINE
  5
17B
330
134
100
AcDbEntity
  8
AM_4
100
AcDbLine
 10
-1.295513032738979
 20
-0.4867474797099535
 30
0.0
 11
-0.5801934542711052
 21
-0.4115643624445217
 31
0.0
  0
LINE
  5
17C
330
134
100
AcDbEntity
  8
AM_4
100
AcDbLine
 10
-0.5801934542711052
 20
0.4115643624445215
 30
0.0
 11
-1.295513032738979
 21
0.4867474797099535
 31
0.0
  0
LINE
  5
17D
330
134
100
AcDbEntity
  8
AM_4
100
AcDbLine
 10
0.5801934542711047
 20
-0.4115643624445217
 30
0.0
 11
1.295513032738979
 21
-0.4867474797099535
 31
0.0
  0
LINE
  5
17E
330
134
100
AcDbEntity
  8
AM_4
100
AcDbLine
 10
1.295513032738979
 20
0.1098647849989516
 30
0.0
 11
1.295513032738979
 21
0.4867474797099534
 31
0.0
  0
LINE
  5
17F
330
134
100
AcDbEntity
  8
AM_4
100
AcDbLine
 10
1.295513032738979
 20
-0.4867474797099535
 30
0.0
 11
1.295513032738979
 21
-0.1098647849989513
 31
0.0
  0
LINE
  5
180
330
134
100
AcDbEntity
  8
AM_4
100
AcDbLine
 10
1.295513032738979
 20
0.4867474797099534
 30
0.0
 11
0.5801934542711047
 21
0.4115643624445216
 31
0.0
  0
LINE
  5
181
330
134
100
AcDbEntity
  8
AM_4
100
AcDbLine
 10
-0.5801934542711052
 20
-0.4115643624445217
 30
0.0
 11
-0.5801934542711052
 21
0.4115643624445215
 31
0.0
  0
LINE
  5
182
330
134
100
AcDbEntity
  8
AM_4
100
AcDbLine
 10
-0.5801934542711052
 20
-0.4115643624445217
 30
0.0
 11
0.5801934542711047
 21
-0.4115643624445217
 31
0.0
  0
LINE
  5
183
330
134
100
AcDbEntity
  8
AM_4
100
AcDbLine
 10
0.5801934542711047
 20
-0.4115643624445217
 30
0.0
 11
0.5801934542711047
 21
0.4115643624445216
 31
0.0
  0
LINE
  5
184
330
134
100
AcDbEntity
  8
AM_4
100
AcDbLine
 10
0.5801934542711047
 20
0.4115643624445216
 30
0.0
 11
-0.5801934542711052
 21
0.4115643624445215
 31
0.0
  0
ARC
  5
185
330
134
100
AcDbEntity
  8
AM_5
100
AcDbCircle
 10
1.5
 20
0.0000000000000001
 30
0.0
 40
0.2187499999999999
100
AcDbArc
 50
75.0
 51
15.0
  0
ARC
  5
186
330
134
100
AcDbEntity
  8
AM_5
100
AcDbCircle
 10
-1.5
 20
0.0000000000000001
 30
0.0
 40
0.2187499999999999
100
AcDbArc
 50
75.0
 51
15.0
  0
ENDBLK
  5
137
330
134
100
AcDbEntity
  8
0
100
AcDbBlockEnd
  0
ENDSEC
  0
SECTION
  2
ENTITIES
  0
INSERT
  5
6F
330
1F
100
AcDbEntity
  8
0
100
AcDbBlockReference
  2
1_136787_4
 10
0.0
 20
0.0
 30
0.0
  0
POINT
  5
188
330
1F
100
AcDbEntity
  8
ConnectionPoints
100
AcDbPoint
 10
0.0
 20
0.58
 30
0.0
  0
POINT
  5
189
330
1F
100
AcDbEntity
  8
ConnectionPoints
100
AcDbPoint
 10
0.0
 20
-0.94
 30
0.0000000000000001
  0
POINT
  5
18A
330
1F
100
AcDbEntity
  8
ConnectionPoints
100
AcDbPoint
 10
1.055096727135552
 20
0.0000000000000001
 30
1.055096727135552
  0
POINT
  5
18B
330
1F
100
AcDbEntity
  8
ConnectionPoints
100
AcDbPoint
 10
0.0
 20
-0.94
 30
0.0000000000000001
  0
ENDSEC
  0
SECTION
  2
OBJECTS
  0
DICTIONARY
  5
C
330
0
100
AcDbDictionary
281
     1
  3
ACAD_DETAILVIEWSTYLE
350
193
  3
ACAD_GROUP
350
D
  3
ACAD_LAYOUT
350
1A
  3
ACAD_MATERIAL
350
43
  3
ACAD_MLEADERSTYLE
350
6B
  3
ACAD_MLINESTYLE
350
17
  3
ACAD_PLOTSETTINGS
350
19
  3
ACAD_PLOTSTYLENAME
350
E
  3
ACAD_SCALELIST
350
47
  3
ACAD_SECTIONVIEWSTYLE
350
194
  3
ACAD_TABLESTYLE
350
69
  3
ACAD_VISUALSTYLE
350
2A
  3
ACDB_RECOMPOSE_DATA
350
190
  3
AcDbVariableDictionary
350
18C
  0
SUN
  5
6D
330
29
100
AcDbSun
 90
        1
290
     0
 63
     7
421
 16777215
 40
1.0
291
     1
 91
  2455826
 92
 54000000
292
     0
 70
     2
 71
   256
280
     1
  0
DICTIONARY
  5
193
102
{ACAD_REACTORS
330
C
102
}
330
C
100
AcDbDictionary
281
     1
  0
DICTIONARY
  5
D
102
{ACAD_REACTORS
330
C
102
}
330
C
100
AcDbDictionary
281
     1
  0
DICTIONARY
  5
1A
102
{ACAD_REACTORS
330
C
102
}
330
C
100
AcDbDictionary
281
     1
  3
Layout1
350
1E
  3
Layout2
350
26
  3
Model
350
22
  0
DICTIONARY
  5
43
102
{ACAD_REACTORS
330
C
102
}
330
C
100
AcDbDictionary
281
     1
  3
ByBlock
350
45
  3
ByLayer
350
44
  3
Global
350
46
  0
DICTIONARY
  5
6B
102
{ACAD_REACTORS
330
C
102
}
330
C
100
AcDbDictionary
281
     1
  3
Standard
350
6C
  0
DICTIONARY
  5
17
102
{ACAD_REACTORS
330
C
102
}
330
C
100
AcDbDictionary
281
     1
  3
Standard
350
18
  0
DICTIONARY
  5
19
102
{ACAD_REACTORS
330
C
102
}
330
C
100
AcDbDictionary
281
     1
  0
ACDBDICTIONARYWDFLT
  5
E
102
{ACAD_REACTORS
330
C
102
}
330
C
100
AcDbDictionary
281
     1
  3
Normal
350
F
100
AcDbDictionaryWithDefault
340
F
  0
DICTIONARY
  5
47
102
{ACAD_REACTORS
330
C
102
}
330
C
100
AcDbDictionary
281
     1
  3
A0
350
48
  3
A1
350
49
  3
A2
350
4A
  3
A3
350
4B
  3
A4
350
4C
  3
A5
350
4D
  3
A6
350
4E
  3
A7
350
4F
  3
A8
350
50
  3
A9
350
51
  3
B0
350
52
  3
B1
350
53
  3
B2
350
54
  3
B3
350
55
  3
B4
350
56
  3
B5
350
57
  3
B6
350
58
  3
B7
350
59
  3
B8
350
5A
  3
B9
350
5B
  3
C0
350
5C
  3
C1
350
5D
  3
C2
350
5E
  3
C3
350
5F
  3
C4
350
60
  3
C5
350
61
  3
C6
350
62
  3
C7
350
63
  3
C8
350
64
  3
C9
350
65
  3
D0
350
66
  3
D1
350
67
  3
D2
350
68
  0
DICTIONARY
  5
194
102
{ACAD_REACTORS
330
C
102
}
330
C
100
AcDbDictionary
281
     1
  0
DICTIONARY
  5
69
102
{ACAD_REACTORS
330
C
102
}
330
C
100
AcDbDictionary
281
     1
  3
Standard
350
6A
  0
DICTIONARY
  5
2A
102
{ACAD_REACTORS
330
C
102
}
330
C
100
AcDbDictionary
281
     1
  3
2dWireframe
350
2F
  3
Basic
350
32
  3
Brighten
350
36
  3
ColorChange
350
3A
  3
Conceptual
350
34
  3
Dim
350
35
  3
EdgeColorOff
350
3D
  3
Facepattern
350
39
  3
Flat
350
2B
  3
FlatWithEdges
350
2C
  3
Gouraud
350
2D
  3
GouraudWithEdges
350
2E
  3
Hidden
350
31
  3
JitterOff
350
3B
  3
Linepattern
350
38
  3
OverhangOff
350
3C
  3
Realistic
350
33
  3
Shaded
350
42
  3
Shaded with edges
350
41
  3
Shades of Gray
350
3E
  3
Sketchy
350
3F
  3
Thicken
350
37
  3
Wireframe
350
30
  3
X-Ray
350
40
  0
XRECORD
  5
190
102
{ACAD_REACTORS
330
C
102
}
330
C
100
AcDbXrecord
280
     1
 90
        1
330
6A
  0
DICTIONARY
  5
18C
102
{ACAD_REACTORS
330
C
102
}
330
C
100
AcDbDictionary
281
     1
  3
CANNOSCALE
350
18D
  3
CMLEADERSTYLE
350
192
  3
CTABLESTYLE
350
191
  0
LAYOUT
  5
1E
102
{ACAD_REACTORS
330
1A
102
}
330
1A
100
AcDbPlotSettings
  1

  2
none_device
  4

  6

 40
0.0
 41
0.0
 42
0.0
 43
0.0
 44
0.0
 45
0.0
 46
0.0
 47
0.0
 48
0.0
 49
0.0
140
0.0
141
0.0
142
1.0
143
1.0
 70
   688
 72
     0
 73
     0
 74
     5
  7

 75
    16
 76
     0
 77
     2
 78
   300
147
1.0
148
0.0
149
0.0
100
AcDbLayout
  1
Layout1
 70
     1
 71
     1
 10
0.0
 20
0.0
 11
12.0
 21
9.0
 12
0.0
 22
0.0
 32
0.0
 14
1.000000000000000E+20
 24
1.000000000000000E+20
 34
1.000000000000000E+20
 15
-1.000000000000000E+20
 25
-1.000000000000000E+20
 35
-1.000000000000000E+20
146
0.0
 13
0.0
 23
0.0
 33
0.0
 16
1.0
 26
0.0
 36
0.0
 17
0.0
 27
1.0
 37
0.0
 76
     0
330
1B
  0
LAYOUT
  5
26
102
{ACAD_REACTORS
330
1A
102
}
330
1A
100
AcDbPlotSettings
  1

  2
none_device
  4

  6

 40
0.0
 41
0.0
 42
0.0
 43
0.0
 44
0.0
 45
0.0
 46
0.0
 47
0.0
 48
0.0
 49
0.0
140
0.0
141
0.0
142
1.0
143
1.0
 70
   688
 72
     0
 73
     0
 74
     5
  7

 75
    16
 76
     0
 77
     2
 78
   300
147
1.0
148
0.0
149
0.0
100
AcDbLayout
  1
Layout2
 70
     1
 71
     2
 10
0.0
 20
0.0
 11
0.0
 21
0.0
 12
0.0
 22
0.0
 32
0.0
 14
0.0
 24
0.0
 34
0.0
 15
0.0
 25
0.0
 35
0.0
146
0.0
 13
0.0
 23
0.0
 33
0.0
 16
1.0
 26
0.0
 36
0.0
 17
0.0
 27
1.0
 37
0.0
 76
     0
330
23
  0
LAYOUT
  5
22
102
{ACAD_REACTORS
330
1A
102
}
330
1A
100
AcDbPlotSettings
  1

  2
none_device
  4
Letter_(8.50_x_11.00_Inches)
  6

 40
6.35
 41
6.35
 42
6.35000508
 43
6.35000508
 44
215.9
 45
279.4
 46
0.0
 47
0.0
 48
0.0
 49
0.0
140
0.0
141
0.0
142
1.0
143
1.0
 70
  1712
 72
     0
 73
     0
 74
     0
  7

 75
     0
 76
     0
 77
     2
 78
   300
147
1.0
148
0.0
149
0.0
100
AcDbLayout
  1
Model
 70
     1
 71
     0
 10
0.0
 20
0.0
 11
12.0
 21
9.0
 12
0.0
 22
0.0
 32
0.0
 14
1.000000000000000E+20
 24
1.000000000000000E+20
 34
1.000000000000000E+20
 15
-1.000000000000000E+20
 25
-1.000000000000000E+20
 35
-1.000000000000000E+20
146
0.0
 13
0.0
 23
0.0
 33
0.0
 16
1.0
 26
0.0
 36
0.0
 17
0.0
 27
1.0
 37
0.0
 76
     0
330
1F
331
29
  0
MATERIAL
  5
45
102
{ACAD_REACTORS
330
43
102
}
330
43
100
AcDbMaterial
  1
ByBlock
 72
     1
 94
      127
  0
MATERIAL
  5
44
102
{ACAD_REACTORS
330
43
102
}
330
43
100
AcDbMaterial
  1
ByLayer
 72
     1
 94
      127
  0
MATERIAL
  5
46
102
{ACAD_REACTORS
330
43
102
}
330
43
100
AcDbMaterial
  1
Global
 72
     1
 94
      127
  0
MLEADERSTYLE
  5
6C
102
{ACAD_REACTORS
330
6B
102
}
330
6B
100
AcDbMLeaderStyle
179
     2
170
     2
171
     1
172
     0
 90
        2
 40
0.0
 41
0.0
173
     1
 91
-1056964608
340
14
 92
       -2
290
     1
 42
0.09
291
     1
 43
0.36
  3
Standard
341
0
 44
0.18
300

342
11
174
     1
178
     6
175
     1
176
     0
 93
-1056964608
 45
0.18
292
     0
297
     0
 46
0.18
343
0
 94
-1056964608
 47
1.0
 49
1.0
140
1.0
293
     1
141
0.0
294
     1
177
     0
142
1.0
295
     0
296
     0
143
0.125
271
     0
272
     9
273
     9
298
     0
  0
MLINESTYLE
  5
18
102
{ACAD_REACTORS
330
17
102
}
330
17
100
AcDbMlineStyle
  2
Standard
 70
     0
  3

 62
   256
 51
90.0
 52
90.0
 71
     2
 49
0.5
 62
   256
  6
BYLAYER
 49
-0.5
 62
   256
  6
BYLAYER
  0
ACDBPLACEHOLDER
  5
F
102
{ACAD_REACTORS
330
E
102
}
330
E
  0
SCALE
  5
48
102
{ACAD_REACTORS
330
47
102
}
330
47
100
AcDbScale
 70
     0
300
1:1
140
1.0
141
1.0
290
     1
  0
SCALE
  5
49
102
{ACAD_REACTORS
330
47
102
}
330
47
100
AcDbScale
 70
     0
300
1:2
140
1.0
141
2.0
290
     0
  0
SCALE
  5
4A
102
{ACAD_REACTORS
330
47
102
}
330
47
100
AcDbScale
 70
     0
300
1:4
140
1.0
141
4.0
290
     0
  0
SCALE
  5
4B
102
{ACAD_REACTORS
330
47
102
}
330
47
100
AcDbScale
 70
     0
300
1:5
140
1.0
141
5.0
290
     0
  0
SCALE
  5
4C
102
{ACAD_REACTORS
330
47
102
}
330
47
100
AcDbScale
 70
     0
300
1:8
140
1.0
141
8.0
290
     0
  0
SCALE
  5
4D
102
{ACAD_REACTORS
330
47
102
}
330
47
100
AcDbScale
 70
     0
300
1:10
140
1.0
141
10.0
290
     0
  0
SCALE
  5
4E
102
{ACAD_REACTORS
330
47
102
}
330
47
100
AcDbScale
 70
     0
300
1:16
140
1.0
141
16.0
290
     0
  0
SCALE
  5
4F
102
{ACAD_REACTORS
330
47
102
}
330
47
100
AcDbScale
 70
     0
300
1:20
140
1.0
141
20.0
290
     0
  0
SCALE
  5
50
102
{ACAD_REACTORS
330
47
102
}
330
47
100
AcDbScale
 70
     0
300
1:30
140
1.0
141
30.0
290
     0
  0
SCALE
  5
51
102
{ACAD_REACTORS
330
47
102
}
330
47
100
AcDbScale
 70
     0
300
1:40
140
1.0
141
40.0
290
     0
  0
SCALE
  5
52
102
{ACAD_REACTORS
330
47
102
}
330
47
100
AcDbScale
 70
     0
300
1:50
140
1.0
141
50.0
290
     0
  0
SCALE
  5
53
102
{ACAD_REACTORS
330
47
102
}
330
47
100
AcDbScale
 70
     0
300
1:100
140
1.0
141
100.0
290
     0
  0
SCALE
  5
54
102
{ACAD_REACTORS
330
47
102
}
330
47
100
AcDbScale
 70
     0
300
2:1
140
2.0
141
1.0
290
     0
  0
SCALE
  5
55
102
{ACAD_REACTORS
330
47
102
}
330
47
100
AcDbScale
 70
     0
300
4:1
140
4.0
141
1.0
290
     0
  0
SCALE
  5
56
102
{ACAD_REACTORS
330
47
102
}
330
47
100
AcDbScale
 70
     0
300
8:1
140
8.0
141
1.0
290
     0
  0
SCALE
  5
57
102
{ACAD_REACTORS
330
47
102
}
330
47
100
AcDbScale
 70
     0
300
10:1
140
10.0
141
1.0
290
     0
  0
SCALE
  5
58
102
{ACAD_REACTORS
330
47
102
}
330
47
100
AcDbScale
 70
     0
300
100:1
140
100.0
141
1.0
290
     0
  0
SCALE
  5
59
102
{ACAD_REACTORS
330
47
102
}
330
47
100
AcDbScale
 70
     0
300
1/128" = 1'-0"
140
0.0078125
141
12.0
290
     0
  0
SCALE
  5
5A
102
{ACAD_REACTORS
330
47
102
}
330
47
100
AcDbScale
 70
     0
300
1/64" = 1'-0"
140
0.015625
141
12.0
290
     0
  0
SCALE
  5
5B
102
{ACAD_REACTORS
330
47
102
}
330
47
100
AcDbScale
 70
     0
300
1/32" = 1'-0"
140
0.03125
141
12.0
290
     0
  0
SCALE
  5
5C
102
{ACAD_REACTORS
330
47
102
}
330
47
100
AcDbScale
 70
     0
300
1/16" = 1'-0"
140
0.0625
141
12.0
290
     0
  0
SCALE
  5
5D
102
{ACAD_REACTORS
330
47
102
}
330
47
100
AcDbScale
 70
     0
300
3/32" = 1'-0"
140
0.09375
141
12.0
290
     0
  0
SCALE
  5
5E
102
{ACAD_REACTORS
330
47
102
}
330
47
100
AcDbScale
 70
     0
300
1/8" = 1'-0"
140
0.125
141
12.0
290
     0
  0
SCALE
  5
5F
102
{ACAD_REACTORS
330
47
102
}
330
47
100
AcDbScale
 70
     0
300
3/16" = 1'-0"
140
0.1875
141
12.0
290
     0
  0
SCALE
  5
60
102
{ACAD_REACTORS
330
47
102
}
330
47
100
AcDbScale
 70
     0
300
1/4" = 1'-0"
140
0.25
141
12.0
290
     0
  0
SCALE
  5
61
102
{ACAD_REACTORS
330
47
102
}
330
47
100
AcDbScale
 70
     0
300
3/8" = 1'-0"
140
0.375
141
12.0
290
     0
  0
SCALE
  5
62
102
{ACAD_REACTORS
330
47
102
}
330
47
100
AcDbScale
 70
     0
300
1/2" = 1'-0"
140
0.5
141
12.0
290
     0
  0
SCALE
  5
63
102
{ACAD_REACTORS
330
47
102
}
330
47
100
AcDbScale
 70
     0
300
3/4" = 1'-0"
140
0.75
141
12.0
290
     0
  0
SCALE
  5
64
102
{ACAD_REACTORS
330
47
102
}
330
47
100
AcDbScale
 70
     0
300
1" = 1'-0"
140
1.0
141
12.0
290
     0
  0
SCALE
  5
65
102
{ACAD_REACTORS
330
47
102
}
330
47
100
AcDbScale
 70
     0
300
1-1/2" = 1'-0"
140
1.5
141
12.0
290
     0
  0
SCALE
  5
66
102
{ACAD_REACTORS
330
47
102
}
330
47
100
AcDbScale
 70
     0
300
3" = 1'-0"
140
3.0
141
12.0
290
     0
  0
SCALE
  5
67
102
{ACAD_REACTORS
330
47
102
}
330
47
100
AcDbScale
 70
     0
300
6" = 1'-0"
140
6.0
141
12.0
290
     0
  0
SCALE
  5
68
102
{ACAD_REACTORS
330
47
102
}
330
47
100
AcDbScale
 70
     0
300
1'-0" = 1'-0"
140
12.0
141
12.0
290
     0
  0
TABLESTYLE
  5
6A
102
{ACAD_REACTORS
330
69
102
}
102
{ACAD_XDICTIONARY
360
18E
102
}
330
69
100
AcDbTableStyle
  3
Standard
 70
     0
 71
     0
 40
0.06
 41
0.06
280
     0
281
     0
  7
Standard
140
0.18
170
     2
 62
     0
 63
   257
283
     0
 90
        4
 91
        0
  1

274
    -2
284
     1
 64
     0
275
    -2
285
     1
 65
     0
276
    -2
286
     1
 66
     0
277
    -2
287
     1
 67
     0
278
    -2
288
     1
 68
     0
279
    -2
289
     1
 69
     0
  7
Standard
140
0.25
170
     5
 62
     0
 63
   257
283
     0
 90
        4
 91
        0
  1

274
    -2
284
     1
 64
     0
275
    -2
285
     1
 65
     0
276
    -2
286
     1
 66
     0
277
    -2
287
     1
 67
     0
278
    -2
288
     1
 68
     0
279
    -2
289
     1
 69
     0
  7
Standard
140
0.18
170
     5
 62
     0
 63
   257
283
     0
 90
        4
 91
        0
  1

274
    -2
284
     1
 64
     0
275
    -2
285
     1
 65
     0
276
    -2
286
     1
 66
     0
277
    -2
287
     1
 67
     0
278
    -2
288
     1
 68
     0
279
    -2
289
     1
 69
     0
  0
VISUALSTYLE
  5
2F
102
{ACAD_REACTORS
330
2A
102
}
330
2A
100
AcDbVisualStyle
  2
2dWireframe
 70
     4
177
     3
291
     0
 70
    58
 90
        0
176
     1
 90
        2
176
     1
 90
        0
176
     1
 90
        0
176
     1
 40
0.6
176
     1
 40
30.0
176
     1
 62
     7
420
 16777215
176
     1
 90
        1
176
     1
 90
        4
176
     1
 62
     7
176
     1
 62
   257
176
     1
 90
        1
176
     1
 90
        1
176
     1
 40
1.0
176
     1
 90
        0
176
     1
 62
   257
176
     1
 40
1.0
176
     1
 90
        1
176
     1
 90
        6
176
     1
 90
        2
176
     1
 62
     7
176
     1
 90
        5
176
     1
 90
        0
176
     1
 90
        0
176
     1
290
     0
176
     1
 90
        1
176
     1
 40
0.0
176
     1
 90
        0
176
     1
290
     1
176
     1
290
     1
176
     1
290
     0
176
     1
290
     0
176
     1
290
     0
176
     1
290
     0
176
     1
290
     0
176
     1
290
     0
176
     1
290
     0
176
     1
 90
       50
176
     1
 40
0.0
176
     1
 40
1.0
176
     1
 90
        0
176
     1
 62
    18
420
        0
176
     1
 90
       50
176
     1
 90
        3
176
     1
 62
     5
420
      255
176
     1
290
     0
176
     1
 90
       50
176
     1
 90
       50
176
     1
 90
       50
176
     1
290
     0
176
     1
 90
       50
176
     1
 62
   256
176
     0
 40
1.0
176
     0
 90
        2
176
     1
  1
strokes_ogs.tif
176
     1
290
     0
176
     1
 40
1.0
176
     1
 40
1.0
176
     1
  0
VISUALSTYLE
  5
32
102
{ACAD_REACTORS
330
2A
102
}
330
2A
100
AcDbVisualStyle
  2
Basic
 70
     7
177
     3
291
     1
 70
    58
 90
        1
176
     1
 90
        0
176
     1
 90
        1
176
     1
 90
        0
176
     1
 40
0.6
176
     1
 40
30.0
176
     1
 62
     7
420
 16777215
176
     1
 90
        0
176
     1
 90
        4
176
     1
 62
     7
176
     1
 62
   257
176
     1
 90
        1
176
     1
 90
        1
176
     1
 40
1.0
176
     1
 90
        8
176
     1
 62
     7
176
     1
 40
1.0
176
     1
 90
        1
176
     1
 90
        6
176
     1
 90
        2
176
     1
 62
     7
176
     1
 90
        5
176
     1
 90
        0
176
     1
 90
        0
176
     1
290
     0
176
     1
 90
        1
176
     1
 40
0.0
176
     1
 90
        0
176
     1
290
     0
176
     1
290
     1
176
     1
290
     1
176
     1
290
     0
176
     1
290
     0
176
     1
290
     0
176
     1
290
     0
176
     1
290
     0
176
     1
290
     0
176
     1
 90
       50
176
     1
 40
0.0
176
     1
 40
1.0
176
     1
 90
        0
176
     1
 62
    18
420
        0
176
     1
 90
       50
176
     1
 90
        3
176
     1
 62
     5
420
      255
176
     1
290
     0
176
     1
 90
       50
176
     1
 90
       50
176
     1
 90
       50
176
     1
290
     0
176
     1
 90
       50
176
     1
 62
   256
176
     0
 40
1.0
176
     0
 90
        2
176
     1
  1
strokes_ogs.tif
176
     1
290
     0
176
     1
 40
1.0
176
     1
 40
1.0
176
     1
  0
VISUALSTYLE
  5
36
102
{ACAD_REACTORS
330
2A
102
}
330
2A
100
AcDbVisualStyle
  2
Brighten
 70
    12
177
     3
291
     1
 70
    58
 90
        2
176
     1
 90
        2
176
     1
 90
        0
176
     1
 90
        0
176
     1
 40
0.6
176
     1
 40
30.0
176
     1
 62
     7
420
 16777215
176
     1
 90
        1
176
     1
 90
        4
176
     1
 62
     7
176
     1
 62
   257
176
     1
 90
        1
176
     1
 90
        1
176
     1
 40
1.0
176
     1
 90
        8
176
     1
 62
     7
176
     1
 40
1.0
176
     1
 90
        1
176
     1
 90
        6
176
     1
 90
        2
176
     1
 62
     7
176
     1
 90
        5
176
     1
 90
        0
176
     1
 90
        0
176
     1
290
     0
176
     1
 90
        1
176
     1
 40
50.0
176
     1
 90
        0
176
     1
290
     0
176
     1
290
     1
176
     1
290
     1
176
     1
290
     0
176
     1
290
     0
176
     1
290
     0
176
     1
290
     0
176
     1
290
     0
176
     1
290
     0
176
     1
 90
       50
176
     1
 40
0.0
176
     1
 40
1.0
176
     1
 90
        0
176
     1
 62
    18
420
        0
176
     1
 90
       50
176
     1
 90
        3
176
     1
 62
     5
420
      255
176
     1
290
     0
176
     1
 90
       50
176
     1
 90
       50
176
     1
 90
       50
176
     1
290
     0
176
     1
 90
       50
176
     1
 62
   256
176
     0
 40
1.0
176
     0
 90
        2
176
     1
  1
strokes_ogs.tif
176
     1
290
     0
176
     1
 40
1.0
176
     1
 40
1.0
176
     1
  0
VISUALSTYLE
  5
3A
102
{ACAD_REACTORS
330
2A
102
}
330
2A
100
AcDbVisualStyle
  2
ColorChange
 70
    16
177
     3
291
     1
 70
    58
 90
        2
176
     1
 90
        2
176
     1
 90
        3
176
     1
 90
        0
176
     1
 40
0.6
176
     1
 40
30.0
176
     1
 62
     8
420
  8421504
176
     1
 90
        1
176
     1
 90
        4
176
     1
 62
     7
176
     1
 62
   257
176
     1
 90
        1
176
     1
 90
        1
176
     1
 40
1.0
176
     1
 90
        8
176
     1
 62
     8
420
  8421504
176
     1
 40
1.0
176
     1
 90
        1
176
     1
 90
        6
176
     1
 90
        2
176
     1
 62
     7
176
     1
 90
        5
176
     1
 90
        0
176
     1
 90
        0
176
     1
290
     0
176
     1
 90
        1
176
     1
 40
0.0
176
     1
 90
        0
176
     1
290
     0
176
     1
290
     1
176
     1
290
     1
176
     1
290
     0
176
     1
290
     0
176
     1
290
     0
176
     1
290
     0
176
     1
290
     0
176
     1
290
     0
176
     1
 90
       50
176
     1
 40
0.0
176
     1
 40
1.0
176
     1
 90
        0
176
     1
 62
    18
420
        0
176
     1
 90
       50
176
     1
 90
        3
176
     1
 62
     5
420
      255
176
     1
290
     0
176
     1
 90
       50
176
     1
 90
       50
176
     1
 90
       50
176
     1
290
     0
176
     1
 90
       50
176
     1
 62
   256
176
     0
 40
1.0
176
     0
 90
        2
176
     1
  1
strokes_ogs.tif
176
     1
290
     0
176
     1
 40
1.0
176
     1
 40
1.0
176
     1
  0
VISUALSTYLE
  5
34
102
{ACAD_REACTORS
330
2A
102
}
330
2A
100
AcDbVisualStyle
  2
Conceptual
 70
     9
177
     3
291
     0
 70
    58
 90
        3
176
     1
 90
        2
176
     1
 90
        0
176
     1
 90
        0
176
     1
 40
0.6
176
     1
 40
30.0
176
     1
 62
     7
420
 16777215
176
     1
 90
        2
176
     1
 90
        2
176
     1
 62
     7
176
     1
 62
   257
176
     1
 90
        1
176
     1
 90
        1
176
     1
 40
179.0
176
     1
 90
        8
176
     1
 62
     7
176
     1
 40
1.0
176
     1
 90
        1
176
     1
 90
        6
176
     1
 90
        2
176
     1
 62
     7
176
     1
 90
        3
176
     1
 90
        0
176
     1
 90
        0
176
     1
290
     0
176
     1
 90
        1
176
     1
 40
0.0
176
     1
 90
        0
176
     1
290
     0
176
     1
290
     1
176
     1
290
     1
176
     1
290
     0
176
     1
290
     0
176
     1
290
     0
176
     1
290
     0
176
     1
290
     0
176
     1
290
     0
176
     1
 90
       50
176
     1
 40
0.0
176
     1
 40
1.0
176
     1
 90
        0
176
     1
 62
    18
420
        0
176
     1
 90
       50
176
     1
 90
        3
176
     1
 62
     5
420
      255
176
     1
290
     0
176
     1
 90
       50
176
     1
 90
       50
176
     1
 90
       50
176
     1
290
     0
176
     1
 90
       50
176
     1
 62
   256
176
     0
 40
1.0
176
     0
 90
        2
176
     1
  1
strokes_ogs.tif
176
     1
290
     0
176
     1
 40
1.0
176
     1
 40
1.0
176
     1
  0
VISUALSTYLE
  5
35
102
{ACAD_REACTORS
330
2A
102
}
330
2A
100
AcDbVisualStyle
  2
Dim
 70
    11
177
     3
291
     1
 70
    58
 90
        2
176
     1
 90
        2
176
     1
 90
        0
176
     1
 90
        0
176
     1
 40
0.6
176
     1
 40
30.0
176
     1
 62
     7
420
 16777215
176
     1
 90
        1
176
     1
 90
        4
176
     1
 62
     7
176
     1
 62
   257
176
     1
 90
        1
176
     1
 90
        1
176
     1
 40
1.0
176
     1
 90
        8
176
     1
 62
     7
176
     1
 40
1.0
176
     1
 90
        1
176
     1
 90
        6
176
     1
 90
        2
176
     1
 62
     7
176
     1
 90
        5
176
     1
 90
        0
176
     1
 90
        0
176
     1
290
     0
176
     1
 90
        1
176
     1
 40
-50.0
176
     1
 90
        0
176
     1
290
     0
176
     1
290
     1
176
     1
290
     1
176
     1
290
     0
176
     1
290
     0
176
     1
290
     0
176
     1
290
     0
176
     1
290
     0
176
     1
290
     0
176
     1
 90
       50
176
     1
 40
0.0
176
     1
 40
1.0
176
     1
 90
        0
176
     1
 62
    18
420
        0
176
     1
 90
       50
176
     1
 90
        3
176
     1
 62
     5
420
      255
176
     1
290
     0
176
     1
 90
       50
176
     1
 90
       50
176
     1
 90
       50
176
     1
290
     0
176
     1
 90
       50
176
     1
 62
   256
176
     0
 40
1.0
176
     0
 90
        2
176
     1
  1
strokes_ogs.tif
176
     1
290
     0
176
     1
 40
1.0
176
     1
 40
1.0
176
     1
  0
VISUALSTYLE
  5
3D
102
{ACAD_REACTORS
330
2A
102
}
330
2A
100
AcDbVisualStyle
  2
EdgeColorOff
 70
    22
177
     3
291
     1
 70
    58
 90
        2
176
     0
 90
        2
176
     0
 90
        0
176
     0
 90
        0
176
     0
 40
0.6
176
     0
 40
30.0
176
     0
 62
     7
420
 16777215
176
     0
 90
        1
176
     0
 90
        4
176
     0
 62
     7
176
     0
 62
   257
176
     0
 90
        1
176
     0
 90
        1
176
     0
 40
1.0
176
     0
 90
        8
176
     2
 62
     7
176
     0
 40
1.0
176
     0
 90
        1
176
     0
 90
        6
176
     0
 90
        2
176
     0
 62
     7
176
     0
 90
        5
176
     0
 90
        0
176
     0
 90
        0
176
     0
290
     0
176
     0
 90
        1
176
     0
 40
0.0
176
     0
 90
        0
176
     0
290
     0
176
     0
290
     1
176
     0
290
     1
176
     0
290
     0
176
     0
290
     0
176
     0
290
     0
176
     0
290
     0
176
     0
290
     0
176
     0
290
     0
176
     0
 90
       50
176
     0
 40
0.0
176
     0
 40
1.0
176
     0
 90
        0
176
     0
 62
    18
420
        0
176
     0
 90
       50
176
     0
 90
        3
176
     0
 62
     5
420
      255
176
     0
290
     0
176
     0
 90
       50
176
     0
 90
       50
176
     0
 90
       50
176
     0
290
     0
176
     0
 90
       50
176
     0
 62
   256
176
     0
 40
1.0
176
     0
 90
        2
176
     0
  1
strokes_ogs.tif
176
     0
290
     0
176
     0
 40
1.0
176
     0
 40
1.0
176
     0
  0
VISUALSTYLE
  5
39
102
{ACAD_REACTORS
330
2A
102
}
330
2A
100
AcDbVisualStyle
  2
Facepattern
 70
    15
177
     3
291
     1
 70
    58
 90
        2
176
     1
 90
        2
176
     1
 90
        0
176
     1
 90
        0
176
     1
 40
0.6
176
     1
 40
30.0
176
     1
 62
     7
420
 16777215
176
     1
 90
        1
176
     1
 90
        4
176
     1
 62
     7
176
     1
 62
   257
176
     1
 90
        1
176
     1
 90
        1
176
     1
 40
1.0
176
     1
 90
        8
176
     1
 62
     7
176
     1
 40
1.0
176
     1
 90
        1
176
     1
 90
        6
176
     1
 90
        2
176
     1
 62
     7
176
     1
 90
        5
176
     1
 90
        0
176
     1
 90
        0
176
     1
290
     0
176
     1
 90
        1
176
     1
 40
0.0
176
     1
 90
        0
176
     1
290
     0
176
     1
290
     1
176
     1
290
     1
176
     1
290
     0
176
     1
290
     0
176
     1
290
     0
176
     1
290
     0
176
     1
290
     0
176
     1
290
     0
176
     1
 90
       50
176
     1
 40
0.0
176
     1
 40
1.0
176
     1
 90
        0
176
     1
 62
    18
420
        0
176
     1
 90
       50
176
     1
 90
        3
176
     1
 62
     5
420
      255
176
     1
290
     0
176
     1
 90
       50
176
     1
 90
       50
176
     1
 90
       50
176
     1
290
     0
176
     1
 90
       50
176
     1
 62
   256
176
     0
 40
1.0
176
     0
 90
        2
176
     1
  1
strokes_ogs.tif
176
     1
290
     0
176
     1
 40
1.0
176
     1
 40
1.0
176
     1
  0
VISUALSTYLE
  5
2B
102
{ACAD_REACTORS
330
2A
102
}
330
2A
100
AcDbVisualStyle
  2
Flat
 70
     0
177
     3
291
     1
 70
    58
 90
        2
176
     1
 90
        1
176
     1
 90
        1
176
     1
 90
        2
176
     1
 40
0.6
176
     1
 40
30.0
176
     1
 62
     7
420
 16777215
176
     1
 90
        0
176
     1
 90
        0
176
     1
 62
     7
176
     1
 62
   257
176
     1
 90
        1
176
     1
 90
        1
176
     1
 40
1.0
176
     1
 90
        8
176
     1
 62
     7
176
     1
 40
1.0
176
     1
 90
        1
176
     1
 90
        6
176
     1
 90
        2
176
     1
 62
     7
176
     1
 90
        5
176
     1
 90
        0
176
     1
 90
        0
176
     1
290
     0
176
     1
 90
       13
176
     1
 40
0.0
176
     1
 90
        0
176
     1
290
     0
176
     1
290
     1
176
     1
290
     1
176
     1
290
     0
176
     1
290
     0
176
     1
290
     0
176
     1
290
     0
176
     1
290
     0
176
     1
290
     0
176
     1
 90
       50
176
     1
 40
0.0
176
     1
 40
1.0
176
     1
 90
        0
176
     1
 62
    18
420
        0
176
     1
 90
       50
176
     1
 90
        3
176
     1
 62
     5
420
      255
176
     1
290
     0
176
     1
 90
       50
176
     1
 90
       50
176
     1
 90
       50
176
     1
290
     0
176
     1
 90
       50
176
     1
 62
   256
176
     0
 40
1.0
176
     0
 90
        2
176
     1
  1
strokes_ogs.tif
176
     1
290
     0
176
     1
 40
1.0
176
     1
 40
1.0
176
     1
  0
VISUALSTYLE
  5
2C
102
{ACAD_REACTORS
330
2A
102
}
330
2A
100
AcDbVisualStyle
  2
FlatWithEdges
 70
     1
177
     3
291
     1
 70
    58
 90
        2
176
     1
 90
        1
176
     1
 90
        1
176
     1
 90
        2
176
     1
 40
0.6
176
     1
 40
30.0
176
     1
 62
     7
420
 16777215
176
     1
 90
        1
176
     1
 90
        0
176
     1
 62
     7
176
     1
 62
   257
176
     1
 90
        1
176
     1
 90
        1
176
     1
 40
1.0
176
     1
 90
        0
176
     1
 62
   257
176
     1
 40
1.0
176
     1
 90
        1
176
     1
 90
        6
176
     1
 90
        2
176
     1
 62
     7
176
     1
 90
        5
176
     1
 90
        0
176
     1
 90
        0
176
     1
290
     0
176
     1
 90
       13
176
     1
 40
0.0
176
     1
 90
        0
176
     1
290
     0
176
     1
290
     1
176
     1
290
     1
176
     1
290
     0
176
     1
290
     0
176
     1
290
     0
176
     1
290
     0
176
     1
290
     0
176
     1
290
     0
176
     1
 90
       50
176
     1
 40
0.0
176
     1
 40
1.0
176
     1
 90
        0
176
     1
 62
    18
420
        0
176
     1
 90
       50
176
     1
 90
        3
176
     1
 62
     5
420
      255
176
     1
290
     0
176
     1
 90
       50
176
     1
 90
       50
176
     1
 90
       50
176
     1
290
     0
176
     1
 90
       50
176
     1
 62
   256
176
     0
 40
1.0
176
     0
 90
        2
176
     1
  1
strokes_ogs.tif
176
     1
290
     0
176
     1
 40
1.0
176
     1
 40
1.0
176
     1
  0
VISUALSTYLE
  5
2D
102
{ACAD_REACTORS
330
2A
102
}
330
2A
100
AcDbVisualStyle
  2
Gouraud
 70
     2
177
     3
291
     1
 70
    58
 90
        2
176
     1
 90
        2
176
     1
 90
        1
176
     1
 90
        2
176
     1
 40
0.6
176
     1
 40
30.0
176
     1
 62
     7
420
 16777215
176
     1
 90
        0
176
     1
 90
        0
176
     1
 62
     7
176
     1
 62
   257
176
     1
 90
        1
176
     1
 90
        1
176
     1
 40
1.0
176
     1
 90
        0
176
     1
 62
     7
176
     1
 40
1.0
176
     1
 90
        1
176
     1
 90
        6
176
     1
 90
        2
176
     1
 62
     7
176
     1
 90
        5
176
     1
 90
        0
176
     1
 90
        0
176
     1
290
     0
176
     1
 90
       13
176
     1
 40
0.0
176
     1
 90
        0
176
     1
290
     0
176
     1
290
     1
176
     1
290
     1
176
     1
290
     0
176
     1
290
     0
176
     1
290
     0
176
     1
290
     0
176
     1
290
     0
176
     1
290
     0
176
     1
 90
       50
176
     1
 40
0.0
176
     1
 40
1.0
176
     1
 90
        0
176
     1
 62
    18
420
        0
176
     1
 90
       50
176
     1
 90
        3
176
     1
 62
     5
420
      255
176
     1
290
     0
176
     1
 90
       50
176
     1
 90
       50
176
     1
 90
       50
176
     1
290
     0
176
     1
 90
       50
176
     1
 62
   256
176
     0
 40
1.0
176
     0
 90
        2
176
     1
  1
strokes_ogs.tif
176
     1
290
     0
176
     1
 40
1.0
176
     1
 40
1.0
176
     1
  0
VISUALSTYLE
  5
2E
102
{ACAD_REACTORS
330
2A
102
}
330
2A
100
AcDbVisualStyle
  2
GouraudWithEdges
 70
     3
177
     3
291
     1
 70
    58
 90
        2
176
     1
 90
        2
176
     1
 90
        1
176
     1
 90
        2
176
     1
 40
0.6
176
     1
 40
30.0
176
     1
 62
     7
420
 16777215
176
     1
 90
        1
176
     1
 90
        0
176
     1
 62
     7
176
     1
 62
   257
176
     1
 90
        1
176
     1
 90
        1
176
     1
 40
1.0
176
     1
 90
        0
176
     1
 62
   257
176
     1
 40
1.0
176
     1
 90
        1
176
     1
 90
        6
176
     1
 90
        2
176
     1
 62
     7
176
     1
 90
        5
176
     1
 90
        0
176
     1
 90
        0
176
     1
290
     0
176
     1
 90
       13
176
     1
 40
0.0
176
     1
 90
        0
176
     1
290
     0
176
     1
290
     1
176
     1
290
     1
176
     1
290
     0
176
     1
290
     0
176
     1
290
     0
176
     1
290
     0
176
     1
290
     0
176
     1
290
     0
176
     1
 90
       50
176
     1
 40
0.0
176
     1
 40
1.0
176
     1
 90
        0
176
     1
 62
    18
420
        0
176
     1
 90
       50
176
     1
 90
        3
176
     1
 62
     5
420
      255
176
     1
290
     0
176
     1
 90
       50
176
     1
 90
       50
176
     1
 90
       50
176
     1
290
     0
176
     1
 90
       50
176
     1
 62
   256
176
     0
 40
1.0
176
     0
 90
        2
176
     1
  1
strokes_ogs.tif
176
     1
290
     0
176
     1
 40
1.0
176
     1
 40
1.0
176
     1
  0
VISUALSTYLE
  5
31
102
{ACAD_REACTORS
330
2A
102
}
330
2A
100
AcDbVisualStyle
  2
Hidden
 70
     6
177
     3
291
     0
 70
    58
 90
        1
176
     1
 90
        2
176
     1
 90
        2
176
     1
 90
        0
176
     1
 40
0.6
176
     1
 40
30.0
176
     1
 62
     7
420
 16777215
176
     1
 90
        2
176
     1
 90
        2
176
     1
 62
     7
176
     1
 62
   257
176
     1
 90
        2
176
     1
 90
        1
176
     1
 40
40.0
176
     1
 90
        0
176
     1
 62
   257
176
     1
 40
1.0
176
     1
 90
        1
176
     1
 90
        6
176
     1
 90
        2
176
     1
 62
     7
176
     1
 90
        3
176
     1
 90
        0
176
     1
 90
        0
176
     1
290
     0
176
     1
 90
        1
176
     1
 40
0.0
176
     1
 90
        0
176
     1
290
     0
176
     1
290
     1
176
     1
290
     1
176
     1
290
     0
176
     1
290
     0
176
     1
290
     0
176
     1
290
     0
176
     1
290
     0
176
     1
290
     0
176
     1
 90
       50
176
     1
 40
0.0
176
     1
 40
1.0
176
     1
 90
        0
176
     1
 62
    18
420
        0
176
     1
 90
       50
176
     1
 90
        3
176
     1
 62
     5
420
      255
176
     1
290
     0
176
     1
 90
       50
176
     1
 90
       50
176
     1
 90
       50
176
     1
290
     0
176
     1
 90
       50
176
     1
 62
   256
176
     0
 40
1.0
176
     0
 90
        2
176
     1
  1
strokes_ogs.tif
176
     1
290
     0
176
     1
 40
1.0
176
     1
 40
1.0
176
     1
  0
VISUALSTYLE
  5
3B
102
{ACAD_REACTORS
330
2A
102
}
330
2A
100
AcDbVisualStyle
  2
JitterOff
 70
    20
177
     3
291
     1
 70
    58
 90
        2
176
     0
 90
        2
176
     0
 90
        0
176
     0
 90
        0
176
     0
 40
0.6
176
     0
 40
30.0
176
     0
 62
     7
420
 16777215
176
     0
 90
        1
176
     0
 90
        4
176
     0
 62
     7
176
     0
 62
   257
176
     0
 90
        1
176
     0
 90
        1
176
     0
 40
1.0
176
     0
 90
       10
176
     2
 62
     7
176
     0
 40
1.0
176
     0
 90
        1
176
     0
 90
        6
176
     0
 90
        2
176
     0
 62
     7
176
     0
 90
        5
176
     0
 90
        0
176
     0
 90
        0
176
     0
290
     0
176
     0
 90
        1
176
     0
 40
0.0
176
     0
 90
        0
176
     0
290
     0
176
     0
290
     1
176
     0
290
     1
176
     0
290
     0
176
     0
290
     0
176
     0
290
     0
176
     0
290
     0
176
     0
290
     0
176
     0
290
     0
176
     0
 90
       50
176
     0
 40
0.0
176
     0
 40
1.0
176
     0
 90
        0
176
     0
 62
    18
420
        0
176
     0
 90
       50
176
     0
 90
        3
176
     0
 62
     5
420
      255
176
     0
290
     0
176
     0
 90
       50
176
     0
 90
       50
176
     0
 90
       50
176
     0
290
     0
176
     0
 90
       50
176
     0
 62
   256
176
     0
 40
1.0
176
     0
 90
        2
176
     0
  1
strokes_ogs.tif
176
     0
290
     0
176
     0
 40
1.0
176
     0
 40
1.0
176
     0
  0
VISUALSTYLE
  5
38
102
{ACAD_REACTORS
330
2A
102
}
330
2A
100
AcDbVisualStyle
  2
Linepattern
 70
    14
177
     3
291
     1
 70
    58
 90
        2
176
     1
 90
        2
176
     1
 90
        0
176
     1
 90
        0
176
     1
 40
0.6
176
     1
 40
30.0
176
     1
 62
     7
420
 16777215
176
     1
 90
        1
176
     1
 90
        4
176
     1
 62
     7
176
     1
 62
   257
176
     1
 90
        7
176
     1
 90
        7
176
     1
 40
1.0
176
     1
 90
        8
176
     1
 62
     7
176
     1
 40
1.0
176
     1
 90
        1
176
     1
 90
        6
176
     1
 90
        2
176
     1
 62
     7
176
     1
 90
        5
176
     1
 90
        0
176
     1
 90
        0
176
     1
290
     0
176
     1
 90
        1
176
     1
 40
0.0
176
     1
 90
        0
176
     1
290
     0
176
     1
290
     1
176
     1
290
     1
176
     1
290
     0
176
     1
290
     0
176
     1
290
     0
176
     1
290
     0
176
     1
290
     0
176
     1
290
     0
176
     1
 90
       50
176
     1
 40
0.0
176
     1
 40
1.0
176
     1
 90
        0
176
     1
 62
    18
420
        0
176
     1
 90
       50
176
     1
 90
        3
176
     1
 62
     5
420
      255
176
     1
290
     0
176
     1
 90
       50
176
     1
 90
       50
176
     1
 90
       50
176
     1
290
     0
176
     1
 90
       50
176
     1
 62
   256
176
     0
 40
1.0
176
     0
 90
        2
176
     1
  1
strokes_ogs.tif
176
     1
290
     0
176
     1
 40
1.0
176
     1
 40
1.0
176
     1
  0
VISUALSTYLE
  5
3C
102
{ACAD_REACTORS
330
2A
102
}
330
2A
100
AcDbVisualStyle
  2
OverhangOff
 70
    21
177
     3
291
     1
 70
    58
 90
        2
176
     0
 90
        2
176
     0
 90
        0
176
     0
 90
        0
176
     0
 40
0.6
176
     0
 40
30.0
176
     0
 62
     7
420
 16777215
176
     0
 90
        1
176
     0
 90
        4
176
     0
 62
     7
176
     0
 62
   257
176
     0
 90
        1
176
     0
 90
        1
176
     0
 40
1.0
176
     0
 90
        9
176
     2
 62
     7
176
     0
 40
1.0
176
     0
 90
        1
176
     0
 90
        6
176
     0
 90
        2
176
     0
 62
     7
176
     0
 90
        5
176
     0
 90
        0
176
     0
 90
        0
176
     0
290
     0
176
     0
 90
        1
176
     0
 40
0.0
176
     0
 90
        0
176
     0
290
     0
176
     0
290
     1
176
     0
290
     1
176
     0
290
     0
176
     0
290
     0
176
     0
290
     0
176
     0
290
     0
176
     0
290
     0
176
     0
290
     0
176
     0
 90
       50
176
     0
 40
0.0
176
     0
 40
1.0
176
     0
 90
        0
176
     0
 62
    18
420
        0
176
     0
 90
       50
176
     0
 90
        3
176
     0
 62
     5
420
      255
176
     0
290
     0
176
     0
 90
       50
176
     0
 90
       50
176
     0
 90
       50
176
     0
290
     0
176
     0
 90
       50
176
     0
 62
   256
176
     0
 40
1.0
176
     0
 90
        2
176
     0
  1
strokes_ogs.tif
176
     0
290
     0
176
     0
 40
1.0
176
     0
 40
1.0
176
     0
  0
VISUALSTYLE
  5
33
102
{ACAD_REACTORS
330
2A
102
}
330
2A
100
AcDbVisualStyle
  2
Realistic
 70
     8
177
     3
291
     0
 70
    58
 90
        2
176
     1
 90
        3
176
     1
 90
        0
176
     1
 90
        2
176
     1
 40
0.6
176
     1
 40
30.0
176
     1
 62
     7
420
 16777215
176
     1
 90
        0
176
     1
 90
        0
176
     1
 62
     7
176
     1
 62
   257
176
     1
 90
        1
176
     1
 90
        1
176
     1
 40
1.0
176
     1
 90
        8
176
     1
 62
   257
176
     1
 40
1.0
176
     1
 90
        1
176
     1
 90
        6
176
     1
 90
        2
176
     1
 62
     7
176
     1
 90
        3
176
     1
 90
        0
176
     1
 90
        0
176
     1
290
     0
176
     1
 90
       13
176
     1
 40
0.0
176
     1
 90
        0
176
     1
290
     0
176
     1
290
     1
176
     1
290
     1
176
     1
290
     0
176
     1
290
     0
176
     1
290
     0
176
     1
290
     0
176
     1
290
     0
176
     1
290
     0
176
     1
 90
       50
176
     1
 40
0.0
176
     1
 40
1.0
176
     1
 90
        0
176
     1
 62
    18
420
        0
176
     1
 90
       50
176
     1
 90
        3
176
     1
 62
     5
420
      255
176
     1
290
     0
176
     1
 90
       50
176
     1
 90
       50
176
     1
 90
       50
176
     1
290
     0
176
     1
 90
       50
176
     1
 62
   256
176
     0
 40
1.0
176
     0
 90
        2
176
     1
  1
strokes_ogs.tif
176
     1
290
     0
176
     1
 40
1.0
176
     1
 40
1.0
176
     1
  0
VISUALSTYLE
  5
42
102
{ACAD_REACTORS
330
2A
102
}
330
2A
100
AcDbVisualStyle
  2
Shaded
 70
    27
177
     3
291
     0
 70
    58
 90
        2
176
     1
 90
        2
176
     1
 90
        1
176
     1
 90
        2
176
     1
 40
0.6
176
     1
 40
30.0
176
     1
 62
     7
420
 16777215
176
     1
 90
        0
176
     1
 90
        4
176
     1
 62
     7
176
     1
 62
   257
176
     1
 90
        1
176
     1
 90
        1
176
     1
 40
1.0
176
     1
 90
        8
176
     1
 62
   257
176
     1
 40
1.0
176
     1
 90
        1
176
     1
 90
        6
176
     1
 90
        2
176
     1
 62
     8
420
  7895160
176
     1
 90
        3
176
     1
 90
        0
176
     1
 90
        0
176
     1
290
     0
176
     1
 90
        5
176
     1
 40
0.0
176
     1
 90
        0
176
     1
290
     0
176
     1
290
     1
176
     1
290
     1
176
     1
290
     0
176
     1
290
     0
176
     1
290
     0
176
     1
290
     0
176
     1
290
     0
176
     1
290
     0
176
     1
 90
       50
176
     1
 40
0.0
176
     1
 40
1.0
176
     1
 90
        0
176
     1
 62
    18
420
        0
176
     1
 90
       50
176
     1
 90
        3
176
     1
 62
     5
420
      255
176
     1
290
     0
176
     1
 90
       50
176
     1
 90
       50
176
     1
 90
       50
176
     1
290
     0
176
     1
 90
       50
176
     1
 62
   256
176
     0
 40
1.0
176
     0
 90
        2
176
     1
  1
strokes_ogs.tif
176
     1
290
     0
176
     1
 40
1.0
176
     1
 40
1.0
176
     1
  0
VISUALSTYLE
  5
41
102
{ACAD_REACTORS
330
2A
102
}
330
2A
100
AcDbVisualStyle
  2
Shaded with edges
 70
    26
177
     3
291
     0
 70
    58
 90
        2
176
     1
 90
        2
176
     1
 90
        1
176
     1
 90
        2
176
     1
 40
0.6
176
     1
 40
30.0
176
     1
 62
     7
420
 16777215
176
     1
 90
        1
176
     1
 90
       10
176
     1
 62
     7
176
     1
 62
   257
176
     1
 90
        2
176
     1
 90
        1
176
     1
 40
1.0
176
     1
 90
        8
176
     1
 62
   257
176
     1
 40
1.0
176
     1
 90
        1
176
     1
 90
        6
176
     1
 90
        2
176
     1
 62
     7
176
     1
 90
        3
176
     1
 90
        0
176
     1
 90
        0
176
     1
290
     0
176
     1
 90
        5
176
     1
 40
0.0
176
     1
 90
        0
176
     1
290
     0
176
     1
290
     1
176
     1
290
     1
176
     1
290
     0
176
     1
290
     0
176
     1
290
     0
176
     1
290
     0
176
     1
290
     0
176
     1
290
     0
176
     1
 90
       50
176
     1
 40
0.0
176
     1
 40
1.0
176
     1
 90
        0
176
     1
 62
    18
420
        0
176
     1
 90
       50
176
     1
 90
        3
176
     1
 62
     5
420
      255
176
     1
290
     0
176
     1
 90
       50
176
     1
 90
       50
176
     1
 90
       50
176
     1
290
     0
176
     1
 90
       50
176
     1
 62
   256
176
     0
 40
1.0
176
     0
 90
        2
176
     1
  1
strokes_ogs.tif
176
     1
290
     0
176
     1
 40
1.0
176
     1
 40
1.0
176
     1
  0
VISUALSTYLE
  5
3E
102
{ACAD_REACTORS
330
2A
102
}
330
2A
100
AcDbVisualStyle
  2
Shades of Gray
 70
    23
177
     3
291
     0
 70
    58
 90
        2
176
     1
 90
        2
176
     1
 90
        3
176
     1
 90
        0
176
     1
 40
0.6
176
     1
 40
30.0
176
     1
 62
     7
420
 16777215
176
     1
 90
        2
176
     1
 90
        2
176
     1
 62
     7
176
     1
 62
     7
176
     1
 90
        1
176
     1
 90
        1
176
     1
 40
40.0
176
     1
 90
        8
176
     1
 62
     7
176
     1
 40
1.0
176
     1
 90
        1
176
     1
 90
        6
176
     1
 90
        2
176
     1
 62
     7
176
     1
 90
        3
176
     1
 90
        0
176
     1
 90
        0
176
     1
290
     0
176
     1
 90
        1
176
     1
 40
0.0
176
     1
 90
        0
176
     1
290
     0
176
     1
290
     1
176
     1
290
     1
176
     1
290
     0
176
     1
290
     0
176
     1
290
     0
176
     1
290
     0
176
     1
290
     0
176
     1
290
     0
176
     1
 90
       50
176
     1
 40
0.0
176
     1
 40
1.0
176
     1
 90
        0
176
     1
 62
    18
420
        0
176
     1
 90
       50
176
     1
 90
        3
176
     1
 62
     5
420
      255
176
     1
290
     0
176
     1
 90
       50
176
     1
 90
       50
176
     1
 90
       50
176
     1
290
     0
176
     1
 90
       50
176
     1
 62
   256
176
     0
 40
1.0
176
     0
 90
        2
176
     1
  1
strokes_ogs.tif
176
     1
290
     0
176
     1
 40
1.0
176
     1
 40
1.0
176
     1
  0
VISUALSTYLE
  5
3F
102
{ACAD_REACTORS
330
2A
102
}
330
2A
100
AcDbVisualStyle
  2
Sketchy
 70
    24
177
     3
291
     0
 70
    58
 90
        1
176
     1
 90
        2
176
     1
 90
        2
176
     1
 90
        0
176
     1
 40
0.6
176
     1
 40
30.0
176
     1
 62
     7
420
 16777215
176
     1
 90
        2
176
     1
 90
        2
176
     1
 62
     7
176
     1
 62
     7
176
     1
 90
        1
176
     1
 90
        1
176
     1
 40
40.0
176
     1
 90
       11
176
     1
 62
     7
176
     1
 40
1.0
176
     1
 90
        1
176
     1
 90
        6
176
     1
 90
        2
176
     1
 62
     7
176
     1
 90
        6
176
     1
 90
        0
176
     1
 90
        0
176
     1
290
     0
176
     1
 90
        1
176
     1
 40
0.0
176
     1
 90
        0
176
     1
290
     0
176
     1
290
     1
176
     1
290
     1
176
     1
290
     0
176
     1
290
     0
176
     1
290
     0
176
     1
290
     0
176
     1
290
     0
176
     1
290
     0
176
     1
 90
       50
176
     1
 40
0.0
176
     1
 40
1.0
176
     1
 90
        0
176
     1
 62
    18
420
        0
176
     1
 90
       50
176
     1
 90
        3
176
     1
 62
     5
420
      255
176
     1
290
     0
176
     1
 90
       50
176
     1
 90
       50
176
     1
 90
       50
176
     1
290
     0
176
     1
 90
       50
176
     1
 62
   256
176
     0
 40
1.0
176
     0
 90
        2
176
     1
  1
strokes_ogs.tif
176
     1
290
     0
176
     1
 40
1.0
176
     1
 40
1.0
176
     1
  0
VISUALSTYLE
  5
37
102
{ACAD_REACTORS
330
2A
102
}
330
2A
100
AcDbVisualStyle
  2
Thicken
 70
    13
177
     3
291
     1
 70
    58
 90
        2
176
     1
 90
        2
176
     1
 90
        0
176
     1
 90
        0
176
     1
 40
0.6
176
     1
 40
30.0
176
     1
 62
     7
420
 16777215
176
     1
 90
        1
176
     1
 90
        4
176
     1
 62
     7
176
     1
 62
   257
176
     1
 90
        1
176
     1
 90
        1
176
     1
 40
1.0
176
     1
 90
       12
176
     1
 62
     7
176
     1
 40
1.0
176
     1
 90
        1
176
     1
 90
        6
176
     1
 90
        2
176
     1
 62
     7
176
     1
 90
        5
176
     1
 90
        0
176
     1
 90
        0
176
     1
290
     0
176
     1
 90
        1
176
     1
 40
0.0
176
     1
 90
        0
176
     1
290
     0
176
     1
290
     1
176
     1
290
     1
176
     1
290
     0
176
     1
290
     0
176
     1
290
     0
176
     1
290
     0
176
     1
290
     0
176
     1
290
     0
176
     1
 90
       50
176
     1
 40
0.0
176
     1
 40
1.0
176
     1
 90
        0
176
     1
 62
    18
420
        0
176
     1
 90
       50
176
     1
 90
        3
176
     1
 62
     5
420
      255
176
     1
290
     0
176
     1
 90
       50
176
     1
 90
       50
176
     1
 90
       50
176
     1
290
     0
176
     1
 90
       50
176
     1
 62
   256
176
     0
 40
1.0
176
     0
 90
        2
176
     1
  1
strokes_ogs.tif
176
     1
290
     0
176
     1
 40
1.0
176
     1
 40
1.0
176
     1
  0
VISUALSTYLE
  5
30
102
{ACAD_REACTORS
330
2A
102
}
330
2A
100
AcDbVisualStyle
  2
Wireframe
 70
     5
177
     3
291
     0
 70
    58
 90
        0
176
     1
 90
        2
176
     1
 90
        0
176
     1
 90
        0
176
     1
 40
0.6
176
     1
 40
30.0
176
     1
 62
     7
420
 16777215
176
     1
 90
        1
176
     1
 90
        4
176
     1
 62
     7
176
     1
 62
   257
176
     1
 90
        1
176
     1
 90
        1
176
     1
 40
1.0
176
     1
 90
        0
176
     1
 62
   257
176
     1
 40
1.0
176
     1
 90
        1
176
     1
 90
        6
176
     1
 90
        2
176
     1
 62
     7
176
     1
 90
        3
176
     1
 90
        0
176
     1
 90
        0
176
     1
290
     0
176
     1
 90
        1
176
     1
 40
0.0
176
     1
 90
        0
176
     1
290
     0
176
     1
290
     1
176
     1
290
     1
176
     1
290
     0
176
     1
290
     0
176
     1
290
     0
176
     1
290
     0
176
     1
290
     0
176
     1
290
     0
176
     1
 90
       50
176
     1
 40
0.0
176
     1
 40
1.0
176
     1
 90
        0
176
     1
 62
    18
420
        0
176
     1
 90
       50
176
     1
 90
        3
176
     1
 62
     5
420
      255
176
     1
290
     0
176
     1
 90
       50
176
     1
 90
       50
176
     1
 90
       50
176
     1
290
     0
176
     1
 90
       50
176
     1
 62
   256
176
     0
 40
1.0
176
     0
 90
        2
176
     1
  1
strokes_ogs.tif
176
     1
290
     0
176
     1
 40
1.0
176
     1
 40
1.0
176
     1
  0
VISUALSTYLE
  5
40
102
{ACAD_REACTORS
330
2A
102
}
330
2A
100
AcDbVisualStyle
  2
X-Ray
 70
    25
177
     3
291
     0
 70
    58
 90
        2
176
     1
 90
        2
176
     1
 90
        1
176
     1
 90
        1
176
     1
 40
0.5
176
     1
 40
30.0
176
     1
 62
     7
420
 16777215
176
     1
 90
        1
176
     1
 90
        0
176
     1
 62
     7
176
     1
 62
   257
176
     1
 90
        1
176
     1
 90
        1
176
     1
 40
1.0
176
     1
 90
        8
176
     1
 62
     7
176
     1
 40
1.0
176
     1
 90
        1
176
     1
 90
        6
176
     1
 90
        2
176
     1
 62
     7
176
     1
 90
        3
176
     1
 90
        0
176
     1
 90
        0
176
     1
290
     0
176
     1
 90
       13
176
     1
 40
0.0
176
     1
 90
        0
176
     1
290
     0
176
     1
290
     1
176
     1
290
     1
176
     1
290
     0
176
     1
290
     0
176
     1
290
     0
176
     1
290
     0
176
     1
290
     0
176
     1
290
     0
176
     1
 90
       50
176
     1
 40
0.0
176
     1
 40
1.0
176
     1
 90
        0
176
     1
 62
    18
420
        0
176
     1
 90
       50
176
     1
 90
        3
176
     1
 62
     5
420
      255
176
     1
290
     0
176
     1
 90
       50
176
     1
 90
       50
176
     1
 90
       50
176
     1
290
     0
176
     1
 90
       50
176
     1
 62
   256
176
     0
 40
1.0
176
     0
 90
        2
176
     1
  1
strokes_ogs.tif
176
     1
290
     0
176
     1
 40
1.0
176
     1
 40
1.0
176
     1
  0
DICTIONARYVAR
  5
18D
102
{ACAD_REACTORS
330
18C
102
}
330
18C
100
DictionaryVariables
280
     0
  1
1:1
  0
DICTIONARYVAR
  5
192
102
{ACAD_REACTORS
330
18C
102
}
330
18C
100
DictionaryVariables
280
     0
  1
Standard
  0
DICTIONARYVAR
  5
191
102
{ACAD_REACTORS
330
18C
102
}
330
18C
100
DictionaryVariables
280
     0
  1
Standard
  0
DICTIONARY
  5
18E
330
6A
100
AcDbDictionary
280
     1
281
     1
  3
ACAD_ROUNDTRIP_2008_TABLESTYLE_CELLSTYLEMAP
360
18F
  0
CELLSTYLEMAP
  5
18F
102
{ACAD_REACTORS
330
18E
102
}
330
18E
100
AcDbCellStyleMap
 90
        3
300
CELLSTYLE
  1
TABLEFORMAT_BEGIN
 90
        5
170
     1
 91
        0
 92
    32768
 62
   257
 93
        1
300
CONTENTFORMAT
  1
CONTENTFORMAT_BEGIN
 90
        0
 91
        0
 92
        4
 93
        0
300

 40
0.0
140
1.0
 94
        5
 62
     0
340
11
144
0.25
309
CONTENTFORMAT_END
171
     1
301
MARGIN
  1
CELLMARGIN_BEGIN
 40
0.06
 40
0.06
 40
0.06
 40
0.06
 40
0.06
 40
0.06
309
CELLMARGIN_END
 94
        6
 95
        1
302
GRIDFORMAT
  1
GRIDFORMAT_BEGIN
 90
        0
 91
        1
 62
     0
 92
       -2
340
14
 93
        0
 40
0.045
309
GRIDFORMAT_END
 95
        2
302
GRIDFORMAT
  1
GRIDFORMAT_BEGIN
 90
        0
 91
        1
 62
     0
 92
       -2
340
14
 93
        0
 40
0.045
309
GRIDFORMAT_END
 95
        4
302
GRIDFORMAT
  1
GRIDFORMAT_BEGIN
 90
        0
 91
        1
 62
     0
 92
       -2
340
14
 93
        0
 40
0.045
309
GRIDFORMAT_END
 95
        8
302
GRIDFORMAT
  1
GRIDFORMAT_BEGIN
 90
        0
 91
        1
 62
     0
 92
       -2
340
14
 93
        0
 40
0.045
309
GRIDFORMAT_END
 95
       16
302
GRIDFORMAT
  1
GRIDFORMAT_BEGIN
 90
        0
 91
        1
 62
     0
 92
       -2
340
14
 93
        0
 40
0.045
309
GRIDFORMAT_END
 95
       32
302
GRIDFORMAT
  1
GRIDFORMAT_BEGIN
 90
        0
 91
        1
 62
     0
 92
       -2
340
14
 93
        0
 40
0.045
309
GRIDFORMAT_END
309
TABLEFORMAT_END
  1
CELLSTYLE_BEGIN
 90
        1
 91
        1
300
_TITLE
309
CELLSTYLE_END
300
CELLSTYLE
  1
TABLEFORMAT_BEGIN
 90
        5
170
     1
 91
        0
 92
        0
 62
   257
 93
        1
300
CONTENTFORMAT
  1
CONTENTFORMAT_BEGIN
 90
        0
 91
        0
 92
        4
 93
        0
300

 40
0.0
140
1.0
 94
        5
 62
     0
340
11
144
0.18
309
CONTENTFORMAT_END
171
     1
301
MARGIN
  1
CELLMARGIN_BEGIN
 40
0.06
 40
0.06
 40
0.06
 40
0.06
 40
0.06
 40
0.06
309
CELLMARGIN_END
 94
        6
 95
        1
302
GRIDFORMAT
  1
GRIDFORMAT_BEGIN
 90
        0
 91
        1
 62
     0
 92
       -2
340
14
 93
        0
 40
0.045
309
GRIDFORMAT_END
 95
        2
302
GRIDFORMAT
  1
GRIDFORMAT_BEGIN
 90
        0
 91
        1
 62
     0
 92
       -2
340
14
 93
        0
 40
0.045
309
GRIDFORMAT_END
 95
        4
302
GRIDFORMAT
  1
GRIDFORMAT_BEGIN
 90
        0
 91
        1
 62
     0
 92
       -2
340
14
 93
        0
 40
0.045
309
GRIDFORMAT_END
 95
        8
302
GRIDFORMAT
  1
GRIDFORMAT_BEGIN
 90
        0
 91
        1
 62
     0
 92
       -2
340
14
 93
        0
 40
0.045
309
GRIDFORMAT_END
 95
       16
302
GRIDFORMAT
  1
GRIDFORMAT_BEGIN
 90
        0
 91
        1
 62
     0
 92
       -2
340
14
 93
        0
 40
0.045
309
GRIDFORMAT_END
 95
       32
302
GRIDFORMAT
  1
GRIDFORMAT_BEGIN
 90
        0
 91
        1
 62
     0
 92
       -2
340
14
 93
        0
 40
0.045
309
GRIDFORMAT_END
309
TABLEFORMAT_END
  1
CELLSTYLE_BEGIN
 90
        2
 91
        1
300
_HEADER
309
CELLSTYLE_END
300
CELLSTYLE
  1
TABLEFORMAT_BEGIN
 90
        5
170
     1
 91
        0
 92
        0
 62
   257
 93
        1
300
CONTENTFORMAT
  1
CONTENTFORMAT_BEGIN
 90
        0
 91
        0
 92
        4
 93
        0
300

 40
0.0
140
1.0
 94
        2
 62
     0
340
11
144
0.18
309
CONTENTFORMAT_END
171
     1
301
MARGIN
  1
CELLMARGIN_BEGIN
 40
0.06
 40
0.06
 40
0.06
 40
0.06
 40
0.06
 40
0.06
309
CELLMARGIN_END
 94
        6
 95
        1
302
GRIDFORMAT
  1
GRIDFORMAT_BEGIN
 90
        0
 91
        1
 62
     0
 92
       -2
340
14
 93
        0
 40
0.045
309
GRIDFORMAT_END
 95
        2
302
GRIDFORMAT
  1
GRIDFORMAT_BEGIN
 90
        0
 91
        1
 62
     0
 92
       -2
340
14
 93
        0
 40
0.045
309
GRIDFORMAT_END
 95
        4
302
GRIDFORMAT
  1
GRIDFORMAT_BEGIN
 90
        0
 91
        1
 62
     0
 92
       -2
340
14
 93
        0
 40
0.045
309
GRIDFORMAT_END
 95
        8
302
GRIDFORMAT
  1
GRIDFORMAT_BEGIN
 90
        0
 91
        1
 62
     0
 92
       -2
340
14
 93
        0
 40
0.045
309
GRIDFORMAT_END
 95
       16
302
GRIDFORMAT
  1
GRIDFORMAT_BEGIN
 90
        0
 91
        1
 62
     0
 92
       -2
340
14
 93
        0
 40
0.045
309
GRIDFORMAT_END
 95
       32
302
GRIDFORMAT
  1
GRIDFORMAT_BEGIN
 90
        0
 91
        1
 62
     0
 92
       -2
340
14
 93
        0
 40
0.045
309
GRIDFORMAT_END
309
TABLEFORMAT_END
  1
CELLSTYLE_BEGIN
 90
        3
 91
        2
300
_DATA
309
CELLSTYLE_END
  0
ENDSEC
  0
EOF