0
SECTION
  2
HEADER
  9
$ACADVER
  1
AC1027
  9
$ACADMAINTVER
 70
   105
  9
$DWGCODEPAGE
  3
ANSI_1252
  9
$REQUIREDVERSIONS
160
                 0
  9
$COMMENTS
  1
File was created by Cadenas
  9
$CUSTOMPROPERTYTAG
  1
NN
  9
$CUSTOMPROPERTY
  1
Set Screw Tapped Base Inch Bore - Stainless Housing, Stainless Steel Insert
  9
$CUSTOMPROPERTYTAG
  1
NT
  9
$CUSTOMPROPERTY
  1
SC Pillow Block Bearings -(Normal Duty) -Corrosion Resistant Insert -Polymer Housed -Tapped Base Housing -E-Z KLEEN
  9
$CUSTOMPROPERTYTAG
  1
NB
  9
$CUSTOMPROPERTY
  1
136784
  9
$CUSTOMPROPERTYTAG
  1
NBSYN
  9
$CUSTOMPROPERTY
  1
$PN.
  9
$CUSTOMPROPERTYTAG
  1
LINA
  9
$CUSTOMPROPERTY
  1
136784
  9
$CUSTOMPROPERTYTAG
  1
SERIES
  9
$CUSTOMPROPERTY
  1
204
  9
$CUSTOMPROPERTYTAG
  1
SS
  9
$CUSTOMPROPERTY
  1
3/4
  9
$CUSTOMPROPERTYTAG
  1
PN
  9
$CUSTOMPROPERTY
  1
136784
  9
$CUSTOMPROPERTYTAG
  1
DESCRIPTION
  9
$CUSTOMPROPERTY
  1
TB-SCEZ-012-SHSS
  9
$CUSTOMPROPERTYTAG
  1
W
  9
$CUSTOMPROPERTY
  1
1.27
  9
$CUSTOMPROPERTYTAG
  1
A
  9
$CUSTOMPROPERTY
  1
1.23
  9
$CUSTOMPROPERTYTAG
  1
B
  9
$CUSTOMPROPERTY
  1
2.77
  9
$CUSTOMPROPERTYTAG
  1
C
  9
$CUSTOMPROPERTY
  1
1.36
  9
$CUSTOMPROPERTYTAG
  1
D
  9
$CUSTOMPROPERTY
  1
2.00
  9
$CUSTOMPROPERTYTAG
  1
J
  9
$CUSTOMPROPERTY
  1
2.50
  9
$CUSTOMPROPERTYTAG
  1
L
  9
$CUSTOMPROPERTY
  1
1.11
  9
$CUSTOMPROPERTYTAG
  1
M
  9
$CUSTOMPROPERTY
  1
1.31
  9
$CUSTOMPROPERTYTAG
  1
N
  9
$CUSTOMPROPERTY
  1
0.45
  9
$CUSTOMPROPERTYTAG
  1
R
  9
$CUSTOMPROPERTY
  1
3/8-16
  9
$CUSTOMPROPERTYTAG
  1
S
  9
$CUSTOMPROPERTY
  1
0.73
  9
$CUSTOMPROPERTYTAG
  1
COMPANY
  9
$CUSTOMPROPERTY
  1
baldor
  9
$INSBASE
 10
0.0
 20
0.0
 30
0.0
  9
$EXTMIN
 10
1.000000000000000E+20
 20
1.000000000000000E+20
 30
1.000000000000000E+20
  9
$EXTMAX
 10
-1.000000000000000E+20
 20
-1.000000000000000E+20
 30
-1.000000000000000E+20
  9
$LIMMIN
 10
0.0
 20
0.0
  9
$LIMMAX
 10
12.0
 20
9.0
  9
$ORTHOMODE
 70
     0
  9
$REGENMODE
 70
     1
  9
$FILLMODE
 70
     1
  9
$QTEXTMODE
 70
     0
  9
$MIRRTEXT
 70
     1
  9
$LTSCALE
 40
1.0
  9
$ATTMODE
 70
     1
  9
$TEXTSIZE
 40
0.2
  9
$TRACEWID
 40
0.05
  9
$TEXTSTYLE
  7
Standard
  9
$CLAYER
  8
0
  9
$CELTYPE
  6
ByLayer
  9
$CECOLOR
 62
   256
  9
$CELTSCALE
 40
1.0
  9
$DISPSILH
 70
     0
  9
$DIMSCALE
 40
1.0
  9
$DIMASZ
 40
0.18
  9
$DIMEXO
 40
0.0625
  9
$DIMDLI
 40
0.38
  9
$DIMRND
 40
0.0
  9
$DIMDLE
 40
0.0
  9
$DIMEXE
 40
0.18
  9
$DIMTP
 40
0.0
  9
$DIMTM
 40
0.0
  9
$DIMTXT
 40
0.18
  9
$DIMCEN
 40
0.09
  9
$DIMTSZ
 40
0.0
  9
$DIMTOL
 70
     0
  9
$DIMLIM
 70
     0
  9
$DIMTIH
 70
     1
  9
$DIMTOH
 70
     1
  9
$DIMSE1
 70
     0
  9
$DIMSE2
 70
     0
  9
$DIMTAD
 70
     0
  9
$DIMZIN
 70
     0
  9
$DIMBLK
  1

  9
$DIMASO
 70
     1
  9
$DIMSHO
 70
     1
  9
$DIMPOST
  1

  9
$DIMAPOST
  1

  9
$DIMALT
 70
     0
  9
$DIMALTD
 70
     2
  9
$DIMALTF
 40
25.4
  9
$DIMLFAC
 40
1.0
  9
$DIMTOFL
 70
     0
  9
$DIMTVP
 40
0.0
  9
$DIMTIX
 70
     0
  9
$DIMSOXD
 70
     0
  9
$DIMSAH
 70
     0
  9
$DIMBLK1
  1

  9
$DIMBLK2
  1

  9
$DIMSTYLE
  2
Standard
  9
$DIMCLRD
 70
     0
  9
$DIMCLRE
 70
     0
  9
$DIMCLRT
 70
     0
  9
$DIMTFAC
 40
1.0
  9
$DIMGAP
 40
0.09
  9
$DIMJUST
 70
     0
  9
$DIMSD1
 70
     0
  9
$DIMSD2
 70
     0
  9
$DIMTOLJ
 70
     1
  9
$DIMTZIN
 70
     0
  9
$DIMALTZ
 70
     0
  9
$DIMALTTZ
 70
     0
  9
$DIMUPT
 70
     0
  9
$DIMDEC
 70
     4
  9
$DIMTDEC
 70
     4
  9
$DIMALTU
 70
     2
  9
$DIMALTTD
 70
     2
  9
$DIMTXSTY
  7
Standard
  9
$DIMAUNIT
 70
     0
  9
$DIMADEC
 70
     0
  9
$DIMALTRND
 40
0.0
  9
$DIMAZIN
 70
     0
  9
$DIMDSEP
 70
    46
  9
$DIMATFIT
 70
     3
  9
$DIMFRAC
 70
     0
  9
$DIMLDRBLK
  1

  9
$DIMLUNIT
 70
     2
  9
$DIMLWD
 70
    -2
  9
$DIMLWE
 70
    -2
  9
$DIMTMOVE
 70
     0
  9
$DIMFXL
 40
1.0
  9
$DIMFXLON
 70
     0
  9
$DIMJOGANG
 40
0.7853981633974483
  9
$DIMTFILL
 70
     0
  9
$DIMTFILLCLR
 70
     0
  9
$DIMARCSYM
 70
     0
  9
$DIMLTYPE
  6

  9
$DIMLTEX1
  6

  9
$DIMLTEX2
  6

  9
$DIMTXTDIRECTION
 70
     0
  9
$LUNITS
 70
     2
  9
$LUPREC
 70
     4
  9
$SKETCHINC
 40
0.1
  9
$FILLETRAD
 40
0.5
  9
$AUNITS
 70
     0
  9
$AUPREC
 70
     0
  9
$MENU
  1
.
  9
$ELEVATION
 40
0.0
  9
$PELEVATION
 40
0.0
  9
$THICKNESS
 40
0.0
  9
$LIMCHECK
 70
     0
  9
$CHAMFERA
 40
0.0
  9
$CHAMFERB
 40
0.0
  9
$CHAMFERC
 40
0.0
  9
$CHAMFERD
 40
0.0
  9
$SKPOLY
 70
     0
  9
$TDCREATE
 40
2458168.892361308
  9
$TDUCREATE
 40
2458168.850694641
  9
$TDUPDATE
 40
2458168.892361308
  9
$TDUUPDATE
 40
2458168.850694641
  9
$TDINDWG
 40
0.0000000116
  9
$TDUSRTIMER
 40
0.0000000116
  9
$USRTIMER
 70
     1
  9
$ANGBASE
 50
0.0
  9
$ANGDIR
 70
     0
  9
$PDMODE
 70
     0
  9
$PDSIZE
 40
0.0
  9
$PLINEWID
 40
0.0
  9
$SPLFRAME
 70
     0
  9
$SPLINETYPE
 70
     6
  9
$SPLINESEGS
 70
     8
  9
$HANDSEED
  5
147
  9
$SURFTAB1
 70
     6
  9
$SURFTAB2
 70
     6
  9
$SURFTYPE
 70
     6
  9
$SURFU
 70
     6
  9
$SURFV
 70
     6
  9
$UCSBASE
  2

  9
$UCSNAME
  2

  9
$UCSORG
 10
0.0
 20
0.0
 30
0.0
  9
$UCSXDIR
 10
1.0
 20
0.0
 30
0.0
  9
$UCSYDIR
 10
0.0
 20
1.0
 30
0.0
  9
$UCSORTHOREF
  2

  9
$UCSORTHOVIEW
 70
     0
  9
$UCSORGTOP
 10
0.0
 20
0.0
 30
0.0
  9
$UCSORGBOTTOM
 10
0.0
 20
0.0
 30
0.0
  9
$UCSORGLEFT
 10
0.0
 20
0.0
 30
0.0
  9
$UCSORGRIGHT
 10
0.0
 20
0.0
 30
0.0
  9
$UCSORGFRONT
 10
0.0
 20
0.0
 30
0.0
  9
$UCSORGBACK
 10
0.0
 20
0.0
 30
0.0
  9
$PUCSBASE
  2

  9
$PUCSNAME
  2

  9
$PUCSORG
 10
0.0
 20
0.0
 30
0.0
  9
$PUCSXDIR
 10
1.0
 20
0.0
 30
0.0
  9
$PUCSYDIR
 10
0.0
 20
1.0
 30
0.0
  9
$PUCSORTHOREF
  2

  9
$PUCSORTHOVIEW
 70
     0
  9
$PUCSORGTOP
 10
0.0
 20
0.0
 30
0.0
  9
$PUCSORGBOTTOM
 10
0.0
 20
0.0
 30
0.0
  9
$PUCSORGLEFT
 10
0.0
 20
0.0
 30
0.0
  9
$PUCSORGRIGHT
 10
0.0
 20
0.0
 30
0.0
  9
$PUCSORGFRONT
 10
0.0
 20
0.0
 30
0.0
  9
$PUCSORGBACK
 10
0.0
 20
0.0
 30
0.0
  9
$USERI1
 70
     0
  9
$USERI2
 70
     0
  9
$USERI3
 70
     0
  9
$USERI4
 70
     0
  9
$USERI5
 70
     0
  9
$USERR1
 40
0.0
  9
$USERR2
 40
0.0
  9
$USERR3
 40
0.0
  9
$USERR4
 40
0.0
  9
$USERR5
 40
0.0
  9
$WORLDVIEW
 70
     1
  9
$SHADEDGE
 70
     3
  9
$SHADEDIF
 70
    70
  9
$TILEMODE
 70
     1
  9
$MAXACTVP
 70
    64
  9
$PINSBASE
 10
0.0
 20
0.0
 30
0.0
  9
$PLIMCHECK
 70
     0
  9
$PEXTMIN
 10
1.000000000000000E+20
 20
1.000000000000000E+20
 30
1.000000000000000E+20
  9
$PEXTMAX
 10
-1.000000000000000E+20
 20
-1.000000000000000E+20
 30
-1.000000000000000E+20
  9
$PLIMMIN
 10
0.0
 20
0.0
  9
$PLIMMAX
 10
12.0
 20
9.0
  9
$UNITMODE
 70
     0
  9
$VISRETAIN
 70
     1
  9
$PLINEGEN
 70
     0
  9
$PSLTSCALE
 70
     1
  9
$TREEDEPTH
 70
  3020
  9
$CMLSTYLE
  2
Standard
  9
$CMLJUST
 70
     0
  9
$CMLSCALE
 40
1.0
  9
$PROXYGRAPHICS
 70
     1
  9
$MEASUREMENT
 70
     0
  9
$CELWEIGHT
370
    -1
  9
$ENDCAPS
280
     0
  9
$JOINSTYLE
280
     0
  9
$LWDISPLAY
290
     0
  9
$INSUNITS
 70
     1
  9
$HYPERLINKBASE
  1

  9
$STYLESHEET
  1

  9
$XEDIT
290
     1
  9
$CEPSNTYPE
380
     0
  9
$PSTYLEMODE
290
     1
  9
$FINGERPRINTGUID
  2
{CDE28516-99FC-4888-91BC-B4397B00EB90}
  9
$VERSIONGUID
  2
{FAEB1C32-E019-11D5-929B-00C0DF256EC4}
  9
$EXTNAMES
290
     1
  9
$PSVPSCALE
 40
0.0
  9
$OLESTARTUP
290
     0
  9
$SORTENTS
280
   127
  9
$INDEXCTL
280
     0
  9
$HIDETEXT
280
     1
  9
$XCLIPFRAME
280
     2
  9
$HALOGAP
280
     0
  9
$OBSCOLOR
 70
   257
  9
$OBSLTYPE
280
     0
  9
$INTERSECTIONDISPLAY
280
     0
  9
$INTERSECTIONCOLOR
 70
   257
  9
$DIMASSOC
280
     2
  9
$PROJECTNAME
  1

  9
$CAMERADISPLAY
290
     0
  9
$LENSLENGTH
 40
50.0
  9
$CAMERAHEIGHT
 40
0.0
  9
$STEPSPERSEC
 40
2.0
  9
$STEPSIZE
 40
6.0
  9
$3DDWFPREC
 40
2.0
  9
$PSOLWIDTH
 40
0.25
  9
$PSOLHEIGHT
 40
4.0
  9
$LOFTANG1
 40
1.570796326794897
  9
$LOFTANG2
 40
1.570796326794897
  9
$LOFTMAG1
 40
0.0
  9
$LOFTMAG2
 40
0.0
  9
$LOFTPARAM
 70
     7
  9
$LOFTNORMALS
280
     1
  9
$LATITUDE
 40
37.795
  9
$LONGITUDE
 40
-122.394
  9
$NORTHDIRECTION
 40
0.0
  9
$TIMEZONE
 70
 -8000
  9
$LIGHTGLYPHDISPLAY
280
     1
  9
$TILEMODELIGHTSYNCH
280
     1
  9
$CMATERIAL
347
44
  9
$SOLIDHIST
280
     0
  9
$SHOWHIST
280
     1
  9
$DWFFRAME
280
     2
  9
$DGNFRAME
280
     2
  9
$REALWORLDSCALE
290
     1
  9
$INTERFERECOLOR
 62
   256
  9
$CSHADOW
280
     0
  9
$SHADOWPLANELOCATION
 40
0.0
  0
ENDSEC
  0
SECTION
  2
CLASSES
  0
CLASS
  1
ACDBDICTIONARYWDFLT
  2
AcDbDictionaryWithDefault
  3
ObjectDBX Classes
 90
        0
 91
        4
280
     0
281
     0
  0
CLASS
  1
VISUALSTYLE
  2
AcDbVisualStyle
  3
ObjectDBX Classes
 90
     4095
 91
        4
280
     0
281
     0
  0
CLASS
  1
MATERIAL
  2
AcDbMaterial
  3
ObjectDBX Classes
 90
     1153
 91
        4
280
     0
281
     0
  0
CLASS
  1
SCALE
  2
AcDbScale
  3
ObjectDBX Classes
 90
     1153
 91
        4
280
     0
281
     0
  0
CLASS
  1
TABLESTYLE
  2
AcDbTableStyle
  3
ObjectDBX Classes
 90
     4095
 91
        4
280
     0
281
     0
  0
CLASS
  1
MLEADERSTYLE
  2
AcDbMLeaderStyle
  3
ACDB_MLEADERSTYLE_CLASS
 90
     4095
 91
        4
280
     0
281
     0
  0
CLASS
  1
SUN
  2
AcDbSun
  3
SCENEOE
 90
     1153
 91
        4
280
     0
281
     0
  0
CLASS
  1
DICTIONARYVAR
  2
AcDbDictionaryVar
  3
ObjectDBX Classes
 90
        0
 91
        4
280
     0
281
     0
  0
CLASS
  1
CELLSTYLEMAP
  2
AcDbCellStyleMap
  3
ObjectDBX Classes
 90
     1152
 91
        4
280
     0
281
     0
  0
ENDSEC
  0
SECTION
  2
TABLES
  0
TABLE
  2
VPORT
  5
8
330
0
100
AcDbSymbolTable
 70
     1
  0
VPORT
  5
29
330
8
100
AcDbSymbolTableRecord
100
AcDbViewportTableRecord
  2
*Active
 70
     0
 10
0.0
 20
0.0
 11
1.0
 21
1.0
 12
4.821428571428571
 22
-3.56
 13
0.0
 23
0.0
 14
0.5
 24
0.5
 15
0.5
 25
0.5
 16
0.0
 26
0.0
 36
1.0
 17
0.0
 27
0.0
 37
0.0
 40
10.71
 41
1.182176870748299
 42
50.0
 43
0.0
 44
0.0
 50
0.0
 51
0.0
 71
     0
 72
   100
 73
     1
 74
     3
 75
     0
 76
     0
 77
     0
 78
     0
281
     0
 65
     1
110
0.0
120
0.0
130
0.0
111
1.0
121
0.0
131
0.0
112
0.0
122
1.0
132
0.0
 79
     0
146
0.0
348
2F
 60
     3
 61
     5
292
     1
282
     1
141
0.0
142
0.0
 63
   250
361
6D
  0
ENDTAB
  0
TABLE
  2
LTYPE
  5
5
330
0
100
AcDbSymbolTable
 70
     3
  0
LTYPE
  5
14
330
5
100
AcDbSymbolTableRecord
100
AcDbLinetypeTableRecord
  2
ByBlock
 70
     0
  3

 72
    65
 73
     0
 40
0.0
  0
LTYPE
  5
15
330
5
100
AcDbSymbolTableRecord
100
AcDbLinetypeTableRecord
  2
ByLayer
 70
     0
  3

 72
    65
 73
     0
 40
0.0
  0
LTYPE
  5
16
330
5
100
AcDbSymbolTableRecord
100
AcDbLinetypeTableRecord
  2
Continuous
 70
     0
  3
Solid line
 72
    65
 73
     0
 40
0.0
  0
LTYPE
  5
96
330
5
100
AcDbSymbolTableRecord
100
AcDbLinetypeTableRecord
  2
Dashed
 70
     0
  3

 72
    65
 73
     2
 40
2.0
 49
1.0
 74
     0
 49
-1.0
 74
     0
  0
LTYPE
  5
A4
330
5
100
AcDbSymbolTableRecord
100
AcDbLinetypeTableRecord
  2
Center
 70
     0
  3

 72
    65
 73
     4
 40
1.5
 49
0.45
 74
     0
 49
-0.5
 74
     0
 49
0.05
 74
     0
 49
-0.5
 74
     0
  0
ENDTAB
  0
TABLE
  2
LAYER
  5
2
330
0
100
AcDbSymbolTable
 70
     8
  0
LAYER
  5
10
330
2
100
AcDbSymbolTableRecord
100
AcDbLayerTableRecord
  2
0
 70
     0
 62
     7
  6
Continuous
370
    -3
390
F
347
46
348
0
  0
LAYER
  5
6E
330
2
100
AcDbSymbolTableRecord
100
AcDbLayerTableRecord
  2
AM_6
 70
     0
 62
    -2
  6
Continuous
370
    35
390
F
347
46
348
0
  0
LAYER
  5
97
330
2
100
AcDbSymbolTableRecord
100
AcDbLayerTableRecord
  2
AM_9
 70
     0
 62
     6
  6
Dashed
370
    25
390
F
347
46
348
0
  0
LAYER
  5
9E
330
2
100
AcDbSymbolTableRecord
100
AcDbLayerTableRecord
  2
AM_5
 70
     0
 62
     3
  6
Continuous
370
    25
390
F
347
46
348
0
  0
LAYER
  5
A5
330
2
100
AcDbSymbolTableRecord
100
AcDbLayerTableRecord
  2
AM_7
 70
     0
 62
     7
  6
Center
370
    25
390
F
347
46
348
0
  0
LAYER
  5
A7
330
2
100
AcDbSymbolTableRecord
100
AcDbLayerTableRecord
  2
AM_0
 70
     0
 62
     7
  6
Continuous
370
    50
390
F
347
46
348
0
  0
LAYER
  5
AF
330
2
100
AcDbSymbolTableRecord
100
AcDbLayerTableRecord
  2
AM_4
 70
     0
 62
     3
  6
Continuous
370
    25
390
F
347
46
348
0
  0
LAYER
  5
139
330
2
100
AcDbSymbolTableRecord
100
AcDbLayerTableRecord
  2
ConnectionPoints
 70
     0
 62
     7
  6
Continuous
370
    50
390
F
347
46
348
0
  0
ENDTAB
  0
TABLE
  2
STYLE
  5
3
330
0
100
AcDbSymbolTable
 70
     1
  0
STYLE
  5
11
330
3
100
AcDbSymbolTableRecord
100
AcDbTextStyleTableRecord
  2
Standard
 70
     0
 40
0.0
 41
1.0
 50
0.0
 71
     0
 42
0.2
  3
txt
  4

  0
ENDTAB
  0
TABLE
  2
VIEW
  5
6
330
0
100
AcDbSymbolTable
 70
     0
  0
ENDTAB
  0
TABLE
  2
UCS
  5
7
330
0
100
AcDbSymbolTable
 70
     0
  0
ENDTAB
  0
TABLE
  2
APPID
  5
9
330
0
100
AcDbSymbolTable
 70
     1
  0
APPID
  5
12
330
9
100
AcDbSymbolTableRecord
100
AcDbRegAppTableRecord
  2
ACAD
 70
     0
  0
ENDTAB
  0
TABLE
  2
DIMSTYLE
  5
A
330
0
100
AcDbSymbolTable
 70
     1
100
AcDbDimStyleTable
  0
DIMSTYLE
105
27
330
A
100
AcDbSymbolTableRecord
100
AcDbDimStyleTableRecord
  2
Standard
 70
     0
178
     0
340
11
  0
ENDTAB
  0
TABLE
  2
BLOCK_RECORD
  5
1
330
0
100
AcDbSymbolTable
 70
     4
  0
BLOCK_RECORD
  5
1F
330
1
100
AcDbSymbolTableRecord
100
AcDbBlockTableRecord
  2
*Model_Space
340
22
 70
     0
280
     1
281
     0
  0
BLOCK_RECORD
  5
1B
330
1
100
AcDbSymbolTableRecord
100
AcDbBlockTableRecord
  2
*Paper_Space
340
1E
 70
     0
280
     1
281
     0
  0
BLOCK_RECORD
  5
23
330
1
100
AcDbSymbolTableRecord
100
AcDbBlockTableRecord
  2
*Paper_Space0
340
26
 70
     0
280
     1
281
     0
  0
BLOCK_RECORD
  5
84
330
1
100
AcDbSymbolTableRecord
100
AcDbBlockTableRecord
  2
1_405020c_Inch_0_in_136784_0
340
0
102
{BLKREFS
331
85
102
}
 70
     0
280
     1
281
     0
  0
BLOCK_RECORD
  5
C7
330
1
100
AcDbSymbolTableRecord
100
AcDbBlockTableRecord
  2
2_127818_0_in_136784_0
340
0
102
{BLKREFS
331
C8
102
}
 70
     0
280
     1
281
     0
  0
BLOCK_RECORD
  5
F6
330
1
100
AcDbSymbolTableRecord
100
AcDbBlockTableRecord
  2
3_136784H_0_in_136784_0
340
0
102
{BLKREFS
331
F7
102
}
 70
     0
280
     1
281
     0
  0
ENDTAB
  0
ENDSEC
  0
SECTION
  2
BLOCKS
  0
BLOCK
  5
20
330
1F
100
AcDbEntity
  8
0
100
AcDbBlockBegin
  2
*Model_Space
 70
     0
 10
0.0
 20
0.0
 30
0.0
  3
*Model_Space
  1

  0
ENDBLK
  5
21
330
1F
100
AcDbEntity
  8
0
100
AcDbBlockEnd
  0
BLOCK
  5
1C
330
1B
100
AcDbEntity
 67
     1
  8
0
100
AcDbBlockBegin
  2
*Paper_Space
 70
     0
 10
0.0
 20
0.0
 30
0.0
  3
*Paper_Space
  1

  0
ENDBLK
  5
1D
330
1B
100
AcDbEntity
 67
     1
  8
0
100
AcDbBlockEnd
  0
BLOCK
  5
24
330
23
100
AcDbEntity
  8
0
100
AcDbBlockBegin
  2
*Paper_Space0
 70
     0
 10
0.0
 20
0.0
 30
0.0
  3
*Paper_Space0
  1

  0
ENDBLK
  5
25
330
23
100
AcDbEntity
  8
0
100
AcDbBlockEnd
  0
BLOCK
  5
86
330
84
100
AcDbEntity
  8
0
100
AcDbBlockBegin
  2
1_405020c_Inch_0_in_136784_0
 70
     2
 10
0.0
 20
0.0
 30
0.0
  3
1_405020c_Inch_0_in_136784_0
  1

  0
ATTDEF
  5
88
330
84
100
AcDbEntity
  8
AM_6
100
AcDbText
 10
6.01110177728465
 20
1.01110177728465
 30
0.0
 40
0.5
  1
405020C -Inch
100
AcDbAttributeDefinition
  3

  2
NN
 70
     8
280
     0
  0
ATTDEF
  5
89
330
84
100
AcDbEntity
  8
AM_6
100
AcDbText
 10
6.01110177728465
 20
0.51110177728465
 30
0.0
 40
0.5
  1
Grease fitting
100
AcDbAttributeDefinition
  3

  2
NT
 70
     8
280
     0
  0
ATTDEF
  5
8A
330
84
100
AcDbEntity
  8
AM_6
100
AcDbText
 10
6.01110177728465
 20
0.01110177728465
 30
0.0
 40
0.5
  1
405020c-Inch
100
AcDbAttributeDefinition
  3

  2
NB
 70
     8
280
     0
  0
ATTDEF
  5
8B
330
84
100
AcDbEntity
  8
AM_6
100
AcDbText
 10
6.01110177728465
 20
-0.48889822271535
 30
0.0
 40
0.5
  1
$MN.-Inch
100
AcDbAttributeDefinition
  3

  2
NBSYN
 70
     8
280
     0
  0
ATTDEF
  5
8C
330
84
100
AcDbEntity
  8
AM_6
100
AcDbText
 10
6.01110177728465
 20
-0.98889822271535
 30
0.0
 40
0.5
  1
405020c
100
AcDbAttributeDefinition
  3

  2
LINA
 70
     8
280
     0
  0
ATTDEF
  5
8D
330
84
100
AcDbEntity
  8
AM_6
100
AcDbText
 10
6.01110177728465
 20
-1.48889822271535
 30
0.0
 40
0.5
  1
405020c
100
AcDbAttributeDefinition
  3

  2
MN
 70
     8
280
     0
  0
ATTDEF
  5
8E
330
84
100
AcDbEntity
  8
AM_6
100
AcDbText
 10
6.01110177728465
 20
-1.98889822271535
 30
0.0
 40
0.5
  1
0.230
100
AcDbAttributeDefinition
  3

  2
NDR
 70
     8
280
     0
  0
ATTDEF
  5
8F
330
84
100
AcDbEntity
  8
AM_6
100
AcDbText
 10
6.01110177728465
 20
-2.48889822271535
 30
0.0
 40
0.5
  1
0.210
100
AcDbAttributeDefinition
  3

  2
KDR
 70
     8
280
     0
  0
ATTDEF
  5
90
330
84
100
AcDbEntity
  8
AM_6
100
AcDbText
 10
6.01110177728465
 20
-2.98889822271535
 30
0.0
 40
0.5
  1
0.157
100
AcDbAttributeDefinition
  3

  2
BZE
 70
     8
280
     0
  0
ATTDEF
  5
91
330
84
100
AcDbEntity
  8
AM_6
100
AcDbText
 10
6.01110177728465
 20
-3.48889822271535
 30
0.0
 40
0.5
  1
9/32
100
AcDbAttributeDefinition
  3

  2
WAF
 70
     8
280
     0
  0
ATTDEF
  5
92
330
84
100
AcDbEntity
  8
AM_6
100
AcDbText
 10
6.01110177728465
 20
-3.98889822271535
 30
0.0
 40
0.5
  1
0.2813
100
AcDbAttributeDefinition
  3

  2
WAF1
 70
     8
280
     0
  0
ATTDEF
  5
93
330
84
100
AcDbEntity
  8
AM_6
100
AcDbText
 10
6.01110177728465
 20
-4.48889822271535
 30
0.0
 40
0.5
  1
0.545
100
AcDbAttributeDefinition
  3

  2
BL
 70
     8
280
     0
  0
ATTDEF
  5
94
330
84
100
AcDbEntity
  8
AM_6
100
AcDbText
 10
6.01110177728465
 20
-4.98889822271535
 30
0.0
 40
0.5
  1
0.200
100
AcDbAttributeDefinition
  3

  2
TL
 70
     8
280
     0
  0
ATTDEF
  5
95
330
84
100
AcDbEntity
  8
AM_6
100
AcDbText
 10
6.01110177728465
 20
-5.48889822271535
 30
0.0
 40
0.5
  1
baldor
100
AcDbAttributeDefinition
  3

  2
COMPANY
 70
     8
280
     0
  0
LINE
  5
98
330
84
100
AcDbEntity
  8
AM_9
 48
0.0015158235414826
100
AcDbLine
 10
0.6320549815265126
 20
0.4905082938597561
 30
0.0
 11
0.4905082938597562
 21
0.6320549815265125
 31
0.0
  0
LINE
  5
99
330
84
100
AcDbEntity
  8
AM_9
 48
0.0015158235414826
100
AcDbLine
 10
0.6320549815265126
 20
0.4905082938597561
 30
0.0
 11
0.646660465684084
 21
0.4905082938597561
 31
0.0
  0
LINE
  5
9A
330
84
100
AcDbEntity
  8
AM_9
 48
0.0015158235414826
100
AcDbLine
 10
0.4905082938597562
 20
0.6466604656840839
 30
0.0
 11
0.4905082938597562
 21
0.6320549815265125
 31
0.0
  0
LINE
  5
9B
330
84
100
AcDbEntity
  8
AM_9
 48
0.0015158235414826
100
AcDbLine
 10
0.646660465684084
 20
0.4905082938597561
 30
0.0
 11
0.4905082938597562
 21
0.6466604656840839
 31
0.0
  0
LINE
  5
9C
330
84
100
AcDbEntity
  8
AM_9
 48
0.0015158235414826
100
AcDbLine
 10
0.646660465684084
 20
0.4905082938597561
 30
0.0
 11
0.784970495988654
 21
0.6204354918722338
 31
0.0
  0
LINE
  5
9D
330
84
100
AcDbEntity
  8
AM_9
 48
0.0015158235414826
100
AcDbLine
 10
0.6204354918722339
 20
0.7849704959886539
 30
0.0
 11
0.4905082938597562
 21
0.6466604656840839
 31
0.0
  0
LINE
  5
9F
330
84
100
AcDbEntity
  8
AM_5
 48
0.0015158235414826
100
AcDbLine
 10
0.6149602107080264
 20
0.7645364684981089
 30
0.0
 11
0.5765197942893902
 21
0.7236158972773604
 31
0.0
  0
LINE
  5
A0
330
84
100
AcDbEntity
  8
AM_5
 48
0.0015158235414826
100
AcDbLine
 10
0.6204354918722335
 20
0.784970495988652
 30
0.0
 11
0.614960210708027
 21
0.7645364684981082
 31
0.0
  0
LINE
  5
A1
330
84
100
AcDbEntity
  8
AM_5
 48
0.0015158235414826
100
AcDbLine
 10
0.7716109884822119
 20
0.6078856907239251
 30
0.0
 11
0.6078856907239267
 21
0.7716109884822102
 31
0.0
  0
LINE
  5
A2
330
84
100
AcDbEntity
  8
AM_5
 48
0.0015158235414826
100
AcDbLine
 10
0.764536468498109
 20
0.6149602107080262
 30
0.0
 11
0.7236158972773606
 21
0.5765197942893899
 31
0.0
  0
LINE
  5
A3
330
84
100
AcDbEntity
  8
AM_5
 48
0.0015158235414826
100
AcDbLine
 10
0.7849704959886534
 20
0.6204354918722336
 30
0.0
 11
0.7645364684981093
 21
0.614960210708027
 31
0.0
  0
LINE
  5
A6
330
84
100
AcDbEntity
  8
AM_7
 48
0.0015158235414826
100
AcDbLine
 10
0.9659234932271362
 20
0.9659234932271361
 30
0.0
 11
0.5420129779058009
 21
0.5420129779058008
 31
0.0
  0
LINE
  5
A8
330
84
100
AcDbEntity
  8
AM_0
 48
0.0015158235414826
100
AcDbLine
 10
1.003793607855975
 20
0.8895160590236302
 30
0.0
 11
0.8895160590236304
 21
1.003793607855975
 31
0.0
  0
ARC
  5
A9
330
84
100
AcDbEntity
  8
AM_0
 48
0.0015158235414826
100
AcDbCircle
 10
0.8718383894939667
 20
0.986115938326312
 30
0.0
 40
0.0249999999999997
100
AcDbArc
 50
44.99999999999946
 51
112.0000000000006
  0
ARC
  5
AA
330
84
100
AcDbEntity
  8
AM_0
 48
0.0015158235414826
100
AcDbCircle
 10
0.9861159383263106
 20
0.8718383894939661
 30
0.0
 40
0.025000000000001
100
AcDbArc
 50
338.0000000000014
 51
44.99999999999874
  0
ARC
  5
AB
330
84
100
AcDbEntity
  8
AM_0
 48
0.0015158235414826
100
AcDbCircle
 10
0.6946828230067232
 20
0.8992980147834347
 30
0.0
 40
0.0499999999999999
100
AcDbArc
 50
270.0000000000001
 51
340.0000000000001
  0
ARC
  5
AC
330
84
100
AcDbEntity
  8
AM_0
 48
0.0015158235414826
100
AcDbCircle
 10
0.8992980147834352
 20
0.6946828230067229
 30
0.0
 40
0.0500000000000002
100
AcDbArc
 50
110.0000000000001
 51
179.9999999999997
  0
LINE
  5
AD
330
84
100
AcDbEntity
  8
AM_0
 48
0.0015158235414826
100
AcDbLine
 10
0.8021575627043318
 20
0.6032484251565559
 30
0.0
 11
0.8492980147834349
 21
0.650388877235659
 31
0.0
  0
LINE
  5
AE
330
84
100
AcDbEntity
  8
AM_0
 48
0.0015158235414826
100
AcDbLine
 10
0.6503888772356593
 20
0.8492980147834348
 30
0.0
 11
0.6032484251565561
 21
0.8021575627043318
 31
0.0
  0
LINE
  5
B0
330
84
100
AcDbEntity
  8
AM_4
 48
0.0015158235414826
100
AcDbLine
 10
0.8821970076171516
 20
0.7416674540460185
 30
0.0
 11
0.7416674540460189
 21
0.8821970076171515
 31
0.0
  0
LINE
  5
B1
330
84
100
AcDbEntity
  8
AM_0
 48
0.0015158235414826
100
AcDbLine
 10
0.8821970076171516
 20
0.7416674540460185
 30
0.0
 11
0.9530656050253309
 21
0.7674615140467906
 31
0.0
  0
LINE
  5
B2
330
84
100
AcDbEntity
  8
AM_0
 48
0.0015158235414826
100
AcDbLine
 10
0.7674615140467909
 20
0.9530656050253306
 30
0.0
 11
0.7416674540460189
 21
0.8821970076171515
 31
0.0
  0
LINE
  5
B3
330
84
100
AcDbEntity
  8
AM_4
 48
0.0015158235414826
100
AcDbLine
 10
1.009295534690481
 20
0.8624732246585686
 30
0.0
 11
0.8624732246585688
 21
1.009295534690481
 31
0.0
  0
LINE
  5
B4
330
84
100
AcDbEntity
  8
AM_0
 48
0.0015158235414826
100
AcDbLine
 10
0.8624732246585688
 20
1.009295534690481
 30
0.0
 11
0.7957158154152908
 21
0.9823237905873866
 31
0.0
  0
LINE
  5
B5
330
84
100
AcDbEntity
  8
AM_0
 48
0.0015158235414826
100
AcDbLine
 10
0.9823237905873867
 20
0.7957158154152906
 30
0.0
 11
1.009295534690481
 21
0.8624732246585686
 31
0.0
  0
LINE
  5
B6
330
84
100
AcDbEntity
  8
AM_4
 48
0.0015158235414826
100
AcDbLine
 10
0.9823237905873867
 20
0.7957158154152906
 30
0.0
 11
0.7957158154152908
 21
0.9823237905873866
 31
0.0
  0
LINE
  5
B7
330
84
100
AcDbEntity
  8
AM_4
 48
0.0015158235414826
100
AcDbLine
 10
0.9530656050253309
 20
0.7674615140467906
 30
0.0
 11
0.7674615140467909
 21
0.9530656050253306
 31
0.0
  0
ARC
  5
B8
330
84
100
AcDbEntity
  8
AM_0
 48
0.0015158235414826
100
AcDbCircle
 10
0.8144461450860857
 20
0.9359645978590477
 30
0.0
 40
0.0499999999999993
100
AcDbArc
 50
111.9999999999995
 51
160.0000000000004
  0
ARC
  5
B9
330
84
100
AcDbEntity
  8
AM_0
 48
0.0015158235414826
100
AcDbCircle
 10
0.9359645978590485
 20
0.8144461450860849
 30
0.0
 40
0.0499999999999985
100
AcDbArc
 50
289.9999999999993
 51
338.0000000000008
  0
LINE
  5
BA
330
84
100
AcDbEntity
  8
AM_0
 48
0.0015158235414826
100
AcDbLine
 10
0.8492980147834349
 20
0.650388877235659
 30
0.0
 11
0.6503888772356593
 21
0.8492980147834348
 31
0.0
  0
LINE
  5
BB
330
84
100
AcDbEntity
  8
AM_4
 48
0.0015158235414826
100
AcDbLine
 10
0.8492980147834349
 20
0.6946828230067231
 30
0.0
 11
0.6946828230067233
 21
0.8492980147834348
 31
0.0
  0
LINE
  5
BC
330
84
100
AcDbEntity
  8
AM_0
 48
0.0015158235414826
100
AcDbLine
 10
0.6946828230067233
 20
0.8492980147834348
 30
0.0
 11
0.6503888772356593
 21
0.8492980147834348
 31
0.0
  0
LINE
  5
BD
330
84
100
AcDbEntity
  8
AM_0
 48
0.0015158235414826
100
AcDbLine
 10
0.8492980147834349
 20
0.650388877235659
 30
0.0
 11
0.8492980147834349
 21
0.6946828230067231
 31
0.0
  0
LWPOLYLINE
  5
BE
330
84
100
AcDbEntity
  8
AM_0
 48
0.0015158235414826
100
AcDbPolyline
 90
        3
 70
     0
 43
0.0
 10
0.6529757095434999
 20
0.7524302783173878
 10
0.6292002166249416
 20
0.7783820697857733
 10
0.6073710044372008
 20
0.8062801419849764
  0
LWPOLYLINE
  5
BF
330
84
100
AcDbEntity
  8
AM_0
 48
0.0015158235414826
100
AcDbPolyline
 90
        3
 70
     0
 43
0.0
 10
0.6462662979550144
 20
0.8451754355027902
 10
0.6740429633408631
 20
0.8234484037624983
 10
0.7001161616226032
 20
0.7995707303964908
  0
LWPOLYLINE
  5
C0
330
84
100
AcDbEntity
  8
AM_0
 48
0.0015158235414826
100
AcDbPolyline
 90
        3
 70
     0
 43
0.0
 10
0.7068255732110886
 20
0.7068255732110885
 10
0.67904890782524
 20
0.7285526049513803
 10
0.6529757095434999
 20
0.7524302783173878
  0
LINE
  5
C1
330
84
100
AcDbEntity
  8
AM_0
 48
0.0015158235414826
100
AcDbLine
 10
0.7457208667289025
 20
0.7457208667289023
 30
0.0
 11
0.7068255732110886
 21
0.7068255732110885
 31
0.0
  0
LWPOLYLINE
  5
C2
330
84
100
AcDbEntity
  8
AM_0
 48
0.0015158235414826
100
AcDbPolyline
 90
        3
 70
     0
 43
0.0
 10
0.752430278317388
 20
0.6529757095434998
 10
0.7286547853988294
 20
0.6789275010118854
 10
0.7068255732110886
 20
0.7068255732110885
  0
LWPOLYLINE
  5
C3
330
84
100
AcDbEntity
  8
AM_0
 48
0.0015158235414826
100
AcDbPolyline
 90
        3
 70
     0
 43
0.0
 10
0.8062801419849767
 20
0.6073710044372006
 10
0.778503476599128
 20
0.6290980361774925
 10
0.752430278317388
 20
0.6529757095434998
  0
LWPOLYLINE
  5
C4
330
84
100
AcDbEntity
  8
AM_0
 48
0.0015158235414826
100
AcDbPolyline
 90
        3
 70
     0
 43
0.0
 10
0.7995707303964911
 20
0.700116161622603
 10
0.8233462233150496
 20
0.6741643701542175
 10
0.8451754355027903
 20
0.6462662979550143
  0
LWPOLYLINE
  5
C5
330
84
100
AcDbEntity
  8
AM_0
 48
0.0015158235414826
100
AcDbPolyline
 90
        3
 70
     0
 43
0.0
 10
0.7001161616226032
 20
0.7995707303964908
 10
0.7238916545411616
 20
0.7736189389281054
 10
0.7457208667289025
 20
0.7457208667289023
  0
LWPOLYLINE
  5
C6
330
84
100
AcDbEntity
  8
AM_0
 48
0.0015158235414826
100
AcDbPolyline
 90
        3
 70
     0
 43
0.0
 10
0.7457208667289025
 20
0.7457208667289023
 10
0.773497532114751
 20
0.7239938349886105
 10
0.7995707303964911
 20
0.700116161622603
  0
ENDBLK
  5
87
330
84
100
AcDbEntity
  8
0
100
AcDbBlockEnd
  0
BLOCK
  5
C9
330
C7
100
AcDbEntity
  8
0
100
AcDbBlockBegin
  2
2_127818_0_in_136784_0
 70
     2
 10
0.0
 20
0.0
 30
0.0
  3
2_127818_0_in_136784_0
  1

  0
ATTDEF
  5
CB
330
C7
100
AcDbEntity
  8
AM_6
100
AcDbText
 10
5.917384891961929
 20
0.917384891961929
 30
0.0
 40
0.5
  1
Set Screw Insert Inch Bore - Stainless Steel
100
AcDbAttributeDefinition
  3

  2
NN
 70
     8
280
     0
  0
ATTDEF
  5
CC
330
C7
100
AcDbEntity
  8
AM_6
100
AcDbText
 10
5.917384891961929
 20
0.417384891961929
 30
0.0
 40
0.5
  1
SC Medium Duty Bearing Inserts
100
AcDbAttributeDefinition
  3

  2
NT
 70
     8
280
     0
  0
ATTDEF
  5
CD
330
C7
100
AcDbEntity
  8
AM_6
100
AcDbText
 10
5.917384891961929
 20
-0.082615108038071
 30
0.0
 40
0.5
  1
127818
100
AcDbAttributeDefinition
  3

  2
NB
 70
     8
280
     0
  0
ATTDEF
  5
CE
330
C7
100
AcDbEntity
  8
AM_6
100
AcDbText
 10
5.917384891961929
 20
-0.582615108038071
 30
0.0
 40
0.5
  1
$PN.
100
AcDbAttributeDefinition
  3

  2
NBSYN
 70
     8
280
     0
  0
ATTDEF
  5
CF
330
C7
100
AcDbEntity
  8
AM_6
100
AcDbText
 10
5.917384891961929
 20
-1.082615108038071
 30
0.0
 40
0.5
  1
127818
100
AcDbAttributeDefinition
  3

  2
LINA
 70
     8
280
     0
  0
ATTDEF
  5
D0
330
C7
100
AcDbEntity
  8
AM_6
100
AcDbText
 10
5.917384891961929
 20
-1.582615108038071
 30
0.0
 40
0.5
  1
204
100
AcDbAttributeDefinition
  3

  2
SERIES
 70
     8
280
     0
  0
ATTDEF
  5
D1
330
C7
100
AcDbEntity
  8
AM_6
100
AcDbText
 10
5.917384891961929
 20
-2.082615108038071
 30
0.0
 40
0.5
  1
3/4
100
AcDbAttributeDefinition
  3

  2
SS
 70
     8
280
     0
  0
ATTDEF
  5
D2
330
C7
100
AcDbEntity
  8
AM_6
100
AcDbText
 10
5.917384891961929
 20
-2.582615108038071
 30
0.0
 40
0.5
  1
127818
100
AcDbAttributeDefinition
  3

  2
PN
 70
     8
280
     0
  0
ATTDEF
  5
D3
330
C7
100
AcDbEntity
  8
AM_6
100
AcDbText
 10
5.917384891961929
 20
-3.082615108038071
 30
0.0
 40
0.5
  1
INS-SC-012-SS
100
AcDbAttributeDefinition
  3

  2
DESCRIPTION
 70
     8
280
     0
  0
ATTDEF
  5
D4
330
C7
100
AcDbEntity
  8
AM_6
100
AcDbText
 10
5.917384891961929
 20
-3.582615108038071
 30
0.0
 40
0.5
  1
0.32
100
AcDbAttributeDefinition
  3

  2
WEIGHT
 70
     8
280
     0
  0
ATTDEF
  5
D5
330
C7
100
AcDbEntity
  8
AM_6
100
AcDbText
 10
5.917384891961929
 20
-4.082615108038071
 30
0.0
 40
0.5
  1
1.23
100
AcDbAttributeDefinition
  3

  2
A
 70
     8
280
     0
  0
ATTDEF
  5
D6
330
C7
100
AcDbEntity
  8
AM_6
100
AcDbText
 10
5.917384891961929
 20
-4.582615108038071
 30
0.0
 40
0.5
  1
0.58
100
AcDbAttributeDefinition
  3

  2
C
 70
     8
280
     0
  0
ATTDEF
  5
D7
330
C7
100
AcDbEntity
  8
AM_6
100
AcDbText
 10
5.917384891961929
 20
-5.082615108038071
 30
0.0
 40
0.5
  1
1.8504
100
AcDbAttributeDefinition
  3

  2
D
 70
     8
280
     0
  0
ATTDEF
  5
D8
330
C7
100
AcDbEntity
  8
AM_6
100
AcDbText
 10
5.917384891961929
 20
-5.582615108038071
 30
0.0
 40
0.5
  1
0.15
100
AcDbAttributeDefinition
  3

  2
J
 70
     8
280
     0
  0
ATTDEF
  5
D9
330
C7
100
AcDbEntity
  8
AM_6
100
AcDbText
 10
5.917384891961929
 20
-6.082615108038071
 30
0.0
 40
0.5
  1
1.11
100
AcDbAttributeDefinition
  3

  2
L
 70
     8
280
     0
  0
ATTDEF
  5
DA
330
C7
100
AcDbEntity
  8
AM_6
100
AcDbText
 10
5.917384891961929
 20
-6.582615108038071
 30
0.0
 40
0.5
  1
1/4-28
100
AcDbAttributeDefinition
  3

  2
N
 70
     8
280
     0
  0
ATTDEF
  5
DB
330
C7
100
AcDbEntity
  8
AM_6
100
AcDbText
 10
5.917384891961929
 20
-7.082615108038071
 30
0.0
 40
0.5
  1
0.50
100
AcDbAttributeDefinition
  3

  2
W
 70
     8
280
     0
  0
ATTDEF
  5
DC
330
C7
100
AcDbEntity
  8
AM_6
100
AcDbText
 10
5.917384891961929
 20
-7.582615108038071
 30
0.0
 40
0.5
  1
0.73
100
AcDbAttributeDefinition
  3

  2
Y
 70
     8
280
     0
  0
ATTDEF
  5
DD
330
C7
100
AcDbEntity
  8
AM_6
100
AcDbText
 10
5.917384891961929
 20
-8.082615108038071
 30
0.0
 40
0.5
  1
baldor
100
AcDbAttributeDefinition
  3

  2
COMPANY
 70
     8
280
     0
  0
CIRCLE
  5
DE
330
C7
100
AcDbEntity
  8
AM_9
 48
0.0057281334501149
100
AcDbCircle
 10
0.0
 20
0.0
 30
0.0
 40
0.8752
  0
LINE
  5
DF
330
C7
100
AcDbEntity
  8
AM_9
 48
0.0057281334501149
100
AcDbLine
 10
-0.2867555194158398
 20
0.2417921618841965
 30
0.0
 11
-0.4422921556436716
 21
0.3143200864809027
 31
0.0
  0
LINE
  5
E0
330
C7
100
AcDbEntity
  8
AM_9
 48
0.0057281334501149
100
AcDbLine
 10
-0.5250830731186745
 20
0.136774391000423
 30
0.0
 11
-0.3695249551074491
 21
0.0642364492836095
 31
0.0
  0
LINE
  5
E1
330
C7
100
AcDbEntity
  8
AM_9
 48
0.0057281334501149
100
AcDbLine
 10
0.0979500000000001
 20
0.3620372649154522
 30
0.0
 11
0.0979500000000001
 21
0.5336902333838309
 31
0.0
  0
LINE
  5
E2
330
C7
100
AcDbEntity
  8
AM_9
 48
0.0057281334501149
100
AcDbLine
 10
-0.09795
 20
0.5336902333838309
 30
0.0
 11
-0.09795
 21
0.361981764043439
 31
0.0
  0
LINE
  5
E3
330
C7
100
AcDbEntity
  8
AM_9
 48
0.0057281334501149
100
AcDbLine
 10
-0.09795
 20
0.5336902333838309
 30
0.0
 11
0.0979500000000001
 21
0.5336902333838309
 31
0.0
  0
LINE
  5
E4
330
C7
100
AcDbEntity
  8
AM_9
 48
0.0057281334501149
100
AcDbLine
 10
0.0979500000000001
 20
0.5336902333838309
 30
0.0
 11
0.1084825169541549
 21
0.5442227503379857
 31
0.0
  0
LINE
  5
E5
330
C7
100
AcDbEntity
  8
AM_9
 48
0.0057281334501149
100
AcDbLine
 10
-0.1083721213180111
 20
0.5441123547018419
 30
0.0
 11
-0.0979500000000001
 21
0.5336902333838309
 31
0.0
  0
LINE
  5
E6
330
C7
100
AcDbEntity
  8
AM_9
 48
0.0057281334501149
100
AcDbLine
 10
-0.5250830731186745
 20
0.136774391000423
 30
0.0
 11
-0.4422921556436716
 21
0.3143200864809027
 31
0.0
  0
LINE
  5
E7
330
C7
100
AcDbEntity
  8
AM_9
 48
0.0057281334501149
100
AcDbLine
 10
-0.4422921556436716
 20
0.3143200864809027
 30
0.0
 11
-0.4474018640029169
 21
0.3283588948179278
 31
0.0
  0
LINE
  5
E8
330
C7
100
AcDbEntity
  8
AM_9
 48
0.0057281334501149
100
AcDbLine
 10
-0.5389576198501097
 20
0.1317244689762451
 30
0.0
 11
-0.5250830731186745
 21
0.136774391000423
 31
0.0
  0
LINE
  5
E9
330
C7
100
AcDbEntity
  8
AM_5
 48
0.0057281334501149
100
AcDbLine
 10
-0.3732554737454817
 20
0.0361296459854786
 30
0.0
 11
-0.5429043669973688
 21
0.1152382241063535
 31
0.0
  0
LINE
  5
EA
330
C7
100
AcDbEntity
  8
AM_5
 48
0.0057281334501149
100
AcDbLine
 10
-0.2676009083103068
 20
0.2627065927446411
 30
0.0
 11
-0.4372498015621938
 21
0.3418151708655158
 31
0.0
  0
LINE
  5
EB
330
C7
100
AcDbEntity
  8
AM_5
 48
0.0057281334501149
100
AcDbLine
 10
-0.125
 20
0.3535533905932738
 30
0.0
 11
-0.125
 21
0.5407402333838308
 31
0.0
  0
LINE
  5
EC
330
C7
100
AcDbEntity
  8
AM_5
 48
0.0057281334501149
100
AcDbLine
 10
0.125
 20
0.3535533905932738
 30
0.0
 11
0.1249999999999999
 21
0.5407402333838308
 31
0.0
  0
LINE
  5
ED
330
C7
100
AcDbEntity
  8
AM_7
 48
0.0057281334501149
100
AcDbLine
 10
-0.5184983002571822
 20
0.241779728150274
 30
0.0
 11
-0.2920069750504937
 21
0.1361650887007209
 31
0.0
  0
CIRCLE
  5
EE
330
C7
100
AcDbEntity
  8
AM_0
 48
0.0057281334501149
100
AcDbCircle
 10
0.0
 20
0.0
 30
0.0
 40
0.917384891961929
  0
CIRCLE
  5
EF
330
C7
100
AcDbEntity
  8
AM_0
 48
0.0057281334501149
100
AcDbCircle
 10
0.0
 20
0.0
 30
0.0
 40
0.907521371649175
  0
CIRCLE
  5
F0
330
C7
100
AcDbEntity
  8
AM_4
 48
0.0057281334501149
100
AcDbCircle
 10
0.0
 20
0.0
 30
0.0
 40
0.885318185823121
  0
CIRCLE
  5
F1
330
C7
100
AcDbEntity
  8
AM_4
 48
0.0057281334501149
100
AcDbCircle
 10
0.0
 20
0.0
 30
0.0
 40
0.8566113704592065
  0
CIRCLE
  5
F2
330
C7
100
AcDbEntity
  8
AM_0
 48
0.0057281334501149
100
AcDbCircle
 10
0.0
 20
0.0
 30
0.0
 40
0.3749999999999999
  0
CIRCLE
  5
F3
330
C7
100
AcDbEntity
  8
AM_0
 48
0.0057281334501149
100
AcDbCircle
 10
0.0
 20
0.0
 30
0.0
 40
0.3972
  0
CIRCLE
  5
F4
330
C7
100
AcDbEntity
  8
AM_0
 48
0.0057281334501149
100
AcDbCircle
 10
0.0
 20
0.0
 30
0.0
 40
0.5328
  0
CIRCLE
  5
F5
330
C7
100
AcDbEntity
  8
AM_0
 48
0.0057281334501149
100
AcDbCircle
 10
0.0
 20
0.0
 30
0.0
 40
0.555
  0
ENDBLK
  5
CA
330
C7
100
AcDbEntity
  8
0
100
AcDbBlockEnd
  0
BLOCK
  5
F8
330
F6
100
AcDbEntity
  8
0
100
AcDbBlockBegin
  2
3_136784H_0_in_136784_0
 70
     2
 10
0.0
 20
0.0
 30
0.0
  3
3_136784H_0_in_136784_0
  1

  0
ATTDEF
  5
FA
330
F6
100
AcDbEntity
  8
AM_6
100
AcDbText
 10
6.385
 20
1.19
 30
0.0
 40
0.5
  1
TB-SCEZ-SHSS - Inch - Housing
100
AcDbAttributeDefinition
  3

  2
NN
 70
     8
280
     0
  0
ATTDEF
  5
FB
330
F6
100
AcDbEntity
  8
AM_6
100
AcDbText
 10
6.385
 20
0.69
 30
0.0
 40
0.5
  1
SC Pillow Block Bearings -(Normal Duty) -Corrosion Resistant Insert -Polymer Housed -Tapped Base Housing -E-Z KLEEN
100
AcDbAttributeDefinition
  3

  2
NT
 70
     8
280
     0
  0
ATTDEF
  5
FC
330
F6
100
AcDbEntity
  8
AM_6
100
AcDbText
 10
6.385
 20
0.1899999999999999
 30
0.0
 40
0.5
  1
136784H
100
AcDbAttributeDefinition
  3

  2
NB
 70
     8
280
     0
  0
ATTDEF
  5
FD
330
F6
100
AcDbEntity
  8
AM_6
100
AcDbText
 10
6.385
 20
-0.3100000000000001
 30
0.0
 40
0.5
  1
$PN.H
100
AcDbAttributeDefinition
  3

  2
NBSYN
 70
     8
280
     0
  0
ATTDEF
  5
FE
330
F6
100
AcDbEntity
  8
AM_6
100
AcDbText
 10
6.385
 20
-0.81
 30
0.0
 40
0.5
  1
136784
100
AcDbAttributeDefinition
  3

  2
LINA
 70
     8
280
     0
  0
ATTDEF
  5
FF
330
F6
100
AcDbEntity
  8
AM_6
100
AcDbText
 10
6.385
 20
-1.31
 30
0.0
 40
0.5
  1
204
100
AcDbAttributeDefinition
  3

  2
SERIES
 70
     8
280
     0
  0
ATTDEF
  5
100
330
F6
100
AcDbEntity
  8
AM_6
100
AcDbText
 10
6.385
 20
-1.81
 30
0.0
 40
0.5
  1
3/4
100
AcDbAttributeDefinition
  3

  2
SS
 70
     8
280
     0
  0
ATTDEF
  5
101
330
F6
100
AcDbEntity
  8
AM_6
100
AcDbText
 10
6.385
 20
-2.31
 30
0.0
 40
0.5
  1
136784
100
AcDbAttributeDefinition
  3

  2
PN
 70
     8
280
     0
  0
ATTDEF
  5
102
330
F6
100
AcDbEntity
  8
AM_6
100
AcDbText
 10
6.385
 20
-2.81
 30
0.0
 40
0.5
  1
TB-SCEZ-012-SHSS
100
AcDbAttributeDefinition
  3

  2
DESCRIPTION
 70
     8
280
     0
  0
ATTDEF
  5
103
330
F6
100
AcDbEntity
  8
AM_6
100
AcDbText
 10
6.385
 20
-3.31
 30
0.0
 40
0.5
  1
1.27
100
AcDbAttributeDefinition
  3

  2
W
 70
     8
280
     0
  0
ATTDEF
  5
104
330
F6
100
AcDbEntity
  8
AM_6
100
AcDbText
 10
6.385
 20
-3.81
 30
0.0
 40
0.5
  1
1.23
100
AcDbAttributeDefinition
  3

  2
A
 70
     8
280
     0
  0
ATTDEF
  5
105
330
F6
100
AcDbEntity
  8
AM_6
100
AcDbText
 10
6.385
 20
-4.31
 30
0.0
 40
0.5
  1
2.77
100
AcDbAttributeDefinition
  3

  2
B
 70
     8
280
     0
  0
ATTDEF
  5
106
330
F6
100
AcDbEntity
  8
AM_6
100
AcDbText
 10
6.385
 20
-4.81
 30
0.0
 40
0.5
  1
1.36
100
AcDbAttributeDefinition
  3

  2
C
 70
     8
280
     0
  0
ATTDEF
  5
107
330
F6
100
AcDbEntity
  8
AM_6
100
AcDbText
 10
6.385
 20
-5.31
 30
0.0
 40
0.5
  1
2.00
100
AcDbAttributeDefinition
  3

  2
D
 70
     8
280
     0
  0
ATTDEF
  5
108
330
F6
100
AcDbEntity
  8
AM_6
100
AcDbText
 10
6.385
 20
-5.81
 30
0.0
 40
0.5
  1
2.50
100
AcDbAttributeDefinition
  3

  2
J
 70
     8
280
     0
  0
ATTDEF
  5
109
330
F6
100
AcDbEntity
  8
AM_6
100
AcDbText
 10
6.385
 20
-6.31
 30
0.0
 40
0.5
  1
1.11
100
AcDbAttributeDefinition
  3

  2
L
 70
     8
280
     0
  0
ATTDEF
  5
10A
330
F6
100
AcDbEntity
  8
AM_6
100
AcDbText
 10
6.385
 20
-6.81
 30
0.0
 40
0.5
  1
1.31
100
AcDbAttributeDefinition
  3

  2
M
 70
     8
280
     0
  0
ATTDEF
  5
10B
330
F6
100
AcDbEntity
  8
AM_6
100
AcDbText
 10
6.385
 20
-7.31
 30
0.0
 40
0.5
  1
0.45
100
AcDbAttributeDefinition
  3

  2
N
 70
     8
280
     0
  0
ATTDEF
  5
10C
330
F6
100
AcDbEntity
  8
AM_6
100
AcDbText
 10
6.385
 20
-7.81
 30
0.0
 40
0.5
  1
3/8-16
100
AcDbAttributeDefinition
  3

  2
R
 70
     8
280
     0
  0
ATTDEF
  5
10D
330
F6
100
AcDbEntity
  8
AM_6
100
AcDbText
 10
6.385
 20
-8.31
 30
0.0
 40
0.5
  1
0.73
100
AcDbAttributeDefinition
  3

  2
S
 70
     8
280
     0
  0
ATTDEF
  5
10E
330
F6
100
AcDbEntity
  8
AM_6
100
AcDbText
 10
6.385
 20
-8.81
 30
0.0
 40
0.5
  1
1390
100
AcDbAttributeDefinition
  3

  2
CAPS
 70
     8
280
     0
  0
ATTDEF
  5
10F
330
F6
100
AcDbEntity
  8
AM_6
100
AcDbText
 10
6.385
 20
-9.31
 30
0.0
 40
0.5
  1
2899
100
AcDbAttributeDefinition
  3

  2
CAPD
 70
     8
280
     0
  0
ATTDEF
  5
110
330
F6
100
AcDbEntity
  8
AM_6
100
AcDbText
 10
6.385
 20
-9.81
 30
0.0
 40
0.5
  1
baldor
100
AcDbAttributeDefinition
  3

  2
COMPANY
 70
     8
280
     0
  0
LINE
  5
111
330
F6
100
AcDbEntity
  8
AM_9
 48
0.0086235449523275
100
AcDbLine
 10
-1.15365
 20
-0.8599999999999988
 30
0.0
 11
-1.15365
 21
-1.276150000000003
 31
0.0
  0
LINE
  5
112
330
F6
100
AcDbEntity
  8
AM_9
 48
0.0086235449523275
100
AcDbLine
 10
-0.8463499999999999
 20
-1.276150000000003
 30
0.0
 11
-0.8463499999999999
 21
-0.8599999999999988
 31
0.0
  0
LINE
  5
113
330
F6
100
AcDbEntity
  8
AM_9
 48
0.0086235449523275
100
AcDbLine
 10
1.0
 20
-0.7712901311390141
 30
0.0
 11
0.8463499999999999
 21
-0.8600000000000001
 31
0.0
  0
LINE
  5
114
330
F6
100
AcDbEntity
  8
AM_9
 48
0.0086235449523275
100
AcDbLine
 10
1.15365
 20
-0.8600000000000001
 30
0.0
 11
1.0
 21
-0.7712901311390141
 31
0.0
  0
LINE
  5
115
330
F6
100
AcDbEntity
  8
AM_9
 48
0.0086235449523275
100
AcDbLine
 10
-1.0
 20
-0.7712901311390084
 30
0.0
 11
-1.15365
 21
-0.8599999999999988
 31
0.0
  0
LINE
  5
116
330
F6
100
AcDbEntity
  8
AM_9
 48
0.0086235449523275
100
AcDbLine
 10
-0.8463499999999999
 20
-0.8599999999999988
 30
0.0
 11
-1.0
 21
-0.7712901311390084
 31
0.0
  0
LINE
  5
117
330
F6
100
AcDbEntity
  8
AM_9
 48
0.0086235449523275
100
AcDbLine
 10
-0.8463499999999999
 20
-0.8599999999999988
 30
0.0
 11
-1.15365
 21
-0.8599999999999988
 31
0.0
  0
LINE
  5
118
330
F6
100
AcDbEntity
  8
AM_9
 48
0.0086235449523275
100
AcDbLine
 10
0.8463499999999999
 20
-0.8600000000000001
 30
0.0
 11
1.15365
 21
-0.8600000000000001
 31
0.0
  0
LINE
  5
119
330
F6
100
AcDbEntity
  8
AM_9
 48
0.0086235449523275
100
AcDbLine
 10
1.15365
 20
-1.27615
 30
0.0
 11
1.15365
 21
-0.8600000000000001
 31
0.0
  0
LINE
  5
11A
330
F6
100
AcDbEntity
  8
AM_9
 48
0.0086235449523275
100
AcDbLine
 10
0.8463499999999999
 20
-0.8600000000000001
 30
0.0
 11
0.8463499999999999
 21
-1.27615
 31
0.0
  0
LINE
  5
11B
330
F6
100
AcDbEntity
  8
AM_9
 48
0.0086235449523275
100
AcDbLine
 10
0.8463499999999999
 20
-1.27615
 30
0.0
 11
1.15365
 21
-1.27615
 31
0.0
  0
LINE
  5
11C
330
F6
100
AcDbEntity
  8
AM_9
 48
0.0086235449523275
100
AcDbLine
 10
0.8463499999999999
 20
-1.27615
 30
0.0
 11
0.8125
 21
-1.31
 31
0.0
  0
LINE
  5
11D
330
F6
100
AcDbEntity
  8
AM_9
 48
0.0086235449523275
100
AcDbLine
 10
1.1875
 20
-1.31
 30
0.0
 11
1.15365
 21
-1.27615
 31
0.0
  0
LINE
  5
11E
330
F6
100
AcDbEntity
  8
AM_9
 48
0.0086235449523275
100
AcDbLine
 10
-1.15365
 20
-1.276150000000003
 30
0.0
 11
-1.1875
 21
-1.310000000000004
 31
0.0
  0
LINE
  5
11F
330
F6
100
AcDbEntity
  8
AM_9
 48
0.0086235449523275
100
AcDbLine
 10
-0.8125
 20
-1.310000000000004
 30
0.0
 11
-0.8463499999999999
 21
-1.276150000000003
 31
0.0
  0
LINE
  5
120
330
F6
100
AcDbEntity
  8
AM_9
 48
0.0086235449523275
100
AcDbLine
 10
-0.8463499999999999
 20
-1.276150000000003
 30
0.0
 11
-1.15365
 21
-1.276150000000003
 31
0.0
  0
LINE
  5
121
330
F6
100
AcDbEntity
  8
AM_9
 48
0.0086235449523275
100
AcDbLine
 10
0.8866601885728261
 20
0.3750000000000005
 30
0.0
 11
0.8457955072001743
 21
0.3749999999999999
 31
0.0
  0
LINE
  5
122
330
F6
100
AcDbEntity
  8
AM_9
 48
0.0086235449523275
100
AcDbLine
 10
-0.8457955072001743
 20
0.3749999999999999
 30
0.0
 11
-0.8866601885728264
 21
0.3749999999999997
 31
0.0
  0
LINE
  5
123
330
F6
100
AcDbEntity
  8
AM_9
 48
0.0086235449523275
100
AcDbLine
 10
0.8457955072001743
 20
-0.3749999999999999
 30
0.0
 11
0.8866601885728264
 21
-0.3749999999999999
 31
0.0
  0
LINE
  5
124
330
F6
100
AcDbEntity
  8
AM_9
 48
0.0086235449523275
100
AcDbLine
 10
-0.8866601885728265
 20
-0.3749999999999996
 30
0.0
 11
-0.8457955072001743
 21
-0.3749999999999999
 31
0.0
  0
LINE
  5
125
330
F6
100
AcDbEntity
  8
AM_5
 48
0.0086235449523275
100
AcDbLine
 10
0.8125
 20
-1.31
 30
0.0
 11
0.8125
 21
-0.8600000000000001
 31
0.0
  0
LINE
  5
126
330
F6
100
AcDbEntity
  8
AM_5
 48
0.0086235449523275
100
AcDbLine
 10
0.8463499999999999
 20
-0.8600000000000001
 30
0.0
 11
0.8125
 21
-0.8600000000000001
 31
0.0
  0
LINE
  5
127
330
F6
100
AcDbEntity
  8
AM_5
 48
0.0086235449523275
100
AcDbLine
 10
1.1875
 20
-1.31
 30
0.0
 11
1.1875
 21
-0.8600000000000001
 31
0.0
  0
LINE
  5
128
330
F6
100
AcDbEntity
  8
AM_5
 48
0.0086235449523275
100
AcDbLine
 10
1.15365
 20
-0.8600000000000001
 30
0.0
 11
1.1875
 21
-0.8600000000000001
 31
0.0
  0
LINE
  5
129
330
F6
100
AcDbEntity
  8
AM_5
 48
0.0086235449523275
100
AcDbLine
 10
-0.8125
 20
-1.31
 30
0.0
 11
-0.8125
 21
-0.8599999999999988
 31
0.0
  0
LINE
  5
12A
330
F6
100
AcDbEntity
  8
AM_5
 48
0.0086235449523275
100
AcDbLine
 10
-0.8463499999999999
 20
-0.8599999999999988
 30
0.0
 11
-0.8125
 21
-0.8599999999999988
 31
0.0
  0
LINE
  5
12B
330
F6
100
AcDbEntity
  8
AM_5
 48
0.0086235449523275
100
AcDbLine
 10
-1.1875
 20
-1.31
 30
0.0
 11
-1.1875
 21
-0.8599999999999988
 31
0.0
  0
LINE
  5
12C
330
F6
100
AcDbEntity
  8
AM_5
 48
0.0086235449523275
100
AcDbLine
 10
-1.15365
 20
-0.8599999999999988
 30
0.0
 11
-1.1875
 21
-0.8599999999999988
 31
0.0
  0
LINE
  5
12D
330
F6
100
AcDbEntity
  8
AM_7
 48
0.0086235449523275
100
AcDbLine
 10
-0.9714600000000001
 20
0.0
 30
0.0
 11
0.9714600000000001
 21
0.0
 31
0.0
  0
LINE
  5
12E
330
F6
100
AcDbEntity
  8
AM_7
 48
0.0086235449523275
100
AcDbLine
 10
0.0
 20
-0.9714600000000001
 30
0.0
 11
0.0
 21
0.9714600000000001
 31
0.0
  0
LINE
  5
12F
330
F6
100
AcDbEntity
  8
AM_7
 48
0.0086235449523275
100
AcDbLine
 10
1.0
 20
-0.7443546376959649
 30
0.0
 11
1.0
 21
-1.336935493443049
 31
0.0
  0
LINE
  5
130
330
F6
100
AcDbEntity
  8
AM_7
 48
0.0086235449523275
100
AcDbLine
 10
-1.0
 20
-0.7443546376959586
 30
0.0
 11
-1.0
 21
-1.336935493443054
 31
0.0
  0
CIRCLE
  5
131
330
F6
100
AcDbEntity
  8
AM_0
 48
0.0086235449523275
100
AcDbCircle
 10
0.0
 20
0.0
 30
0.0
 40
0.9252
  0
LINE
  5
132
330
F6
100
AcDbEntity
  8
AM_0
 48
0.0086235449523275
100
AcDbLine
 10
0.94311929953387
 20
0.4622866883270175
 30
0.0
 11
1.385
 21
-1.31
 31
0.0
  0
LINE
  5
133
330
F6
100
AcDbEntity
  8
AM_0
 48
0.0086235449523275
100
AcDbLine
 10
-1.385
 20
-1.31
 30
0.0
 11
1.385
 21
-1.31
 31
0.0
  0
LINE
  5
134
330
F6
100
AcDbEntity
  8
AM_0
 48
0.0086235449523275
100
AcDbLine
 10
-1.385
 20
-1.31
 30
0.0
 11
-0.94311929953387
 21
0.4622866883270187
 31
0.0
  0
LWPOLYLINE
  5
135
330
F6
100
AcDbEntity
  8
AM_0
 48
0.0086235449523275
100
AcDbPolyline
 90
       73
 70
     0
 43
0.0
 10
0.0
 20
0.9627
 10
-0.0839048335431705
 20
0.9590366358529234
 10
-0.1671711006399538
 20
0.9480744238248527
 10
-0.2491650947201967
 20
0.9298967929684859
 10
-0.3292627919796213
 20
0.904642086030594
 10
-0.4068546005777713
 20
0.8725025065801828
 10
-0.48135
 20
0.8337226562232791
 10
-0.5521820352751521
 20
0.7885976730370124
 10
-0.6188116318452314
 20
0.73747098539064
 10
-0.6807316982482893
 20
0.6807316982482893
 10
-0.7374709853906402
 20
0.6188116318452315
 10
-0.7885976730370124
 20
0.552182035275152
 10
-0.833722656223279
 20
0.4813500000000001
 10
-0.8725025065801827
 20
0.4068546005777715
 10
-0.9046420860305939
 20
0.3292627919796215
 10
-0.9298967929684862
 20
0.2491650947201972
 10
-0.9480744238248527
 20
0.1671711006399544
 10
-0.9590366358529234
 20
0.0839048335431711
 10
-0.9627000000000001
 20
0.0000000000000007
 10
-0.9590366358529235
 20
-0.0839048335431697
 10
-0.9480744238248531
 20
-0.167171100639953
 10
-0.9298967929684864
 20
-0.2491650947201958
 10
-0.9046420860305943
 20
-0.3292627919796202
 10
-0.8725025065801832
 20
-0.4068546005777705
 10
-0.8337226562232796
 20
-0.481349999999999
 10
-0.788597673037013
 20
-0.5521820352751511
 10
-0.7374709853906409
 20
-0.6188116318452305
 10
-0.6807316982482903
 20
-0.6807316982482885
 10
-0.6188116318452326
 20
-0.737470985390639
 10
-0.5521820352751534
 20
-0.7885976730370116
 10
-0.4813500000000014
 20
-0.8337226562232783
 10
-0.406854600577773
 20
-0.8725025065801821
 10
-0.329262791979623
 20
-0.9046420860305935
 10
-0.2491650947201987
 20
-0.9298967929684855
 10
-0.1671711006399559
 20
-0.9480744238248523
 10
-0.0839048335431727
 20
-0.9590366358529232
 10
-0.0000000000000023
 20
-0.9627
 10
0.0839048335431682
 20
-0.9590366358529235
 10
0.1671711006399514
 20
-0.9480744238248532
 10
0.2491650947201943
 20
-0.9298967929684867
 10
0.3292627919796188
 20
-0.9046420860305949
 10
0.4068546005777688
 20
-0.872502506580184
 10
0.4813499999999976
 20
-0.8337226562232806
 10
0.5521820352751496
 20
-0.7885976730370142
 10
0.6188116318452291
 20
-0.737470985390642
 10
0.6807316982482872
 20
-0.6807316982482915
 10
0.7374709853906384
 20
-0.6188116318452336
 10
0.7885976730370107
 20
-0.5521820352751545
 10
0.8337226562232775
 20
-0.4813500000000026
 10
0.8725025065801816
 20
-0.4068546005777742
 10
0.9046420860305928
 20
-0.3292627919796243
 10
0.9298967929684853
 20
-0.2491650947201999
 10
0.9480744238248522
 20
-0.1671711006399572
 10
0.9590366358529232
 20
-0.083904833543174
 10
0.9627000000000001
 20
-0.0000000000000036
 10
0.9590366358529239
 20
0.0839048335431668
 10
0.9480744238248534
 20
0.1671711006399501
 10
0.929896792968487
 20
0.249165094720193
 10
0.9046420860305953
 20
0.3292627919796175
 10
0.8725025065801846
 20
0.4068546005777677
 10
0.8337226562232812
 20
0.4813499999999963
 10
0.7885976730370149
 20
0.5521820352751486
 10
0.737470985390643
 20
0.618811631845228
 10
0.6807316982482924
 20
0.6807316982482862
 10
0.618811631845235
 20
0.7374709853906373
 10
0.5521820352751559
 20
0.7885976730370097
 10
0.4813500000000042
 20
0.8337226562232767
 10
0.4068546005777758
 20
0.8725025065801808
 10
0.329262791979626
 20
0.9046420860305924
 10
0.2491650947202017
 20
0.9298967929684846
 10
0.1671711006399589
 20
0.9480744238248519
 10
0.0839048335431758
 20
0.959036635852923
 10
0.0000000000000054
 20
0.9627
  0
LINE
  5
136
330
F6
100
AcDbEntity
  8
AM_0
 48
0.0086235449523275
100
AcDbLine
 10
0.215405987860888
 20
1.19
 30
0.0
 11
0.94311929953387
 21
0.4622866883270175
 31
0.0
  0
LINE
  5
137
330
F6
100
AcDbEntity
  8
AM_0
 48
0.0086235449523275
100
AcDbLine
 10
-0.2154059878608885
 20
1.19
 30
0.0
 11
0.215405987860888
 21
1.19
 31
0.0
  0
LINE
  5
138
330
F6
100
AcDbEntity
  8
AM_0
 48
0.0086235449523275
100
AcDbLine
 10
-0.94311929953387
 20
0.4622866883270187
 30
0.0
 11
-0.2154059878608885
 21
1.19
 31
0.0
  0
ENDBLK
  5
F9
330
F6
100
AcDbEntity
  8
0
100
AcDbBlockEnd
  0
ENDSEC
  0
SECTION
  2
ENTITIES
  0
ATTDEF
  5
6F
330
1F
100
AcDbEntity
  8
AM_6
100
AcDbText
 10
6.385
 20
1.19
 30
0.0
 40
0.5
  1
Set Screw Tapped Base Inch Bore - Stainless Housing, Stainless Steel Insert
100
AcDbAttributeDefinition
  3

  2
NN
 70
     8
280
     0
  0
ATTDEF
  5
70
330
1F
100
AcDbEntity
  8
AM_6
100
AcDbText
 10
6.385
 20
0.69
 30
0.0
 40
0.5
  1
SC Pillow Block Bearings -(Normal Duty) -Corrosion Resistant Insert -Polymer Housed -Tapped Base Housing -E-Z KLEEN
100
AcDbAttributeDefinition
  3

  2
NT
 70
     8
280
     0
  0
ATTDEF
  5
71
330
1F
100
AcDbEntity
  8
AM_6
100
AcDbText
 10
6.385
 20
0.1899999999999999
 30
0.0
 40
0.5
  1
136784
100
AcDbAttributeDefinition
  3

  2
NB
 70
     8
280
     0
  0
ATTDEF
  5
72
330
1F
100
AcDbEntity
  8
AM_6
100
AcDbText
 10
6.385
 20
-0.3100000000000001
 30
0.0
 40
0.5
  1
$PN.
100
AcDbAttributeDefinition
  3

  2
NBSYN
 70
     8
280
     0
  0
ATTDEF
  5
73
330
1F
100
AcDbEntity
  8
AM_6
100
AcDbText
 10
6.385
 20
-0.81
 30
0.0
 40
0.5
  1
136784
100
AcDbAttributeDefinition
  3

  2
LINA
 70
     8
280
     0
  0
ATTDEF
  5
74
330
1F
100
AcDbEntity
  8
AM_6
100
AcDbText
 10
6.385
 20
-1.31
 30
0.0
 40
0.5
  1
204
100
AcDbAttributeDefinition
  3

  2
SERIES
 70
     8
280
     0
  0
ATTDEF
  5
75
330
1F
100
AcDbEntity
  8
AM_6
100
AcDbText
 10
6.385
 20
-1.81
 30
0.0
 40
0.5
  1
3/4
100
AcDbAttributeDefinition
  3

  2
SS
 70
     8
280
     0
  0
ATTDEF
  5
76
330
1F
100
AcDbEntity
  8
AM_6
100
AcDbText
 10
6.385
 20
-2.31
 30
0.0
 40
0.5
  1
136784
100
AcDbAttributeDefinition
  3

  2
PN
 70
     8
280
     0
  0
ATTDEF
  5
77
330
1F
100
AcDbEntity
  8
AM_6
100
AcDbText
 10
6.385
 20
-2.81
 30
0.0
 40
0.5
  1
TB-SCEZ-012-SHSS
100
AcDbAttributeDefinition
  3

  2
DESCRIPTION
 70
     8
280
     0
  0
ATTDEF
  5
78
330
1F
100
AcDbEntity
  8
AM_6
100
AcDbText
 10
6.385
 20
-3.31
 30
0.0
 40
0.5
  1
1.27
100
AcDbAttributeDefinition
  3

  2
W
 70
     8
280
     0
  0
ATTDEF
  5
79
330
1F
100
AcDbEntity
  8
AM_6
100
AcDbText
 10
6.385
 20
-3.81
 30
0.0
 40
0.5
  1
1.23
100
AcDbAttributeDefinition
  3

  2
A
 70
     8
280
     0
  0
ATTDEF
  5
7A
330
1F
100
AcDbEntity
  8
AM_6
100
AcDbText
 10
6.385
 20
-4.31
 30
0.0
 40
0.5
  1
2.77
100
AcDbAttributeDefinition
  3

  2
B
 70
     8
280
     0
  0
ATTDEF
  5
7B
330
1F
100
AcDbEntity
  8
AM_6
100
AcDbText
 10
6.385
 20
-4.81
 30
0.0
 40
0.5
  1
1.36
100
AcDbAttributeDefinition
  3

  2
C
 70
     8
280
     0
  0
ATTDEF
  5
7C
330
1F
100
AcDbEntity
  8
AM_6
100
AcDbText
 10
6.385
 20
-5.31
 30
0.0
 40
0.5
  1
2.00
100
AcDbAttributeDefinition
  3

  2
D
 70
     8
280
     0
  0
ATTDEF
  5
7D
330
1F
100
AcDbEntity
  8
AM_6
100
AcDbText
 10
6.385
 20
-5.81
 30
0.0
 40
0.5
  1
2.50
100
AcDbAttributeDefinition
  3

  2
J
 70
     8
280
     0
  0
ATTDEF
  5
7E
330
1F
100
AcDbEntity
  8
AM_6
100
AcDbText
 10
6.385
 20
-6.31
 30
0.0
 40
0.5
  1
1.11
100
AcDbAttributeDefinition
  3

  2
L
 70
     8
280
     0
  0
ATTDEF
  5
7F
330
1F
100
AcDbEntity
  8
AM_6
100
AcDbText
 10
6.385
 20
-6.81
 30
0.0
 40
0.5
  1
1.31
100
AcDbAttributeDefinition
  3

  2
M
 70
     8
280
     0
  0
ATTDEF
  5
80
330
1F
100
AcDbEntity
  8
AM_6
100
AcDbText
 10
6.385
 20
-7.31
 30
0.0
 40
0.5
  1
0.45
100
AcDbAttributeDefinition
  3

  2
N
 70
     8
280
     0
  0
ATTDEF
  5
81
330
1F
100
AcDbEntity
  8
AM_6
100
AcDbText
 10
6.385
 20
-7.81
 30
0.0
 40
0.5
  1
3/8-16
100
AcDbAttributeDefinition
  3

  2
R
 70
     8
280
     0
  0
ATTDEF
  5
82
330
1F
100
AcDbEntity
  8
AM_6
100
AcDbText
 10
6.385
 20
-8.31
 30
0.0
 40
0.5
  1
0.73
100
AcDbAttributeDefinition
  3

  2
S
 70
     8
280
     0
  0
ATTDEF
  5
83
330
1F
100
AcDbEntity
  8
AM_6
100
AcDbText
 10
6.385
 20
-8.81
 30
0.0
 40
0.5
  1
baldor
100
AcDbAttributeDefinition
  3

  2
COMPANY
 70
     8
280
     0
  0
INSERT
  5
85
330
1F
100
AcDbEntity
  8
0
100
AcDbBlockReference
  2
1_405020c_Inch_0_in_136784_0
 10
0.0
 20
0.0
 30
0.0
  0
INSERT
  5
C8
330
1F
100
AcDbEntity
  8
0
100
AcDbBlockReference
  2
2_127818_0_in_136784_0
 10
0.0
 20
0.0
 30
0.0
  0
INSERT
  5
F7
330
1F
100
AcDbEntity
  8
0
100
AcDbBlockReference
  2
3_136784H_0_in_136784_0
 10
0.0
 20
0.0
 30
0.0
  0
POINT
  5
13A
330
1F
100
AcDbEntity
  8
ConnectionPoints
100
AcDbPoint
 10
0.0
 20
0.0
 30
-0.5
  0
POINT
  5
13B
330
1F
100
AcDbEntity
  8
ConnectionPoints
100
AcDbPoint
 10
0.0
 20
0.0
 30
0.73
  0
POINT
  5
13C
330
1F
100
AcDbEntity
  8
ConnectionPoints
100
AcDbPoint
 10
0.7027029939304439
 20
0.7027029939304438
 30
0.0
  0
POINT
  5
13D
330
1F
100
AcDbEntity
  8
ConnectionPoints
100
AcDbPoint
 10
0.0
 20
0.0
 30
0.73
  0
ENDSEC
  0
SECTION
  2
OBJECTS
  0
DICTIONARY
  5
C
330
0
100
AcDbDictionary
281
     1
  3
ACAD_DETAILVIEWSTYLE
350
145
  3
ACAD_GROUP
350
D
  3
ACAD_LAYOUT
350
1A
  3
ACAD_MATERIAL
350
43
  3
ACAD_MLEADERSTYLE
350
6B
  3
ACAD_MLINESTYLE
350
17
  3
ACAD_PLOTSETTINGS
350
19
  3
ACAD_PLOTSTYLENAME
350
E
  3
ACAD_SCALELIST
350
47
  3
ACAD_SECTIONVIEWSTYLE
350
146
  3
ACAD_TABLESTYLE
350
69
  3
ACAD_VISUALSTYLE
350
2A
  3
ACDB_RECOMPOSE_DATA
350
142
  3
AcDbVariableDictionary
350
13E
  0
SUN
  5
6D
330
29
100
AcDbSun
 90
        1
290
     0
 63
     7
421
 16777215
 40
1.0
291
     1
 91
  2455826
 92
 54000000
292
     0
 70
     2
 71
   256
280
     1
  0
DICTIONARY
  5
145
102
{ACAD_REACTORS
330
C
102
}
330
C
100
AcDbDictionary
281
     1
  0
DICTIONARY
  5
D
102
{ACAD_REACTORS
330
C
102
}
330
C
100
AcDbDictionary
281
     1
  0
DICTIONARY
  5
1A
102
{ACAD_REACTORS
330
C
102
}
330
C
100
AcDbDictionary
281
     1
  3
Layout1
350
1E
  3
Layout2
350
26
  3
Model
350
22
  0
DICTIONARY
  5
43
102
{ACAD_REACTORS
330
C
102
}
330
C
100
AcDbDictionary
281
     1
  3
ByBlock
350
45
  3
ByLayer
350
44
  3
Global
350
46
  0
DICTIONARY
  5
6B
102
{ACAD_REACTORS
330
C
102
}
330
C
100
AcDbDictionary
281
     1
  3
Standard
350
6C
  0
DICTIONARY
  5
17
102
{ACAD_REACTORS
330
C
102
}
330
C
100
AcDbDictionary
281
     1
  3
Standard
350
18
  0
DICTIONARY
  5
19
102
{ACAD_REACTORS
330
C
102
}
330
C
100
AcDbDictionary
281
     1
  0
ACDBDICTIONARYWDFLT
  5
E
102
{ACAD_REACTORS
330
C
102
}
330
C
100
AcDbDictionary
281
     1
  3
Normal
350
F
100
AcDbDictionaryWithDefault
340
F
  0
DICTIONARY
  5
47
102
{ACAD_REACTORS
330
C
102
}
330
C
100
AcDbDictionary
281
     1
  3
A0
350
48
  3
A1
350
49
  3
A2
350
4A
  3
A3
350
4B
  3
A4
350
4C
  3
A5
350
4D
  3
A6
350
4E
  3
A7
350
4F
  3
A8
350
50
  3
A9
350
51
  3
B0
350
52
  3
B1
350
53
  3
B2
350
54
  3
B3
350
55
  3
B4
350
56
  3
B5
350
57
  3
B6
350
58
  3
B7
350
59
  3
B8
350
5A
  3
B9
350
5B
  3
C0
350
5C
  3
C1
350
5D
  3
C2
350
5E
  3
C3
350
5F
  3
C4
350
60
  3
C5
350
61
  3
C6
350
62
  3
C7
350
63
  3
C8
350
64
  3
C9
350
65
  3
D0
350
66
  3
D1
350
67
  3
D2
350
68
  0
DICTIONARY
  5
146
102
{ACAD_REACTORS
330
C
102
}
330
C
100
AcDbDictionary
281
     1
  0
DICTIONARY
  5
69
102
{ACAD_REACTORS
330
C
102
}
330
C
100
AcDbDictionary
281
     1
  3
Standard
350
6A
  0
DICTIONARY
  5
2A
102
{ACAD_REACTORS
330
C
102
}
330
C
100
AcDbDictionary
281
     1
  3
2dWireframe
350
2F
  3
Basic
350
32
  3
Brighten
350
36
  3
ColorChange
350
3A
  3
Conceptual
350
34
  3
Dim
350
35
  3
EdgeColorOff
350
3D
  3
Facepattern
350
39
  3
Flat
350
2B
  3
FlatWithEdges
350
2C
  3
Gouraud
350
2D
  3
GouraudWithEdges
350
2E
  3
Hidden
350
31
  3
JitterOff
350
3B
  3
Linepattern
350
38
  3
OverhangOff
350
3C
  3
Realistic
350
33
  3
Shaded
350
42
  3
Shaded with edges
350
41
  3
Shades of Gray
350
3E
  3
Sketchy
350
3F
  3
Thicken
350
37
  3
Wireframe
350
30
  3
X-Ray
350
40
  0
XRECORD
  5
142
102
{ACAD_REACTORS
330
C
102
}
330
C
100
AcDbXrecord
280
     1
 90
        1
330
6A
  0
DICTIONARY
  5
13E
102
{ACAD_REACTORS
330
C
102
}
330
C
100
AcDbDictionary
281
     1
  3
CANNOSCALE
350
13F
  3
CMLEADERSTYLE
350
144
  3
CTABLESTYLE
350
143
  0
LAYOUT
  5
1E
102
{ACAD_REACTORS
330
1A
102
}
330
1A
100
AcDbPlotSettings
  1

  2
none_device
  4

  6

 40
0.0
 41
0.0
 42
0.0
 43
0.0
 44
0.0
 45
0.0
 46
0.0
 47
0.0
 48
0.0
 49
0.0
140
0.0
141
0.0
142
1.0
143
1.0
 70
   688
 72
     0
 73
     0
 74
     5
  7

 75
    16
 76
     0
 77
     2
 78
   300
147
1.0
148
0.0
149
0.0
100
AcDbLayout
  1
Layout1
 70
     1
 71
     1
 10
0.0
 20
0.0
 11
12.0
 21
9.0
 12
0.0
 22
0.0
 32
0.0
 14
1.000000000000000E+20
 24
1.000000000000000E+20
 34
1.000000000000000E+20
 15
-1.000000000000000E+20
 25
-1.000000000000000E+20
 35
-1.000000000000000E+20
146
0.0
 13
0.0
 23
0.0
 33
0.0
 16
1.0
 26
0.0
 36
0.0
 17
0.0
 27
1.0
 37
0.0
 76
     0
330
1B
  0
LAYOUT
  5
26
102
{ACAD_REACTORS
330
1A
102
}
330
1A
100
AcDbPlotSettings
  1

  2
none_device
  4

  6

 40
0.0
 41
0.0
 42
0.0
 43
0.0
 44
0.0
 45
0.0
 46
0.0
 47
0.0
 48
0.0
 49
0.0
140
0.0
141
0.0
142
1.0
143
1.0
 70
   688
 72
     0
 73
     0
 74
     5
  7

 75
    16
 76
     0
 77
     2
 78
   300
147
1.0
148
0.0
149
0.0
100
AcDbLayout
  1
Layout2
 70
     1
 71
     2
 10
0.0
 20
0.0
 11
0.0
 21
0.0
 12
0.0
 22
0.0
 32
0.0
 14
0.0
 24
0.0
 34
0.0
 15
0.0
 25
0.0
 35
0.0
146
0.0
 13
0.0
 23
0.0
 33
0.0
 16
1.0
 26
0.0
 36
0.0
 17
0.0
 27
1.0
 37
0.0
 76
     0
330
23
  0
LAYOUT
  5
22
102
{ACAD_REACTORS
330
1A
102
}
330
1A
100
AcDbPlotSettings
  1

  2
none_device
  4
Letter_(8.50_x_11.00_Inches)
  6

 40
6.35
 41
6.35
 42
6.35000508
 43
6.35000508
 44
215.9
 45
279.4
 46
0.0
 47
0.0
 48
0.0
 49
0.0
140
0.0
141
0.0
142
1.0
143
1.0
 70
  1712
 72
     0
 73
     0
 74
     0
  7

 75
     0
 76
     0
 77
     2
 78
   300
147
1.0
148
0.0
149
0.0
100
AcDbLayout
  1
Model
 70
     1
 71
     0
 10
0.0
 20
0.0
 11
12.0
 21
9.0
 12
0.0
 22
0.0
 32
0.0
 14
1.000000000000000E+20
 24
1.000000000000000E+20
 34
1.000000000000000E+20
 15
-1.000000000000000E+20
 25
-1.000000000000000E+20
 35
-1.000000000000000E+20
146
0.0
 13
0.0
 23
0.0
 33
0.0
 16
1.0
 26
0.0
 36
0.0
 17
0.0
 27
1.0
 37
0.0
 76
     0
330
1F
331
29
  0
MATERIAL
  5
45
102
{ACAD_REACTORS
330
43
102
}
330
43
100
AcDbMaterial
  1
ByBlock
 72
     1
 94
      127
  0
MATERIAL
  5
44
102
{ACAD_REACTORS
330
43
102
}
330
43
100
AcDbMaterial
  1
ByLayer
 72
     1
 94
      127
  0
MATERIAL
  5
46
102
{ACAD_REACTORS
330
43
102
}
330
43
100
AcDbMaterial
  1
Global
 72
     1
 94
      127
  0
MLEADERSTYLE
  5
6C
102
{ACAD_REACTORS
330
6B
102
}
330
6B
100
AcDbMLeaderStyle
179
     2
170
     2
171
     1
172
     0
 90
        2
 40
0.0
 41
0.0
173
     1
 91
-1056964608
340
14
 92
       -2
290
     1
 42
0.09
291
     1
 43
0.36
  3
Standard
341
0
 44
0.18
300

342
11
174
     1
178
     6
175
     1
176
     0
 93
-1056964608
 45
0.18
292
     0
297
     0
 46
0.18
343
0
 94
-1056964608
 47
1.0
 49
1.0
140
1.0
293
     1
141
0.0
294
     1
177
     0
142
1.0
295
     0
296
     0
143
0.125
271
     0
272
     9
273
     9
298
     0
  0
MLINESTYLE
  5
18
102
{ACAD_REACTORS
330
17
102
}
330
17
100
AcDbMlineStyle
  2
Standard
 70
     0
  3

 62
   256
 51
90.0
 52
90.0
 71
     2
 49
0.5
 62
   256
  6
BYLAYER
 49
-0.5
 62
   256
  6
BYLAYER
  0
ACDBPLACEHOLDER
  5
F
102
{ACAD_REACTORS
330
E
102
}
330
E
  0
SCALE
  5
48
102
{ACAD_REACTORS
330
47
102
}
330
47
100
AcDbScale
 70
     0
300
1:1
140
1.0
141
1.0
290
     1
  0
SCALE
  5
49
102
{ACAD_REACTORS
330
47
102
}
330
47
100
AcDbScale
 70
     0
300
1:2
140
1.0
141
2.0
290
     0
  0
SCALE
  5
4A
102
{ACAD_REACTORS
330
47
102
}
330
47
100
AcDbScale
 70
     0
300
1:4
140
1.0
141
4.0
290
     0
  0
SCALE
  5
4B
102
{ACAD_REACTORS
330
47
102
}
330
47
100
AcDbScale
 70
     0
300
1:5
140
1.0
141
5.0
290
     0
  0
SCALE
  5
4C
102
{ACAD_REACTORS
330
47
102
}
330
47
100
AcDbScale
 70
     0
300
1:8
140
1.0
141
8.0
290
     0
  0
SCALE
  5
4D
102
{ACAD_REACTORS
330
47
102
}
330
47
100
AcDbScale
 70
     0
300
1:10
140
1.0
141
10.0
290
     0
  0
SCALE
  5
4E
102
{ACAD_REACTORS
330
47
102
}
330
47
100
AcDbScale
 70
     0
300
1:16
140
1.0
141
16.0
290
     0
  0
SCALE
  5
4F
102
{ACAD_REACTORS
330
47
102
}
330
47
100
AcDbScale
 70
     0
300
1:20
140
1.0
141
20.0
290
     0
  0
SCALE
  5
50
102
{ACAD_REACTORS
330
47
102
}
330
47
100
AcDbScale
 70
     0
300
1:30
140
1.0
141
30.0
290
     0
  0
SCALE
  5
51
102
{ACAD_REACTORS
330
47
102
}
330
47
100
AcDbScale
 70
     0
300
1:40
140
1.0
141
40.0
290
     0
  0
SCALE
  5
52
102
{ACAD_REACTORS
330
47
102
}
330
47
100
AcDbScale
 70
     0
300
1:50
140
1.0
141
50.0
290
     0
  0
SCALE
  5
53
102
{ACAD_REACTORS
330
47
102
}
330
47
100
AcDbScale
 70
     0
300
1:100
140
1.0
141
100.0
290
     0
  0
SCALE
  5
54
102
{ACAD_REACTORS
330
47
102
}
330
47
100
AcDbScale
 70
     0
300
2:1
140
2.0
141
1.0
290
     0
  0
SCALE
  5
55
102
{ACAD_REACTORS
330
47
102
}
330
47
100
AcDbScale
 70
     0
300
4:1
140
4.0
141
1.0
290
     0
  0
SCALE
  5
56
102
{ACAD_REACTORS
330
47
102
}
330
47
100
AcDbScale
 70
     0
300
8:1
140
8.0
141
1.0
290
     0
  0
SCALE
  5
57
102
{ACAD_REACTORS
330
47
102
}
330
47
100
AcDbScale
 70
     0
300
10:1
140
10.0
141
1.0
290
     0
  0
SCALE
  5
58
102
{ACAD_REACTORS
330
47
102
}
330
47
100
AcDbScale
 70
     0
300
100:1
140
100.0
141
1.0
290
     0
  0
SCALE
  5
59
102
{ACAD_REACTORS
330
47
102
}
330
47
100
AcDbScale
 70
     0
300
1/128" = 1'-0"
140
0.0078125
141
12.0
290
     0
  0
SCALE
  5
5A
102
{ACAD_REACTORS
330
47
102
}
330
47
100
AcDbScale
 70
     0
300
1/64" = 1'-0"
140
0.015625
141
12.0
290
     0
  0
SCALE
  5
5B
102
{ACAD_REACTORS
330
47
102
}
330
47
100
AcDbScale
 70
     0
300
1/32" = 1'-0"
140
0.03125
141
12.0
290
     0
  0
SCALE
  5
5C
102
{ACAD_REACTORS
330
47
102
}
330
47
100
AcDbScale
 70
     0
300
1/16" = 1'-0"
140
0.0625
141
12.0
290
     0
  0
SCALE
  5
5D
102
{ACAD_REACTORS
330
47
102
}
330
47
100
AcDbScale
 70
     0
300
3/32" = 1'-0"
140
0.09375
141
12.0
290
     0
  0
SCALE
  5
5E
102
{ACAD_REACTORS
330
47
102
}
330
47
100
AcDbScale
 70
     0
300
1/8" = 1'-0"
140
0.125
141
12.0
290
     0
  0
SCALE
  5
5F
102
{ACAD_REACTORS
330
47
102
}
330
47
100
AcDbScale
 70
     0
300
3/16" = 1'-0"
140
0.1875
141
12.0
290
     0
  0
SCALE
  5
60
102
{ACAD_REACTORS
330
47
102
}
330
47
100
AcDbScale
 70
     0
300
1/4" = 1'-0"
140
0.25
141
12.0
290
     0
  0
SCALE
  5
61
102
{ACAD_REACTORS
330
47
102
}
330
47
100
AcDbScale
 70
     0
300
3/8" = 1'-0"
140
0.375
141
12.0
290
     0
  0
SCALE
  5
62
102
{ACAD_REACTORS
330
47
102
}
330
47
100
AcDbScale
 70
     0
300
1/2" = 1'-0"
140
0.5
141
12.0
290
     0
  0
SCALE
  5
63
102
{ACAD_REACTORS
330
47
102
}
330
47
100
AcDbScale
 70
     0
300
3/4" = 1'-0"
140
0.75
141
12.0
290
     0
  0
SCALE
  5
64
102
{ACAD_REACTORS
330
47
102
}
330
47
100
AcDbScale
 70
     0
300
1" = 1'-0"
140
1.0
141
12.0
290
     0
  0
SCALE
  5
65
102
{ACAD_REACTORS
330
47
102
}
330
47
100
AcDbScale
 70
     0
300
1-1/2" = 1'-0"
140
1.5
141
12.0
290
     0
  0
SCALE
  5
66
102
{ACAD_REACTORS
330
47
102
}
330
47
100
AcDbScale
 70
     0
300
3" = 1'-0"
140
3.0
141
12.0
290
     0
  0
SCALE
  5
67
102
{ACAD_REACTORS
330
47
102
}
330
47
100
AcDbScale
 70
     0
300
6" = 1'-0"
140
6.0
141
12.0
290
     0
  0
SCALE
  5
68
102
{ACAD_REACTORS
330
47
102
}
330
47
100
AcDbScale
 70
     0
300
1'-0" = 1'-0"
140
12.0
141
12.0
290
     0
  0
TABLESTYLE
  5
6A
102
{ACAD_REACTORS
330
69
102
}
102
{ACAD_XDICTIONARY
360
140
102
}
330
69
100
AcDbTableStyle
  3
Standard
 70
     0
 71
     0
 40
0.06
 41
0.06
280
     0
281
     0
  7
Standard
140
0.18
170
     2
 62
     0
 63
   257
283
     0
 90
        4
 91
        0
  1

274
    -2
284
     1
 64
     0
275
    -2
285
     1
 65
     0
276
    -2
286
     1
 66
     0
277
    -2
287
     1
 67
     0
278
    -2
288
     1
 68
     0
279
    -2
289
     1
 69
     0
  7
Standard
140
0.25
170
     5
 62
     0
 63
   257
283
     0
 90
        4
 91
        0
  1

274
    -2
284
     1
 64
     0
275
    -2
285
     1
 65
     0
276
    -2
286
     1
 66
     0
277
    -2
287
     1
 67
     0
278
    -2
288
     1
 68
     0
279
    -2
289
     1
 69
     0
  7
Standard
140
0.18
170
     5
 62
     0
 63
   257
283
     0
 90
        4
 91
        0
  1

274
    -2
284
     1
 64
     0
275
    -2
285
     1
 65
     0
276
    -2
286
     1
 66
     0
277
    -2
287
     1
 67
     0
278
    -2
288
     1
 68
     0
279
    -2
289
     1
 69
     0
  0
VISUALSTYLE
  5
2F
102
{ACAD_REACTORS
330
2A
102
}
330
2A
100
AcDbVisualStyle
  2
2dWireframe
 70
     4
177
     3
291
     0
 70
    58
 90
        0
176
     1
 90
        2
176
     1
 90
        0
176
     1
 90
        0
176
     1
 40
0.6
176
     1
 40
30.0
176
     1
 62
     7
420
 16777215
176
     1
 90
        1
176
     1
 90
        4
176
     1
 62
     7
176
     1
 62
   257
176
     1
 90
        1
176
     1
 90
        1
176
     1
 40
1.0
176
     1
 90
        0
176
     1
 62
   257
176
     1
 40
1.0
176
     1
 90
        1
176
     1
 90
        6
176
     1
 90
        2
176
     1
 62
     7
176
     1
 90
        5
176
     1
 90
        0
176
     1
 90
        0
176
     1
290
     0
176
     1
 90
        1
176
     1
 40
0.0
176
     1
 90
        0
176
     1
290
     1
176
     1
290
     1
176
     1
290
     0
176
     1
290
     0
176
     1
290
     0
176
     1
290
     0
176
     1
290
     0
176
     1
290
     0
176
     1
290
     0
176
     1
 90
       50
176
     1
 40
0.0
176
     1
 40
1.0
176
     1
 90
        0
176
     1
 62
    18
420
        0
176
     1
 90
       50
176
     1
 90
        3
176
     1
 62
     5
420
      255
176
     1
290
     0
176
     1
 90
       50
176
     1
 90
       50
176
     1
 90
       50
176
     1
290
     0
176
     1
 90
       50
176
     1
 62
   256
176
     0
 40
1.0
176
     0
 90
        2
176
     1
  1
strokes_ogs.tif
176
     1
290
     0
176
     1
 40
1.0
176
     1
 40
1.0
176
     1
  0
VISUALSTYLE
  5
32
102
{ACAD_REACTORS
330
2A
102
}
330
2A
100
AcDbVisualStyle
  2
Basic
 70
     7
177
     3
291
     1
 70
    58
 90
        1
176
     1
 90
        0
176
     1
 90
        1
176
     1
 90
        0
176
     1
 40
0.6
176
     1
 40
30.0
176
     1
 62
     7
420
 16777215
176
     1
 90
        0
176
     1
 90
        4
176
     1
 62
     7
176
     1
 62
   257
176
     1
 90
        1
176
     1
 90
        1
176
     1
 40
1.0
176
     1
 90
        8
176
     1
 62
     7
176
     1
 40
1.0
176
     1
 90
        1
176
     1
 90
        6
176
     1
 90
        2
176
     1
 62
     7
176
     1
 90
        5
176
     1
 90
        0
176
     1
 90
        0
176
     1
290
     0
176
     1
 90
        1
176
     1
 40
0.0
176
     1
 90
        0
176
     1
290
     0
176
     1
290
     1
176
     1
290
     1
176
     1
290
     0
176
     1
290
     0
176
     1
290
     0
176
     1
290
     0
176
     1
290
     0
176
     1
290
     0
176
     1
 90
       50
176
     1
 40
0.0
176
     1
 40
1.0
176
     1
 90
        0
176
     1
 62
    18
420
        0
176
     1
 90
       50
176
     1
 90
        3
176
     1
 62
     5
420
      255
176
     1
290
     0
176
     1
 90
       50
176
     1
 90
       50
176
     1
 90
       50
176
     1
290
     0
176
     1
 90
       50
176
     1
 62
   256
176
     0
 40
1.0
176
     0
 90
        2
176
     1
  1
strokes_ogs.tif
176
     1
290
     0
176
     1
 40
1.0
176
     1
 40
1.0
176
     1
  0
VISUALSTYLE
  5
36
102
{ACAD_REACTORS
330
2A
102
}
330
2A
100
AcDbVisualStyle
  2
Brighten
 70
    12
177
     3
291
     1
 70
    58
 90
        2
176
     1
 90
        2
176
     1
 90
        0
176
     1
 90
        0
176
     1
 40
0.6
176
     1
 40
30.0
176
     1
 62
     7
420
 16777215
176
     1
 90
        1
176
     1
 90
        4
176
     1
 62
     7
176
     1
 62
   257
176
     1
 90
        1
176
     1
 90
        1
176
     1
 40
1.0
176
     1
 90
        8
176
     1
 62
     7
176
     1
 40
1.0
176
     1
 90
        1
176
     1
 90
        6
176
     1
 90
        2
176
     1
 62
     7
176
     1
 90
        5
176
     1
 90
        0
176
     1
 90
        0
176
     1
290
     0
176
     1
 90
        1
176
     1
 40
50.0
176
     1
 90
        0
176
     1
290
     0
176
     1
290
     1
176
     1
290
     1
176
     1
290
     0
176
     1
290
     0
176
     1
290
     0
176
     1
290
     0
176
     1
290
     0
176
     1
290
     0
176
     1
 90
       50
176
     1
 40
0.0
176
     1
 40
1.0
176
     1
 90
        0
176
     1
 62
    18
420
        0
176
     1
 90
       50
176
     1
 90
        3
176
     1
 62
     5
420
      255
176
     1
290
     0
176
     1
 90
       50
176
     1
 90
       50
176
     1
 90
       50
176
     1
290
     0
176
     1
 90
       50
176
     1
 62
   256
176
     0
 40
1.0
176
     0
 90
        2
176
     1
  1
strokes_ogs.tif
176
     1
290
     0
176
     1
 40
1.0
176
     1
 40
1.0
176
     1
  0
VISUALSTYLE
  5
3A
102
{ACAD_REACTORS
330
2A
102
}
330
2A
100
AcDbVisualStyle
  2
ColorChange
 70
    16
177
     3
291
     1
 70
    58
 90
        2
176
     1
 90
        2
176
     1
 90
        3
176
     1
 90
        0
176
     1
 40
0.6
176
     1
 40
30.0
176
     1
 62
     8
420
  8421504
176
     1
 90
        1
176
     1
 90
        4
176
     1
 62
     7
176
     1
 62
   257
176
     1
 90
        1
176
     1
 90
        1
176
     1
 40
1.0
176
     1
 90
        8
176
     1
 62
     8
420
  8421504
176
     1
 40
1.0
176
     1
 90
        1
176
     1
 90
        6
176
     1
 90
        2
176
     1
 62
     7
176
     1
 90
        5
176
     1
 90
        0
176
     1
 90
        0
176
     1
290
     0
176
     1
 90
        1
176
     1
 40
0.0
176
     1
 90
        0
176
     1
290
     0
176
     1
290
     1
176
     1
290
     1
176
     1
290
     0
176
     1
290
     0
176
     1
290
     0
176
     1
290
     0
176
     1
290
     0
176
     1
290
     0
176
     1
 90
       50
176
     1
 40
0.0
176
     1
 40
1.0
176
     1
 90
        0
176
     1
 62
    18
420
        0
176
     1
 90
       50
176
     1
 90
        3
176
     1
 62
     5
420
      255
176
     1
290
     0
176
     1
 90
       50
176
     1
 90
       50
176
     1
 90
       50
176
     1
290
     0
176
     1
 90
       50
176
     1
 62
   256
176
     0
 40
1.0
176
     0
 90
        2
176
     1
  1
strokes_ogs.tif
176
     1
290
     0
176
     1
 40
1.0
176
     1
 40
1.0
176
     1
  0
VISUALSTYLE
  5
34
102
{ACAD_REACTORS
330
2A
102
}
330
2A
100
AcDbVisualStyle
  2
Conceptual
 70
     9
177
     3
291
     0
 70
    58
 90
        3
176
     1
 90
        2
176
     1
 90
        0
176
     1
 90
        0
176
     1
 40
0.6
176
     1
 40
30.0
176
     1
 62
     7
420
 16777215
176
     1
 90
        2
176
     1
 90
        2
176
     1
 62
     7
176
     1
 62
   257
176
     1
 90
        1
176
     1
 90
        1
176
     1
 40
179.0
176
     1
 90
        8
176
     1
 62
     7
176
     1
 40
1.0
176
     1
 90
        1
176
     1
 90
        6
176
     1
 90
        2
176
     1
 62
     7
176
     1
 90
        3
176
     1
 90
        0
176
     1
 90
        0
176
     1
290
     0
176
     1
 90
        1
176
     1
 40
0.0
176
     1
 90
        0
176
     1
290
     0
176
     1
290
     1
176
     1
290
     1
176
     1
290
     0
176
     1
290
     0
176
     1
290
     0
176
     1
290
     0
176
     1
290
     0
176
     1
290
     0
176
     1
 90
       50
176
     1
 40
0.0
176
     1
 40
1.0
176
     1
 90
        0
176
     1
 62
    18
420
        0
176
     1
 90
       50
176
     1
 90
        3
176
     1
 62
     5
420
      255
176
     1
290
     0
176
     1
 90
       50
176
     1
 90
       50
176
     1
 90
       50
176
     1
290
     0
176
     1
 90
       50
176
     1
 62
   256
176
     0
 40
1.0
176
     0
 90
        2
176
     1
  1
strokes_ogs.tif
176
     1
290
     0
176
     1
 40
1.0
176
     1
 40
1.0
176
     1
  0
VISUALSTYLE
  5
35
102
{ACAD_REACTORS
330
2A
102
}
330
2A
100
AcDbVisualStyle
  2
Dim
 70
    11
177
     3
291
     1
 70
    58
 90
        2
176
     1
 90
        2
176
     1
 90
        0
176
     1
 90
        0
176
     1
 40
0.6
176
     1
 40
30.0
176
     1
 62
     7
420
 16777215
176
     1
 90
        1
176
     1
 90
        4
176
     1
 62
     7
176
     1
 62
   257
176
     1
 90
        1
176
     1
 90
        1
176
     1
 40
1.0
176
     1
 90
        8
176
     1
 62
     7
176
     1
 40
1.0
176
     1
 90
        1
176
     1
 90
        6
176
     1
 90
        2
176
     1
 62
     7
176
     1
 90
        5
176
     1
 90
        0
176
     1
 90
        0
176
     1
290
     0
176
     1
 90
        1
176
     1
 40
-50.0
176
     1
 90
        0
176
     1
290
     0
176
     1
290
     1
176
     1
290
     1
176
     1
290
     0
176
     1
290
     0
176
     1
290
     0
176
     1
290
     0
176
     1
290
     0
176
     1
290
     0
176
     1
 90
       50
176
     1
 40
0.0
176
     1
 40
1.0
176
     1
 90
        0
176
     1
 62
    18
420
        0
176
     1
 90
       50
176
     1
 90
        3
176
     1
 62
     5
420
      255
176
     1
290
     0
176
     1
 90
       50
176
     1
 90
       50
176
     1
 90
       50
176
     1
290
     0
176
     1
 90
       50
176
     1
 62
   256
176
     0
 40
1.0
176
     0
 90
        2
176
     1
  1
strokes_ogs.tif
176
     1
290
     0
176
     1
 40
1.0
176
     1
 40
1.0
176
     1
  0
VISUALSTYLE
  5
3D
102
{ACAD_REACTORS
330
2A
102
}
330
2A
100
AcDbVisualStyle
  2
EdgeColorOff
 70
    22
177
     3
291
     1
 70
    58
 90
        2
176
     0
 90
        2
176
     0
 90
        0
176
     0
 90
        0
176
     0
 40
0.6
176
     0
 40
30.0
176
     0
 62
     7
420
 16777215
176
     0
 90
        1
176
     0
 90
        4
176
     0
 62
     7
176
     0
 62
   257
176
     0
 90
        1
176
     0
 90
        1
176
     0
 40
1.0
176
     0
 90
        8
176
     2
 62
     7
176
     0
 40
1.0
176
     0
 90
        1
176
     0
 90
        6
176
     0
 90
        2
176
     0
 62
     7
176
     0
 90
        5
176
     0
 90
        0
176
     0
 90
        0
176
     0
290
     0
176
     0
 90
        1
176
     0
 40
0.0
176
     0
 90
        0
176
     0
290
     0
176
     0
290
     1
176
     0
290
     1
176
     0
290
     0
176
     0
290
     0
176
     0
290
     0
176
     0
290
     0
176
     0
290
     0
176
     0
290
     0
176
     0
 90
       50
176
     0
 40
0.0
176
     0
 40
1.0
176
     0
 90
        0
176
     0
 62
    18
420
        0
176
     0
 90
       50
176
     0
 90
        3
176
     0
 62
     5
420
      255
176
     0
290
     0
176
     0
 90
       50
176
     0
 90
       50
176
     0
 90
       50
176
     0
290
     0
176
     0
 90
       50
176
     0
 62
   256
176
     0
 40
1.0
176
     0
 90
        2
176
     0
  1
strokes_ogs.tif
176
     0
290
     0
176
     0
 40
1.0
176
     0
 40
1.0
176
     0
  0
VISUALSTYLE
  5
39
102
{ACAD_REACTORS
330
2A
102
}
330
2A
100
AcDbVisualStyle
  2
Facepattern
 70
    15
177
     3
291
     1
 70
    58
 90
        2
176
     1
 90
        2
176
     1
 90
        0
176
     1
 90
        0
176
     1
 40
0.6
176
     1
 40
30.0
176
     1
 62
     7
420
 16777215
176
     1
 90
        1
176
     1
 90
        4
176
     1
 62
     7
176
     1
 62
   257
176
     1
 90
        1
176
     1
 90
        1
176
     1
 40
1.0
176
     1
 90
        8
176
     1
 62
     7
176
     1
 40
1.0
176
     1
 90
        1
176
     1
 90
        6
176
     1
 90
        2
176
     1
 62
     7
176
     1
 90
        5
176
     1
 90
        0
176
     1
 90
        0
176
     1
290
     0
176
     1
 90
        1
176
     1
 40
0.0
176
     1
 90
        0
176
     1
290
     0
176
     1
290
     1
176
     1
290
     1
176
     1
290
     0
176
     1
290
     0
176
     1
290
     0
176
     1
290
     0
176
     1
290
     0
176
     1
290
     0
176
     1
 90
       50
176
     1
 40
0.0
176
     1
 40
1.0
176
     1
 90
        0
176
     1
 62
    18
420
        0
176
     1
 90
       50
176
     1
 90
        3
176
     1
 62
     5
420
      255
176
     1
290
     0
176
     1
 90
       50
176
     1
 90
       50
176
     1
 90
       50
176
     1
290
     0
176
     1
 90
       50
176
     1
 62
   256
176
     0
 40
1.0
176
     0
 90
        2
176
     1
  1
strokes_ogs.tif
176
     1
290
     0
176
     1
 40
1.0
176
     1
 40
1.0
176
     1
  0
VISUALSTYLE
  5
2B
102
{ACAD_REACTORS
330
2A
102
}
330
2A
100
AcDbVisualStyle
  2
Flat
 70
     0
177
     3
291
     1
 70
    58
 90
        2
176
     1
 90
        1
176
     1
 90
        1
176
     1
 90
        2
176
     1
 40
0.6
176
     1
 40
30.0
176
     1
 62
     7
420
 16777215
176
     1
 90
        0
176
     1
 90
        0
176
     1
 62
     7
176
     1
 62
   257
176
     1
 90
        1
176
     1
 90
        1
176
     1
 40
1.0
176
     1
 90
        8
176
     1
 62
     7
176
     1
 40
1.0
176
     1
 90
        1
176
     1
 90
        6
176
     1
 90
        2
176
     1
 62
     7
176
     1
 90
        5
176
     1
 90
        0
176
     1
 90
        0
176
     1
290
     0
176
     1
 90
       13
176
     1
 40
0.0
176
     1
 90
        0
176
     1
290
     0
176
     1
290
     1
176
     1
290
     1
176
     1
290
     0
176
     1
290
     0
176
     1
290
     0
176
     1
290
     0
176
     1
290
     0
176
     1
290
     0
176
     1
 90
       50
176
     1
 40
0.0
176
     1
 40
1.0
176
     1
 90
        0
176
     1
 62
    18
420
        0
176
     1
 90
       50
176
     1
 90
        3
176
     1
 62
     5
420
      255
176
     1
290
     0
176
     1
 90
       50
176
     1
 90
       50
176
     1
 90
       50
176
     1
290
     0
176
     1
 90
       50
176
     1
 62
   256
176
     0
 40
1.0
176
     0
 90
        2
176
     1
  1
strokes_ogs.tif
176
     1
290
     0
176
     1
 40
1.0
176
     1
 40
1.0
176
     1
  0
VISUALSTYLE
  5
2C
102
{ACAD_REACTORS
330
2A
102
}
330
2A
100
AcDbVisualStyle
  2
FlatWithEdges
 70
     1
177
     3
291
     1
 70
    58
 90
        2
176
     1
 90
        1
176
     1
 90
        1
176
     1
 90
        2
176
     1
 40
0.6
176
     1
 40
30.0
176
     1
 62
     7
420
 16777215
176
     1
 90
        1
176
     1
 90
        0
176
     1
 62
     7
176
     1
 62
   257
176
     1
 90
        1
176
     1
 90
        1
176
     1
 40
1.0
176
     1
 90
        0
176
     1
 62
   257
176
     1
 40
1.0
176
     1
 90
        1
176
     1
 90
        6
176
     1
 90
        2
176
     1
 62
     7
176
     1
 90
        5
176
     1
 90
        0
176
     1
 90
        0
176
     1
290
     0
176
     1
 90
       13
176
     1
 40
0.0
176
     1
 90
        0
176
     1
290
     0
176
     1
290
     1
176
     1
290
     1
176
     1
290
     0
176
     1
290
     0
176
     1
290
     0
176
     1
290
     0
176
     1
290
     0
176
     1
290
     0
176
     1
 90
       50
176
     1
 40
0.0
176
     1
 40
1.0
176
     1
 90
        0
176
     1
 62
    18
420
        0
176
     1
 90
       50
176
     1
 90
        3
176
     1
 62
     5
420
      255
176
     1
290
     0
176
     1
 90
       50
176
     1
 90
       50
176
     1
 90
       50
176
     1
290
     0
176
     1
 90
       50
176
     1
 62
   256
176
     0
 40
1.0
176
     0
 90
        2
176
     1
  1
strokes_ogs.tif
176
     1
290
     0
176
     1
 40
1.0
176
     1
 40
1.0
176
     1
  0
VISUALSTYLE
  5
2D
102
{ACAD_REACTORS
330
2A
102
}
330
2A
100
AcDbVisualStyle
  2
Gouraud
 70
     2
177
     3
291
     1
 70
    58
 90
        2
176
     1
 90
        2
176
     1
 90
        1
176
     1
 90
        2
176
     1
 40
0.6
176
     1
 40
30.0
176
     1
 62
     7
420
 16777215
176
     1
 90
        0
176
     1
 90
        0
176
     1
 62
     7
176
     1
 62
   257
176
     1
 90
        1
176
     1
 90
        1
176
     1
 40
1.0
176
     1
 90
        0
176
     1
 62
     7
176
     1
 40
1.0
176
     1
 90
        1
176
     1
 90
        6
176
     1
 90
        2
176
     1
 62
     7
176
     1
 90
        5
176
     1
 90
        0
176
     1
 90
        0
176
     1
290
     0
176
     1
 90
       13
176
     1
 40
0.0
176
     1
 90
        0
176
     1
290
     0
176
     1
290
     1
176
     1
290
     1
176
     1
290
     0
176
     1
290
     0
176
     1
290
     0
176
     1
290
     0
176
     1
290
     0
176
     1
290
     0
176
     1
 90
       50
176
     1
 40
0.0
176
     1
 40
1.0
176
     1
 90
        0
176
     1
 62
    18
420
        0
176
     1
 90
       50
176
     1
 90
        3
176
     1
 62
     5
420
      255
176
     1
290
     0
176
     1
 90
       50
176
     1
 90
       50
176
     1
 90
       50
176
     1
290
     0
176
     1
 90
       50
176
     1
 62
   256
176
     0
 40
1.0
176
     0
 90
        2
176
     1
  1
strokes_ogs.tif
176
     1
290
     0
176
     1
 40
1.0
176
     1
 40
1.0
176
     1
  0
VISUALSTYLE
  5
2E
102
{ACAD_REACTORS
330
2A
102
}
330
2A
100
AcDbVisualStyle
  2
GouraudWithEdges
 70
     3
177
     3
291
     1
 70
    58
 90
        2
176
     1
 90
        2
176
     1
 90
        1
176
     1
 90
        2
176
     1
 40
0.6
176
     1
 40
30.0
176
     1
 62
     7
420
 16777215
176
     1
 90
        1
176
     1
 90
        0
176
     1
 62
     7
176
     1
 62
   257
176
     1
 90
        1
176
     1
 90
        1
176
     1
 40
1.0
176
     1
 90
        0
176
     1
 62
   257
176
     1
 40
1.0
176
     1
 90
        1
176
     1
 90
        6
176
     1
 90
        2
176
     1
 62
     7
176
     1
 90
        5
176
     1
 90
        0
176
     1
 90
        0
176
     1
290
     0
176
     1
 90
       13
176
     1
 40
0.0
176
     1
 90
        0
176
     1
290
     0
176
     1
290
     1
176
     1
290
     1
176
     1
290
     0
176
     1
290
     0
176
     1
290
     0
176
     1
290
     0
176
     1
290
     0
176
     1
290
     0
176
     1
 90
       50
176
     1
 40
0.0
176
     1
 40
1.0
176
     1
 90
        0
176
     1
 62
    18
420
        0
176
     1
 90
       50
176
     1
 90
        3
176
     1
 62
     5
420
      255
176
     1
290
     0
176
     1
 90
       50
176
     1
 90
       50
176
     1
 90
       50
176
     1
290
     0
176
     1
 90
       50
176
     1
 62
   256
176
     0
 40
1.0
176
     0
 90
        2
176
     1
  1
strokes_ogs.tif
176
     1
290
     0
176
     1
 40
1.0
176
     1
 40
1.0
176
     1
  0
VISUALSTYLE
  5
31
102
{ACAD_REACTORS
330
2A
102
}
330
2A
100
AcDbVisualStyle
  2
Hidden
 70
     6
177
     3
291
     0
 70
    58
 90
        1
176
     1
 90
        2
176
     1
 90
        2
176
     1
 90
        0
176
     1
 40
0.6
176
     1
 40
30.0
176
     1
 62
     7
420
 16777215
176
     1
 90
        2
176
     1
 90
        2
176
     1
 62
     7
176
     1
 62
   257
176
     1
 90
        2
176
     1
 90
        1
176
     1
 40
40.0
176
     1
 90
        0
176
     1
 62
   257
176
     1
 40
1.0
176
     1
 90
        1
176
     1
 90
        6
176
     1
 90
        2
176
     1
 62
     7
176
     1
 90
        3
176
     1
 90
        0
176
     1
 90
        0
176
     1
290
     0
176
     1
 90
        1
176
     1
 40
0.0
176
     1
 90
        0
176
     1
290
     0
176
     1
290
     1
176
     1
290
     1
176
     1
290
     0
176
     1
290
     0
176
     1
290
     0
176
     1
290
     0
176
     1
290
     0
176
     1
290
     0
176
     1
 90
       50
176
     1
 40
0.0
176
     1
 40
1.0
176
     1
 90
        0
176
     1
 62
    18
420
        0
176
     1
 90
       50
176
     1
 90
        3
176
     1
 62
     5
420
      255
176
     1
290
     0
176
     1
 90
       50
176
     1
 90
       50
176
     1
 90
       50
176
     1
290
     0
176
     1
 90
       50
176
     1
 62
   256
176
     0
 40
1.0
176
     0
 90
        2
176
     1
  1
strokes_ogs.tif
176
     1
290
     0
176
     1
 40
1.0
176
     1
 40
1.0
176
     1
  0
VISUALSTYLE
  5
3B
102
{ACAD_REACTORS
330
2A
102
}
330
2A
100
AcDbVisualStyle
  2
JitterOff
 70
    20
177
     3
291
     1
 70
    58
 90
        2
176
     0
 90
        2
176
     0
 90
        0
176
     0
 90
        0
176
     0
 40
0.6
176
     0
 40
30.0
176
     0
 62
     7
420
 16777215
176
     0
 90
        1
176
     0
 90
        4
176
     0
 62
     7
176
     0
 62
   257
176
     0
 90
        1
176
     0
 90
        1
176
     0
 40
1.0
176
     0
 90
       10
176
     2
 62
     7
176
     0
 40
1.0
176
     0
 90
        1
176
     0
 90
        6
176
     0
 90
        2
176
     0
 62
     7
176
     0
 90
        5
176
     0
 90
        0
176
     0
 90
        0
176
     0
290
     0
176
     0
 90
        1
176
     0
 40
0.0
176
     0
 90
        0
176
     0
290
     0
176
     0
290
     1
176
     0
290
     1
176
     0
290
     0
176
     0
290
     0
176
     0
290
     0
176
     0
290
     0
176
     0
290
     0
176
     0
290
     0
176
     0
 90
       50
176
     0
 40
0.0
176
     0
 40
1.0
176
     0
 90
        0
176
     0
 62
    18
420
        0
176
     0
 90
       50
176
     0
 90
        3
176
     0
 62
     5
420
      255
176
     0
290
     0
176
     0
 90
       50
176
     0
 90
       50
176
     0
 90
       50
176
     0
290
     0
176
     0
 90
       50
176
     0
 62
   256
176
     0
 40
1.0
176
     0
 90
        2
176
     0
  1
strokes_ogs.tif
176
     0
290
     0
176
     0
 40
1.0
176
     0
 40
1.0
176
     0
  0
VISUALSTYLE
  5
38
102
{ACAD_REACTORS
330
2A
102
}
330
2A
100
AcDbVisualStyle
  2
Linepattern
 70
    14
177
     3
291
     1
 70
    58
 90
        2
176
     1
 90
        2
176
     1
 90
        0
176
     1
 90
        0
176
     1
 40
0.6
176
     1
 40
30.0
176
     1
 62
     7
420
 16777215
176
     1
 90
        1
176
     1
 90
        4
176
     1
 62
     7
176
     1
 62
   257
176
     1
 90
        7
176
     1
 90
        7
176
     1
 40
1.0
176
     1
 90
        8
176
     1
 62
     7
176
     1
 40
1.0
176
     1
 90
        1
176
     1
 90
        6
176
     1
 90
        2
176
     1
 62
     7
176
     1
 90
        5
176
     1
 90
        0
176
     1
 90
        0
176
     1
290
     0
176
     1
 90
        1
176
     1
 40
0.0
176
     1
 90
        0
176
     1
290
     0
176
     1
290
     1
176
     1
290
     1
176
     1
290
     0
176
     1
290
     0
176
     1
290
     0
176
     1
290
     0
176
     1
290
     0
176
     1
290
     0
176
     1
 90
       50
176
     1
 40
0.0
176
     1
 40
1.0
176
     1
 90
        0
176
     1
 62
    18
420
        0
176
     1
 90
       50
176
     1
 90
        3
176
     1
 62
     5
420
      255
176
     1
290
     0
176
     1
 90
       50
176
     1
 90
       50
176
     1
 90
       50
176
     1
290
     0
176
     1
 90
       50
176
     1
 62
   256
176
     0
 40
1.0
176
     0
 90
        2
176
     1
  1
strokes_ogs.tif
176
     1
290
     0
176
     1
 40
1.0
176
     1
 40
1.0
176
     1
  0
VISUALSTYLE
  5
3C
102
{ACAD_REACTORS
330
2A
102
}
330
2A
100
AcDbVisualStyle
  2
OverhangOff
 70
    21
177
     3
291
     1
 70
    58
 90
        2
176
     0
 90
        2
176
     0
 90
        0
176
     0
 90
        0
176
     0
 40
0.6
176
     0
 40
30.0
176
     0
 62
     7
420
 16777215
176
     0
 90
        1
176
     0
 90
        4
176
     0
 62
     7
176
     0
 62
   257
176
     0
 90
        1
176
     0
 90
        1
176
     0
 40
1.0
176
     0
 90
        9
176
     2
 62
     7
176
     0
 40
1.0
176
     0
 90
        1
176
     0
 90
        6
176
     0
 90
        2
176
     0
 62
     7
176
     0
 90
        5
176
     0
 90
        0
176
     0
 90
        0
176
     0
290
     0
176
     0
 90
        1
176
     0
 40
0.0
176
     0
 90
        0
176
     0
290
     0
176
     0
290
     1
176
     0
290
     1
176
     0
290
     0
176
     0
290
     0
176
     0
290
     0
176
     0
290
     0
176
     0
290
     0
176
     0
290
     0
176
     0
 90
       50
176
     0
 40
0.0
176
     0
 40
1.0
176
     0
 90
        0
176
     0
 62
    18
420
        0
176
     0
 90
       50
176
     0
 90
        3
176
     0
 62
     5
420
      255
176
     0
290
     0
176
     0
 90
       50
176
     0
 90
       50
176
     0
 90
       50
176
     0
290
     0
176
     0
 90
       50
176
     0
 62
   256
176
     0
 40
1.0
176
     0
 90
        2
176
     0
  1
strokes_ogs.tif
176
     0
290
     0
176
     0
 40
1.0
176
     0
 40
1.0
176
     0
  0
VISUALSTYLE
  5
33
102
{ACAD_REACTORS
330
2A
102
}
330
2A
100
AcDbVisualStyle
  2
Realistic
 70
     8
177
     3
291
     0
 70
    58
 90
        2
176
     1
 90
        3
176
     1
 90
        0
176
     1
 90
        2
176
     1
 40
0.6
176
     1
 40
30.0
176
     1
 62
     7
420
 16777215
176
     1
 90
        0
176
     1
 90
        0
176
     1
 62
     7
176
     1
 62
   257
176
     1
 90
        1
176
     1
 90
        1
176
     1
 40
1.0
176
     1
 90
        8
176
     1
 62
   257
176
     1
 40
1.0
176
     1
 90
        1
176
     1
 90
        6
176
     1
 90
        2
176
     1
 62
     7
176
     1
 90
        3
176
     1
 90
        0
176
     1
 90
        0
176
     1
290
     0
176
     1
 90
       13
176
     1
 40
0.0
176
     1
 90
        0
176
     1
290
     0
176
     1
290
     1
176
     1
290
     1
176
     1
290
     0
176
     1
290
     0
176
     1
290
     0
176
     1
290
     0
176
     1
290
     0
176
     1
290
     0
176
     1
 90
       50
176
     1
 40
0.0
176
     1
 40
1.0
176
     1
 90
        0
176
     1
 62
    18
420
        0
176
     1
 90
       50
176
     1
 90
        3
176
     1
 62
     5
420
      255
176
     1
290
     0
176
     1
 90
       50
176
     1
 90
       50
176
     1
 90
       50
176
     1
290
     0
176
     1
 90
       50
176
     1
 62
   256
176
     0
 40
1.0
176
     0
 90
        2
176
     1
  1
strokes_ogs.tif
176
     1
290
     0
176
     1
 40
1.0
176
     1
 40
1.0
176
     1
  0
VISUALSTYLE
  5
42
102
{ACAD_REACTORS
330
2A
102
}
330
2A
100
AcDbVisualStyle
  2
Shaded
 70
    27
177
     3
291
     0
 70
    58
 90
        2
176
     1
 90
        2
176
     1
 90
        1
176
     1
 90
        2
176
     1
 40
0.6
176
     1
 40
30.0
176
     1
 62
     7
420
 16777215
176
     1
 90
        0
176
     1
 90
        4
176
     1
 62
     7
176
     1
 62
   257
176
     1
 90
        1
176
     1
 90
        1
176
     1
 40
1.0
176
     1
 90
        8
176
     1
 62
   257
176
     1
 40
1.0
176
     1
 90
        1
176
     1
 90
        6
176
     1
 90
        2
176
     1
 62
     8
420
  7895160
176
     1
 90
        3
176
     1
 90
        0
176
     1
 90
        0
176
     1
290
     0
176
     1
 90
        5
176
     1
 40
0.0
176
     1
 90
        0
176
     1
290
     0
176
     1
290
     1
176
     1
290
     1
176
     1
290
     0
176
     1
290
     0
176
     1
290
     0
176
     1
290
     0
176
     1
290
     0
176
     1
290
     0
176
     1
 90
       50
176
     1
 40
0.0
176
     1
 40
1.0
176
     1
 90
        0
176
     1
 62
    18
420
        0
176
     1
 90
       50
176
     1
 90
        3
176
     1
 62
     5
420
      255
176
     1
290
     0
176
     1
 90
       50
176
     1
 90
       50
176
     1
 90
       50
176
     1
290
     0
176
     1
 90
       50
176
     1
 62
   256
176
     0
 40
1.0
176
     0
 90
        2
176
     1
  1
strokes_ogs.tif
176
     1
290
     0
176
     1
 40
1.0
176
     1
 40
1.0
176
     1
  0
VISUALSTYLE
  5
41
102
{ACAD_REACTORS
330
2A
102
}
330
2A
100
AcDbVisualStyle
  2
Shaded with edges
 70
    26
177
     3
291
     0
 70
    58
 90
        2
176
     1
 90
        2
176
     1
 90
        1
176
     1
 90
        2
176
     1
 40
0.6
176
     1
 40
30.0
176
     1
 62
     7
420
 16777215
176
     1
 90
        1
176
     1
 90
       10
176
     1
 62
     7
176
     1
 62
   257
176
     1
 90
        2
176
     1
 90
        1
176
     1
 40
1.0
176
     1
 90
        8
176
     1
 62
   257
176
     1
 40
1.0
176
     1
 90
        1
176
     1
 90
        6
176
     1
 90
        2
176
     1
 62
     7
176
     1
 90
        3
176
     1
 90
        0
176
     1
 90
        0
176
     1
290
     0
176
     1
 90
        5
176
     1
 40
0.0
176
     1
 90
        0
176
     1
290
     0
176
     1
290
     1
176
     1
290
     1
176
     1
290
     0
176
     1
290
     0
176
     1
290
     0
176
     1
290
     0
176
     1
290
     0
176
     1
290
     0
176
     1
 90
       50
176
     1
 40
0.0
176
     1
 40
1.0
176
     1
 90
        0
176
     1
 62
    18
420
        0
176
     1
 90
       50
176
     1
 90
        3
176
     1
 62
     5
420
      255
176
     1
290
     0
176
     1
 90
       50
176
     1
 90
       50
176
     1
 90
       50
176
     1
290
     0
176
     1
 90
       50
176
     1
 62
   256
176
     0
 40
1.0
176
     0
 90
        2
176
     1
  1
strokes_ogs.tif
176
     1
290
     0
176
     1
 40
1.0
176
     1
 40
1.0
176
     1
  0
VISUALSTYLE
  5
3E
102
{ACAD_REACTORS
330
2A
102
}
330
2A
100
AcDbVisualStyle
  2
Shades of Gray
 70
    23
177
     3
291
     0
 70
    58
 90
        2
176
     1
 90
        2
176
     1
 90
        3
176
     1
 90
        0
176
     1
 40
0.6
176
     1
 40
30.0
176
     1
 62
     7
420
 16777215
176
     1
 90
        2
176
     1
 90
        2
176
     1
 62
     7
176
     1
 62
     7
176
     1
 90
        1
176
     1
 90
        1
176
     1
 40
40.0
176
     1
 90
        8
176
     1
 62
     7
176
     1
 40
1.0
176
     1
 90
        1
176
     1
 90
        6
176
     1
 90
        2
176
     1
 62
     7
176
     1
 90
        3
176
     1
 90
        0
176
     1
 90
        0
176
     1
290
     0
176
     1
 90
        1
176
     1
 40
0.0
176
     1
 90
        0
176
     1
290
     0
176
     1
290
     1
176
     1
290
     1
176
     1
290
     0
176
     1
290
     0
176
     1
290
     0
176
     1
290
     0
176
     1
290
     0
176
     1
290
     0
176
     1
 90
       50
176
     1
 40
0.0
176
     1
 40
1.0
176
     1
 90
        0
176
     1
 62
    18
420
        0
176
     1
 90
       50
176
     1
 90
        3
176
     1
 62
     5
420
      255
176
     1
290
     0
176
     1
 90
       50
176
     1
 90
       50
176
     1
 90
       50
176
     1
290
     0
176
     1
 90
       50
176
     1
 62
   256
176
     0
 40
1.0
176
     0
 90
        2
176
     1
  1
strokes_ogs.tif
176
     1
290
     0
176
     1
 40
1.0
176
     1
 40
1.0
176
     1
  0
VISUALSTYLE
  5
3F
102
{ACAD_REACTORS
330
2A
102
}
330
2A
100
AcDbVisualStyle
  2
Sketchy
 70
    24
177
     3
291
     0
 70
    58
 90
        1
176
     1
 90
        2
176
     1
 90
        2
176
     1
 90
        0
176
     1
 40
0.6
176
     1
 40
30.0
176
     1
 62
     7
420
 16777215
176
     1
 90
        2
176
     1
 90
        2
176
     1
 62
     7
176
     1
 62
     7
176
     1
 90
        1
176
     1
 90
        1
176
     1
 40
40.0
176
     1
 90
       11
176
     1
 62
     7
176
     1
 40
1.0
176
     1
 90
        1
176
     1
 90
        6
176
     1
 90
        2
176
     1
 62
     7
176
     1
 90
        6
176
     1
 90
        0
176
     1
 90
        0
176
     1
290
     0
176
     1
 90
        1
176
     1
 40
0.0
176
     1
 90
        0
176
     1
290
     0
176
     1
290
     1
176
     1
290
     1
176
     1
290
     0
176
     1
290
     0
176
     1
290
     0
176
     1
290
     0
176
     1
290
     0
176
     1
290
     0
176
     1
 90
       50
176
     1
 40
0.0
176
     1
 40
1.0
176
     1
 90
        0
176
     1
 62
    18
420
        0
176
     1
 90
       50
176
     1
 90
        3
176
     1
 62
     5
420
      255
176
     1
290
     0
176
     1
 90
       50
176
     1
 90
       50
176
     1
 90
       50
176
     1
290
     0
176
     1
 90
       50
176
     1
 62
   256
176
     0
 40
1.0
176
     0
 90
        2
176
     1
  1
strokes_ogs.tif
176
     1
290
     0
176
     1
 40
1.0
176
     1
 40
1.0
176
     1
  0
VISUALSTYLE
  5
37
102
{ACAD_REACTORS
330
2A
102
}
330
2A
100
AcDbVisualStyle
  2
Thicken
 70
    13
177
     3
291
     1
 70
    58
 90
        2
176
     1
 90
        2
176
     1
 90
        0
176
     1
 90
        0
176
     1
 40
0.6
176
     1
 40
30.0
176
     1
 62
     7
420
 16777215
176
     1
 90
        1
176
     1
 90
        4
176
     1
 62
     7
176
     1
 62
   257
176
     1
 90
        1
176
     1
 90
        1
176
     1
 40
1.0
176
     1
 90
       12
176
     1
 62
     7
176
     1
 40
1.0
176
     1
 90
        1
176
     1
 90
        6
176
     1
 90
        2
176
     1
 62
     7
176
     1
 90
        5
176
     1
 90
        0
176
     1
 90
        0
176
     1
290
     0
176
     1
 90
        1
176
     1
 40
0.0
176
     1
 90
        0
176
     1
290
     0
176
     1
290
     1
176
     1
290
     1
176
     1
290
     0
176
     1
290
     0
176
     1
290
     0
176
     1
290
     0
176
     1
290
     0
176
     1
290
     0
176
     1
 90
       50
176
     1
 40
0.0
176
     1
 40
1.0
176
     1
 90
        0
176
     1
 62
    18
420
        0
176
     1
 90
       50
176
     1
 90
        3
176
     1
 62
     5
420
      255
176
     1
290
     0
176
     1
 90
       50
176
     1
 90
       50
176
     1
 90
       50
176
     1
290
     0
176
     1
 90
       50
176
     1
 62
   256
176
     0
 40
1.0
176
     0
 90
        2
176
     1
  1
strokes_ogs.tif
176
     1
290
     0
176
     1
 40
1.0
176
     1
 40
1.0
176
     1
  0
VISUALSTYLE
  5
30
102
{ACAD_REACTORS
330
2A
102
}
330
2A
100
AcDbVisualStyle
  2
Wireframe
 70
     5
177
     3
291
     0
 70
    58
 90
        0
176
     1
 90
        2
176
     1
 90
        0
176
     1
 90
        0
176
     1
 40
0.6
176
     1
 40
30.0
176
     1
 62
     7
420
 16777215
176
     1
 90
        1
176
     1
 90
        4
176
     1
 62
     7
176
     1
 62
   257
176
     1
 90
        1
176
     1
 90
        1
176
     1
 40
1.0
176
     1
 90
        0
176
     1
 62
   257
176
     1
 40
1.0
176
     1
 90
        1
176
     1
 90
        6
176
     1
 90
        2
176
     1
 62
     7
176
     1
 90
        3
176
     1
 90
        0
176
     1
 90
        0
176
     1
290
     0
176
     1
 90
        1
176
     1
 40
0.0
176
     1
 90
        0
176
     1
290
     0
176
     1
290
     1
176
     1
290
     1
176
     1
290
     0
176
     1
290
     0
176
     1
290
     0
176
     1
290
     0
176
     1
290
     0
176
     1
290
     0
176
     1
 90
       50
176
     1
 40
0.0
176
     1
 40
1.0
176
     1
 90
        0
176
     1
 62
    18
420
        0
176
     1
 90
       50
176
     1
 90
        3
176
     1
 62
     5
420
      255
176
     1
290
     0
176
     1
 90
       50
176
     1
 90
       50
176
     1
 90
       50
176
     1
290
     0
176
     1
 90
       50
176
     1
 62
   256
176
     0
 40
1.0
176
     0
 90
        2
176
     1
  1
strokes_ogs.tif
176
     1
290
     0
176
     1
 40
1.0
176
     1
 40
1.0
176
     1
  0
VISUALSTYLE
  5
40
102
{ACAD_REACTORS
330
2A
102
}
330
2A
100
AcDbVisualStyle
  2
X-Ray
 70
    25
177
     3
291
     0
 70
    58
 90
        2
176
     1
 90
        2
176
     1
 90
        1
176
     1
 90
        1
176
     1
 40
0.5
176
     1
 40
30.0
176
     1
 62
     7
420
 16777215
176
     1
 90
        1
176
     1
 90
        0
176
     1
 62
     7
176
     1
 62
   257
176
     1
 90
        1
176
     1
 90
        1
176
     1
 40
1.0
176
     1
 90
        8
176
     1
 62
     7
176
     1
 40
1.0
176
     1
 90
        1
176
     1
 90
        6
176
     1
 90
        2
176
     1
 62
     7
176
     1
 90
        3
176
     1
 90
        0
176
     1
 90
        0
176
     1
290
     0
176
     1
 90
       13
176
     1
 40
0.0
176
     1
 90
        0
176
     1
290
     0
176
     1
290
     1
176
     1
290
     1
176
     1
290
     0
176
     1
290
     0
176
     1
290
     0
176
     1
290
     0
176
     1
290
     0
176
     1
290
     0
176
     1
 90
       50
176
     1
 40
0.0
176
     1
 40
1.0
176
     1
 90
        0
176
     1
 62
    18
420
        0
176
     1
 90
       50
176
     1
 90
        3
176
     1
 62
     5
420
      255
176
     1
290
     0
176
     1
 90
       50
176
     1
 90
       50
176
     1
 90
       50
176
     1
290
     0
176
     1
 90
       50
176
     1
 62
   256
176
     0
 40
1.0
176
     0
 90
        2
176
     1
  1
strokes_ogs.tif
176
     1
290
     0
176
     1
 40
1.0
176
     1
 40
1.0
176
     1
  0
DICTIONARYVAR
  5
13F
102
{ACAD_REACTORS
330
13E
102
}
330
13E
100
DictionaryVariables
280
     0
  1
1:1
  0
DICTIONARYVAR
  5
144
102
{ACAD_REACTORS
330
13E
102
}
330
13E
100
DictionaryVariables
280
     0
  1
Standard
  0
DICTIONARYVAR
  5
143
102
{ACAD_REACTORS
330
13E
102
}
330
13E
100
DictionaryVariables
280
     0
  1
Standard
  0
DICTIONARY
  5
140
330
6A
100
AcDbDictionary
280
     1
281
     1
  3
ACAD_ROUNDTRIP_2008_TABLESTYLE_CELLSTYLEMAP
360
141
  0
CELLSTYLEMAP
  5
141
102
{ACAD_REACTORS
330
140
102
}
330
140
100
AcDbCellStyleMap
 90
        3
300
CELLSTYLE
  1
TABLEFORMAT_BEGIN
 90
        5
170
     1
 91
        0
 92
    32768
 62
   257
 93
        1
300
CONTENTFORMAT
  1
CONTENTFORMAT_BEGIN
 90
        0
 91
        0
 92
        4
 93
        0
300

 40
0.0
140
1.0
 94
        5
 62
     0
340
11
144
0.25
309
CONTENTFORMAT_END
171
     1
301
MARGIN
  1
CELLMARGIN_BEGIN
 40
0.06
 40
0.06
 40
0.06
 40
0.06
 40
0.06
 40
0.06
309
CELLMARGIN_END
 94
        6
 95
        1
302
GRIDFORMAT
  1
GRIDFORMAT_BEGIN
 90
        0
 91
        1
 62
     0
 92
       -2
340
14
 93
        0
 40
0.045
309
GRIDFORMAT_END
 95
        2
302
GRIDFORMAT
  1
GRIDFORMAT_BEGIN
 90
        0
 91
        1
 62
     0
 92
       -2
340
14
 93
        0
 40
0.045
309
GRIDFORMAT_END
 95
        4
302
GRIDFORMAT
  1
GRIDFORMAT_BEGIN
 90
        0
 91
        1
 62
     0
 92
       -2
340
14
 93
        0
 40
0.045
309
GRIDFORMAT_END
 95
        8
302
GRIDFORMAT
  1
GRIDFORMAT_BEGIN
 90
        0
 91
        1
 62
     0
 92
       -2
340
14
 93
        0
 40
0.045
309
GRIDFORMAT_END
 95
       16
302
GRIDFORMAT
  1
GRIDFORMAT_BEGIN
 90
        0
 91
        1
 62
     0
 92
       -2
340
14
 93
        0
 40
0.045
309
GRIDFORMAT_END
 95
       32
302
GRIDFORMAT
  1
GRIDFORMAT_BEGIN
 90
        0
 91
        1
 62
     0
 92
       -2
340
14
 93
        0
 40
0.045
309
GRIDFORMAT_END
309
TABLEFORMAT_END
  1
CELLSTYLE_BEGIN
 90
        1
 91
        1
300
_TITLE
309
CELLSTYLE_END
300
CELLSTYLE
  1
TABLEFORMAT_BEGIN
 90
        5
170
     1
 91
        0
 92
        0
 62
   257
 93
        1
300
CONTENTFORMAT
  1
CONTENTFORMAT_BEGIN
 90
        0
 91
        0
 92
        4
 93
        0
300

 40
0.0
140
1.0
 94
        5
 62
     0
340
11
144
0.18
309
CONTENTFORMAT_END
171
     1
301
MARGIN
  1
CELLMARGIN_BEGIN
 40
0.06
 40
0.06
 40
0.06
 40
0.06
 40
0.06
 40
0.06
309
CELLMARGIN_END
 94
        6
 95
        1
302
GRIDFORMAT
  1
GRIDFORMAT_BEGIN
 90
        0
 91
        1
 62
     0
 92
       -2
340
14
 93
        0
 40
0.045
309
GRIDFORMAT_END
 95
        2
302
GRIDFORMAT
  1
GRIDFORMAT_BEGIN
 90
        0
 91
        1
 62
     0
 92
       -2
340
14
 93
        0
 40
0.045
309
GRIDFORMAT_END
 95
        4
302
GRIDFORMAT
  1
GRIDFORMAT_BEGIN
 90
        0
 91
        1
 62
     0
 92
       -2
340
14
 93
        0
 40
0.045
309
GRIDFORMAT_END
 95
        8
302
GRIDFORMAT
  1
GRIDFORMAT_BEGIN
 90
        0
 91
        1
 62
     0
 92
       -2
340
14
 93
        0
 40
0.045
309
GRIDFORMAT_END
 95
       16
302
GRIDFORMAT
  1
GRIDFORMAT_BEGIN
 90
        0
 91
        1
 62
     0
 92
       -2
340
14
 93
        0
 40
0.045
309
GRIDFORMAT_END
 95
       32
302
GRIDFORMAT
  1
GRIDFORMAT_BEGIN
 90
        0
 91
        1
 62
     0
 92
       -2
340
14
 93
        0
 40
0.045
309
GRIDFORMAT_END
309
TABLEFORMAT_END
  1
CELLSTYLE_BEGIN
 90
        2
 91
        1
300
_HEADER
309
CELLSTYLE_END
300
CELLSTYLE
  1
TABLEFORMAT_BEGIN
 90
        5
170
     1
 91
        0
 92
        0
 62
   257
 93
        1
300
CONTENTFORMAT
  1
CONTENTFORMAT_BEGIN
 90
        0
 91
        0
 92
        4
 93
        0
300

 40
0.0
140
1.0
 94
        2
 62
     0
340
11
144
0.18
309
CONTENTFORMAT_END
171
     1
301
MARGIN
  1
CELLMARGIN_BEGIN
 40
0.06
 40
0.06
 40
0.06
 40
0.06
 40
0.06
 40
0.06
309
CELLMARGIN_END
 94
        6
 95
        1
302
GRIDFORMAT
  1
GRIDFORMAT_BEGIN
 90
        0
 91
        1
 62
     0
 92
       -2
340
14
 93
        0
 40
0.045
309
GRIDFORMAT_END
 95
        2
302
GRIDFORMAT
  1
GRIDFORMAT_BEGIN
 90
        0
 91
        1
 62
     0
 92
       -2
340
14
 93
        0
 40
0.045
309
GRIDFORMAT_END
 95
        4
302
GRIDFORMAT
  1
GRIDFORMAT_BEGIN
 90
        0
 91
        1
 62
     0
 92
       -2
340
14
 93
        0
 40
0.045
309
GRIDFORMAT_END
 95
        8
302
GRIDFORMAT
  1
GRIDFORMAT_BEGIN
 90
        0
 91
        1
 62
     0
 92
       -2
340
14
 93
        0
 40
0.045
309
GRIDFORMAT_END
 95
       16
302
GRIDFORMAT
  1
GRIDFORMAT_BEGIN
 90
        0
 91
        1
 62
     0
 92
       -2
340
14
 93
        0
 40
0.045
309
GRIDFORMAT_END
 95
       32
302
GRIDFORMAT
  1
GRIDFORMAT_BEGIN
 90
        0
 91
        1
 62
     0
 92
       -2
340
14
 93
        0
 40
0.045
309
GRIDFORMAT_END
309
TABLEFORMAT_END
  1
CELLSTYLE_BEGIN
 90
        3
 91
        2
300
_DATA
309
CELLSTYLE_END
  0
ENDSEC
  0
EOF