0
SECTION
  2
HEADER
  9
$ACADVER
  1
AC1027
  9
$ACADMAINTVER
 70
     8
  9
$DWGCODEPAGE
  3
ANSI_1252
  9
$REQUIREDVERSIONS
160
                 0
  9
$COMMENTS
  1
File was created by Cadenas
  9
$CUSTOMPROPERTYTAG
  1
NN
  9
$CUSTOMPROPERTY
  1
Set Screw Two-Bolt Flange Metric Bore - Polymer Housing, Stainless Steel Insert
  9
$CUSTOMPROPERTYTAG
  1
NT
  9
$CUSTOMPROPERTY
  1
SC 2 Bolt Flange Bearings -(Normal Duty) -Corrosion Resistant Insert -Polymer Housed -E-Z KLEEN
  9
$CUSTOMPROPERTYTAG
  1
NB
  9
$CUSTOMPROPERTY
  1
136754
  9
$CUSTOMPROPERTYTAG
  1
NBSYN
  9
$CUSTOMPROPERTY
  1
$PN.
  9
$CUSTOMPROPERTYTAG
  1
LINA
  9
$CUSTOMPROPERTY
  1
136754
  9
$CUSTOMPROPERTYTAG
  1
SERIES
  9
$CUSTOMPROPERTY
  1
207
  9
$CUSTOMPROPERTYTAG
  1
SS
  9
$CUSTOMPROPERTY
  1
35
  9
$CUSTOMPROPERTYTAG
  1
PN
  9
$CUSTOMPROPERTY
  1
136754
  9
$CUSTOMPROPERTYTAG
  1
DESCRIPTION
  9
$CUSTOMPROPERTY
  1
F2B-SCEZ-35M-PSS
  9
$CUSTOMPROPERTYTAG
  1
W
  9
$CUSTOMPROPERTY
  1
0.61
  9
$CUSTOMPROPERTYTAG
  1
A
  9
$CUSTOMPROPERTY
  1
43.4
  9
$CUSTOMPROPERTYTAG
  1
B
  9
$CUSTOMPROPERTY
  1
160.3
  9
$CUSTOMPROPERTYTAG
  1
C
  9
$CUSTOMPROPERTY
  1
46.3
  9
$CUSTOMPROPERTYTAG
  1
D
  9
$CUSTOMPROPERTY
  1
130.0
  9
$CUSTOMPROPERTYTAG
  1
F
  9
$CUSTOMPROPERTY
  1
M12
  9
$CUSTOMPROPERTYTAG
  1
H
  9
$CUSTOMPROPERTY
  1
15.7
  9
$CUSTOMPROPERTYTAG
  1
J
  9
$CUSTOMPROPERTY
  1
13.8
  9
$CUSTOMPROPERTYTAG
  1
L
  9
$CUSTOMPROPERTY
  1
46.7
  9
$CUSTOMPROPERTYTAG
  1
M
  9
$CUSTOMPROPERTY
  1
93.7
  9
$CUSTOMPROPERTYTAG
  1
COMPANY
  9
$CUSTOMPROPERTY
  1
baldor
  9
$INSBASE
 10
0.0
 20
0.0
 30
0.0
  9
$EXTMIN
 10
1.000000000000000E+20
 20
1.000000000000000E+20
 30
1.000000000000000E+20
  9
$EXTMAX
 10
-1.000000000000000E+20
 20
-1.000000000000000E+20
 30
-1.000000000000000E+20
  9
$LIMMIN
 10
0.0
 20
0.0
  9
$LIMMAX
 10
420.0
 20
297.0
  9
$ORTHOMODE
 70
     0
  9
$REGENMODE
 70
     1
  9
$FILLMODE
 70
     1
  9
$QTEXTMODE
 70
     0
  9
$MIRRTEXT
 70
     1
  9
$LTSCALE
 40
1.0
  9
$ATTMODE
 70
     1
  9
$TEXTSIZE
 40
2.5
  9
$TRACEWID
 40
1.0
  9
$TEXTSTYLE
  7
Standard
  9
$CLAYER
  8
0
  9
$CELTYPE
  6
ByLayer
  9
$CECOLOR
 62
   256
  9
$CELTSCALE
 40
1.0
  9
$DISPSILH
 70
     0
  9
$DIMSCALE
 40
1.0
  9
$DIMASZ
 40
2.5
  9
$DIMEXO
 40
0.625
  9
$DIMDLI
 40
3.75
  9
$DIMRND
 40
0.0
  9
$DIMDLE
 40
0.0
  9
$DIMEXE
 40
1.25
  9
$DIMTP
 40
0.0
  9
$DIMTM
 40
0.0
  9
$DIMTXT
 40
2.5
  9
$DIMCEN
 40
2.5
  9
$DIMTSZ
 40
0.0
  9
$DIMTOL
 70
     0
  9
$DIMLIM
 70
     0
  9
$DIMTIH
 70
     0
  9
$DIMTOH
 70
     0
  9
$DIMSE1
 70
     0
  9
$DIMSE2
 70
     0
  9
$DIMTAD
 70
     1
  9
$DIMZIN
 70
     8
  9
$DIMBLK
  1

  9
$DIMASO
 70
     1
  9
$DIMSHO
 70
     1
  9
$DIMPOST
  1

  9
$DIMAPOST
  1

  9
$DIMALT
 70
     0
  9
$DIMALTD
 70
     3
  9
$DIMALTF
 40
0.03937007874016
  9
$DIMLFAC
 40
1.0
  9
$DIMTOFL
 70
     1
  9
$DIMTVP
 40
0.0
  9
$DIMTIX
 70
     0
  9
$DIMSOXD
 70
     0
  9
$DIMSAH
 70
     0
  9
$DIMBLK1
  1

  9
$DIMBLK2
  1

  9
$DIMSTYLE
  2
ISO-25
  9
$DIMCLRD
 70
     0
  9
$DIMCLRE
 70
     0
  9
$DIMCLRT
 70
     0
  9
$DIMTFAC
 40
1.0
  9
$DIMGAP
 40
0.625
  9
$DIMJUST
 70
     0
  9
$DIMSD1
 70
     0
  9
$DIMSD2
 70
     0
  9
$DIMTOLJ
 70
     0
  9
$DIMTZIN
 70
     8
  9
$DIMALTZ
 70
     0
  9
$DIMALTTZ
 70
     0
  9
$DIMUPT
 70
     0
  9
$DIMDEC
 70
     2
  9
$DIMTDEC
 70
     2
  9
$DIMALTU
 70
     2
  9
$DIMALTTD
 70
     3
  9
$DIMTXSTY
  7
Standard
  9
$DIMAUNIT
 70
     0
  9
$DIMADEC
 70
     0
  9
$DIMALTRND
 40
0.0
  9
$DIMAZIN
 70
     0
  9
$DIMDSEP
 70
    44
  9
$DIMATFIT
 70
     3
  9
$DIMFRAC
 70
     0
  9
$DIMLDRBLK
  1

  9
$DIMLUNIT
 70
     2
  9
$DIMLWD
 70
    -2
  9
$DIMLWE
 70
    -2
  9
$DIMTMOVE
 70
     0
  9
$DIMFXL
 40
1.0
  9
$DIMFXLON
 70
     0
  9
$DIMJOGANG
 40
0.7853981633974483
  9
$DIMTFILL
 70
     0
  9
$DIMTFILLCLR
 70
     0
  9
$DIMARCSYM
 70
     0
  9
$DIMLTYPE
  6

  9
$DIMLTEX1
  6

  9
$DIMLTEX2
  6

  9
$DIMTXTDIRECTION
 70
     0
  9
$LUNITS
 70
     2
  9
$LUPREC
 70
     4
  9
$SKETCHINC
 40
1.0
  9
$FILLETRAD
 40
10.0
  9
$AUNITS
 70
     0
  9
$AUPREC
 70
     0
  9
$MENU
  1
.
  9
$ELEVATION
 40
0.0
  9
$PELEVATION
 40
0.0
  9
$THICKNESS
 40
0.0
  9
$LIMCHECK
 70
     0
  9
$CHAMFERA
 40
0.0
  9
$CHAMFERB
 40
0.0
  9
$CHAMFERC
 40
0.0
  9
$CHAMFERD
 40
0.0
  9
$SKPOLY
 70
     0
  9
$TDCREATE
 40
2458168.89077228
  9
$TDUCREATE
 40
2458168.849105613
  9
$TDUPDATE
 40
2458168.89077228
  9
$TDUUPDATE
 40
2458168.849105613
  9
$TDINDWG
 40
0.0000000116
  9
$TDUSRTIMER
 40
0.0000000116
  9
$USRTIMER
 70
     1
  9
$ANGBASE
 50
0.0
  9
$ANGDIR
 70
     0
  9
$PDMODE
 70
     0
  9
$PDSIZE
 40
0.0
  9
$PLINEWID
 40
0.0
  9
$SPLFRAME
 70
     0
  9
$SPLINETYPE
 70
     6
  9
$SPLINESEGS
 70
     8
  9
$HANDSEED
  5
170
  9
$SURFTAB1
 70
     6
  9
$SURFTAB2
 70
     6
  9
$SURFTYPE
 70
     6
  9
$SURFU
 70
     6
  9
$SURFV
 70
     6
  9
$UCSBASE
  2

  9
$UCSNAME
  2

  9
$UCSORG
 10
0.0
 20
0.0
 30
0.0
  9
$UCSXDIR
 10
1.0
 20
0.0
 30
0.0
  9
$UCSYDIR
 10
0.0
 20
1.0
 30
0.0
  9
$UCSORTHOREF
  2

  9
$UCSORTHOVIEW
 70
     0
  9
$UCSORGTOP
 10
0.0
 20
0.0
 30
0.0
  9
$UCSORGBOTTOM
 10
0.0
 20
0.0
 30
0.0
  9
$UCSORGLEFT
 10
0.0
 20
0.0
 30
0.0
  9
$UCSORGRIGHT
 10
0.0
 20
0.0
 30
0.0
  9
$UCSORGFRONT
 10
0.0
 20
0.0
 30
0.0
  9
$UCSORGBACK
 10
0.0
 20
0.0
 30
0.0
  9
$PUCSBASE
  2

  9
$PUCSNAME
  2

  9
$PUCSORG
 10
0.0
 20
0.0
 30
0.0
  9
$PUCSXDIR
 10
1.0
 20
0.0
 30
0.0
  9
$PUCSYDIR
 10
0.0
 20
1.0
 30
0.0
  9
$PUCSORTHOREF
  2

  9
$PUCSORTHOVIEW
 70
     0
  9
$PUCSORGTOP
 10
0.0
 20
0.0
 30
0.0
  9
$PUCSORGBOTTOM
 10
0.0
 20
0.0
 30
0.0
  9
$PUCSORGLEFT
 10
0.0
 20
0.0
 30
0.0
  9
$PUCSORGRIGHT
 10
0.0
 20
0.0
 30
0.0
  9
$PUCSORGFRONT
 10
0.0
 20
0.0
 30
0.0
  9
$PUCSORGBACK
 10
0.0
 20
0.0
 30
0.0
  9
$USERI1
 70
     0
  9
$USERI2
 70
     0
  9
$USERI3
 70
     0
  9
$USERI4
 70
     0
  9
$USERI5
 70
     0
  9
$USERR1
 40
0.0
  9
$USERR2
 40
0.0
  9
$USERR3
 40
0.0
  9
$USERR4
 40
0.0
  9
$USERR5
 40
0.0
  9
$WORLDVIEW
 70
     1
  9
$SHADEDGE
 70
     3
  9
$SHADEDIF
 70
    70
  9
$TILEMODE
 70
     1
  9
$MAXACTVP
 70
    64
  9
$PINSBASE
 10
0.0
 20
0.0
 30
0.0
  9
$PLIMCHECK
 70
     0
  9
$PEXTMIN
 10
1.000000000000000E+20
 20
1.000000000000000E+20
 30
1.000000000000000E+20
  9
$PEXTMAX
 10
-1.000000000000000E+20
 20
-1.000000000000000E+20
 30
-1.000000000000000E+20
  9
$PLIMMIN
 10
0.0
 20
0.0
  9
$PLIMMAX
 10
420.0
 20
297.0
  9
$UNITMODE
 70
     0
  9
$VISRETAIN
 70
     1
  9
$PLINEGEN
 70
     0
  9
$PSLTSCALE
 70
     1
  9
$TREEDEPTH
 70
  3020
  9
$CMLSTYLE
  2
Standard
  9
$CMLJUST
 70
     0
  9
$CMLSCALE
 40
20.0
  9
$PROXYGRAPHICS
 70
     1
  9
$MEASUREMENT
 70
     1
  9
$CELWEIGHT
370
    -1
  9
$ENDCAPS
280
     0
  9
$JOINSTYLE
280
     0
  9
$LWDISPLAY
290
     0
  9
$INSUNITS
 70
     4
  9
$HYPERLINKBASE
  1

  9
$STYLESHEET
  1

  9
$XEDIT
290
     1
  9
$CEPSNTYPE
380
     0
  9
$PSTYLEMODE
290
     1
  9
$FINGERPRINTGUID
  2
{567A7EBF-6D4F-4E2E-B1DC-EA2EF53AC219}
  9
$VERSIONGUID
  2
{FAEB1C32-E019-11D5-929B-00C0DF256EC4}
  9
$EXTNAMES
290
     1
  9
$PSVPSCALE
 40
0.0
  9
$OLESTARTUP
290
     0
  9
$SORTENTS
280
   127
  9
$INDEXCTL
280
     0
  9
$HIDETEXT
280
     1
  9
$XCLIPFRAME
280
     2
  9
$HALOGAP
280
     0
  9
$OBSCOLOR
 70
   257
  9
$OBSLTYPE
280
     0
  9
$INTERSECTIONDISPLAY
280
     0
  9
$INTERSECTIONCOLOR
 70
   257
  9
$DIMASSOC
280
     2
  9
$PROJECTNAME
  1

  9
$CAMERADISPLAY
290
     0
  9
$LENSLENGTH
 40
50.0
  9
$CAMERAHEIGHT
 40
0.0
  9
$STEPSPERSEC
 40
2.0
  9
$STEPSIZE
 40
6.0
  9
$3DDWFPREC
 40
2.0
  9
$PSOLWIDTH
 40
5.0
  9
$PSOLHEIGHT
 40
80.0
  9
$LOFTANG1
 40
1.570796326794897
  9
$LOFTANG2
 40
1.570796326794897
  9
$LOFTMAG1
 40
0.0
  9
$LOFTMAG2
 40
0.0
  9
$LOFTPARAM
 70
     7
  9
$LOFTNORMALS
280
     1
  9
$LATITUDE
 40
37.795
  9
$LONGITUDE
 40
-122.394
  9
$NORTHDIRECTION
 40
0.0
  9
$TIMEZONE
 70
 -8000
  9
$LIGHTGLYPHDISPLAY
280
     1
  9
$TILEMODELIGHTSYNCH
280
     1
  9
$CMATERIAL
347
44
  9
$SOLIDHIST
280
     0
  9
$SHOWHIST
280
     1
  9
$DWFFRAME
280
     2
  9
$DGNFRAME
280
     2
  9
$REALWORLDSCALE
290
     1
  9
$INTERFERECOLOR
 62
   256
  9
$CSHADOW
280
     0
  9
$SHADOWPLANELOCATION
 40
0.0
  0
ENDSEC
  0
SECTION
  2
CLASSES
  0
CLASS
  1
ACDBDICTIONARYWDFLT
  2
AcDbDictionaryWithDefault
  3
ObjectDBX Classes
 90
        0
 91
        4
280
     0
281
     0
  0
CLASS
  1
VISUALSTYLE
  2
AcDbVisualStyle
  3
ObjectDBX Classes
 90
     4095
 91
        4
280
     0
281
     0
  0
CLASS
  1
MATERIAL
  2
AcDbMaterial
  3
ObjectDBX Classes
 90
     1153
 91
        4
280
     0
281
     0
  0
CLASS
  1
SCALE
  2
AcDbScale
  3
ObjectDBX Classes
 90
     1153
 91
        4
280
     0
281
     0
  0
CLASS
  1
TABLESTYLE
  2
AcDbTableStyle
  3
ObjectDBX Classes
 90
     4095
 91
        4
280
     0
281
     0
  0
CLASS
  1
MLEADERSTYLE
  2
AcDbMLeaderStyle
  3
ACDB_MLEADERSTYLE_CLASS
 90
     4095
 91
        4
280
     0
281
     0
  0
CLASS
  1
SUN
  2
AcDbSun
  3
SCENEOE
 90
     1153
 91
        4
280
     0
281
     0
  0
CLASS
  1
DICTIONARYVAR
  2
AcDbDictionaryVar
  3
ObjectDBX Classes
 90
        0
 91
        4
280
     0
281
     0
  0
CLASS
  1
CELLSTYLEMAP
  2
AcDbCellStyleMap
  3
ObjectDBX Classes
 90
     1152
 91
        4
280
     0
281
     0
  0
ENDSEC
  0
SECTION
  2
TABLES
  0
TABLE
  2
VPORT
  5
8
330
0
100
AcDbSymbolTable
 70
     1
  0
VPORT
  5
29
330
8
100
AcDbSymbolTableRecord
100
AcDbViewportTableRecord
  2
*Active
 70
     0
 10
0.0
 20
0.0
 11
1.0
 21
1.0
 12
0.0
 22
-23.42250000000001
 13
0.0
 23
0.0
 14
10.0
 24
10.0
 15
10.0
 25
10.0
 16
0.0
 26
0.0
 36
1.0
 17
0.0
 27
0.0
 37
0.0
 40
51.09690000000003
 41
1.87044615231061
 42
50.0
 43
0.0
 44
0.0
 50
0.0
 51
0.0
 71
     0
 72
   100
 73
     1
 74
     3
 75
     0
 76
     0
 77
     0
 78
     0
281
     0
 65
     1
110
0.0
120
0.0
130
0.0
111
1.0
121
0.0
131
0.0
112
0.0
122
1.0
132
0.0
 79
     0
146
0.0
348
2F
 60
     3
 61
     5
292
     1
282
     1
141
0.0
142
0.0
 63
   250
361
6D
  0
ENDTAB
  0
TABLE
  2
LTYPE
  5
5
330
0
100
AcDbSymbolTable
 70
     3
  0
LTYPE
  5
14
330
5
100
AcDbSymbolTableRecord
100
AcDbLinetypeTableRecord
  2
ByBlock
 70
     0
  3

 72
    65
 73
     0
 40
0.0
  0
LTYPE
  5
15
330
5
100
AcDbSymbolTableRecord
100
AcDbLinetypeTableRecord
  2
ByLayer
 70
     0
  3

 72
    65
 73
     0
 40
0.0
  0
LTYPE
  5
16
330
5
100
AcDbSymbolTableRecord
100
AcDbLinetypeTableRecord
  2
Continuous
 70
     0
  3
Solid line
 72
    65
 73
     0
 40
0.0
  0
LTYPE
  5
99
330
5
100
AcDbSymbolTableRecord
100
AcDbLinetypeTableRecord
  2
Dashed
 70
     0
  3

 72
    65
 73
     2
 40
2.0
 49
1.0
 74
     0
 49
-1.0
 74
     0
  0
LTYPE
  5
11B
330
5
100
AcDbSymbolTableRecord
100
AcDbLinetypeTableRecord
  2
Center
 70
     0
  3

 72
    65
 73
     4
 40
1.5
 49
0.45
 74
     0
 49
-0.5
 74
     0
 49
0.05
 74
     0
 49
-0.5
 74
     0
  0
ENDTAB
  0
TABLE
  2
LAYER
  5
2
330
0
100
AcDbSymbolTable
 70
     7
  0
LAYER
  5
10
330
2
100
AcDbSymbolTableRecord
100
AcDbLayerTableRecord
  2
0
 70
     0
 62
     7
  6
Continuous
370
    -3
390
F
347
46
348
0
  0
LAYER
  5
72
330
2
100
AcDbSymbolTableRecord
100
AcDbLayerTableRecord
  2
AM_6
 70
     0
 62
    -2
  6
Continuous
370
    35
390
F
347
46
348
0
  0
LAYER
  5
9A
330
2
100
AcDbSymbolTableRecord
100
AcDbLayerTableRecord
  2
AM_9
 70
     0
 62
     6
  6
Dashed
370
    25
390
F
347
46
348
0
  0
LAYER
  5
B6
330
2
100
AcDbSymbolTableRecord
100
AcDbLayerTableRecord
  2
AM_4
 70
     0
 62
     7
  6
Continuous
370
    50
390
F
347
46
348
0
  0
LAYER
  5
118
330
2
100
AcDbSymbolTableRecord
100
AcDbLayerTableRecord
  2
AM_5
 70
     0
 62
     3
  6
Continuous
370
    25
390
F
347
46
348
0
  0
LAYER
  5
11C
330
2
100
AcDbSymbolTableRecord
100
AcDbLayerTableRecord
  2
AM_7
 70
     0
 62
     7
  6
Center
370
    25
390
F
347
46
348
0
  0
LAYER
  5
162
330
2
100
AcDbSymbolTableRecord
100
AcDbLayerTableRecord
  2
ConnectionPoints
 70
     0
 62
     7
  6
Continuous
370
    50
390
F
347
46
348
0
  0
ENDTAB
  0
TABLE
  2
STYLE
  5
3
330
0
100
AcDbSymbolTable
 70
     1
  0
STYLE
  5
11
330
3
100
AcDbSymbolTableRecord
100
AcDbTextStyleTableRecord
  2
Standard
 70
     0
 40
0.0
 41
1.0
 50
0.0
 71
     0
 42
2.5
  3
txt
  4

  0
ENDTAB
  0
TABLE
  2
VIEW
  5
6
330
0
100
AcDbSymbolTable
 70
     0
  0
ENDTAB
  0
TABLE
  2
UCS
  5
7
330
0
100
AcDbSymbolTable
 70
     0
  0
ENDTAB
  0
TABLE
  2
APPID
  5
9
330
0
100
AcDbSymbolTable
 70
     1
  0
APPID
  5
12
330
9
100
AcDbSymbolTableRecord
100
AcDbRegAppTableRecord
  2
ACAD
 70
     0
  0
ENDTAB
  0
TABLE
  2
DIMSTYLE
  5
A
330
0
100
AcDbSymbolTable
 70
     1
100
AcDbDimStyleTable
  0
DIMSTYLE
105
27
330
A
100
AcDbSymbolTableRecord
100
AcDbDimStyleTableRecord
  2
ISO-25
 70
     0
 41
2.5
 42
0.625
 43
3.75
 44
1.25
 73
     0
 74
     0
 77
     1
 78
     8
140
2.5
141
2.5
143
0.03937007874016
147
0.625
171
     3
172
     1
178
     0
271
     2
272
     2
274
     3
278
    44
283
     0
284
     8
340
11
  0
ENDTAB
  0
TABLE
  2
BLOCK_RECORD
  5
1
330
0
100
AcDbSymbolTable
 70
     5
  0
BLOCK_RECORD
  5
1F
330
1
100
AcDbSymbolTableRecord
100
AcDbBlockTableRecord
  2
*Model_Space
340
22
 70
     0
280
     1
281
     0
  0
BLOCK_RECORD
  5
1B
330
1
100
AcDbSymbolTableRecord
100
AcDbBlockTableRecord
  2
*Paper_Space
340
1E
 70
     0
280
     1
281
     0
  0
BLOCK_RECORD
  5
23
330
1
100
AcDbSymbolTableRecord
100
AcDbBlockTableRecord
  2
*Paper_Space0
340
26
 70
     0
280
     1
281
     0
  0
BLOCK_RECORD
  5
6E
330
1
100
AcDbSymbolTableRecord
100
AcDbBlockTableRecord
  2
1_136754_4
340
0
102
{BLKREFS
331
6F
102
}
 70
     0
280
     1
281
     0
  0
BLOCK_RECORD
  5
87
330
1
100
AcDbSymbolTableRecord
100
AcDbBlockTableRecord
  2
2_405020c_M_0_in_136754_4
340
0
102
{BLKREFS
331
88
102
}
 70
     0
280
     1
281
     0
  0
BLOCK_RECORD
  5
D4
330
1
100
AcDbSymbolTableRecord
100
AcDbBlockTableRecord
  2
3_127864_0_in_136754_4
340
0
102
{BLKREFS
331
D5
102
}
 70
     0
280
     1
281
     0
  0
BLOCK_RECORD
  5
12D
330
1
100
AcDbSymbolTableRecord
100
AcDbBlockTableRecord
  2
4_136754H_0_in_136754_4
340
0
102
{BLKREFS
331
12E
102
}
 70
     0
280
     1
281
     0
  0
ENDTAB
  0
ENDSEC
  0
SECTION
  2
BLOCKS
  0
BLOCK
  5
20
330
1F
100
AcDbEntity
  8
0
100
AcDbBlockBegin
  2
*Model_Space
 70
     0
 10
0.0
 20
0.0
 30
0.0
  3
*Model_Space
  1

  0
ENDBLK
  5
21
330
1F
100
AcDbEntity
  8
0
100
AcDbBlockEnd
  0
BLOCK
  5
1C
330
1B
100
AcDbEntity
 67
     1
  8
0
100
AcDbBlockBegin
  2
*Paper_Space
 70
     0
 10
0.0
 20
0.0
 30
0.0
  3
*Paper_Space
  1

  0
ENDBLK
  5
1D
330
1B
100
AcDbEntity
 67
     1
  8
0
100
AcDbBlockEnd
  0
BLOCK
  5
24
330
23
100
AcDbEntity
  8
0
100
AcDbBlockBegin
  2
*Paper_Space0
 70
     0
 10
0.0
 20
0.0
 30
0.0
  3
*Paper_Space0
  1

  0
ENDBLK
  5
25
330
23
100
AcDbEntity
  8
0
100
AcDbBlockEnd
  0
BLOCK
  5
70
330
6E
100
AcDbEntity
  8
0
100
AcDbBlockBegin
  2
1_136754_4
 70
     2
 10
0.0
 20
0.0
 30
0.0
  3
1_136754_4
  1

  0
ATTDEF
  5
73
330
6E
100
AcDbEntity
  8
AM_6
100
AcDbText
 10
51.85
 20
1.625
 30
0.0
 40
0.5
  1
Set Screw Two-Bolt Flange Metric Bore - Polymer Housing, Stainless Steel Insert
100
AcDbAttributeDefinition
  3

  2
NN
 70
     8
280
     0
  0
ATTDEF
  5
74
330
6E
100
AcDbEntity
  8
AM_6
100
AcDbText
 10
51.85
 20
1.125
 30
0.0
 40
0.5
  1
SC 2 Bolt Flange Bearings -(Normal Duty) -Corrosion Resistant Insert -Polymer Housed -E-Z KLEEN
100
AcDbAttributeDefinition
  3

  2
NT
 70
     8
280
     0
  0
ATTDEF
  5
75
330
6E
100
AcDbEntity
  8
AM_6
100
AcDbText
 10
51.85
 20
0.625
 30
0.0
 40
0.5
  1
136754
100
AcDbAttributeDefinition
  3

  2
NB
 70
     8
280
     0
  0
ATTDEF
  5
76
330
6E
100
AcDbEntity
  8
AM_6
100
AcDbText
 10
51.85
 20
0.125
 30
0.0
 40
0.5
  1
$PN.
100
AcDbAttributeDefinition
  3

  2
NBSYN
 70
     8
280
     0
  0
ATTDEF
  5
77
330
6E
100
AcDbEntity
  8
AM_6
100
AcDbText
 10
51.85
 20
-0.375
 30
0.0
 40
0.5
  1
136754
100
AcDbAttributeDefinition
  3

  2
LINA
 70
     8
280
     0
  0
ATTDEF
  5
78
330
6E
100
AcDbEntity
  8
AM_6
100
AcDbText
 10
51.85
 20
-0.875
 30
0.0
 40
0.5
  1
207
100
AcDbAttributeDefinition
  3

  2
SERIES
 70
     8
280
     0
  0
ATTDEF
  5
79
330
6E
100
AcDbEntity
  8
AM_6
100
AcDbText
 10
51.85
 20
-1.375
 30
0.0
 40
0.5
  1
35
100
AcDbAttributeDefinition
  3

  2
SS
 70
     8
280
     0
  0
ATTDEF
  5
7A
330
6E
100
AcDbEntity
  8
AM_6
100
AcDbText
 10
51.85
 20
-1.875
 30
0.0
 40
0.5
  1
136754
100
AcDbAttributeDefinition
  3

  2
PN
 70
     8
280
     0
  0
ATTDEF
  5
7B
330
6E
100
AcDbEntity
  8
AM_6
100
AcDbText
 10
51.85
 20
-2.375
 30
0.0
 40
0.5
  1
F2B-SCEZ-35M-PSS
100
AcDbAttributeDefinition
  3

  2
DESCRIPTION
 70
     8
280
     0
  0
ATTDEF
  5
7C
330
6E
100
AcDbEntity
  8
AM_6
100
AcDbText
 10
51.85
 20
-2.875
 30
0.0
 40
0.5
  1
0.61
100
AcDbAttributeDefinition
  3

  2
W
 70
     8
280
     0
  0
ATTDEF
  5
7D
330
6E
100
AcDbEntity
  8
AM_6
100
AcDbText
 10
51.85
 20
-3.375
 30
0.0
 40
0.5
  1
43.4
100
AcDbAttributeDefinition
  3

  2
A
 70
     8
280
     0
  0
ATTDEF
  5
7E
330
6E
100
AcDbEntity
  8
AM_6
100
AcDbText
 10
51.85
 20
-3.875
 30
0.0
 40
0.5
  1
160.3
100
AcDbAttributeDefinition
  3

  2
B
 70
     8
280
     0
  0
ATTDEF
  5
7F
330
6E
100
AcDbEntity
  8
AM_6
100
AcDbText
 10
51.85
 20
-4.375
 30
0.0
 40
0.5
  1
46.3
100
AcDbAttributeDefinition
  3

  2
C
 70
     8
280
     0
  0
ATTDEF
  5
80
330
6E
100
AcDbEntity
  8
AM_6
100
AcDbText
 10
51.85
 20
-4.875
 30
0.0
 40
0.5
  1
130.0
100
AcDbAttributeDefinition
  3

  2
D
 70
     8
280
     0
  0
ATTDEF
  5
81
330
6E
100
AcDbEntity
  8
AM_6
100
AcDbText
 10
51.85
 20
-5.375
 30
0.0
 40
0.5
  1
M12
100
AcDbAttributeDefinition
  3

  2
F
 70
     8
280
     0
  0
ATTDEF
  5
82
330
6E
100
AcDbEntity
  8
AM_6
100
AcDbText
 10
51.85
 20
-5.875
 30
0.0
 40
0.5
  1
15.7
100
AcDbAttributeDefinition
  3

  2
H
 70
     8
280
     0
  0
ATTDEF
  5
83
330
6E
100
AcDbEntity
  8
AM_6
100
AcDbText
 10
51.85
 20
-6.375
 30
0.0
 40
0.5
  1
13.8
100
AcDbAttributeDefinition
  3

  2
J
 70
     8
280
     0
  0
ATTDEF
  5
84
330
6E
100
AcDbEntity
  8
AM_6
100
AcDbText
 10
51.85
 20
-6.875
 30
0.0
 40
0.5
  1
46.7
100
AcDbAttributeDefinition
  3

  2
L
 70
     8
280
     0
  0
ATTDEF
  5
85
330
6E
100
AcDbEntity
  8
AM_6
100
AcDbText
 10
51.85
 20
-7.375
 30
0.0
 40
0.5
  1
93.7
100
AcDbAttributeDefinition
  3

  2
M
 70
     8
280
     0
  0
ATTDEF
  5
86
330
6E
100
AcDbEntity
  8
AM_6
100
AcDbText
 10
51.85
 20
-7.875
 30
0.0
 40
0.5
  1
baldor
100
AcDbAttributeDefinition
  3

  2
COMPANY
 70
     8
280
     0
  0
INSERT
  5
88
330
6E
100
AcDbEntity
  8
0
100
AcDbBlockReference
  2
2_405020c_M_0_in_136754_4
 10
0.0
 20
0.0
 30
0.0
  0
INSERT
  5
D5
330
6E
100
AcDbEntity
  8
0
100
AcDbBlockReference
  2
3_127864_0_in_136754_4
 10
0.0
 20
0.0
 30
0.0
  0
INSERT
  5
12E
330
6E
100
AcDbEntity
  8
0
100
AcDbBlockReference
  2
4_136754H_0_in_136754_4
 10
0.0
 20
0.0
 30
0.0
  0
ENDBLK
  5
71
330
6E
100
AcDbEntity
  8
0
100
AcDbBlockEnd
  0
BLOCK
  5
89
330
87
100
AcDbEntity
  8
0
100
AcDbBlockBegin
  2
2_405020c_M_0_in_136754_4
 70
     2
 10
0.0
 20
0.0
 30
0.0
  3
2_405020c_M_0_in_136754_4
  1

  0
ATTDEF
  5
8B
330
87
100
AcDbEntity
  8
AM_6
100
AcDbText
 10
45.96107276775142
 20
-20.59999999999995
 30
0.0
 40
0.5
  1
405020C -Metric
100
AcDbAttributeDefinition
  3

  2
NN
 70
     8
280
     0
  0
ATTDEF
  5
8C
330
87
100
AcDbEntity
  8
AM_6
100
AcDbText
 10
45.96107276775142
 20
-21.09999999999995
 30
0.0
 40
0.5
  1
Grease fitting
100
AcDbAttributeDefinition
  3

  2
NT
 70
     8
280
     0
  0
ATTDEF
  5
8D
330
87
100
AcDbEntity
  8
AM_6
100
AcDbText
 10
45.96107276775142
 20
-21.59999999999995
 30
0.0
 40
0.5
  1
405020c-M
100
AcDbAttributeDefinition
  3

  2
NB
 70
     8
280
     0
  0
ATTDEF
  5
8E
330
87
100
AcDbEntity
  8
AM_6
100
AcDbText
 10
45.96107276775142
 20
-22.09999999999995
 30
0.0
 40
0.5
  1
$MN.-M
100
AcDbAttributeDefinition
  3

  2
NBSYN
 70
     8
280
     0
  0
ATTDEF
  5
8F
330
87
100
AcDbEntity
  8
AM_6
100
AcDbText
 10
45.96107276775142
 20
-22.59999999999995
 30
0.0
 40
0.5
  1
405020c
100
AcDbAttributeDefinition
  3

  2
LINA
 70
     8
280
     0
  0
ATTDEF
  5
90
330
87
100
AcDbEntity
  8
AM_6
100
AcDbText
 10
45.96107276775142
 20
-23.09999999999995
 30
0.0
 40
0.5
  1
405020c
100
AcDbAttributeDefinition
  3

  2
MN
 70
     8
280
     0
  0
ATTDEF
  5
91
330
87
100
AcDbEntity
  8
AM_6
100
AcDbText
 10
45.96107276775142
 20
-23.59999999999995
 30
0.0
 40
0.5
  1
5.842
100
AcDbAttributeDefinition
  3

  2
NDR
 70
     8
280
     0
  0
ATTDEF
  5
92
330
87
100
AcDbEntity
  8
AM_6
100
AcDbText
 10
45.96107276775142
 20
-24.09999999999995
 30
0.0
 40
0.5
  1
5.359
100
AcDbAttributeDefinition
  3

  2
KDR
 70
     8
280
     0
  0
ATTDEF
  5
93
330
87
100
AcDbEntity
  8
AM_6
100
AcDbText
 10
45.96107276775142
 20
-24.59999999999995
 30
0.0
 40
0.5
  1
4.000
100
AcDbAttributeDefinition
  3

  2
BZE
 70
     8
280
     0
  0
ATTDEF
  5
94
330
87
100
AcDbEntity
  8
AM_6
100
AcDbText
 10
45.96107276775142
 20
-25.09999999999995
 30
0.0
 40
0.5
  1
7
100
AcDbAttributeDefinition
  3

  2
WAF
 70
     8
280
     0
  0
ATTDEF
  5
95
330
87
100
AcDbEntity
  8
AM_6
100
AcDbText
 10
45.96107276775142
 20
-25.59999999999995
 30
0.0
 40
0.5
  1
7.0000
100
AcDbAttributeDefinition
  3

  2
WAF1
 70
     8
280
     0
  0
ATTDEF
  5
96
330
87
100
AcDbEntity
  8
AM_6
100
AcDbText
 10
45.96107276775142
 20
-26.09999999999995
 30
0.0
 40
0.5
  1
13.843
100
AcDbAttributeDefinition
  3

  2
BL
 70
     8
280
     0
  0
ATTDEF
  5
97
330
87
100
AcDbEntity
  8
AM_6
100
AcDbText
 10
45.96107276775142
 20
-26.59999999999995
 30
0.0
 40
0.5
  1
5.080
100
AcDbAttributeDefinition
  3

  2
TL
 70
     8
280
     0
  0
ATTDEF
  5
98
330
87
100
AcDbEntity
  8
AM_6
100
AcDbText
 10
45.96107276775142
 20
-27.09999999999995
 30
0.0
 40
0.5
  1
baldor
100
AcDbAttributeDefinition
  3

  2
COMPANY
 70
     8
280
     0
  0
LWPOLYLINE
  5
9B
330
87
100
AcDbEntity
  8
AM_9
100
AcDbPolyline
 90
        3
 70
     0
 43
0.0
 10
35.27125622352504
 20
-22.35
 10
35.65555149020987
 20
-23.225
 10
36.08827891158977
 20
-24.1
  0
LWPOLYLINE
  5
9C
330
87
100
AcDbEntity
  8
AM_9
100
AcDbPolyline
 90
        3
 70
     0
 43
0.0
 10
36.08827891158977
 20
-24.1
 10
35.65739685408798
 20
-24.97106576438639
 10
35.27125622352504
 20
-25.85
  0
ELLIPSE
  5
9D
330
87
100
AcDbEntity
  8
AM_9
100
AcDbEllipse
 10
29.53585025016209
 20
-24.1
 30
0.0
 11
-4.692312313253168E-16
 21
-2.554375850256111
 31
0.0
210
0.0
220
0.0
230
1.0
 40
0.7071067811865472
 41
0.0
 42
6.283185307179586
  0
LWPOLYLINE
  5
9E
330
87
100
AcDbEntity
  8
AM_9
100
AcDbPolyline
 90
        3
 70
     0
 43
0.0
 10
36.95790485948736
 20
-24.1
 10
36.67756469860448
 20
-23.22893423561361
 10
36.34605853092859
 20
-22.35
  0
LWPOLYLINE
  5
9F
330
87
100
AcDbEntity
  8
AM_9
100
AcDbPolyline
 90
        3
 70
     0
 43
0.0
 10
36.34605853092859
 20
-25.85
 10
36.67619777255551
 20
-24.975
 10
36.95790485948736
 20
-24.1
  0
LWPOLYLINE
  5
A0
330
87
100
AcDbEntity
  8
AM_9
100
AcDbPolyline
 90
        3
 70
     0
 43
0.0
 10
35.27125622352504
 20
-25.85
 10
34.94111698189811
 20
-26.725
 10
34.65940989496625
 20
-27.6
  0
LINE
  5
A1
330
87
100
AcDbEntity
  8
AM_9
100
AcDbLine
 10
36.95790485948736
 20
-24.1
 30
0.0
 11
36.08827891158977
 21
-24.1
 31
0.0
  0
LWPOLYLINE
  5
A2
330
87
100
AcDbEntity
  8
AM_9
100
AcDbPolyline
 90
        3
 70
     0
 43
0.0
 10
34.65940989496625
 20
-20.6
 10
34.93975005584915
 20
-21.47106576438639
 10
35.27125622352504
 20
-22.35
  0
LWPOLYLINE
  5
A3
330
87
100
AcDbEntity
  8
AM_9
100
AcDbPolyline
 90
        3
 70
     0
 43
0.0
 10
36.34605853092859
 20
-22.35
 10
35.96176326424375
 20
-21.475
 10
35.91244564891494
 20
-21.37056621691306
  0
LWPOLYLINE
  5
A4
330
87
100
AcDbEntity
  8
AM_9
100
AcDbPolyline
 90
        3
 70
     0
 43
0.0
 10
35.9124268457715
 20
-26.82947332545436
 10
35.95991790036564
 20
-26.72893423561361
 10
36.34605853092859
 20
-25.85
  0
LINE
  5
A5
330
87
100
AcDbEntity
  8
AM_9
100
AcDbLine
 10
29.65025282183318
 20
-26.90241877260576
 30
0.0
 11
33.06265803085905
 21
-27.05330844011194
 31
0.0
  0
LINE
  5
A6
330
87
100
AcDbEntity
  8
AM_9
100
AcDbLine
 10
33.06265803085905
 20
-21.14669155988805
 30
0.0
 11
29.65025282183318
 21
-21.29758122739424
 31
0.0
  0
ELLIPSE
  5
A7
330
87
100
AcDbEntity
  8
AM_9
100
AcDbEllipse
 10
34.20275500599342
 20
-24.09999999999988
 30
0.0
 11
2.143131898507744E-16
 21
3.499999999999797
 31
0.0
210
0.0
220
0.0
230
1.0
 40
0.7071067811865475
 41
3.850326533439235
 42
5.574451427330099
  0
ELLIPSE
  5
A8
330
87
100
AcDbEntity
  8
AM_9
100
AcDbEllipse
 10
34.9192119244459
 20
-24.09999999999999
 30
0.0
 11
1.522711690942021E-16
 21
2.486776909068301
 31
0.0
210
0.0
220
0.0
230
1.0
 40
0.7071067811865492
 41
5.367172420873173
 42
5.984242208656117
  0
ELLIPSE
  5
A9
330
87
100
AcDbEntity
  8
AM_9
100
AcDbEllipse
 10
34.91921192444587
 20
-24.09999999999996
 30
0.0
 11
1.522711690942063E-16
 21
2.486776909068368
 31
0.0
210
0.0
220
0.0
230
1.0
 40
0.7071067811865471
 41
3.440535752113272
 42
4.004353258871145
  0
ELLIPSE
  5
AA
330
87
100
AcDbEntity
  8
AM_9
100
AcDbEllipse
 10
34.9192119244411
 20
-24.09999999999667
 30
0.0
 11
1.522711690946653E-16
 21
2.486776909075864
 31
0.0
210
0.0
220
0.0
230
1.0
 40
0.7071067811865471
 41
4.207103532586315
 42
5.15710334482408
  0
LWPOLYLINE
  5
AB
330
87
100
AcDbEntity
  8
AM_9
100
AcDbPolyline
 90
       14
 70
     0
 43
0.0
 10
35.17292631484832
 20
-21.95637320261318
 10
35.25255278074533
 20
-21.92924734902414
 10
35.36804256424478
 20
-21.90830806531104
 10
35.49539267102416
 20
-21.91097085320125
 10
35.614684332926
 20
-21.93787974671643
 10
35.73015762860742
 20
-21.98590463241277
 10
35.84590204183765
 20
-22.0556194191201
 10
35.97467945909046
 20
-22.15961641847882
 10
36.09933005788685
 20
-22.28963636929661
 10
36.21795373315413
 20
-22.44526507823971
 10
36.32813905943554
 20
-22.62554268135817
 10
36.42721156817827
 20
-22.82866560697747
 10
36.51250838425614
 20
-23.05184961542562
 10
36.53846439258982
 20
-23.13340846915487
  0
LWPOLYLINE
  5
AC
330
87
100
AcDbEntity
  8
AM_9
100
AcDbPolyline
 90
        4
 70
     0
 43
0.0
 10
34.96553292391337
 20
-22.07504508263037
 10
35.02207847256825
 20
-22.03573737660421
 10
35.13857780211214
 20
-21.97122564459813
 10
35.17292631484832
 20
-21.95637320261318
  0
LWPOLYLINE
  5
AD
330
87
100
AcDbEntity
  8
AM_9
100
AcDbPolyline
 90
        3
 70
     0
 43
0.0
 10
35.08935791615158
 20
-26.20419122732692
 10
35.05184026950103
 20
-26.18283234131226
 10
34.97323485152761
 20
-26.13062331814027
  0
LWPOLYLINE
  5
AE
330
87
100
AcDbEntity
  8
AM_9
100
AcDbPolyline
 90
       14
 70
     0
 43
0.0
 10
36.5237043828622
 20
-25.11396597442818
 10
36.44340528072765
 20
-25.33314946710911
 10
36.34712689068561
 20
-25.5390268891924
 10
36.23994381495691
 20
-25.72183892685897
 10
36.12504764431206
 20
-25.87949910795823
 10
36.00595440210702
 20
-26.01063914982341
 10
35.88597371744235
 20
-26.11509595951141
 10
35.7677473238279
 20
-26.19384036148282
 10
35.65248452441693
 20
-26.24875893559886
 10
35.5386787997456
 20
-26.28196677533843
 10
35.41994313585563
 20
-26.29388324241388
 10
35.28367682211487
 20
-26.27855823833388
 10
35.16726401194143
 20
-26.24130872515988
 10
35.08935791615158
 20
-26.20419122732692
  0
ELLIPSE
  5
AF
330
87
100
AcDbEntity
  8
AM_9
100
AcDbEllipse
 10
35.718048163176
 20
-24.09999999999999
 30
0.0
 11
1.400736253841408E-16
 21
2.287575903218226
 31
0.0
210
0.0
220
0.0
230
1.0
 40
0.7071067811865475
 41
2.665009931863265
 42
6.768297553653362
  0
ELLIPSE
  5
B0
330
87
100
AcDbEntity
  8
AM_9
100
AcDbEllipse
 10
37.84635969401236
 20
-24.1
 30
0.0
 11
2.036609237928317E-16
 21
3.326035293353616
 31
0.0
210
0.0
220
0.0
230
1.0
 40
0.7071067811865466
 41
3.579974428543807
 42
5.844803532225577
  0
ELLIPSE
  5
B1
330
87
100
AcDbEntity
  8
AM_9
100
AcDbEllipse
 10
37.27123482470588
 20
-24.09999999999989
 30
0.0
 11
2.027916041956695E-16
 21
3.311838226937937
 31
0.0
210
0.0
220
0.0
230
1.0
 40
0.7071067811864349
 41
2.656480407116317
 42
6.772551876027318
  0
ELLIPSE
  5
B2
330
87
100
AcDbEntity
  8
AM_9
100
AcDbEllipse
 10
39.10892034682192
 20
-24.1
 30
0.0
 11
1.572521564385669E-16
 21
2.568122605604358
 31
0.0
210
0.0
220
0.0
230
1.0
 40
0.7071067811865487
 41
3.579974428543798
 42
5.844803532225583
  0
ELLIPSE
  5
B3
330
87
100
AcDbEntity
  8
AM_9
100
AcDbEllipse
 10
33.12795269858974
 20
-24.09999999999999
 30
0.0
 11
1.809263597659735E-16
 21
2.954751686640449
 31
0.0
210
0.0
220
0.0
230
1.0
 40
0.7071067811865467
 41
0.0
 42
6.283185307179586
  0
ELLIPSE
  5
B4
330
87
100
AcDbEntity
  8
AM_9
100
AcDbEllipse
 10
29.71221147136476
 20
-24.09999999999999
 30
0.0
 11
1.716825172003260E-16
 21
2.803788281157605
 31
0.0
210
0.0
220
0.0
230
1.0
 40
0.7071067811865465
 41
0.0
 42
6.283185307179586
  0
ELLIPSE
  5
B5
330
87
100
AcDbEntity
  8
AM_9
100
AcDbEllipse
 10
33.12795269858979
 20
-24.1
 30
0.0
 11
2.143131898507899E-16
 21
3.50000000000005
 31
0.0
210
0.0
220
0.0
230
1.0
 40
0.7071067811865472
 41
0.0
 42
6.283185307179586
  0
LINE
  5
B7
330
87
100
AcDbEntity
  8
AM_4
100
AcDbLine
 10
35.91244564891494
 20
-21.37056621691306
 30
0.0
 11
35.52903584286385
 21
-20.6
 31
0.0
  0
LINE
  5
B8
330
87
100
AcDbEntity
  8
AM_4
100
AcDbLine
 10
35.52903584286385
 20
-27.6
 30
0.0
 11
35.9124268457715
 21
-26.82947332545436
 31
0.0
  0
LWPOLYLINE
  5
B9
330
87
100
AcDbEntity
  8
AM_4
100
AcDbPolyline
 90
        3
 70
     0
 43
0.0
 10
30.98464917365447
 20
-25.85
 10
30.65450993202754
 20
-24.975
 10
30.37280284509569
 20
-24.1
  0
LWPOLYLINE
  5
BA
330
87
100
AcDbEntity
  8
AM_4
100
AcDbPolyline
 90
        3
 70
     0
 43
0.0
 10
31.80167186171921
 20
-27.6
 10
31.37078980421741
 20
-26.72893423561361
 10
30.98464917365447
 20
-25.85
  0
LINE
  5
BB
330
87
100
AcDbEntity
  8
AM_4
100
AcDbLine
 10
35.52903584286385
 20
-27.6
 30
0.0
 11
31.80167186171921
 21
-27.6
 31
0.0
  0
LWPOLYLINE
  5
BC
330
87
100
AcDbEntity
  8
AM_4
100
AcDbPolyline
 90
        3
 70
     0
 43
0.0
 10
32.05945148105802
 20
-25.85
 10
32.38959072268495
 20
-26.725
 10
32.6712978096168
 20
-27.6
  0
LWPOLYLINE
  5
BD
330
87
100
AcDbEntity
  8
AM_4
100
AcDbPolyline
 90
        3
 70
     0
 43
0.0
 10
31.24242879299328
 20
-24.1
 10
31.67331085049508
 20
-24.97106576438639
 10
32.05945148105802
 20
-25.85
  0
LINE
  5
BE
330
87
100
AcDbEntity
  8
AM_4
100
AcDbLine
 10
35.52903584286385
 20
-20.6
 30
0.0
 11
31.80167186171921
 21
-20.6
 31
0.0
  0
LWPOLYLINE
  5
BF
330
87
100
AcDbEntity
  8
AM_4
100
AcDbPolyline
 90
        3
 70
     0
 43
0.0
 10
30.98464917365447
 20
-22.35
 10
31.3689444403393
 20
-21.475
 10
31.80167186171921
 20
-20.6
  0
LWPOLYLINE
  5
C0
330
87
100
AcDbEntity
  8
AM_4
100
AcDbPolyline
 90
        3
 70
     0
 43
0.0
 10
30.37280284509569
 20
-24.1
 10
30.65314300597858
 20
-23.22893423561361
 10
30.98464917365447
 20
-22.35
  0
LINE
  5
C1
330
87
100
AcDbEntity
  8
AM_4
100
AcDbLine
 10
31.24242879299328
 20
-24.1
 30
0.0
 11
30.37280284509569
 21
-24.1
 31
0.0
  0
LWPOLYLINE
  5
C2
330
87
100
AcDbEntity
  8
AM_4
100
AcDbPolyline
 90
        3
 70
     0
 43
0.0
 10
32.05945148105802
 20
-22.35
 10
31.67515621437319
 20
-23.225
 10
31.24242879299328
 20
-24.1
  0
LWPOLYLINE
  5
C3
330
87
100
AcDbEntity
  8
AM_4
100
AcDbPolyline
 90
        3
 70
     0
 43
0.0
 10
32.6712978096168
 20
-20.6
 10
32.39095764873391
 20
-21.47106576438639
 10
32.05945148105802
 20
-22.35
  0
ELLIPSE
  5
C4
330
87
100
AcDbEntity
  8
AM_4
100
AcDbEllipse
 10
34.20275500599334
 20
-24.1
 30
0.0
 11
2.143131898507899E-16
 21
3.50000000000005
 31
0.0
210
0.0
220
0.0
230
1.0
 40
0.7071067811865472
 41
5.574451427330096
 42
10.13351184061887
  0
ELLIPSE
  5
C5
330
87
100
AcDbEntity
  8
AM_4
100
AcDbEllipse
 10
34.91921192444588
 20
-24.09999999999999
 30
0.0
 11
1.522711690942026E-16
 21
2.486776909068308
 31
0.0
210
0.0
220
0.0
230
1.0
 40
0.7071067811865471
 41
5.984242208656105
 42
9.723721059292856
  0
ELLIPSE
  5
C6
330
87
100
AcDbEntity
  8
AM_4
100
AcDbEllipse
 10
35.71804816355043
 20
-24.10000000004349
 30
0.0
 11
1.400736253811289E-16
 21
2.287575903169039
 31
0.0
210
0.0
220
0.0
230
1.0
 40
0.7071067812655353
 41
-3.626704900231125
 42
-3.618175375485194
  0
ELLIPSE
  5
C7
330
87
100
AcDbEntity
  8
AM_4
100
AcDbEllipse
 10
35.71804816317599
 20
-24.1
 30
0.0
 11
1.400736253841403E-16
 21
2.287575903218219
 31
0.0
210
0.0
220
0.0
230
1.0
 40
0.7071067811865435
 41
0.4851122464737712
 42
2.656480407116022
  0
LINE
  5
C8
330
87
100
AcDbEntity
  8
AM_4
100
AcDbLine
 10
34.96376734543903
 20
-26.12364137360668
 30
0.0
 11
36.17922470057808
 21
-27.02972698711114
 31
0.0
  0
LINE
  5
C9
330
87
100
AcDbEntity
  8
AM_4
100
AcDbLine
 10
36.17922470057808
 20
-21.17027301288886
 30
0.0
 11
34.96376734543903
 21
-22.07635862639331
 31
0.0
  0
ELLIPSE
  5
CA
330
87
100
AcDbEntity
  8
AM_4
100
AcDbEllipse
 10
37.27123482460452
 20
-24.10000000027115
 30
0.0
 11
2.027916041768435E-16
 21
3.311838226630485
 31
0.0
210
0.0
220
0.0
230
1.0
 40
0.7071067811865476
 41
-3.637242726711966
 42
-3.62670490006311
  0
ELLIPSE
  5
CB
330
87
100
AcDbEntity
  8
AM_4
100
AcDbEllipse
 10
37.27123482470682
 20
-24.09999999999999
 30
0.0
 11
2.027916041956614E-16
 21
3.311838226937805
 31
0.0
210
0.0
220
0.0
230
1.0
 40
0.7071067811865467
 41
0.4893665688480073
 42
2.645942580468135
  0
LWPOLYLINE
  5
CC
330
87
100
AcDbEntity
  8
AM_4
100
AcDbPolyline
 90
       12
 70
     0
 43
0.0
 10
36.15310610124241
 20
-27.01000154204455
 10
36.28487580964845
 20
-27.10445831904769
 10
36.5388662301749
 20
-27.25379779257631
 10
36.80259406651916
 20
-27.36875932336259
 10
37.07254902893243
 20
-27.44881501504778
 10
37.34547235556106
 20
-27.49405844709491
 10
37.61841700024324
 20
-27.50499984902233
 10
37.88875470605163
 20
-27.48238947593775
 10
38.15386506308896
 20
-27.42715912567689
 10
38.41158622510967
 20
-27.34031367918221
 10
38.66010746588039
 20
-27.22277531650108
 10
38.86242570755973
 20
-27.09964237686344
  0
LWPOLYLINE
  5
CD
330
87
100
AcDbEntity
  8
AM_4
100
AcDbPolyline
 90
       12
 70
     0
 43
0.0
 10
38.86288972500091
 20
-21.10067097112027
 10
38.66087483209603
 20
-20.97764299848802
 10
38.399075300925
 20
-20.85467575395642
 10
38.13025727444122
 20
-20.76655527637875
 10
37.85774556491562
 20
-20.7133128214093
 10
37.58456117510678
 20
-20.6945172195102
 10
37.31340478177435
 20
-20.70946000227473
 10
37.04686594713672
 20
-20.75725483882879
 10
36.78727339557491
 20
-20.83689012287605
 10
36.53647500332558
 20
-20.94742318856147
 10
36.29620468544004
 20
-21.08799265321101
 10
36.1682411182267
 20
-21.17850581271291
  0
ELLIPSE
  5
CE
330
87
100
AcDbEntity
  8
AM_4
100
AcDbEllipse
 10
39.32432942212746
 20
-24.1
 30
0.0
 11
-3.872094701371911E-16
 21
-2.107870178878141
 31
0.0
210
0.0
220
0.0
230
1.0
 40
0.7071067811865468
 41
0.0
 42
6.283185307179586
  0
LWPOLYLINE
  5
CF
330
87
100
AcDbEntity
  8
AM_4
100
AcDbPolyline
 90
       21
 70
     0
 43
0.0
 10
39.89229529693215
 20
-26.41688230175329
 10
40.03670816111065
 20
-26.30911525132518
 10
40.21950310625095
 20
-26.13916932967384
 10
40.38680783568542
 20
-25.94224129399292
 10
40.53622226028033
 20
-25.72067885027944
 10
40.66553636002781
 20
-25.47747891063046
 10
40.77291428876092
 20
-25.21609888961633
 10
40.85695964355347
 20
-24.94024740384053
 10
40.9166925770547
 20
-24.65374059384209
 10
40.95151187373585
 20
-24.36024329858297
 10
40.96107276775142
 20
-24.06338670324796
 10
40.94524691757352
 20
-23.76676837451738
 10
40.90410591988265
 20
-23.47399448860331
 10
40.83791012473054
 20
-23.18861994160907
 10
40.74709595751482
 20
-22.91414787021793
 10
40.63229484822319
 20
-22.65407978953877
 10
40.49439876409274
 20
-22.41196435598692
 10
40.33477199743794
 20
-22.19152826945318
 10
40.15531421139992
 20
-21.99640162897455
 10
39.95863292654963
 20
-21.83000119809895
 10
39.88871139367071
 20
-21.78070543529179
  0
ELLIPSE
  5
D0
330
87
100
AcDbEntity
  8
AM_4
100
AcDbEllipse
 10
37.84635969401238
 20
-24.1
 30
0.0
 11
2.036609237928311E-16
 21
3.326035293353605
 31
0.0
210
0.0
220
0.0
230
1.0
 40
0.7071067811865467
 41
5.844803532225583
 42
9.863159735723386
  0
ELLIPSE
  5
D1
330
87
100
AcDbEntity
  8
AM_4
100
AcDbEllipse
 10
39.10892034682192
 20
-24.1
 30
0.0
 11
1.572521564385673E-16
 21
2.568122605604366
 31
0.0
210
0.0
220
0.0
230
1.0
 40
0.7071067811865468
 41
5.844803532225578
 42
9.863159735723384
  0
LINE
  5
D2
330
87
100
AcDbEntity
  8
AM_4
100
AcDbLine
 10
39.87973983266281
 20
-21.77471972486926
 30
0.0
 11
38.8446659310731
 21
-21.08847545473641
 31
0.0
  0
LINE
  5
D3
330
87
100
AcDbEntity
  8
AM_4
100
AcDbLine
 10
38.8446659310731
 20
-27.11152454526359
 30
0.0
 11
39.87973983266281
 21
-26.42528027513074
 31
0.0
  0
ENDBLK
  5
8A
330
87
100
AcDbEntity
  8
0
100
AcDbBlockEnd
  0
BLOCK
  5
D6
330
D4
100
AcDbEntity
  8
0
100
AcDbBlockBegin
  2
3_127864_0_in_136754_4
 70
     2
 10
0.0
 20
0.0
 30
0.0
  3
3_127864_0_in_136754_4
  1

  0
ATTDEF
  5
D8
330
D4
100
AcDbEntity
  8
AM_6
100
AcDbText
 10
40.98211535374749
 20
-2.899999999999996
 30
0.0
 40
0.5
  1
Set Screw Insert Metric Bore - Stainless Steel
100
AcDbAttributeDefinition
  3

  2
NN
 70
     8
280
     0
  0
ATTDEF
  5
D9
330
D4
100
AcDbEntity
  8
AM_6
100
AcDbText
 10
40.98211535374749
 20
-3.399999999999996
 30
0.0
 40
0.5
  1
SC Medium Duty Bearing Inserts
100
AcDbAttributeDefinition
  3

  2
NT
 70
     8
280
     0
  0
ATTDEF
  5
DA
330
D4
100
AcDbEntity
  8
AM_6
100
AcDbText
 10
40.98211535374749
 20
-3.899999999999996
 30
0.0
 40
0.5
  1
127864
100
AcDbAttributeDefinition
  3

  2
NB
 70
     8
280
     0
  0
ATTDEF
  5
DB
330
D4
100
AcDbEntity
  8
AM_6
100
AcDbText
 10
40.98211535374749
 20
-4.399999999999997
 30
0.0
 40
0.5
  1
$PN.
100
AcDbAttributeDefinition
  3

  2
NBSYN
 70
     8
280
     0
  0
ATTDEF
  5
DC
330
D4
100
AcDbEntity
  8
AM_6
100
AcDbText
 10
40.98211535374749
 20
-4.899999999999997
 30
0.0
 40
0.5
  1
127864
100
AcDbAttributeDefinition
  3

  2
LINA
 70
     8
280
     0
  0
ATTDEF
  5
DD
330
D4
100
AcDbEntity
  8
AM_6
100
AcDbText
 10
40.98211535374749
 20
-5.399999999999997
 30
0.0
 40
0.5
  1
207
100
AcDbAttributeDefinition
  3

  2
SERIES
 70
     8
280
     0
  0
ATTDEF
  5
DE
330
D4
100
AcDbEntity
  8
AM_6
100
AcDbText
 10
40.98211535374749
 20
-5.899999999999997
 30
0.0
 40
0.5
  1
35
100
AcDbAttributeDefinition
  3

  2
SS
 70
     8
280
     0
  0
ATTDEF
  5
DF
330
D4
100
AcDbEntity
  8
AM_6
100
AcDbText
 10
40.98211535374749
 20
-6.399999999999997
 30
0.0
 40
0.5
  1
127864
100
AcDbAttributeDefinition
  3

  2
PN
 70
     8
280
     0
  0
ATTDEF
  5
E0
330
D4
100
AcDbEntity
  8
AM_6
100
AcDbText
 10
40.98211535374749
 20
-6.899999999999997
 30
0.0
 40
0.5
  1
INS-SC-35M-SS
100
AcDbAttributeDefinition
  3

  2
DESCRIPTION
 70
     8
280
     0
  0
ATTDEF
  5
E1
330
D4
100
AcDbEntity
  8
AM_6
100
AcDbText
 10
40.98211535374749
 20
-7.399999999999997
 30
0.0
 40
0.5
  1
0.44
100
AcDbAttributeDefinition
  3

  2
WEIGHT
 70
     8
280
     0
  0
ATTDEF
  5
E2
330
D4
100
AcDbEntity
  8
AM_6
100
AcDbText
 10
40.98211535374749
 20
-7.899999999999997
 30
0.0
 40
0.5
  1
43.4
100
AcDbAttributeDefinition
  3

  2
A
 70
     8
280
     0
  0
ATTDEF
  5
E3
330
D4
100
AcDbEntity
  8
AM_6
100
AcDbText
 10
40.98211535374749
 20
-8.399999999999997
 30
0.0
 40
0.5
  1
19.0
100
AcDbAttributeDefinition
  3

  2
C
 70
     8
280
     0
  0
ATTDEF
  5
E4
330
D4
100
AcDbEntity
  8
AM_6
100
AcDbText
 10
40.98211535374749
 20
-8.899999999999997
 30
0.0
 40
0.5
  1
72
100
AcDbAttributeDefinition
  3

  2
D
 70
     8
280
     0
  0
ATTDEF
  5
E5
330
D4
100
AcDbEntity
  8
AM_6
100
AcDbText
 10
40.98211535374749
 20
-9.399999999999997
 30
0.0
 40
0.5
  1
5.1
100
AcDbAttributeDefinition
  3

  2
J
 70
     8
280
     0
  0
ATTDEF
  5
E6
330
D4
100
AcDbEntity
  8
AM_6
100
AcDbText
 10
40.98211535374749
 20
-9.899999999999997
 30
0.0
 40
0.5
  1
46.7
100
AcDbAttributeDefinition
  3

  2
L
 70
     8
280
     0
  0
ATTDEF
  5
E7
330
D4
100
AcDbEntity
  8
AM_6
100
AcDbText
 10
40.98211535374749
 20
-10.4
 30
0.0
 40
0.5
  1
M8 x 1.25
100
AcDbAttributeDefinition
  3

  2
N
 70
     8
280
     0
  0
ATTDEF
  5
E8
330
D4
100
AcDbEntity
  8
AM_6
100
AcDbText
 10
40.98211535374749
 20
-10.9
 30
0.0
 40
0.5
  1
17.0
100
AcDbAttributeDefinition
  3

  2
W
 70
     8
280
     0
  0
ATTDEF
  5
E9
330
D4
100
AcDbEntity
  8
AM_6
100
AcDbText
 10
40.98211535374749
 20
-11.4
 30
0.0
 40
0.5
  1
26.4
100
AcDbAttributeDefinition
  3

  2
Y
 70
     8
280
     0
  0
ATTDEF
  5
EA
330
D4
100
AcDbEntity
  8
AM_6
100
AcDbText
 10
40.98211535374749
 20
-11.9
 30
0.0
 40
0.5
  1
baldor
100
AcDbAttributeDefinition
  3

  2
COMPANY
 70
     8
280
     0
  0
LINE
  5
EB
330
D4
100
AcDbEntity
  8
AM_9
100
AcDbLine
 10
-16.70859636838446
 20
-40.79004325527302
 30
0.0
 11
-16.50316979557671
 21
-41.04626906388189
 31
0.0
  0
LINE
  5
EC
330
D4
100
AcDbEntity
  8
AM_9
100
AcDbLine
 10
-16.50322732479309
 20
-34.65380269153798
 30
0.0
 11
-16.70859636838446
 21
-34.90995674472698
 31
0.0
  0
LWPOLYLINE
  5
ED
330
D4
100
AcDbEntity
  8
AM_9
100
AcDbPolyline
 90
       27
 70
     0
 43
0.0
 10
-16.49920598970844
 20
-41.05121287474056
 10
-16.42664670825066
 20
-41.13312688355313
 10
-16.19064746689295
 20
-41.30954470478177
 10
-15.90712974760551
 20
-41.38495071921803
 10
-15.59635978373923
 20
-41.34555688518377
 10
-15.26311727887226
 20
-41.18824746101699
 10
-14.92386106529815
 20
-40.91724851100774
 10
-14.59520600491073
 20
-40.53860812668105
 10
-14.29298250790444
 20
-40.05893348879075
 10
-14.12542116310693
 20
-39.70788642078318
 10
-13.98146978748011
 20
-39.32209966362178
 10
-13.86814997088164
 20
-38.90959481919257
 10
-13.77568871815562
 20
-38.34147911050073
 10
-13.75097486082089
 20
-37.75527989954905
 10
-13.78838255892158
 20
-37.24576192703477
 10
-13.87672207153288
 20
-36.75317808940075
 10
-14.01082285462059
 20
-36.28957161709189
 10
-14.18192612387437
 20
-35.86405435116689
 10
-14.4058783896945
 20
-35.44341943113086
 10
-14.65421362528453
 20
-35.0836775145569
 10
-14.95329679440074
 20
-34.75485068327558
 10
-15.2584499168844
 20
-34.51445603600851
 10
-15.58338873978245
 20
-34.35874952634115
 10
-15.89125642017425
 20
-34.31388232382734
 10
-16.17878953095948
 20
-34.38513109189334
 10
-16.43210830138897
 20
-34.57211927892987
 10
-16.49918110747998
 20
-34.64875611869798
  0
LWPOLYLINE
  5
EE
330
D4
100
AcDbEntity
  8
AM_9
100
AcDbPolyline
 90
        3
 70
     0
 43
0.0
 10
-16.58426982668334
 20
-34.76737281986208
 10
-16.64056190205122
 20
-34.86207407354249
 10
-16.81152549260234
 20
-35.25291762514225
  0
LINE
  5
EF
330
D4
100
AcDbEntity
  8
AM_9
100
AcDbLine
 10
-16.49918110747998
 20
-34.64875611869798
 30
0.0
 11
-16.58426982668334
 21
-34.76737281986208
 31
0.0
  0
LINE
  5
F0
330
D4
100
AcDbEntity
  8
AM_9
100
AcDbLine
 10
-16.05363378492893
 20
-34.5265
 30
0.0
 11
-20.54916960937549
 21
-34.5265
 31
0.0
  0
LINE
  5
F1
330
D4
100
AcDbEntity
  8
AM_9
100
AcDbLine
 10
-20.54916960937549
 20
-41.1735
 30
0.0
 11
-16.05363378492893
 21
-41.1735
 31
0.0
  0
LINE
  5
F2
330
D4
100
AcDbEntity
  8
AM_9
100
AcDbLine
 10
-19.89420702591995
 20
-34.90995674472698
 30
0.0
 11
-20.31851690955284
 21
-34.3807207186929
 31
0.0
  0
LINE
  5
F3
330
D4
100
AcDbEntity
  8
AM_9
100
AcDbLine
 10
-20.31824821990476
 20
-41.31894414831332
 30
0.0
 11
-19.89420702591995
 21
-40.79004325527302
 31
0.0
  0
ELLIPSE
  5
F4
330
D4
100
AcDbEntity
  8
AM_9
100
AcDbEllipse
 10
-20.54916960937503
 20
-37.84999999999903
 30
0.0
 11
2.035056818482476E-16
 21
3.323499999998958
 31
0.0
210
0.0
220
0.0
230
1.0
 40
0.4226182617406652
 41
3.467027897724126
 42
5.949693907572854
  0
LINE
  5
F5
330
D4
100
AcDbEntity
  8
AM_9
100
AcDbLine
 10
-16.62044109919303
 20
-40.87374358722924
 30
0.0
 11
-16.49920598970844
 21
-41.05121287474056
 31
0.0
  0
LWPOLYLINE
  5
F6
330
D4
100
AcDbEntity
  8
AM_9
100
AcDbPolyline
 90
       14
 70
     0
 43
0.0
 10
-16.81152549260234
 20
-35.25291762514225
 10
-16.92010441992933
 20
-35.63122919178429
 10
-17.00560942514405
 20
-36.06464768868064
 10
-17.07598589149834
 20
-36.62364247790473
 10
-17.11765932213494
 20
-37.23121943017221
 10
-17.13076972234816
 20
-37.77968715730564
 10
-17.12300173522247
 20
-38.3304882584592
 10
-17.09741323653017
 20
-38.82011000120826
 10
-17.05407311961923
 20
-39.28449814100713
 10
-16.98880173333675
 20
-39.73460641253367
 10
-16.90294223745992
 20
-40.13884265429387
 10
-16.77991648023984
 20
-40.53404173316864
 10
-16.62924838060101
 20
-40.85854875213603
 10
-16.62044109919303
 20
-40.87374358722924
  0
LWPOLYLINE
  5
F7
330
D4
100
AcDbEntity
  8
AM_9
100
AcDbPolyline
 90
       22
 70
     0
 43
0.0
 10
-3.012988439273037
 20
-40.16237714835594
 10
-2.936259535422577
 20
-40.23813921539701
 10
-2.47276730026719
 20
-40.61887222193008
 10
-1.94454050613451
 20
-40.93309693722922
 10
-1.322010015481852
 20
-41.18420594382336
 10
-0.6491309138870758
 20
-41.33889464837794
 10
0.0568016218660834
 20
-41.38636107204631
 10
0.7811071460575953
 20
-41.31727087954953
 10
1.469298994719002
 20
-41.13488546139035
 10
2.134777546554597
 20
-40.83206324180802
 10
2.713214914888063
 20
-40.43620814431588
 10
3.226333158905709
 20
-39.92630937742595
 10
3.595596717575914
 20
-39.38638378807648
 10
3.745339610108487
 20
-39.08008851528885
 10
3.862720848601087
 20
-38.75950447089084
 10
3.979091092124622
 20
-38.20734187642738
 10
3.991471679286954
 20
-37.62162061131787
 10
3.913521277220603
 20
-37.1260027469251
 10
3.752595090404796
 20
-36.63690416490878
 10
3.519254637910427
 20
-36.1826848499983
 10
3.214461589245683
 20
-35.75943236545496
 10
2.694606039754614
 20
-35.24859696053886
  0
LWPOLYLINE
  5
F8
330
D4
100
AcDbEntity
  8
AM_9
100
AcDbPolyline
 90
       20
 70
     0
 43
0.0
 10
2.694606039754614
 20
-35.24859696053886
 10
2.131408028038714
 20
-34.86603599444128
 10
1.493162075157396
 20
-34.57366482672043
 10
0.8301259724532005
 20
-34.39181415321
 10
0.1269412307660367
 20
-34.31509309872057
 10
-0.5836392395255985
 20
-34.35189409052008
 10
-1.297857287373198
 20
-34.50826332228269
 10
-1.956573349019089
 20
-34.77292576263594
 10
-2.577040863832812
 20
-35.15682248149874
 10
-3.089869279551186
 20
-35.61807377153743
 10
-3.319992949388785
 20
-35.89172309135376
 10
-3.521945354534839
 20
-36.18708141447187
 10
-3.79652080684292
 20
-36.74699218286996
 10
-3.963068954454927
 20
-37.37552216467179
 10
-3.999447727500081
 20
-37.90814324157587
 10
-3.939465025716877
 20
-38.45664536310549
 10
-3.803398285825181
 20
-38.93464606749418
 10
-3.590027039006318
 20
-39.3964027032517
 10
-3.297910420489376
 20
-39.83707491580644
 10
-3.012988439273037
 20
-40.16237714835594
  0
LINE
  5
F9
330
D4
100
AcDbEntity
  8
AM_9
100
AcDbLine
 10
17.5
 20
-45.36600000000001
 30
0.0
 11
17.5
 21
-3.833999999999997
 31
0.0
  0
LINE
  5
FA
330
D4
100
AcDbEntity
  8
AM_9
100
AcDbLine
 10
-17.5
 20
-3.833999999999997
 30
0.0
 11
-17.5
 21
-45.36600000000001
 31
0.0
  0
LINE
  5
FB
330
D4
100
AcDbEntity
  8
AM_9
100
AcDbLine
 10
17.5
 20
-3.833999999999997
 30
0.0
 11
18.434
 21
-2.899999999999996
 31
0.0
  0
LINE
  5
FC
330
D4
100
AcDbEntity
  8
AM_9
100
AcDbLine
 10
-18.434
 20
-2.899999999999996
 30
0.0
 11
-17.5
 21
-3.833999999999997
 31
0.0
  0
LINE
  5
FD
330
D4
100
AcDbEntity
  8
AM_9
100
AcDbLine
 10
-17.5
 20
-45.36600000000001
 30
0.0
 11
-18.434
 21
-46.3
 31
0.0
  0
LINE
  5
FE
330
D4
100
AcDbEntity
  8
AM_9
100
AcDbLine
 10
18.434
 20
-46.3
 30
0.0
 11
17.5
 21
-45.36600000000001
 31
0.0
  0
LINE
  5
FF
330
D4
100
AcDbEntity
  8
AM_9
100
AcDbLine
 10
-22.416
 20
-2.899999999999996
 30
0.0
 11
-23.35
 21
-3.833999999999997
 31
0.0
  0
LINE
  5
100
330
D4
100
AcDbEntity
  8
AM_9
100
AcDbLine
 10
23.35
 20
-3.833999999999997
 30
0.0
 11
22.416
 21
-2.899999999999996
 31
0.0
  0
LINE
  5
101
330
D4
100
AcDbEntity
  8
AM_9
100
AcDbLine
 10
-22.416
 20
-2.899999999999996
 30
0.0
 11
22.416
 21
-2.899999999999996
 31
0.0
  0
LINE
  5
102
330
D4
100
AcDbEntity
  8
AM_9
100
AcDbLine
 10
23.34999999999999
 20
-10.4
 30
0.0
 11
23.34999999999999
 21
-3.833999999999997
 31
0.0
  0
LINE
  5
103
330
D4
100
AcDbEntity
  8
AM_9
100
AcDbLine
 10
-23.34999999999999
 20
-3.833999999999997
 30
0.0
 11
-23.34999999999999
 21
-10.4
 31
0.0
  0
LINE
  5
104
330
D4
100
AcDbEntity
  8
AM_9
100
AcDbLine
 10
-23.34999999999999
 20
-3.833999999999997
 30
0.0
 11
23.34999999999999
 21
-3.833999999999997
 31
0.0
  0
LINE
  5
105
330
D4
100
AcDbEntity
  8
AM_9
100
AcDbLine
 10
23.35
 20
-32.5
 30
0.0
 11
23.35
 21
-29.4
 31
0.0
  0
LINE
  5
106
330
D4
100
AcDbEntity
  8
AM_9
100
AcDbLine
 10
-23.35
 20
-29.4
 30
0.0
 11
-23.35
 21
-32.5
 31
0.0
  0
LINE
  5
107
330
D4
100
AcDbEntity
  8
AM_9
100
AcDbLine
 10
34.300000017
 20
-26.02
 30
0.0
 11
34.300000017
 21
-23.98
 31
0.0
  0
LINE
  5
108
330
D4
100
AcDbEntity
  8
AM_9
100
AcDbLine
 10
-34.300000017
 20
-23.98
 30
0.0
 11
-34.300000017
 21
-26.02
 31
0.0
  0
LINE
  5
109
330
D4
100
AcDbEntity
  8
AM_9
100
AcDbLine
 10
-33.9365584583941
 20
-10.4
 30
0.0
 11
33.9365584583941
 21
-10.4
 31
0.0
  0
ARC
  5
10A
330
D4
100
AcDbEntity
  8
AM_9
100
AcDbCircle
 10
33.9365584583941
 20
-11.41999999999999
 30
0.0
 40
1.019999999999995
100
AcDbArc
 50
14.0296654012885
 51
90.0
  0
ARC
  5
10B
330
D4
100
AcDbEntity
  8
AM_9
100
AcDbCircle
 10
-33.9365584583941
 20
-11.41999999999999
 30
0.0
 40
1.019999999999992
100
AcDbArc
 50
90.0
 51
165.9703345987115
  0
LINE
  5
10C
330
D4
100
AcDbEntity
  8
AM_9
100
AcDbLine
 10
-33.9365584583941
 20
-29.4
 30
0.0
 11
33.9365584583941
 21
-29.4
 31
0.0
  0
ARC
  5
10D
330
D4
100
AcDbEntity
  8
AM_9
100
AcDbCircle
 10
33.93655845839409
 20
-28.38
 30
0.0
 40
1.020000000000003
100
AcDbArc
 50
270.0
 51
345.9703345987115
  0
ARC
  5
10E
330
D4
100
AcDbEntity
  8
AM_9
100
AcDbCircle
 10
-33.93655845839409
 20
-28.38
 30
0.0
 40
1.020000000000009
100
AcDbArc
 50
194.0296654012884
 51
270.0
  0
ARC
  5
10F
330
D4
100
AcDbEntity
  8
AM_9
100
AcDbCircle
 10
-0.0000000005947385
 20
-19.90000000012518
 30
0.0
 40
35.99999999939308
100
AcDbArc
 50
189.7878190566784
 51
194.0296654013248
  0
ARC
  5
110
330
D4
100
AcDbEntity
  8
AM_9
100
AcDbCircle
 10
0.0000000073075341
 20
-19.90000000153928
 30
0.0
 40
35.99999999254587
100
AcDbArc
 50
345.9703345982718
 51
350.2121809437254
  0
LINE
  5
111
330
D4
100
AcDbEntity
  8
AM_9
100
AcDbLine
 10
-34.92613220417961
 20
-28.62727272727272
 30
0.0
 11
34.92613220418801
 21
-28.62727272727272
 31
0.0
  0
LINE
  5
112
330
D4
100
AcDbEntity
  8
AM_9
100
AcDbLine
 10
-35.47598624421922
 20
-26.02
 30
0.0
 11
35.47598624422761
 21
-26.02
 31
0.0
  0
ARC
  5
113
330
D4
100
AcDbEntity
  8
AM_9
100
AcDbCircle
 10
0.0000000011713013
 20
-19.89999999987841
 30
0.0
 40
35.99999999883389
100
AcDbArc
 50
357.7315934249207
 51
14.02966540155307
  0
ARC
  5
114
330
D4
100
AcDbEntity
  8
AM_9
100
AcDbCircle
 10
-0.0000000002315943
 20
-19.89999999998567
 30
0.0
 40
36.00000000023146
100
AcDbArc
 50
353.4924964082742
 51
357.5262151478668
  0
ARC
  5
115
330
D4
100
AcDbEntity
  8
AM_9
100
AcDbCircle
 10
0.0000000000025651
 20
-19.90000000000016
 30
0.0
 40
36.00000000000252
100
AcDbArc
 50
165.9703345987119
 51
186.507503591744
  0
LINE
  5
116
330
D4
100
AcDbEntity
  8
AM_9
100
AcDbLine
 10
-35.76805278457298
 20
-23.98000000000001
 30
0.0
 11
35.76805278457272
 21
-23.98000000000001
 31
0.0
  0
LINE
  5
117
330
D4
100
AcDbEntity
  8
AM_9
100
AcDbLine
 10
-34.92613220417916
 20
-11.17272727272727
 30
0.0
 11
34.9261322041789
 21
-11.17272727272727
 31
0.0
  0
ARC
  5
119
330
D4
100
AcDbEntity
  8
AM_5
100
AcDbCircle
 10
-0.0000000000000085
 20
-38.3
 30
0.0
 40
3.999999999999999
100
AcDbArc
 50
74.99999999999994
 51
14.99999999999992
  0
ELLIPSE
  5
11A
330
D4
100
AcDbEntity
  8
AM_9
100
AcDbEllipse
 10
-16.05363378492896
 20
-37.84999999999997
 30
0.0
 11
2.035056818483081E-16
 21
3.323499999999946
 31
0.0
210
0.0
220
0.0
230
1.0
 40
0.4226182617406968
 41
0.0
 42
6.283185307179586
  0
LINE
  5
11D
330
D4
100
AcDbEntity
  8
AM_7
100
AcDbLine
 10
-3.489675000000002
 20
-37.84999999999999
 30
0.0
 11
3.489674999999999
 21
-37.84999999999999
 31
0.0
  0
ELLIPSE
  5
11E
330
D4
100
AcDbEntity
  8
AM_4
100
AcDbEllipse
 10
-20.54916960937548
 20
-37.85
 30
0.0
 11
2.035056818483116E-16
 21
3.323500000000003
 31
0.0
210
0.0
220
0.0
230
1.0
 40
0.4226182617406992
 41
5.949693907572674
 42
9.750213204904082
  0
LWPOLYLINE
  5
11F
330
D4
100
AcDbEntity
  8
AM_4
100
AcDbPolyline
 90
       14
 70
     0
 43
0.0
 10
-20.32264193441584
 20
-34.37557571997878
 10
-20.18764042905701
 20
-34.5596375509789
 10
-19.96191957467032
 20
-34.94415894388735
 10
-19.7497013385544
 20
-35.42497864660532
 10
-19.57490174905516
 20
-35.96259535236726
 10
-19.43626618033741
 20
-36.58789002200079
 10
-19.35303609390136
 20
-37.2454803867487
 10
-19.32971024321624
 20
-37.94956895244923
 10
-19.371488541787
 20
-38.65091460028357
 10
-19.47946167668557
 20
-39.33868396569595
 10
-19.647726204255
 20
-39.98337163294019
 10
-19.8659298049745
 20
-40.55524297407054
 10
-20.12593712949474
 20
-41.04584582288457
 10
-20.32268950226766
 20
-41.32448363454337
  0
LWPOLYLINE
  5
120
330
D4
100
AcDbEntity
  8
AM_4
100
AcDbPolyline
 90
       19
 70
     0
 43
0.0
 10
-20.32268950226766
 20
-41.32448363454337
 10
-20.40045150877855
 20
-41.41617925781126
 10
-20.69040284870077
 20
-41.6805598231306
 10
-20.95942679553029
 20
-41.81706857679705
 10
-21.2211544453665
 20
-41.84712127344349
 10
-21.45238142497686
 20
-41.77517117323045
 10
-21.66376429415486
 20
-41.6107021432604
 10
-21.85174845505451
 20
-41.3577196735186
 10
-22.01388416452973
 20
-41.02692427846488
 10
-22.15666819733314
 20
-40.60187010272329
 10
-22.27046119726953
 20
-40.11393345975041
 10
-22.36182995430691
 20
-39.53207920877495
 10
-22.4227052293214
 20
-38.9084611198485
 10
-22.45531078996467
 20
-38.22111164672498
 10
-22.45635699272895
 20
-37.52375587135791
 10
-22.42462320530062
 20
-36.81926763266491
 10
-22.35888684187592
 20
-36.14416227696164
 10
-22.27450536537519
 20
-35.60753728123035
 10
-22.16275213428784
 20
-35.11967109985041
  0
CIRCLE
  5
121
330
D4
100
AcDbEntity
  8
AM_4
100
AcDbCircle
 10
-0.0000000000000017
 20
-37.84999999999999
 30
0.0
 40
3.323500000000001
  0
LINE
  5
122
330
D4
100
AcDbEntity
  8
AM_4
100
AcDbLine
 10
22.416
 20
-46.3
 30
0.0
 11
23.35
 21
-45.36600000000001
 31
0.0
  0
LINE
  5
123
330
D4
100
AcDbEntity
  8
AM_4
100
AcDbLine
 10
-23.35
 20
-45.36600000000001
 30
0.0
 11
-22.416
 21
-46.3
 31
0.0
  0
LINE
  5
124
330
D4
100
AcDbEntity
  8
AM_4
100
AcDbLine
 10
-22.416
 20
-46.3
 30
0.0
 11
22.416
 21
-46.3
 31
0.0
  0
LWPOLYLINE
  5
125
330
D4
100
AcDbEntity
  8
AM_4
100
AcDbPolyline
 90
       10
 70
     0
 43
0.0
 10
-22.16275213428784
 20
-35.11967109985041
 10
-22.03167075017452
 20
-34.71826090395822
 10
-21.87482237109064
 20
-34.38158412577249
 10
-21.66750213591151
 20
-34.09391047211195
 10
-21.43071066337178
 20
-33.91327609401032
 10
-21.18903735725427
 20
-33.85106234435961
 10
-20.93314955527442
 20
-33.89123037414149
 10
-20.68156075207606
 20
-34.02601100479347
 10
-20.43236967245426
 20
-34.24817959305285
 10
-20.32264193441584
 20
-34.37557571997878
  0
LWPOLYLINE
  5
126
330
D4
100
AcDbEntity
  8
AM_4
100
AcDbPolyline
 90
       39
 70
     0
 43
0.0
 10
2.376220273236651
 20
-34.78430472105148
 10
2.768129985575438
 20
-35.19532797013688
 10
3.103249335186129
 20
-35.66924510007962
 10
3.39584330978221
 20
-36.25505195989751
 10
3.597125233428327
 20
-36.89685228309854
 10
3.695776511905474
 20
-37.57945114709909
 10
3.681884750874512
 20
-38.28836312375453
 10
3.552762106680329
 20
-38.97999234847164
 10
3.302327122527403
 20
-39.65890199389942
 10
2.953358181782592
 20
-40.26093946700195
 10
2.489895942491839
 20
-40.80856036060553
 10
1.976761609111575
 20
-41.23065712501081
 10
1.374952152536856
 20
-41.56308681678678
 10
0.7928198316633703
 20
-41.75690544214661
 10
0.1645008521833167
 20
-41.84603604976135
 10
-0.4067656482379632
 20
-41.82570221199893
 10
-0.9829235398138587
 20
-41.70599672655948
 10
-1.508946248059679
 20
-41.50171260770313
 10
-2.008167599064052
 20
-41.20896301585859
 10
-2.464923781613639
 20
-40.83285535330763
 10
-2.867256247591864
 20
-40.37910724286045
 10
-3.210575727732482
 20
-39.84177640468788
 10
-3.471902401659382
 20
-39.24168277527129
 10
-3.641234831417556
 20
-38.58331531795266
 10
-3.704135712887758
 20
-37.88739916043664
 10
-3.652956691977247
 20
-37.18781924295069
 10
-3.481738447846276
 20
-36.4871695358302
 10
-3.203018872172003
 20
-35.8441190786485
 10
-2.805635138729246
 20
-35.24161443760676
 10
-2.338368198259054
 20
-34.75052329035655
 10
-1.771393597779147
 20
-34.33881983641028
 10
-1.201389001378695
 20
-34.06711687235367
 10
-0.5700297484150136
 20
-33.89785589589182
 10
0.0106406026331354
 20
-33.85001657729984
 10
0.6089856959599695
 20
-33.90466636793284
 10
1.152476006642301
 20
-34.04934990683071
 10
1.679016012762246
 20
-34.28615314145246
 10
2.039776712644459
 20
-34.5133606328483
 10
2.376220276224329
 20
-34.78430471280316
  0
LINE
  5
127
330
D4
100
AcDbEntity
  8
AM_4
100
AcDbLine
 10
23.35
 20
-45.36600000000001
 30
0.0
 11
23.35
 21
-32.5
 31
0.0
  0
LINE
  5
128
330
D4
100
AcDbEntity
  8
AM_4
100
AcDbLine
 10
-23.35
 20
-32.5
 30
0.0
 11
-23.35
 21
-45.36600000000001
 31
0.0
  0
LINE
  5
129
330
D4
100
AcDbEntity
  8
AM_4
100
AcDbLine
 10
-23.35
 20
-45.36600000000001
 30
0.0
 11
23.35
 21
-45.36600000000001
 31
0.0
  0
ARC
  5
12A
330
D4
100
AcDbEntity
  8
AM_5
100
AcDbCircle
 10
-0.0000000000000039
 20
-37.84999999999999
 30
0.0
 40
4.0
100
AcDbArc
 50
74.99999999999989
 51
14.99999999999977
  0
ARC
  5
12B
330
D4
100
AcDbEntity
  8
AM_5
100
AcDbCircle
 10
0.000000000000002
 20
-37.84999999999999
 30
0.0
 40
4.000000000000002
100
AcDbArc
 50
14.99999999999982
 51
183.8515706674818
  0
ARC
  5
12C
330
D4
100
AcDbEntity
  8
AM_5
100
AcDbCircle
 10
-0.0000000000000058
 20
-38.3
 30
0.0
 40
3.999999999999994
100
AcDbArc
 50
165.0000000000001
 51
104.9999999999999
  0
ENDBLK
  5
D7
330
D4
100
AcDbEntity
  8
0
100
AcDbBlockEnd
  0
BLOCK
  5
12F
330
12D
100
AcDbEntity
  8
0
100
AcDbBlockBegin
  2
4_136754H_0_in_136754_4
 70
     2
 10
0.0
 20
0.0
 30
0.0
  3
4_136754H_0_in_136754_4
  1

  0
ATTDEF
  5
131
330
12D
100
AcDbEntity
  8
AM_6
100
AcDbText
 10
51.85
 20
1.625
 30
0.0
 40
0.5
  1
F2B-SCEZ-PSS -Metric - housing
100
AcDbAttributeDefinition
  3

  2
NN
 70
     8
280
     0
  0
ATTDEF
  5
132
330
12D
100
AcDbEntity
  8
AM_6
100
AcDbText
 10
51.85
 20
1.125
 30
0.0
 40
0.5
  1
SC 2 Bolt Flange Bearings -(Normal Duty) -Corrosion Resistant Insert -Polymer Housed -E-Z KLEEN
100
AcDbAttributeDefinition
  3

  2
NT
 70
     8
280
     0
  0
ATTDEF
  5
133
330
12D
100
AcDbEntity
  8
AM_6
100
AcDbText
 10
51.85
 20
0.625
 30
0.0
 40
0.5
  1
136754H
100
AcDbAttributeDefinition
  3

  2
NB
 70
     8
280
     0
  0
ATTDEF
  5
134
330
12D
100
AcDbEntity
  8
AM_6
100
AcDbText
 10
51.85
 20
0.125
 30
0.0
 40
0.5
  1
$PN.H
100
AcDbAttributeDefinition
  3

  2
NBSYN
 70
     8
280
     0
  0
ATTDEF
  5
135
330
12D
100
AcDbEntity
  8
AM_6
100
AcDbText
 10
51.85
 20
-0.375
 30
0.0
 40
0.5
  1
136754
100
AcDbAttributeDefinition
  3

  2
LINA
 70
     8
280
     0
  0
ATTDEF
  5
136
330
12D
100
AcDbEntity
  8
AM_6
100
AcDbText
 10
51.85
 20
-0.875
 30
0.0
 40
0.5
  1
207
100
AcDbAttributeDefinition
  3

  2
SERIES
 70
     8
280
     0
  0
ATTDEF
  5
137
330
12D
100
AcDbEntity
  8
AM_6
100
AcDbText
 10
51.85
 20
-1.375
 30
0.0
 40
0.5
  1
35
100
AcDbAttributeDefinition
  3

  2
SS
 70
     8
280
     0
  0
ATTDEF
  5
138
330
12D
100
AcDbEntity
  8
AM_6
100
AcDbText
 10
51.85
 20
-1.875
 30
0.0
 40
0.5
  1
35.000000
100
AcDbAttributeDefinition
  3

  2
SS1
 70
     8
280
     0
  0
ATTDEF
  5
139
330
12D
100
AcDbEntity
  8
AM_6
100
AcDbText
 10
51.85
 20
-2.375
 30
0.0
 40
0.5
  1
136754
100
AcDbAttributeDefinition
  3

  2
PN
 70
     8
280
     0
  0
ATTDEF
  5
13A
330
12D
100
AcDbEntity
  8
AM_6
100
AcDbText
 10
51.85
 20
-2.875
 30
0.0
 40
0.5
  1
F2B-SCEZ-35M-PSS
100
AcDbAttributeDefinition
  3

  2
DESCRIPTION
 70
     8
280
     0
  0
ATTDEF
  5
13B
330
12D
100
AcDbEntity
  8
AM_6
100
AcDbText
 10
51.85
 20
-3.375
 30
0.0
 40
0.5
  1
0.61
100
AcDbAttributeDefinition
  3

  2
W
 70
     8
280
     0
  0
ATTDEF
  5
13C
330
12D
100
AcDbEntity
  8
AM_6
100
AcDbText
 10
51.85
 20
-3.875
 30
0.0
 40
0.5
  1
72.0000
100
AcDbAttributeDefinition
  3

  2
BOD
 70
     8
280
     0
  0
ATTDEF
  5
13D
330
12D
100
AcDbEntity
  8
AM_6
100
AcDbText
 10
51.85
 20
-4.375
 30
0.0
 40
0.5
  1
43.4
100
AcDbAttributeDefinition
  3

  2
A
 70
     8
280
     0
  0
ATTDEF
  5
13E
330
12D
100
AcDbEntity
  8
AM_6
100
AcDbText
 10
51.85
 20
-4.875
 30
0.0
 40
0.5
  1
160.3
100
AcDbAttributeDefinition
  3

  2
B
 70
     8
280
     0
  0
ATTDEF
  5
13F
330
12D
100
AcDbEntity
  8
AM_6
100
AcDbText
 10
51.85
 20
-5.375
 30
0.0
 40
0.5
  1
46.3
100
AcDbAttributeDefinition
  3

  2
C
 70
     8
280
     0
  0
ATTDEF
  5
140
330
12D
100
AcDbEntity
  8
AM_6
100
AcDbText
 10
51.85
 20
-5.875
 30
0.0
 40
0.5
  1
130.0
100
AcDbAttributeDefinition
  3

  2
D
 70
     8
280
     0
  0
ATTDEF
  5
141
330
12D
100
AcDbEntity
  8
AM_6
100
AcDbText
 10
51.85
 20
-6.375
 30
0.0
 40
0.5
  1
M12
100
AcDbAttributeDefinition
  3

  2
F
 70
     8
280
     0
  0
ATTDEF
  5
142
330
12D
100
AcDbEntity
  8
AM_6
100
AcDbText
 10
51.85
 20
-6.875
 30
0.0
 40
0.5
  1
15.7
100
AcDbAttributeDefinition
  3

  2
H
 70
     8
280
     0
  0
ATTDEF
  5
143
330
12D
100
AcDbEntity
  8
AM_6
100
AcDbText
 10
51.85
 20
-7.375
 30
0.0
 40
0.5
  1
13.8
100
AcDbAttributeDefinition
  3

  2
J
 70
     8
280
     0
  0
ATTDEF
  5
144
330
12D
100
AcDbEntity
  8
AM_6
100
AcDbText
 10
51.85
 20
-7.875
 30
0.0
 40
0.5
  1
46.7
100
AcDbAttributeDefinition
  3

  2
L
 70
     8
280
     0
  0
ATTDEF
  5
145
330
12D
100
AcDbEntity
  8
AM_6
100
AcDbText
 10
51.85
 20
-8.375
 30
0.0
 40
0.5
  1
93.7
100
AcDbAttributeDefinition
  3

  2
M
 70
     8
280
     0
  0
ATTDEF
  5
146
330
12D
100
AcDbEntity
  8
AM_6
100
AcDbText
 10
51.85
 20
-8.875
 30
0.0
 40
0.5
  1
3065
100
AcDbAttributeDefinition
  3

  2
CAPS
 70
     8
280
     0
  0
ATTDEF
  5
147
330
12D
100
AcDbEntity
  8
AM_6
100
AcDbText
 10
51.85
 20
-9.375
 30
0.0
 40
0.5
  1
5759
100
AcDbAttributeDefinition
  3

  2
CAPD
 70
     8
280
     0
  0
ATTDEF
  5
148
330
12D
100
AcDbEntity
  8
AM_6
100
AcDbText
 10
51.85
 20
-9.875
 30
0.0
 40
0.5
  1
baldor
100
AcDbAttributeDefinition
  3

  2
COMPANY
 70
     8
280
     0
  0
LINE
  5
149
330
12D
100
AcDbEntity
  8
AM_9
100
AcDbLine
 10
15.15000000000001
 20
-21.125
 30
0.0
 11
15.15000000000001
 21
0.0000000000000021
 31
0.0
  0
LINE
  5
14A
330
12D
100
AcDbEntity
  8
AM_9
100
AcDbLine
 10
-15.15000000000001
 20
-21.125
 30
0.0
 11
-15.15000000000001
 21
0.0000000000000021
 31
0.0
  0
LINE
  5
14B
330
12D
100
AcDbEntity
  8
AM_9
100
AcDbLine
 10
36.00000000000001
 20
-32.5
 30
0.0
 11
36.00000000000001
 21
0.0
 31
0.0
  0
LINE
  5
14C
330
12D
100
AcDbEntity
  8
AM_9
100
AcDbLine
 10
-36.00000000000001
 20
0.0
 30
0.0
 11
-36.00000000000001
 21
-32.5
 31
0.0
  0
LINE
  5
14D
330
12D
100
AcDbEntity
  8
AM_9
100
AcDbLine
 10
15.15000000000001
 20
-21.125
 30
0.0
 11
-15.15000000000001
 21
-21.125
 31
0.0
  0
LINE
  5
14E
330
12D
100
AcDbEntity
  8
AM_9
100
AcDbLine
 10
6.0
 20
-15.7
 30
0.0
 11
6.0
 21
0.000000000000004
 31
0.0
  0
LINE
  5
14F
330
12D
100
AcDbEntity
  8
AM_9
100
AcDbLine
 10
-6.0
 20
0.000000000000004
 30
0.0
 11
-6.0
 21
-15.7
 31
0.0
  0
LINE
  5
150
330
12D
100
AcDbEntity
  8
AM_7
100
AcDbLine
 10
0.0
 20
1.625
 30
0.0
 11
0.0
 21
-48.47
 31
0.0
  0
LINE
  5
151
330
12D
100
AcDbEntity
  8
AM_4
100
AcDbLine
 10
46.85
 20
-14.13
 30
0.0
 11
15.52472431774368
 21
-14.12999999999999
 31
0.0
  0
LINE
  5
152
330
12D
100
AcDbEntity
  8
AM_4
100
AcDbLine
 10
46.85
 20
-32.5
 30
0.0
 11
46.85
 21
0.0000000000000011
 31
0.0
  0
LINE
  5
153
330
12D
100
AcDbEntity
  8
AM_4
100
AcDbLine
 10
46.85
 20
0.0000000000000011
 30
0.0
 11
-46.85
 21
0.0000000000000011
 31
0.0
  0
LINE
  5
154
330
12D
100
AcDbEntity
  8
AM_4
100
AcDbLine
 10
-15.52472431774356
 20
-14.12999999999999
 30
0.0
 11
-46.85
 21
-14.13
 31
0.0
  0
LINE
  5
155
330
12D
100
AcDbEntity
  8
AM_4
100
AcDbLine
 10
-46.85
 20
-32.5
 30
0.0
 11
-46.85
 21
0.0000000000000011
 31
0.0
  0
LINE
  5
156
330
12D
100
AcDbEntity
  8
AM_4
100
AcDbLine
 10
46.85
 20
-32.5
 30
0.0
 11
-46.85
 21
-32.5
 31
0.0
  0
LINE
  5
157
330
12D
100
AcDbEntity
  8
AM_4
100
AcDbLine
 10
44.5507882323144
 20
-32.5
 30
0.0
 11
44.5507882323144
 21
-14.13
 31
0.0
  0
LINE
  5
158
330
12D
100
AcDbEntity
  8
AM_4
100
AcDbLine
 10
-44.5507882323144
 20
-32.5
 30
0.0
 11
-44.5507882323144
 21
-14.13
 31
0.0
  0
LINE
  5
159
330
12D
100
AcDbEntity
  8
AM_4
100
AcDbLine
 10
-19.4059053971795
 20
-32.5
 30
0.0
 11
-19.4059053971795
 21
-14.12999999999999
 31
0.0
  0
LINE
  5
15A
330
12D
100
AcDbEntity
  8
AM_4
100
AcDbLine
 10
19.40590539717951
 20
-32.5
 30
0.0
 11
19.40590539717951
 21
-14.12999999999999
 31
0.0
  0
LINE
  5
15B
330
12D
100
AcDbEntity
  8
AM_4
100
AcDbLine
 10
15.52472431774368
 20
-14.12999999999999
 30
0.0
 11
15.5247243177436
 21
-15.7
 31
0.0
  0
LINE
  5
15C
330
12D
100
AcDbEntity
  8
AM_4
100
AcDbLine
 10
45.79829941970785
 20
-14.13
 30
0.0
 11
45.79829941970785
 21
0.0000000000000013
 31
0.0
  0
LINE
  5
15D
330
12D
100
AcDbEntity
  8
AM_4
100
AcDbLine
 10
11.77938062938152
 20
-15.7
 30
0.0
 11
11.77938062938152
 21
0.0000000000000049
 31
0.0
  0
LINE
  5
15E
330
12D
100
AcDbEntity
  8
AM_4
100
AcDbLine
 10
-15.52472431774361
 20
-15.7
 30
0.0
 11
-15.52472431774356
 21
-14.12999999999999
 31
0.0
  0
LINE
  5
15F
330
12D
100
AcDbEntity
  8
AM_4
100
AcDbLine
 10
15.5247243177436
 20
-15.7
 30
0.0
 11
-15.52472431774361
 21
-15.7
 31
0.0
  0
LINE
  5
160
330
12D
100
AcDbEntity
  8
AM_4
100
AcDbLine
 10
-11.77938062938149
 20
-15.7
 30
0.0
 11
-11.77938062938149
 21
0.0000000000000049
 31
0.0
  0
LINE
  5
161
330
12D
100
AcDbEntity
  8
AM_4
100
AcDbLine
 10
-45.79829941970784
 20
-14.13
 30
0.0
 11
-45.79829941970784
 21
0.0000000000000013
 31
0.0
  0
ENDBLK
  5
130
330
12D
100
AcDbEntity
  8
0
100
AcDbBlockEnd
  0
ENDSEC
  0
SECTION
  2
ENTITIES
  0
INSERT
  5
6F
330
1F
100
AcDbEntity
  8
0
100
AcDbBlockReference
  2
1_136754_4
 10
0.0
 20
0.0
 30
0.0
  0
POINT
  5
163
330
1F
100
AcDbEntity
  8
ConnectionPoints
100
AcDbPoint
 10
0.0
 20
-2.899999999999999
 30
0.0000000000000002
  0
POINT
  5
164
330
1F
100
AcDbEntity
  8
ConnectionPoints
100
AcDbPoint
 10
0.0
 20
-46.3
 30
0.0000000000000028
  0
POINT
  5
165
330
1F
100
AcDbEntity
  8
ConnectionPoints
100
AcDbPoint
 10
33.12795269858975
 20
-24.1
 30
33.12795269858975
  0
POINT
  5
166
330
1F
100
AcDbEntity
  8
ConnectionPoints
100
AcDbPoint
 10
0.0
 20
-46.3
 30
0.0000000000000028
  0
ENDSEC
  0
SECTION
  2
OBJECTS
  0
DICTIONARY
  5
C
330
0
100
AcDbDictionary
281
     1
  3
ACAD_DETAILVIEWSTYLE
350
16E
  3
ACAD_GROUP
350
D
  3
ACAD_LAYOUT
350
1A
  3
ACAD_MATERIAL
350
43
  3
ACAD_MLEADERSTYLE
350
6B
  3
ACAD_MLINESTYLE
350
17
  3
ACAD_PLOTSETTINGS
350
19
  3
ACAD_PLOTSTYLENAME
350
E
  3
ACAD_SCALELIST
350
47
  3
ACAD_SECTIONVIEWSTYLE
350
16F
  3
ACAD_TABLESTYLE
350
69
  3
ACAD_VISUALSTYLE
350
2A
  3
ACDB_RECOMPOSE_DATA
350
16B
  3
AcDbVariableDictionary
350
167
  0
SUN
  5
6D
330
29
100
AcDbSun
 90
        1
290
     0
 63
     7
421
 16777215
 40
1.0
291
     1
 91
  2455826
 92
 54000000
292
     0
 70
     2
 71
   256
280
     1
  0
DICTIONARY
  5
16E
102
{ACAD_REACTORS
330
C
102
}
330
C
100
AcDbDictionary
281
     1
  0
DICTIONARY
  5
D
102
{ACAD_REACTORS
330
C
102
}
330
C
100
AcDbDictionary
281
     1
  0
DICTIONARY
  5
1A
102
{ACAD_REACTORS
330
C
102
}
330
C
100
AcDbDictionary
281
     1
  3
Layout1
350
1E
  3
Layout2
350
26
  3
Model
350
22
  0
DICTIONARY
  5
43
102
{ACAD_REACTORS
330
C
102
}
330
C
100
AcDbDictionary
281
     1
  3
ByBlock
350
45
  3
ByLayer
350
44
  3
Global
350
46
  0
DICTIONARY
  5
6B
102
{ACAD_REACTORS
330
C
102
}
330
C
100
AcDbDictionary
281
     1
  3
Standard
350
6C
  0
DICTIONARY
  5
17
102
{ACAD_REACTORS
330
C
102
}
330
C
100
AcDbDictionary
281
     1
  3
Standard
350
18
  0
DICTIONARY
  5
19
102
{ACAD_REACTORS
330
C
102
}
330
C
100
AcDbDictionary
281
     1
  0
ACDBDICTIONARYWDFLT
  5
E
102
{ACAD_REACTORS
330
C
102
}
330
C
100
AcDbDictionary
281
     1
  3
Normal
350
F
100
AcDbDictionaryWithDefault
340
F
  0
DICTIONARY
  5
47
102
{ACAD_REACTORS
330
C
102
}
330
C
100
AcDbDictionary
281
     1
  3
A0
350
48
  3
A1
350
49
  3
A2
350
4A
  3
A3
350
4B
  3
A4
350
4C
  3
A5
350
4D
  3
A6
350
4E
  3
A7
350
4F
  3
A8
350
50
  3
A9
350
51
  3
B0
350
52
  3
B1
350
53
  3
B2
350
54
  3
B3
350
55
  3
B4
350
56
  3
B5
350
57
  3
B6
350
58
  3
B7
350
59
  3
B8
350
5A
  3
B9
350
5B
  3
C0
350
5C
  3
C1
350
5D
  3
C2
350
5E
  3
C3
350
5F
  3
C4
350
60
  3
C5
350
61
  3
C6
350
62
  3
C7
350
63
  3
C8
350
64
  3
C9
350
65
  3
D0
350
66
  3
D1
350
67
  3
D2
350
68
  0
DICTIONARY
  5
16F
102
{ACAD_REACTORS
330
C
102
}
330
C
100
AcDbDictionary
281
     1
  0
DICTIONARY
  5
69
102
{ACAD_REACTORS
330
C
102
}
330
C
100
AcDbDictionary
281
     1
  3
Standard
350
6A
  0
DICTIONARY
  5
2A
102
{ACAD_REACTORS
330
C
102
}
330
C
100
AcDbDictionary
281
     1
  3
2dWireframe
350
2F
  3
Basic
350
32
  3
Brighten
350
36
  3
ColorChange
350
3A
  3
Conceptual
350
34
  3
Dim
350
35
  3
EdgeColorOff
350
3D
  3
Facepattern
350
39
  3
Flat
350
2B
  3
FlatWithEdges
350
2C
  3
Gouraud
350
2D
  3
GouraudWithEdges
350
2E
  3
Hidden
350
31
  3
JitterOff
350
3B
  3
Linepattern
350
38
  3
OverhangOff
350
3C
  3
Realistic
350
33
  3
Shaded
350
42
  3
Shaded with edges
350
41
  3
Shades of Gray
350
3E
  3
Sketchy
350
3F
  3
Thicken
350
37
  3
Wireframe
350
30
  3
X-Ray
350
40
  0
XRECORD
  5
16B
102
{ACAD_REACTORS
330
C
102
}
330
C
100
AcDbXrecord
280
     1
 90
        1
330
6A
  0
DICTIONARY
  5
167
102
{ACAD_REACTORS
330
C
102
}
330
C
100
AcDbDictionary
281
     1
  3
CANNOSCALE
350
168
  3
CMLEADERSTYLE
350
16D
  3
CTABLESTYLE
350
16C
  0
LAYOUT
  5
1E
102
{ACAD_REACTORS
330
1A
102
}
330
1A
100
AcDbPlotSettings
  1

  2
none_device
  4

  6

 40
0.0
 41
0.0
 42
0.0
 43
0.0
 44
0.0
 45
0.0
 46
0.0
 47
0.0
 48
0.0
 49
0.0
140
0.0
141
0.0
142
1.0
143
1.0
 70
   688
 72
     1
 73
     0
 74
     5
  7

 75
    16
 76
     0
 77
     2
 78
   300
147
1.0
148
0.0
149
0.0
100
AcDbLayout
  1
Layout1
 70
     1
 71
     1
 10
0.0
 20
0.0
 11
420.0
 21
297.0
 12
0.0
 22
0.0
 32
0.0
 14
1.000000000000000E+20
 24
1.000000000000000E+20
 34
1.000000000000000E+20
 15
-1.000000000000000E+20
 25
-1.000000000000000E+20
 35
-1.000000000000000E+20
146
0.0
 13
0.0
 23
0.0
 33
0.0
 16
1.0
 26
0.0
 36
0.0
 17
0.0
 27
1.0
 37
0.0
 76
     0
330
1B
  0
LAYOUT
  5
26
102
{ACAD_REACTORS
330
1A
102
}
330
1A
100
AcDbPlotSettings
  1

  2
none_device
  4

  6

 40
0.0
 41
0.0
 42
0.0
 43
0.0
 44
0.0
 45
0.0
 46
0.0
 47
0.0
 48
0.0
 49
0.0
140
0.0
141
0.0
142
1.0
143
1.0
 70
   688
 72
     1
 73
     0
 74
     5
  7

 75
    16
 76
     0
 77
     2
 78
   300
147
1.0
148
0.0
149
0.0
100
AcDbLayout
  1
Layout2
 70
     1
 71
     2
 10
0.0
 20
0.0
 11
0.0
 21
0.0
 12
0.0
 22
0.0
 32
0.0
 14
0.0
 24
0.0
 34
0.0
 15
0.0
 25
0.0
 35
0.0
146
0.0
 13
0.0
 23
0.0
 33
0.0
 16
1.0
 26
0.0
 36
0.0
 17
0.0
 27
1.0
 37
0.0
 76
     0
330
23
  0
LAYOUT
  5
22
102
{ACAD_REACTORS
330
1A
102
}
330
1A
100
AcDbPlotSettings
  1

  2
none_device
  4
Letter_(8.50_x_11.00_Inches)
  6

 40
6.35
 41
6.35
 42
6.35000508
 43
6.35000508
 44
215.9
 45
279.4
 46
0.0
 47
0.0
 48
0.0
 49
0.0
140
0.0
141
0.0
142
1.0
143
1.0
 70
  1712
 72
     1
 73
     0
 74
     0
  7

 75
     0
 76
     0
 77
     2
 78
   300
147
1.0
148
0.0
149
0.0
100
AcDbLayout
  1
Model
 70
     1
 71
     0
 10
0.0
 20
0.0
 11
420.0
 21
297.0
 12
0.0
 22
0.0
 32
0.0
 14
1.000000000000000E+20
 24
1.000000000000000E+20
 34
1.000000000000000E+20
 15
-1.000000000000000E+20
 25
-1.000000000000000E+20
 35
-1.000000000000000E+20
146
0.0
 13
0.0
 23
0.0
 33
0.0
 16
1.0
 26
0.0
 36
0.0
 17
0.0
 27
1.0
 37
0.0
 76
     0
330
1F
331
29
  0
MATERIAL
  5
45
102
{ACAD_REACTORS
330
43
102
}
330
43
100
AcDbMaterial
  1
ByBlock
 72
     1
 94
      127
  0
MATERIAL
  5
44
102
{ACAD_REACTORS
330
43
102
}
330
43
100
AcDbMaterial
  1
ByLayer
 72
     1
 94
      127
  0
MATERIAL
  5
46
102
{ACAD_REACTORS
330
43
102
}
330
43
100
AcDbMaterial
  1
Global
 72
     1
 94
      127
  0
MLEADERSTYLE
  5
6C
102
{ACAD_REACTORS
330
6B
102
}
330
6B
100
AcDbMLeaderStyle
179
     2
170
     2
171
     1
172
     0
 90
        2
 40
0.0
 41
0.0
173
     1
 91
-1056964608
340
14
 92
       -2
290
     1
 42
2.0
291
     1
 43
8.0
  3
Standard
341
0
 44
4.0
300

342
11
174
     1
178
     6
175
     1
176
     0
 93
-1056964608
 45
4.0
292
     0
297
     0
 46
4.0
343
0
 94
-1056964608
 47
1.0
 49
1.0
140
1.0
293
     1
141
0.0
294
     1
177
     0
142
1.0
295
     0
296
     0
143
3.75
271
     0
272
     9
273
     9
298
     0
  0
MLINESTYLE
  5
18
102
{ACAD_REACTORS
330
17
102
}
330
17
100
AcDbMlineStyle
  2
Standard
 70
     0
  3

 62
   256
 51
90.0
 52
90.0
 71
     2
 49
0.5
 62
   256
  6
BYLAYER
 49
-0.5
 62
   256
  6
BYLAYER
  0
ACDBPLACEHOLDER
  5
F
102
{ACAD_REACTORS
330
E
102
}
330
E
  0
SCALE
  5
48
102
{ACAD_REACTORS
330
47
102
}
330
47
100
AcDbScale
 70
     0
300
1:1
140
1.0
141
1.0
290
     1
  0
SCALE
  5
49
102
{ACAD_REACTORS
330
47
102
}
330
47
100
AcDbScale
 70
     0
300
1:2
140
1.0
141
2.0
290
     0
  0
SCALE
  5
4A
102
{ACAD_REACTORS
330
47
102
}
330
47
100
AcDbScale
 70
     0
300
1:4
140
1.0
141
4.0
290
     0
  0
SCALE
  5
4B
102
{ACAD_REACTORS
330
47
102
}
330
47
100
AcDbScale
 70
     0
300
1:5
140
1.0
141
5.0
290
     0
  0
SCALE
  5
4C
102
{ACAD_REACTORS
330
47
102
}
330
47
100
AcDbScale
 70
     0
300
1:8
140
1.0
141
8.0
290
     0
  0
SCALE
  5
4D
102
{ACAD_REACTORS
330
47
102
}
330
47
100
AcDbScale
 70
     0
300
1:10
140
1.0
141
10.0
290
     0
  0
SCALE
  5
4E
102
{ACAD_REACTORS
330
47
102
}
330
47
100
AcDbScale
 70
     0
300
1:16
140
1.0
141
16.0
290
     0
  0
SCALE
  5
4F
102
{ACAD_REACTORS
330
47
102
}
330
47
100
AcDbScale
 70
     0
300
1:20
140
1.0
141
20.0
290
     0
  0
SCALE
  5
50
102
{ACAD_REACTORS
330
47
102
}
330
47
100
AcDbScale
 70
     0
300
1:30
140
1.0
141
30.0
290
     0
  0
SCALE
  5
51
102
{ACAD_REACTORS
330
47
102
}
330
47
100
AcDbScale
 70
     0
300
1:40
140
1.0
141
40.0
290
     0
  0
SCALE
  5
52
102
{ACAD_REACTORS
330
47
102
}
330
47
100
AcDbScale
 70
     0
300
1:50
140
1.0
141
50.0
290
     0
  0
SCALE
  5
53
102
{ACAD_REACTORS
330
47
102
}
330
47
100
AcDbScale
 70
     0
300
1:100
140
1.0
141
100.0
290
     0
  0
SCALE
  5
54
102
{ACAD_REACTORS
330
47
102
}
330
47
100
AcDbScale
 70
     0
300
2:1
140
2.0
141
1.0
290
     0
  0
SCALE
  5
55
102
{ACAD_REACTORS
330
47
102
}
330
47
100
AcDbScale
 70
     0
300
4:1
140
4.0
141
1.0
290
     0
  0
SCALE
  5
56
102
{ACAD_REACTORS
330
47
102
}
330
47
100
AcDbScale
 70
     0
300
8:1
140
8.0
141
1.0
290
     0
  0
SCALE
  5
57
102
{ACAD_REACTORS
330
47
102
}
330
47
100
AcDbScale
 70
     0
300
10:1
140
10.0
141
1.0
290
     0
  0
SCALE
  5
58
102
{ACAD_REACTORS
330
47
102
}
330
47
100
AcDbScale
 70
     0
300
100:1
140
100.0
141
1.0
290
     0
  0
SCALE
  5
59
102
{ACAD_REACTORS
330
47
102
}
330
47
100
AcDbScale
 70
     0
300
1/128" = 1'-0"
140
0.0078125
141
12.0
290
     0
  0
SCALE
  5
5A
102
{ACAD_REACTORS
330
47
102
}
330
47
100
AcDbScale
 70
     0
300
1/64" = 1'-0"
140
0.015625
141
12.0
290
     0
  0
SCALE
  5
5B
102
{ACAD_REACTORS
330
47
102
}
330
47
100
AcDbScale
 70
     0
300
1/32" = 1'-0"
140
0.03125
141
12.0
290
     0
  0
SCALE
  5
5C
102
{ACAD_REACTORS
330
47
102
}
330
47
100
AcDbScale
 70
     0
300
1/16" = 1'-0"
140
0.0625
141
12.0
290
     0
  0
SCALE
  5
5D
102
{ACAD_REACTORS
330
47
102
}
330
47
100
AcDbScale
 70
     0
300
3/32" = 1'-0"
140
0.09375
141
12.0
290
     0
  0
SCALE
  5
5E
102
{ACAD_REACTORS
330
47
102
}
330
47
100
AcDbScale
 70
     0
300
1/8" = 1'-0"
140
0.125
141
12.0
290
     0
  0
SCALE
  5
5F
102
{ACAD_REACTORS
330
47
102
}
330
47
100
AcDbScale
 70
     0
300
3/16" = 1'-0"
140
0.1875
141
12.0
290
     0
  0
SCALE
  5
60
102
{ACAD_REACTORS
330
47
102
}
330
47
100
AcDbScale
 70
     0
300
1/4" = 1'-0"
140
0.25
141
12.0
290
     0
  0
SCALE
  5
61
102
{ACAD_REACTORS
330
47
102
}
330
47
100
AcDbScale
 70
     0
300
3/8" = 1'-0"
140
0.375
141
12.0
290
     0
  0
SCALE
  5
62
102
{ACAD_REACTORS
330
47
102
}
330
47
100
AcDbScale
 70
     0
300
1/2" = 1'-0"
140
0.5
141
12.0
290
     0
  0
SCALE
  5
63
102
{ACAD_REACTORS
330
47
102
}
330
47
100
AcDbScale
 70
     0
300
3/4" = 1'-0"
140
0.75
141
12.0
290
     0
  0
SCALE
  5
64
102
{ACAD_REACTORS
330
47
102
}
330
47
100
AcDbScale
 70
     0
300
1" = 1'-0"
140
1.0
141
12.0
290
     0
  0
SCALE
  5
65
102
{ACAD_REACTORS
330
47
102
}
330
47
100
AcDbScale
 70
     0
300
1-1/2" = 1'-0"
140
1.5
141
12.0
290
     0
  0
SCALE
  5
66
102
{ACAD_REACTORS
330
47
102
}
330
47
100
AcDbScale
 70
     0
300
3" = 1'-0"
140
3.0
141
12.0
290
     0
  0
SCALE
  5
67
102
{ACAD_REACTORS
330
47
102
}
330
47
100
AcDbScale
 70
     0
300
6" = 1'-0"
140
6.0
141
12.0
290
     0
  0
SCALE
  5
68
102
{ACAD_REACTORS
330
47
102
}
330
47
100
AcDbScale
 70
     0
300
1'-0" = 1'-0"
140
12.0
141
12.0
290
     0
  0
TABLESTYLE
  5
6A
102
{ACAD_REACTORS
330
69
102
}
102
{ACAD_XDICTIONARY
360
169
102
}
330
69
100
AcDbTableStyle
  3
Standard
 70
     0
 71
     0
 40
0.06
 41
0.06
280
     0
281
     0
  7
Standard
140
4.5
170
     2
 62
     0
 63
   257
283
     0
 90
        4
 91
        0
  1

274
    -2
284
     1
 64
     0
275
    -2
285
     1
 65
     0
276
    -2
286
     1
 66
     0
277
    -2
287
     1
 67
     0
278
    -2
288
     1
 68
     0
279
    -2
289
     1
 69
     0
  7
Standard
140
6.0
170
     5
 62
     0
 63
   257
283
     0
 90
        4
 91
        0
  1

274
    -2
284
     1
 64
     0
275
    -2
285
     1
 65
     0
276
    -2
286
     1
 66
     0
277
    -2
287
     1
 67
     0
278
    -2
288
     1
 68
     0
279
    -2
289
     1
 69
     0
  7
Standard
140
4.5
170
     5
 62
     0
 63
   257
283
     0
 90
        4
 91
        0
  1

274
    -2
284
     1
 64
     0
275
    -2
285
     1
 65
     0
276
    -2
286
     1
 66
     0
277
    -2
287
     1
 67
     0
278
    -2
288
     1
 68
     0
279
    -2
289
     1
 69
     0
  0
VISUALSTYLE
  5
2F
102
{ACAD_REACTORS
330
2A
102
}
330
2A
100
AcDbVisualStyle
  2
2dWireframe
 70
     4
177
     3
291
     0
 70
    58
 90
        0
176
     1
 90
        2
176
     1
 90
        0
176
     1
 90
        0
176
     1
 40
0.6
176
     1
 40
30.0
176
     1
 62
     7
420
 16777215
176
     1
 90
        1
176
     1
 90
        4
176
     1
 62
     7
176
     1
 62
   257
176
     1
 90
        1
176
     1
 90
        1
176
     1
 40
1.0
176
     1
 90
        0
176
     1
 62
   257
176
     1
 40
1.0
176
     1
 90
        1
176
     1
 90
        6
176
     1
 90
        2
176
     1
 62
     7
176
     1
 90
        5
176
     1
 90
        0
176
     1
 90
        0
176
     1
290
     0
176
     1
 90
        1
176
     1
 40
0.0
176
     1
 90
        0
176
     1
290
     1
176
     1
290
     1
176
     1
290
     0
176
     1
290
     0
176
     1
290
     0
176
     1
290
     0
176
     1
290
     0
176
     1
290
     0
176
     1
290
     0
176
     1
 90
       50
176
     1
 40
0.0
176
     1
 40
1.0
176
     1
 90
        0
176
     1
 62
    18
420
        0
176
     1
 90
       50
176
     1
 90
        3
176
     1
 62
     5
420
      255
176
     1
290
     0
176
     1
 90
       50
176
     1
 90
       50
176
     1
 90
       50
176
     1
290
     0
176
     1
 90
       50
176
     1
 62
   256
176
     0
 40
1.0
176
     0
 90
        2
176
     1
  1
strokes_ogs.tif
176
     1
290
     0
176
     1
 40
1.0
176
     1
 40
1.0
176
     1
  0
VISUALSTYLE
  5
32
102
{ACAD_REACTORS
330
2A
102
}
330
2A
100
AcDbVisualStyle
  2
Basic
 70
     7
177
     3
291
     1
 70
    58
 90
        1
176
     1
 90
        0
176
     1
 90
        1
176
     1
 90
        0
176
     1
 40
0.6
176
     1
 40
30.0
176
     1
 62
     7
420
 16777215
176
     1
 90
        0
176
     1
 90
        4
176
     1
 62
     7
176
     1
 62
   257
176
     1
 90
        1
176
     1
 90
        1
176
     1
 40
1.0
176
     1
 90
        8
176
     1
 62
     7
176
     1
 40
1.0
176
     1
 90
        1
176
     1
 90
        6
176
     1
 90
        2
176
     1
 62
     7
176
     1
 90
        5
176
     1
 90
        0
176
     1
 90
        0
176
     1
290
     0
176
     1
 90
        1
176
     1
 40
0.0
176
     1
 90
        0
176
     1
290
     0
176
     1
290
     1
176
     1
290
     1
176
     1
290
     0
176
     1
290
     0
176
     1
290
     0
176
     1
290
     0
176
     1
290
     0
176
     1
290
     0
176
     1
 90
       50
176
     1
 40
0.0
176
     1
 40
1.0
176
     1
 90
        0
176
     1
 62
    18
420
        0
176
     1
 90
       50
176
     1
 90
        3
176
     1
 62
     5
420
      255
176
     1
290
     0
176
     1
 90
       50
176
     1
 90
       50
176
     1
 90
       50
176
     1
290
     0
176
     1
 90
       50
176
     1
 62
   256
176
     0
 40
1.0
176
     0
 90
        2
176
     1
  1
strokes_ogs.tif
176
     1
290
     0
176
     1
 40
1.0
176
     1
 40
1.0
176
     1
  0
VISUALSTYLE
  5
36
102
{ACAD_REACTORS
330
2A
102
}
330
2A
100
AcDbVisualStyle
  2
Brighten
 70
    12
177
     3
291
     1
 70
    58
 90
        2
176
     1
 90
        2
176
     1
 90
        0
176
     1
 90
        0
176
     1
 40
0.6
176
     1
 40
30.0
176
     1
 62
     7
420
 16777215
176
     1
 90
        1
176
     1
 90
        4
176
     1
 62
     7
176
     1
 62
   257
176
     1
 90
        1
176
     1
 90
        1
176
     1
 40
1.0
176
     1
 90
        8
176
     1
 62
     7
176
     1
 40
1.0
176
     1
 90
        1
176
     1
 90
        6
176
     1
 90
        2
176
     1
 62
     7
176
     1
 90
        5
176
     1
 90
        0
176
     1
 90
        0
176
     1
290
     0
176
     1
 90
        1
176
     1
 40
50.0
176
     1
 90
        0
176
     1
290
     0
176
     1
290
     1
176
     1
290
     1
176
     1
290
     0
176
     1
290
     0
176
     1
290
     0
176
     1
290
     0
176
     1
290
     0
176
     1
290
     0
176
     1
 90
       50
176
     1
 40
0.0
176
     1
 40
1.0
176
     1
 90
        0
176
     1
 62
    18
420
        0
176
     1
 90
       50
176
     1
 90
        3
176
     1
 62
     5
420
      255
176
     1
290
     0
176
     1
 90
       50
176
     1
 90
       50
176
     1
 90
       50
176
     1
290
     0
176
     1
 90
       50
176
     1
 62
   256
176
     0
 40
1.0
176
     0
 90
        2
176
     1
  1
strokes_ogs.tif
176
     1
290
     0
176
     1
 40
1.0
176
     1
 40
1.0
176
     1
  0
VISUALSTYLE
  5
3A
102
{ACAD_REACTORS
330
2A
102
}
330
2A
100
AcDbVisualStyle
  2
ColorChange
 70
    16
177
     3
291
     1
 70
    58
 90
        2
176
     1
 90
        2
176
     1
 90
        3
176
     1
 90
        0
176
     1
 40
0.6
176
     1
 40
30.0
176
     1
 62
     8
420
  8421504
176
     1
 90
        1
176
     1
 90
        4
176
     1
 62
     7
176
     1
 62
   257
176
     1
 90
        1
176
     1
 90
        1
176
     1
 40
1.0
176
     1
 90
        8
176
     1
 62
     8
420
  8421504
176
     1
 40
1.0
176
     1
 90
        1
176
     1
 90
        6
176
     1
 90
        2
176
     1
 62
     7
176
     1
 90
        5
176
     1
 90
        0
176
     1
 90
        0
176
     1
290
     0
176
     1
 90
        1
176
     1
 40
0.0
176
     1
 90
        0
176
     1
290
     0
176
     1
290
     1
176
     1
290
     1
176
     1
290
     0
176
     1
290
     0
176
     1
290
     0
176
     1
290
     0
176
     1
290
     0
176
     1
290
     0
176
     1
 90
       50
176
     1
 40
0.0
176
     1
 40
1.0
176
     1
 90
        0
176
     1
 62
    18
420
        0
176
     1
 90
       50
176
     1
 90
        3
176
     1
 62
     5
420
      255
176
     1
290
     0
176
     1
 90
       50
176
     1
 90
       50
176
     1
 90
       50
176
     1
290
     0
176
     1
 90
       50
176
     1
 62
   256
176
     0
 40
1.0
176
     0
 90
        2
176
     1
  1
strokes_ogs.tif
176
     1
290
     0
176
     1
 40
1.0
176
     1
 40
1.0
176
     1
  0
VISUALSTYLE
  5
34
102
{ACAD_REACTORS
330
2A
102
}
330
2A
100
AcDbVisualStyle
  2
Conceptual
 70
     9
177
     3
291
     0
 70
    58
 90
        3
176
     1
 90
        2
176
     1
 90
        0
176
     1
 90
        0
176
     1
 40
0.6
176
     1
 40
30.0
176
     1
 62
     7
420
 16777215
176
     1
 90
        2
176
     1
 90
        2
176
     1
 62
     7
176
     1
 62
   257
176
     1
 90
        1
176
     1
 90
        1
176
     1
 40
179.0
176
     1
 90
        8
176
     1
 62
     7
176
     1
 40
1.0
176
     1
 90
        1
176
     1
 90
        6
176
     1
 90
        2
176
     1
 62
     7
176
     1
 90
        3
176
     1
 90
        0
176
     1
 90
        0
176
     1
290
     0
176
     1
 90
        1
176
     1
 40
0.0
176
     1
 90
        0
176
     1
290
     0
176
     1
290
     1
176
     1
290
     1
176
     1
290
     0
176
     1
290
     0
176
     1
290
     0
176
     1
290
     0
176
     1
290
     0
176
     1
290
     0
176
     1
 90
       50
176
     1
 40
0.0
176
     1
 40
1.0
176
     1
 90
        0
176
     1
 62
    18
420
        0
176
     1
 90
       50
176
     1
 90
        3
176
     1
 62
     5
420
      255
176
     1
290
     0
176
     1
 90
       50
176
     1
 90
       50
176
     1
 90
       50
176
     1
290
     0
176
     1
 90
       50
176
     1
 62
   256
176
     0
 40
1.0
176
     0
 90
        2
176
     1
  1
strokes_ogs.tif
176
     1
290
     0
176
     1
 40
1.0
176
     1
 40
1.0
176
     1
  0
VISUALSTYLE
  5
35
102
{ACAD_REACTORS
330
2A
102
}
330
2A
100
AcDbVisualStyle
  2
Dim
 70
    11
177
     3
291
     1
 70
    58
 90
        2
176
     1
 90
        2
176
     1
 90
        0
176
     1
 90
        0
176
     1
 40
0.6
176
     1
 40
30.0
176
     1
 62
     7
420
 16777215
176
     1
 90
        1
176
     1
 90
        4
176
     1
 62
     7
176
     1
 62
   257
176
     1
 90
        1
176
     1
 90
        1
176
     1
 40
1.0
176
     1
 90
        8
176
     1
 62
     7
176
     1
 40
1.0
176
     1
 90
        1
176
     1
 90
        6
176
     1
 90
        2
176
     1
 62
     7
176
     1
 90
        5
176
     1
 90
        0
176
     1
 90
        0
176
     1
290
     0
176
     1
 90
        1
176
     1
 40
-50.0
176
     1
 90
        0
176
     1
290
     0
176
     1
290
     1
176
     1
290
     1
176
     1
290
     0
176
     1
290
     0
176
     1
290
     0
176
     1
290
     0
176
     1
290
     0
176
     1
290
     0
176
     1
 90
       50
176
     1
 40
0.0
176
     1
 40
1.0
176
     1
 90
        0
176
     1
 62
    18
420
        0
176
     1
 90
       50
176
     1
 90
        3
176
     1
 62
     5
420
      255
176
     1
290
     0
176
     1
 90
       50
176
     1
 90
       50
176
     1
 90
       50
176
     1
290
     0
176
     1
 90
       50
176
     1
 62
   256
176
     0
 40
1.0
176
     0
 90
        2
176
     1
  1
strokes_ogs.tif
176
     1
290
     0
176
     1
 40
1.0
176
     1
 40
1.0
176
     1
  0
VISUALSTYLE
  5
3D
102
{ACAD_REACTORS
330
2A
102
}
330
2A
100
AcDbVisualStyle
  2
EdgeColorOff
 70
    22
177
     3
291
     1
 70
    58
 90
        2
176
     0
 90
        2
176
     0
 90
        0
176
     0
 90
        0
176
     0
 40
0.6
176
     0
 40
30.0
176
     0
 62
     7
420
 16777215
176
     0
 90
        1
176
     0
 90
        4
176
     0
 62
     7
176
     0
 62
   257
176
     0
 90
        1
176
     0
 90
        1
176
     0
 40
1.0
176
     0
 90
        8
176
     2
 62
     7
176
     0
 40
1.0
176
     0
 90
        1
176
     0
 90
        6
176
     0
 90
        2
176
     0
 62
     7
176
     0
 90
        5
176
     0
 90
        0
176
     0
 90
        0
176
     0
290
     0
176
     0
 90
        1
176
     0
 40
0.0
176
     0
 90
        0
176
     0
290
     0
176
     0
290
     1
176
     0
290
     1
176
     0
290
     0
176
     0
290
     0
176
     0
290
     0
176
     0
290
     0
176
     0
290
     0
176
     0
290
     0
176
     0
 90
       50
176
     0
 40
0.0
176
     0
 40
1.0
176
     0
 90
        0
176
     0
 62
    18
420
        0
176
     0
 90
       50
176
     0
 90
        3
176
     0
 62
     5
420
      255
176
     0
290
     0
176
     0
 90
       50
176
     0
 90
       50
176
     0
 90
       50
176
     0
290
     0
176
     0
 90
       50
176
     0
 62
   256
176
     0
 40
1.0
176
     0
 90
        2
176
     0
  1
strokes_ogs.tif
176
     0
290
     0
176
     0
 40
1.0
176
     0
 40
1.0
176
     0
  0
VISUALSTYLE
  5
39
102
{ACAD_REACTORS
330
2A
102
}
330
2A
100
AcDbVisualStyle
  2
Facepattern
 70
    15
177
     3
291
     1
 70
    58
 90
        2
176
     1
 90
        2
176
     1
 90
        0
176
     1
 90
        0
176
     1
 40
0.6
176
     1
 40
30.0
176
     1
 62
     7
420
 16777215
176
     1
 90
        1
176
     1
 90
        4
176
     1
 62
     7
176
     1
 62
   257
176
     1
 90
        1
176
     1
 90
        1
176
     1
 40
1.0
176
     1
 90
        8
176
     1
 62
     7
176
     1
 40
1.0
176
     1
 90
        1
176
     1
 90
        6
176
     1
 90
        2
176
     1
 62
     7
176
     1
 90
        5
176
     1
 90
        0
176
     1
 90
        0
176
     1
290
     0
176
     1
 90
        1
176
     1
 40
0.0
176
     1
 90
        0
176
     1
290
     0
176
     1
290
     1
176
     1
290
     1
176
     1
290
     0
176
     1
290
     0
176
     1
290
     0
176
     1
290
     0
176
     1
290
     0
176
     1
290
     0
176
     1
 90
       50
176
     1
 40
0.0
176
     1
 40
1.0
176
     1
 90
        0
176
     1
 62
    18
420
        0
176
     1
 90
       50
176
     1
 90
        3
176
     1
 62
     5
420
      255
176
     1
290
     0
176
     1
 90
       50
176
     1
 90
       50
176
     1
 90
       50
176
     1
290
     0
176
     1
 90
       50
176
     1
 62
   256
176
     0
 40
1.0
176
     0
 90
        2
176
     1
  1
strokes_ogs.tif
176
     1
290
     0
176
     1
 40
1.0
176
     1
 40
1.0
176
     1
  0
VISUALSTYLE
  5
2B
102
{ACAD_REACTORS
330
2A
102
}
330
2A
100
AcDbVisualStyle
  2
Flat
 70
     0
177
     3
291
     1
 70
    58
 90
        2
176
     1
 90
        1
176
     1
 90
        1
176
     1
 90
        2
176
     1
 40
0.6
176
     1
 40
30.0
176
     1
 62
     7
420
 16777215
176
     1
 90
        0
176
     1
 90
        0
176
     1
 62
     7
176
     1
 62
   257
176
     1
 90
        1
176
     1
 90
        1
176
     1
 40
1.0
176
     1
 90
        8
176
     1
 62
     7
176
     1
 40
1.0
176
     1
 90
        1
176
     1
 90
        6
176
     1
 90
        2
176
     1
 62
     7
176
     1
 90
        5
176
     1
 90
        0
176
     1
 90
        0
176
     1
290
     0
176
     1
 90
       13
176
     1
 40
0.0
176
     1
 90
        0
176
     1
290
     0
176
     1
290
     1
176
     1
290
     1
176
     1
290
     0
176
     1
290
     0
176
     1
290
     0
176
     1
290
     0
176
     1
290
     0
176
     1
290
     0
176
     1
 90
       50
176
     1
 40
0.0
176
     1
 40
1.0
176
     1
 90
        0
176
     1
 62
    18
420
        0
176
     1
 90
       50
176
     1
 90
        3
176
     1
 62
     5
420
      255
176
     1
290
     0
176
     1
 90
       50
176
     1
 90
       50
176
     1
 90
       50
176
     1
290
     0
176
     1
 90
       50
176
     1
 62
   256
176
     0
 40
1.0
176
     0
 90
        2
176
     1
  1
strokes_ogs.tif
176
     1
290
     0
176
     1
 40
1.0
176
     1
 40
1.0
176
     1
  0
VISUALSTYLE
  5
2C
102
{ACAD_REACTORS
330
2A
102
}
330
2A
100
AcDbVisualStyle
  2
FlatWithEdges
 70
     1
177
     3
291
     1
 70
    58
 90
        2
176
     1
 90
        1
176
     1
 90
        1
176
     1
 90
        2
176
     1
 40
0.6
176
     1
 40
30.0
176
     1
 62
     7
420
 16777215
176
     1
 90
        1
176
     1
 90
        0
176
     1
 62
     7
176
     1
 62
   257
176
     1
 90
        1
176
     1
 90
        1
176
     1
 40
1.0
176
     1
 90
        0
176
     1
 62
   257
176
     1
 40
1.0
176
     1
 90
        1
176
     1
 90
        6
176
     1
 90
        2
176
     1
 62
     7
176
     1
 90
        5
176
     1
 90
        0
176
     1
 90
        0
176
     1
290
     0
176
     1
 90
       13
176
     1
 40
0.0
176
     1
 90
        0
176
     1
290
     0
176
     1
290
     1
176
     1
290
     1
176
     1
290
     0
176
     1
290
     0
176
     1
290
     0
176
     1
290
     0
176
     1
290
     0
176
     1
290
     0
176
     1
 90
       50
176
     1
 40
0.0
176
     1
 40
1.0
176
     1
 90
        0
176
     1
 62
    18
420
        0
176
     1
 90
       50
176
     1
 90
        3
176
     1
 62
     5
420
      255
176
     1
290
     0
176
     1
 90
       50
176
     1
 90
       50
176
     1
 90
       50
176
     1
290
     0
176
     1
 90
       50
176
     1
 62
   256
176
     0
 40
1.0
176
     0
 90
        2
176
     1
  1
strokes_ogs.tif
176
     1
290
     0
176
     1
 40
1.0
176
     1
 40
1.0
176
     1
  0
VISUALSTYLE
  5
2D
102
{ACAD_REACTORS
330
2A
102
}
330
2A
100
AcDbVisualStyle
  2
Gouraud
 70
     2
177
     3
291
     1
 70
    58
 90
        2
176
     1
 90
        2
176
     1
 90
        1
176
     1
 90
        2
176
     1
 40
0.6
176
     1
 40
30.0
176
     1
 62
     7
420
 16777215
176
     1
 90
        0
176
     1
 90
        0
176
     1
 62
     7
176
     1
 62
   257
176
     1
 90
        1
176
     1
 90
        1
176
     1
 40
1.0
176
     1
 90
        0
176
     1
 62
     7
176
     1
 40
1.0
176
     1
 90
        1
176
     1
 90
        6
176
     1
 90
        2
176
     1
 62
     7
176
     1
 90
        5
176
     1
 90
        0
176
     1
 90
        0
176
     1
290
     0
176
     1
 90
       13
176
     1
 40
0.0
176
     1
 90
        0
176
     1
290
     0
176
     1
290
     1
176
     1
290
     1
176
     1
290
     0
176
     1
290
     0
176
     1
290
     0
176
     1
290
     0
176
     1
290
     0
176
     1
290
     0
176
     1
 90
       50
176
     1
 40
0.0
176
     1
 40
1.0
176
     1
 90
        0
176
     1
 62
    18
420
        0
176
     1
 90
       50
176
     1
 90
        3
176
     1
 62
     5
420
      255
176
     1
290
     0
176
     1
 90
       50
176
     1
 90
       50
176
     1
 90
       50
176
     1
290
     0
176
     1
 90
       50
176
     1
 62
   256
176
     0
 40
1.0
176
     0
 90
        2
176
     1
  1
strokes_ogs.tif
176
     1
290
     0
176
     1
 40
1.0
176
     1
 40
1.0
176
     1
  0
VISUALSTYLE
  5
2E
102
{ACAD_REACTORS
330
2A
102
}
330
2A
100
AcDbVisualStyle
  2
GouraudWithEdges
 70
     3
177
     3
291
     1
 70
    58
 90
        2
176
     1
 90
        2
176
     1
 90
        1
176
     1
 90
        2
176
     1
 40
0.6
176
     1
 40
30.0
176
     1
 62
     7
420
 16777215
176
     1
 90
        1
176
     1
 90
        0
176
     1
 62
     7
176
     1
 62
   257
176
     1
 90
        1
176
     1
 90
        1
176
     1
 40
1.0
176
     1
 90
        0
176
     1
 62
   257
176
     1
 40
1.0
176
     1
 90
        1
176
     1
 90
        6
176
     1
 90
        2
176
     1
 62
     7
176
     1
 90
        5
176
     1
 90
        0
176
     1
 90
        0
176
     1
290
     0
176
     1
 90
       13
176
     1
 40
0.0
176
     1
 90
        0
176
     1
290
     0
176
     1
290
     1
176
     1
290
     1
176
     1
290
     0
176
     1
290
     0
176
     1
290
     0
176
     1
290
     0
176
     1
290
     0
176
     1
290
     0
176
     1
 90
       50
176
     1
 40
0.0
176
     1
 40
1.0
176
     1
 90
        0
176
     1
 62
    18
420
        0
176
     1
 90
       50
176
     1
 90
        3
176
     1
 62
     5
420
      255
176
     1
290
     0
176
     1
 90
       50
176
     1
 90
       50
176
     1
 90
       50
176
     1
290
     0
176
     1
 90
       50
176
     1
 62
   256
176
     0
 40
1.0
176
     0
 90
        2
176
     1
  1
strokes_ogs.tif
176
     1
290
     0
176
     1
 40
1.0
176
     1
 40
1.0
176
     1
  0
VISUALSTYLE
  5
31
102
{ACAD_REACTORS
330
2A
102
}
330
2A
100
AcDbVisualStyle
  2
Hidden
 70
     6
177
     3
291
     0
 70
    58
 90
        1
176
     1
 90
        2
176
     1
 90
        2
176
     1
 90
        0
176
     1
 40
0.6
176
     1
 40
30.0
176
     1
 62
     7
420
 16777215
176
     1
 90
        2
176
     1
 90
        2
176
     1
 62
     7
176
     1
 62
   257
176
     1
 90
        2
176
     1
 90
        1
176
     1
 40
40.0
176
     1
 90
        0
176
     1
 62
   257
176
     1
 40
1.0
176
     1
 90
        1
176
     1
 90
        6
176
     1
 90
        2
176
     1
 62
     7
176
     1
 90
        3
176
     1
 90
        0
176
     1
 90
        0
176
     1
290
     0
176
     1
 90
        1
176
     1
 40
0.0
176
     1
 90
        0
176
     1
290
     0
176
     1
290
     1
176
     1
290
     1
176
     1
290
     0
176
     1
290
     0
176
     1
290
     0
176
     1
290
     0
176
     1
290
     0
176
     1
290
     0
176
     1
 90
       50
176
     1
 40
0.0
176
     1
 40
1.0
176
     1
 90
        0
176
     1
 62
    18
420
        0
176
     1
 90
       50
176
     1
 90
        3
176
     1
 62
     5
420
      255
176
     1
290
     0
176
     1
 90
       50
176
     1
 90
       50
176
     1
 90
       50
176
     1
290
     0
176
     1
 90
       50
176
     1
 62
   256
176
     0
 40
1.0
176
     0
 90
        2
176
     1
  1
strokes_ogs.tif
176
     1
290
     0
176
     1
 40
1.0
176
     1
 40
1.0
176
     1
  0
VISUALSTYLE
  5
3B
102
{ACAD_REACTORS
330
2A
102
}
330
2A
100
AcDbVisualStyle
  2
JitterOff
 70
    20
177
     3
291
     1
 70
    58
 90
        2
176
     0
 90
        2
176
     0
 90
        0
176
     0
 90
        0
176
     0
 40
0.6
176
     0
 40
30.0
176
     0
 62
     7
420
 16777215
176
     0
 90
        1
176
     0
 90
        4
176
     0
 62
     7
176
     0
 62
   257
176
     0
 90
        1
176
     0
 90
        1
176
     0
 40
1.0
176
     0
 90
       10
176
     2
 62
     7
176
     0
 40
1.0
176
     0
 90
        1
176
     0
 90
        6
176
     0
 90
        2
176
     0
 62
     7
176
     0
 90
        5
176
     0
 90
        0
176
     0
 90
        0
176
     0
290
     0
176
     0
 90
        1
176
     0
 40
0.0
176
     0
 90
        0
176
     0
290
     0
176
     0
290
     1
176
     0
290
     1
176
     0
290
     0
176
     0
290
     0
176
     0
290
     0
176
     0
290
     0
176
     0
290
     0
176
     0
290
     0
176
     0
 90
       50
176
     0
 40
0.0
176
     0
 40
1.0
176
     0
 90
        0
176
     0
 62
    18
420
        0
176
     0
 90
       50
176
     0
 90
        3
176
     0
 62
     5
420
      255
176
     0
290
     0
176
     0
 90
       50
176
     0
 90
       50
176
     0
 90
       50
176
     0
290
     0
176
     0
 90
       50
176
     0
 62
   256
176
     0
 40
1.0
176
     0
 90
        2
176
     0
  1
strokes_ogs.tif
176
     0
290
     0
176
     0
 40
1.0
176
     0
 40
1.0
176
     0
  0
VISUALSTYLE
  5
38
102
{ACAD_REACTORS
330
2A
102
}
330
2A
100
AcDbVisualStyle
  2
Linepattern
 70
    14
177
     3
291
     1
 70
    58
 90
        2
176
     1
 90
        2
176
     1
 90
        0
176
     1
 90
        0
176
     1
 40
0.6
176
     1
 40
30.0
176
     1
 62
     7
420
 16777215
176
     1
 90
        1
176
     1
 90
        4
176
     1
 62
     7
176
     1
 62
   257
176
     1
 90
        7
176
     1
 90
        7
176
     1
 40
1.0
176
     1
 90
        8
176
     1
 62
     7
176
     1
 40
1.0
176
     1
 90
        1
176
     1
 90
        6
176
     1
 90
        2
176
     1
 62
     7
176
     1
 90
        5
176
     1
 90
        0
176
     1
 90
        0
176
     1
290
     0
176
     1
 90
        1
176
     1
 40
0.0
176
     1
 90
        0
176
     1
290
     0
176
     1
290
     1
176
     1
290
     1
176
     1
290
     0
176
     1
290
     0
176
     1
290
     0
176
     1
290
     0
176
     1
290
     0
176
     1
290
     0
176
     1
 90
       50
176
     1
 40
0.0
176
     1
 40
1.0
176
     1
 90
        0
176
     1
 62
    18
420
        0
176
     1
 90
       50
176
     1
 90
        3
176
     1
 62
     5
420
      255
176
     1
290
     0
176
     1
 90
       50
176
     1
 90
       50
176
     1
 90
       50
176
     1
290
     0
176
     1
 90
       50
176
     1
 62
   256
176
     0
 40
1.0
176
     0
 90
        2
176
     1
  1
strokes_ogs.tif
176
     1
290
     0
176
     1
 40
1.0
176
     1
 40
1.0
176
     1
  0
VISUALSTYLE
  5
3C
102
{ACAD_REACTORS
330
2A
102
}
330
2A
100
AcDbVisualStyle
  2
OverhangOff
 70
    21
177
     3
291
     1
 70
    58
 90
        2
176
     0
 90
        2
176
     0
 90
        0
176
     0
 90
        0
176
     0
 40
0.6
176
     0
 40
30.0
176
     0
 62
     7
420
 16777215
176
     0
 90
        1
176
     0
 90
        4
176
     0
 62
     7
176
     0
 62
   257
176
     0
 90
        1
176
     0
 90
        1
176
     0
 40
1.0
176
     0
 90
        9
176
     2
 62
     7
176
     0
 40
1.0
176
     0
 90
        1
176
     0
 90
        6
176
     0
 90
        2
176
     0
 62
     7
176
     0
 90
        5
176
     0
 90
        0
176
     0
 90
        0
176
     0
290
     0
176
     0
 90
        1
176
     0
 40
0.0
176
     0
 90
        0
176
     0
290
     0
176
     0
290
     1
176
     0
290
     1
176
     0
290
     0
176
     0
290
     0
176
     0
290
     0
176
     0
290
     0
176
     0
290
     0
176
     0
290
     0
176
     0
 90
       50
176
     0
 40
0.0
176
     0
 40
1.0
176
     0
 90
        0
176
     0
 62
    18
420
        0
176
     0
 90
       50
176
     0
 90
        3
176
     0
 62
     5
420
      255
176
     0
290
     0
176
     0
 90
       50
176
     0
 90
       50
176
     0
 90
       50
176
     0
290
     0
176
     0
 90
       50
176
     0
 62
   256
176
     0
 40
1.0
176
     0
 90
        2
176
     0
  1
strokes_ogs.tif
176
     0
290
     0
176
     0
 40
1.0
176
     0
 40
1.0
176
     0
  0
VISUALSTYLE
  5
33
102
{ACAD_REACTORS
330
2A
102
}
330
2A
100
AcDbVisualStyle
  2
Realistic
 70
     8
177
     3
291
     0
 70
    58
 90
        2
176
     1
 90
        3
176
     1
 90
        0
176
     1
 90
        2
176
     1
 40
0.6
176
     1
 40
30.0
176
     1
 62
     7
420
 16777215
176
     1
 90
        0
176
     1
 90
        0
176
     1
 62
     7
176
     1
 62
   257
176
     1
 90
        1
176
     1
 90
        1
176
     1
 40
1.0
176
     1
 90
        8
176
     1
 62
   257
176
     1
 40
1.0
176
     1
 90
        1
176
     1
 90
        6
176
     1
 90
        2
176
     1
 62
     7
176
     1
 90
        3
176
     1
 90
        0
176
     1
 90
        0
176
     1
290
     0
176
     1
 90
       13
176
     1
 40
0.0
176
     1
 90
        0
176
     1
290
     0
176
     1
290
     1
176
     1
290
     1
176
     1
290
     0
176
     1
290
     0
176
     1
290
     0
176
     1
290
     0
176
     1
290
     0
176
     1
290
     0
176
     1
 90
       50
176
     1
 40
0.0
176
     1
 40
1.0
176
     1
 90
        0
176
     1
 62
    18
420
        0
176
     1
 90
       50
176
     1
 90
        3
176
     1
 62
     5
420
      255
176
     1
290
     0
176
     1
 90
       50
176
     1
 90
       50
176
     1
 90
       50
176
     1
290
     0
176
     1
 90
       50
176
     1
 62
   256
176
     0
 40
1.0
176
     0
 90
        2
176
     1
  1
strokes_ogs.tif
176
     1
290
     0
176
     1
 40
1.0
176
     1
 40
1.0
176
     1
  0
VISUALSTYLE
  5
42
102
{ACAD_REACTORS
330
2A
102
}
330
2A
100
AcDbVisualStyle
  2
Shaded
 70
    27
177
     3
291
     0
 70
    58
 90
        2
176
     1
 90
        2
176
     1
 90
        1
176
     1
 90
        2
176
     1
 40
0.6
176
     1
 40
30.0
176
     1
 62
     7
420
 16777215
176
     1
 90
        0
176
     1
 90
        4
176
     1
 62
     7
176
     1
 62
   257
176
     1
 90
        1
176
     1
 90
        1
176
     1
 40
1.0
176
     1
 90
        8
176
     1
 62
   257
176
     1
 40
1.0
176
     1
 90
        1
176
     1
 90
        6
176
     1
 90
        2
176
     1
 62
     8
420
  7895160
176
     1
 90
        3
176
     1
 90
        0
176
     1
 90
        0
176
     1
290
     0
176
     1
 90
        5
176
     1
 40
0.0
176
     1
 90
        0
176
     1
290
     0
176
     1
290
     1
176
     1
290
     1
176
     1
290
     0
176
     1
290
     0
176
     1
290
     0
176
     1
290
     0
176
     1
290
     0
176
     1
290
     0
176
     1
 90
       50
176
     1
 40
0.0
176
     1
 40
1.0
176
     1
 90
        0
176
     1
 62
    18
420
        0
176
     1
 90
       50
176
     1
 90
        3
176
     1
 62
     5
420
      255
176
     1
290
     0
176
     1
 90
       50
176
     1
 90
       50
176
     1
 90
       50
176
     1
290
     0
176
     1
 90
       50
176
     1
 62
   256
176
     0
 40
1.0
176
     0
 90
        2
176
     1
  1
strokes_ogs.tif
176
     1
290
     0
176
     1
 40
1.0
176
     1
 40
1.0
176
     1
  0
VISUALSTYLE
  5
41
102
{ACAD_REACTORS
330
2A
102
}
330
2A
100
AcDbVisualStyle
  2
Shaded with edges
 70
    26
177
     3
291
     0
 70
    58
 90
        2
176
     1
 90
        2
176
     1
 90
        1
176
     1
 90
        2
176
     1
 40
0.6
176
     1
 40
30.0
176
     1
 62
     7
420
 16777215
176
     1
 90
        1
176
     1
 90
       10
176
     1
 62
     7
176
     1
 62
   257
176
     1
 90
        2
176
     1
 90
        1
176
     1
 40
1.0
176
     1
 90
        8
176
     1
 62
   257
176
     1
 40
1.0
176
     1
 90
        1
176
     1
 90
        6
176
     1
 90
        2
176
     1
 62
     7
176
     1
 90
        3
176
     1
 90
        0
176
     1
 90
        0
176
     1
290
     0
176
     1
 90
        5
176
     1
 40
0.0
176
     1
 90
        0
176
     1
290
     0
176
     1
290
     1
176
     1
290
     1
176
     1
290
     0
176
     1
290
     0
176
     1
290
     0
176
     1
290
     0
176
     1
290
     0
176
     1
290
     0
176
     1
 90
       50
176
     1
 40
0.0
176
     1
 40
1.0
176
     1
 90
        0
176
     1
 62
    18
420
        0
176
     1
 90
       50
176
     1
 90
        3
176
     1
 62
     5
420
      255
176
     1
290
     0
176
     1
 90
       50
176
     1
 90
       50
176
     1
 90
       50
176
     1
290
     0
176
     1
 90
       50
176
     1
 62
   256
176
     0
 40
1.0
176
     0
 90
        2
176
     1
  1
strokes_ogs.tif
176
     1
290
     0
176
     1
 40
1.0
176
     1
 40
1.0
176
     1
  0
VISUALSTYLE
  5
3E
102
{ACAD_REACTORS
330
2A
102
}
330
2A
100
AcDbVisualStyle
  2
Shades of Gray
 70
    23
177
     3
291
     0
 70
    58
 90
        2
176
     1
 90
        2
176
     1
 90
        3
176
     1
 90
        0
176
     1
 40
0.6
176
     1
 40
30.0
176
     1
 62
     7
420
 16777215
176
     1
 90
        2
176
     1
 90
        2
176
     1
 62
     7
176
     1
 62
     7
176
     1
 90
        1
176
     1
 90
        1
176
     1
 40
40.0
176
     1
 90
        8
176
     1
 62
     7
176
     1
 40
1.0
176
     1
 90
        1
176
     1
 90
        6
176
     1
 90
        2
176
     1
 62
     7
176
     1
 90
        3
176
     1
 90
        0
176
     1
 90
        0
176
     1
290
     0
176
     1
 90
        1
176
     1
 40
0.0
176
     1
 90
        0
176
     1
290
     0
176
     1
290
     1
176
     1
290
     1
176
     1
290
     0
176
     1
290
     0
176
     1
290
     0
176
     1
290
     0
176
     1
290
     0
176
     1
290
     0
176
     1
 90
       50
176
     1
 40
0.0
176
     1
 40
1.0
176
     1
 90
        0
176
     1
 62
    18
420
        0
176
     1
 90
       50
176
     1
 90
        3
176
     1
 62
     5
420
      255
176
     1
290
     0
176
     1
 90
       50
176
     1
 90
       50
176
     1
 90
       50
176
     1
290
     0
176
     1
 90
       50
176
     1
 62
   256
176
     0
 40
1.0
176
     0
 90
        2
176
     1
  1
strokes_ogs.tif
176
     1
290
     0
176
     1
 40
1.0
176
     1
 40
1.0
176
     1
  0
VISUALSTYLE
  5
3F
102
{ACAD_REACTORS
330
2A
102
}
330
2A
100
AcDbVisualStyle
  2
Sketchy
 70
    24
177
     3
291
     0
 70
    58
 90
        1
176
     1
 90
        2
176
     1
 90
        2
176
     1
 90
        0
176
     1
 40
0.6
176
     1
 40
30.0
176
     1
 62
     7
420
 16777215
176
     1
 90
        2
176
     1
 90
        2
176
     1
 62
     7
176
     1
 62
     7
176
     1
 90
        1
176
     1
 90
        1
176
     1
 40
40.0
176
     1
 90
       11
176
     1
 62
     7
176
     1
 40
1.0
176
     1
 90
        1
176
     1
 90
        6
176
     1
 90
        2
176
     1
 62
     7
176
     1
 90
        6
176
     1
 90
        0
176
     1
 90
        0
176
     1
290
     0
176
     1
 90
        1
176
     1
 40
0.0
176
     1
 90
        0
176
     1
290
     0
176
     1
290
     1
176
     1
290
     1
176
     1
290
     0
176
     1
290
     0
176
     1
290
     0
176
     1
290
     0
176
     1
290
     0
176
     1
290
     0
176
     1
 90
       50
176
     1
 40
0.0
176
     1
 40
1.0
176
     1
 90
        0
176
     1
 62
    18
420
        0
176
     1
 90
       50
176
     1
 90
        3
176
     1
 62
     5
420
      255
176
     1
290
     0
176
     1
 90
       50
176
     1
 90
       50
176
     1
 90
       50
176
     1
290
     0
176
     1
 90
       50
176
     1
 62
   256
176
     0
 40
1.0
176
     0
 90
        2
176
     1
  1
strokes_ogs.tif
176
     1
290
     0
176
     1
 40
1.0
176
     1
 40
1.0
176
     1
  0
VISUALSTYLE
  5
37
102
{ACAD_REACTORS
330
2A
102
}
330
2A
100
AcDbVisualStyle
  2
Thicken
 70
    13
177
     3
291
     1
 70
    58
 90
        2
176
     1
 90
        2
176
     1
 90
        0
176
     1
 90
        0
176
     1
 40
0.6
176
     1
 40
30.0
176
     1
 62
     7
420
 16777215
176
     1
 90
        1
176
     1
 90
        4
176
     1
 62
     7
176
     1
 62
   257
176
     1
 90
        1
176
     1
 90
        1
176
     1
 40
1.0
176
     1
 90
       12
176
     1
 62
     7
176
     1
 40
1.0
176
     1
 90
        1
176
     1
 90
        6
176
     1
 90
        2
176
     1
 62
     7
176
     1
 90
        5
176
     1
 90
        0
176
     1
 90
        0
176
     1
290
     0
176
     1
 90
        1
176
     1
 40
0.0
176
     1
 90
        0
176
     1
290
     0
176
     1
290
     1
176
     1
290
     1
176
     1
290
     0
176
     1
290
     0
176
     1
290
     0
176
     1
290
     0
176
     1
290
     0
176
     1
290
     0
176
     1
 90
       50
176
     1
 40
0.0
176
     1
 40
1.0
176
     1
 90
        0
176
     1
 62
    18
420
        0
176
     1
 90
       50
176
     1
 90
        3
176
     1
 62
     5
420
      255
176
     1
290
     0
176
     1
 90
       50
176
     1
 90
       50
176
     1
 90
       50
176
     1
290
     0
176
     1
 90
       50
176
     1
 62
   256
176
     0
 40
1.0
176
     0
 90
        2
176
     1
  1
strokes_ogs.tif
176
     1
290
     0
176
     1
 40
1.0
176
     1
 40
1.0
176
     1
  0
VISUALSTYLE
  5
30
102
{ACAD_REACTORS
330
2A
102
}
330
2A
100
AcDbVisualStyle
  2
Wireframe
 70
     5
177
     3
291
     0
 70
    58
 90
        0
176
     1
 90
        2
176
     1
 90
        0
176
     1
 90
        0
176
     1
 40
0.6
176
     1
 40
30.0
176
     1
 62
     7
420
 16777215
176
     1
 90
        1
176
     1
 90
        4
176
     1
 62
     7
176
     1
 62
   257
176
     1
 90
        1
176
     1
 90
        1
176
     1
 40
1.0
176
     1
 90
        0
176
     1
 62
   257
176
     1
 40
1.0
176
     1
 90
        1
176
     1
 90
        6
176
     1
 90
        2
176
     1
 62
     7
176
     1
 90
        3
176
     1
 90
        0
176
     1
 90
        0
176
     1
290
     0
176
     1
 90
        1
176
     1
 40
0.0
176
     1
 90
        0
176
     1
290
     0
176
     1
290
     1
176
     1
290
     1
176
     1
290
     0
176
     1
290
     0
176
     1
290
     0
176
     1
290
     0
176
     1
290
     0
176
     1
290
     0
176
     1
 90
       50
176
     1
 40
0.0
176
     1
 40
1.0
176
     1
 90
        0
176
     1
 62
    18
420
        0
176
     1
 90
       50
176
     1
 90
        3
176
     1
 62
     5
420
      255
176
     1
290
     0
176
     1
 90
       50
176
     1
 90
       50
176
     1
 90
       50
176
     1
290
     0
176
     1
 90
       50
176
     1
 62
   256
176
     0
 40
1.0
176
     0
 90
        2
176
     1
  1
strokes_ogs.tif
176
     1
290
     0
176
     1
 40
1.0
176
     1
 40
1.0
176
     1
  0
VISUALSTYLE
  5
40
102
{ACAD_REACTORS
330
2A
102
}
330
2A
100
AcDbVisualStyle
  2
X-Ray
 70
    25
177
     3
291
     0
 70
    58
 90
        2
176
     1
 90
        2
176
     1
 90
        1
176
     1
 90
        1
176
     1
 40
0.5
176
     1
 40
30.0
176
     1
 62
     7
420
 16777215
176
     1
 90
        1
176
     1
 90
        0
176
     1
 62
     7
176
     1
 62
   257
176
     1
 90
        1
176
     1
 90
        1
176
     1
 40
1.0
176
     1
 90
        8
176
     1
 62
     7
176
     1
 40
1.0
176
     1
 90
        1
176
     1
 90
        6
176
     1
 90
        2
176
     1
 62
     7
176
     1
 90
        3
176
     1
 90
        0
176
     1
 90
        0
176
     1
290
     0
176
     1
 90
       13
176
     1
 40
0.0
176
     1
 90
        0
176
     1
290
     0
176
     1
290
     1
176
     1
290
     1
176
     1
290
     0
176
     1
290
     0
176
     1
290
     0
176
     1
290
     0
176
     1
290
     0
176
     1
290
     0
176
     1
 90
       50
176
     1
 40
0.0
176
     1
 40
1.0
176
     1
 90
        0
176
     1
 62
    18
420
        0
176
     1
 90
       50
176
     1
 90
        3
176
     1
 62
     5
420
      255
176
     1
290
     0
176
     1
 90
       50
176
     1
 90
       50
176
     1
 90
       50
176
     1
290
     0
176
     1
 90
       50
176
     1
 62
   256
176
     0
 40
1.0
176
     0
 90
        2
176
     1
  1
strokes_ogs.tif
176
     1
290
     0
176
     1
 40
1.0
176
     1
 40
1.0
176
     1
  0
DICTIONARYVAR
  5
168
102
{ACAD_REACTORS
330
167
102
}
330
167
100
DictionaryVariables
280
     0
  1
1:1
  0
DICTIONARYVAR
  5
16D
102
{ACAD_REACTORS
330
167
102
}
330
167
100
DictionaryVariables
280
     0
  1
Standard
  0
DICTIONARYVAR
  5
16C
102
{ACAD_REACTORS
330
167
102
}
330
167
100
DictionaryVariables
280
     0
  1
Standard
  0
DICTIONARY
  5
169
330
6A
100
AcDbDictionary
280
     1
281
     1
  3
ACAD_ROUNDTRIP_2008_TABLESTYLE_CELLSTYLEMAP
360
16A
  0
CELLSTYLEMAP
  5
16A
102
{ACAD_REACTORS
330
169
102
}
330
169
100
AcDbCellStyleMap
 90
        3
300
CELLSTYLE
  1
TABLEFORMAT_BEGIN
 90
        5
170
     1
 91
        0
 92
    32768
 62
   257
 93
        1
300
CONTENTFORMAT
  1
CONTENTFORMAT_BEGIN
 90
        0
 91
        0
 92
        4
 93
        0
300

 40
0.0
140
1.0
 94
        5
 62
     0
340
11
144
6.0
309
CONTENTFORMAT_END
171
     1
301
MARGIN
  1
CELLMARGIN_BEGIN
 40
1.5
 40
1.5
 40
1.5
 40
1.5
 40
1.5
 40
1.5
309
CELLMARGIN_END
 94
        6
 95
        1
302
GRIDFORMAT
  1
GRIDFORMAT_BEGIN
 90
        0
 91
        1
 62
     0
 92
       -2
340
14
 93
        0
 40
0.045
309
GRIDFORMAT_END
 95
        2
302
GRIDFORMAT
  1
GRIDFORMAT_BEGIN
 90
        0
 91
        1
 62
     0
 92
       -2
340
14
 93
        0
 40
0.045
309
GRIDFORMAT_END
 95
        4
302
GRIDFORMAT
  1
GRIDFORMAT_BEGIN
 90
        0
 91
        1
 62
     0
 92
       -2
340
14
 93
        0
 40
0.045
309
GRIDFORMAT_END
 95
        8
302
GRIDFORMAT
  1
GRIDFORMAT_BEGIN
 90
        0
 91
        1
 62
     0
 92
       -2
340
14
 93
        0
 40
0.045
309
GRIDFORMAT_END
 95
       16
302
GRIDFORMAT
  1
GRIDFORMAT_BEGIN
 90
        0
 91
        1
 62
     0
 92
       -2
340
14
 93
        0
 40
0.045
309
GRIDFORMAT_END
 95
       32
302
GRIDFORMAT
  1
GRIDFORMAT_BEGIN
 90
        0
 91
        1
 62
     0
 92
       -2
340
14
 93
        0
 40
0.045
309
GRIDFORMAT_END
309
TABLEFORMAT_END
  1
CELLSTYLE_BEGIN
 90
        1
 91
        1
300
_TITLE
309
CELLSTYLE_END
300
CELLSTYLE
  1
TABLEFORMAT_BEGIN
 90
        5
170
     1
 91
        0
 92
        0
 62
   257
 93
        1
300
CONTENTFORMAT
  1
CONTENTFORMAT_BEGIN
 90
        0
 91
        0
 92
        4
 93
        0
300

 40
0.0
140
1.0
 94
        5
 62
     0
340
11
144
4.5
309
CONTENTFORMAT_END
171
     1
301
MARGIN
  1
CELLMARGIN_BEGIN
 40
1.5
 40
1.5
 40
1.5
 40
1.5
 40
1.5
 40
1.5
309
CELLMARGIN_END
 94
        6
 95
        1
302
GRIDFORMAT
  1
GRIDFORMAT_BEGIN
 90
        0
 91
        1
 62
     0
 92
       -2
340
14
 93
        0
 40
0.045
309
GRIDFORMAT_END
 95
        2
302
GRIDFORMAT
  1
GRIDFORMAT_BEGIN
 90
        0
 91
        1
 62
     0
 92
       -2
340
14
 93
        0
 40
0.045
309
GRIDFORMAT_END
 95
        4
302
GRIDFORMAT
  1
GRIDFORMAT_BEGIN
 90
        0
 91
        1
 62
     0
 92
       -2
340
14
 93
        0
 40
0.045
309
GRIDFORMAT_END
 95
        8
302
GRIDFORMAT
  1
GRIDFORMAT_BEGIN
 90
        0
 91
        1
 62
     0
 92
       -2
340
14
 93
        0
 40
0.045
309
GRIDFORMAT_END
 95
       16
302
GRIDFORMAT
  1
GRIDFORMAT_BEGIN
 90
        0
 91
        1
 62
     0
 92
       -2
340
14
 93
        0
 40
0.045
309
GRIDFORMAT_END
 95
       32
302
GRIDFORMAT
  1
GRIDFORMAT_BEGIN
 90
        0
 91
        1
 62
     0
 92
       -2
340
14
 93
        0
 40
0.045
309
GRIDFORMAT_END
309
TABLEFORMAT_END
  1
CELLSTYLE_BEGIN
 90
        2
 91
        1
300
_HEADER
309
CELLSTYLE_END
300
CELLSTYLE
  1
TABLEFORMAT_BEGIN
 90
        5
170
     1
 91
        0
 92
        0
 62
   257
 93
        1
300
CONTENTFORMAT
  1
CONTENTFORMAT_BEGIN
 90
        0
 91
        0
 92
        4
 93
        0
300

 40
0.0
140
1.0
 94
        2
 62
     0
340
11
144
4.5
309
CONTENTFORMAT_END
171
     1
301
MARGIN
  1
CELLMARGIN_BEGIN
 40
1.5
 40
1.5
 40
1.5
 40
1.5
 40
1.5
 40
1.5
309
CELLMARGIN_END
 94
        6
 95
        1
302
GRIDFORMAT
  1
GRIDFORMAT_BEGIN
 90
        0
 91
        1
 62
     0
 92
       -2
340
14
 93
        0
 40
0.045
309
GRIDFORMAT_END
 95
        2
302
GRIDFORMAT
  1
GRIDFORMAT_BEGIN
 90
        0
 91
        1
 62
     0
 92
       -2
340
14
 93
        0
 40
0.045
309
GRIDFORMAT_END
 95
        4
302
GRIDFORMAT
  1
GRIDFORMAT_BEGIN
 90
        0
 91
        1
 62
     0
 92
       -2
340
14
 93
        0
 40
0.045
309
GRIDFORMAT_END
 95
        8
302
GRIDFORMAT
  1
GRIDFORMAT_BEGIN
 90
        0
 91
        1
 62
     0
 92
       -2
340
14
 93
        0
 40
0.045
309
GRIDFORMAT_END
 95
       16
302
GRIDFORMAT
  1
GRIDFORMAT_BEGIN
 90
        0
 91
        1
 62
     0
 92
       -2
340
14
 93
        0
 40
0.045
309
GRIDFORMAT_END
 95
       32
302
GRIDFORMAT
  1
GRIDFORMAT_BEGIN
 90
        0
 91
        1
 62
     0
 92
       -2
340
14
 93
        0
 40
0.045
309
GRIDFORMAT_END
309
TABLEFORMAT_END
  1
CELLSTYLE_BEGIN
 90
        3
 91
        2
300
_DATA
309
CELLSTYLE_END
  0
ENDSEC
  0
EOF