0
SECTION
  2
HEADER
  9
$ACADVER
  1
AC1027
  9
$ACADMAINTVER
 70
     8
  9
$DWGCODEPAGE
  3
ANSI_1252
  9
$REQUIREDVERSIONS
160
                 0
  9
$COMMENTS
  1
File was created by Cadenas
  9
$CUSTOMPROPERTYTAG
  1
NN
  9
$CUSTOMPROPERTY
  1
Set Screw Tapped Base Metric Bore - Polymer Housing, Stainless Steel Insert
  9
$CUSTOMPROPERTYTAG
  1
NT
  9
$CUSTOMPROPERTY
  1
SC Pillow Block Bearings -(Normal Duty) -Corrosion Resistant Insert -Polymer Housed -Tapped Base Housing -E-Z KLEEN
  9
$CUSTOMPROPERTYTAG
  1
NB
  9
$CUSTOMPROPERTY
  1
136748
  9
$CUSTOMPROPERTYTAG
  1
NBSYN
  9
$CUSTOMPROPERTY
  1
$PN.
  9
$CUSTOMPROPERTYTAG
  1
LINA
  9
$CUSTOMPROPERTY
  1
136748
  9
$CUSTOMPROPERTYTAG
  1
SERIES
  9
$CUSTOMPROPERTY
  1
205
  9
$CUSTOMPROPERTYTAG
  1
SS
  9
$CUSTOMPROPERTY
  1
25
  9
$CUSTOMPROPERTYTAG
  1
PN
  9
$CUSTOMPROPERTY
  1
136748
  9
$CUSTOMPROPERTYTAG
  1
DESCRIPTION
  9
$CUSTOMPROPERTY
  1
TB-SCEZ-25M-PSS
  9
$CUSTOMPROPERTYTAG
  1
W
  9
$CUSTOMPROPERTY
  1
0.28
  9
$CUSTOMPROPERTYTAG
  1
A
  9
$CUSTOMPROPERTY
  1
34.0
  9
$CUSTOMPROPERTYTAG
  1
B
  9
$CUSTOMPROPERTY
  1
82.6
  9
$CUSTOMPROPERTYTAG
  1
C
  9
$CUSTOMPROPERTY
  1
37.8
  9
$CUSTOMPROPERTYTAG
  1
D
  9
$CUSTOMPROPERTY
  1
50.8
  9
$CUSTOMPROPERTYTAG
  1
J
  9
$CUSTOMPROPERTY
  1
73.4
  9
$CUSTOMPROPERTYTAG
  1
L
  9
$CUSTOMPROPERTY
  1
33.5
  9
$CUSTOMPROPERTYTAG
  1
M
  9
$CUSTOMPROPERTY
  1
36.5
  9
$CUSTOMPROPERTYTAG
  1
N
  9
$CUSTOMPROPERTY
  1
10.2
  9
$CUSTOMPROPERTYTAG
  1
R
  9
$CUSTOMPROPERTY
  1
M10 x 1.5
  9
$CUSTOMPROPERTYTAG
  1
S
  9
$CUSTOMPROPERTY
  1
19.8
  9
$CUSTOMPROPERTYTAG
  1
COMPANY
  9
$CUSTOMPROPERTY
  1
baldor
  9
$INSBASE
 10
0.0
 20
0.0
 30
0.0
  9
$EXTMIN
 10
1.000000000000000E+20
 20
1.000000000000000E+20
 30
1.000000000000000E+20
  9
$EXTMAX
 10
-1.000000000000000E+20
 20
-1.000000000000000E+20
 30
-1.000000000000000E+20
  9
$LIMMIN
 10
0.0
 20
0.0
  9
$LIMMAX
 10
420.0
 20
297.0
  9
$ORTHOMODE
 70
     0
  9
$REGENMODE
 70
     1
  9
$FILLMODE
 70
     1
  9
$QTEXTMODE
 70
     0
  9
$MIRRTEXT
 70
     1
  9
$LTSCALE
 40
1.0
  9
$ATTMODE
 70
     1
  9
$TEXTSIZE
 40
2.5
  9
$TRACEWID
 40
1.0
  9
$TEXTSTYLE
  7
Standard
  9
$CLAYER
  8
0
  9
$CELTYPE
  6
ByLayer
  9
$CECOLOR
 62
   256
  9
$CELTSCALE
 40
1.0
  9
$DISPSILH
 70
     0
  9
$DIMSCALE
 40
1.0
  9
$DIMASZ
 40
2.5
  9
$DIMEXO
 40
0.625
  9
$DIMDLI
 40
3.75
  9
$DIMRND
 40
0.0
  9
$DIMDLE
 40
0.0
  9
$DIMEXE
 40
1.25
  9
$DIMTP
 40
0.0
  9
$DIMTM
 40
0.0
  9
$DIMTXT
 40
2.5
  9
$DIMCEN
 40
2.5
  9
$DIMTSZ
 40
0.0
  9
$DIMTOL
 70
     0
  9
$DIMLIM
 70
     0
  9
$DIMTIH
 70
     0
  9
$DIMTOH
 70
     0
  9
$DIMSE1
 70
     0
  9
$DIMSE2
 70
     0
  9
$DIMTAD
 70
     1
  9
$DIMZIN
 70
     8
  9
$DIMBLK
  1

  9
$DIMASO
 70
     1
  9
$DIMSHO
 70
     1
  9
$DIMPOST
  1

  9
$DIMAPOST
  1

  9
$DIMALT
 70
     0
  9
$DIMALTD
 70
     3
  9
$DIMALTF
 40
0.03937007874016
  9
$DIMLFAC
 40
1.0
  9
$DIMTOFL
 70
     1
  9
$DIMTVP
 40
0.0
  9
$DIMTIX
 70
     0
  9
$DIMSOXD
 70
     0
  9
$DIMSAH
 70
     0
  9
$DIMBLK1
  1

  9
$DIMBLK2
  1

  9
$DIMSTYLE
  2
ISO-25
  9
$DIMCLRD
 70
     0
  9
$DIMCLRE
 70
     0
  9
$DIMCLRT
 70
     0
  9
$DIMTFAC
 40
1.0
  9
$DIMGAP
 40
0.625
  9
$DIMJUST
 70
     0
  9
$DIMSD1
 70
     0
  9
$DIMSD2
 70
     0
  9
$DIMTOLJ
 70
     0
  9
$DIMTZIN
 70
     8
  9
$DIMALTZ
 70
     0
  9
$DIMALTTZ
 70
     0
  9
$DIMUPT
 70
     0
  9
$DIMDEC
 70
     2
  9
$DIMTDEC
 70
     2
  9
$DIMALTU
 70
     2
  9
$DIMALTTD
 70
     3
  9
$DIMTXSTY
  7
Standard
  9
$DIMAUNIT
 70
     0
  9
$DIMADEC
 70
     0
  9
$DIMALTRND
 40
0.0
  9
$DIMAZIN
 70
     0
  9
$DIMDSEP
 70
    44
  9
$DIMATFIT
 70
     3
  9
$DIMFRAC
 70
     0
  9
$DIMLDRBLK
  1

  9
$DIMLUNIT
 70
     2
  9
$DIMLWD
 70
    -2
  9
$DIMLWE
 70
    -2
  9
$DIMTMOVE
 70
     0
  9
$DIMFXL
 40
1.0
  9
$DIMFXLON
 70
     0
  9
$DIMJOGANG
 40
0.7853981633974483
  9
$DIMTFILL
 70
     0
  9
$DIMTFILLCLR
 70
     0
  9
$DIMARCSYM
 70
     0
  9
$DIMLTYPE
  6

  9
$DIMLTEX1
  6

  9
$DIMLTEX2
  6

  9
$DIMTXTDIRECTION
 70
     0
  9
$LUNITS
 70
     2
  9
$LUPREC
 70
     4
  9
$SKETCHINC
 40
1.0
  9
$FILLETRAD
 40
10.0
  9
$AUNITS
 70
     0
  9
$AUPREC
 70
     0
  9
$MENU
  1
.
  9
$ELEVATION
 40
0.0
  9
$PELEVATION
 40
0.0
  9
$THICKNESS
 40
0.0
  9
$LIMCHECK
 70
     0
  9
$CHAMFERA
 40
0.0
  9
$CHAMFERB
 40
0.0
  9
$CHAMFERC
 40
0.0
  9
$CHAMFERD
 40
0.0
  9
$SKPOLY
 70
     0
  9
$TDCREATE
 40
2458168.893820197
  9
$TDUCREATE
 40
2458168.85215353
  9
$TDUPDATE
 40
2458168.893820197
  9
$TDUUPDATE
 40
2458168.85215353
  9
$TDINDWG
 40
0.0000000116
  9
$TDUSRTIMER
 40
0.0000000116
  9
$USRTIMER
 70
     1
  9
$ANGBASE
 50
0.0
  9
$ANGDIR
 70
     0
  9
$PDMODE
 70
     0
  9
$PDSIZE
 40
0.0
  9
$PLINEWID
 40
0.0
  9
$SPLFRAME
 70
     0
  9
$SPLINETYPE
 70
     6
  9
$SPLINESEGS
 70
     8
  9
$HANDSEED
  5
1A6
  9
$SURFTAB1
 70
     6
  9
$SURFTAB2
 70
     6
  9
$SURFTYPE
 70
     6
  9
$SURFU
 70
     6
  9
$SURFV
 70
     6
  9
$UCSBASE
  2

  9
$UCSNAME
  2

  9
$UCSORG
 10
0.0
 20
0.0
 30
0.0
  9
$UCSXDIR
 10
1.0
 20
0.0
 30
0.0
  9
$UCSYDIR
 10
0.0
 20
1.0
 30
0.0
  9
$UCSORTHOREF
  2

  9
$UCSORTHOVIEW
 70
     0
  9
$UCSORGTOP
 10
0.0
 20
0.0
 30
0.0
  9
$UCSORGBOTTOM
 10
0.0
 20
0.0
 30
0.0
  9
$UCSORGLEFT
 10
0.0
 20
0.0
 30
0.0
  9
$UCSORGRIGHT
 10
0.0
 20
0.0
 30
0.0
  9
$UCSORGFRONT
 10
0.0
 20
0.0
 30
0.0
  9
$UCSORGBACK
 10
0.0
 20
0.0
 30
0.0
  9
$PUCSBASE
  2

  9
$PUCSNAME
  2

  9
$PUCSORG
 10
0.0
 20
0.0
 30
0.0
  9
$PUCSXDIR
 10
1.0
 20
0.0
 30
0.0
  9
$PUCSYDIR
 10
0.0
 20
1.0
 30
0.0
  9
$PUCSORTHOREF
  2

  9
$PUCSORTHOVIEW
 70
     0
  9
$PUCSORGTOP
 10
0.0
 20
0.0
 30
0.0
  9
$PUCSORGBOTTOM
 10
0.0
 20
0.0
 30
0.0
  9
$PUCSORGLEFT
 10
0.0
 20
0.0
 30
0.0
  9
$PUCSORGRIGHT
 10
0.0
 20
0.0
 30
0.0
  9
$PUCSORGFRONT
 10
0.0
 20
0.0
 30
0.0
  9
$PUCSORGBACK
 10
0.0
 20
0.0
 30
0.0
  9
$USERI1
 70
     0
  9
$USERI2
 70
     0
  9
$USERI3
 70
     0
  9
$USERI4
 70
     0
  9
$USERI5
 70
     0
  9
$USERR1
 40
0.0
  9
$USERR2
 40
0.0
  9
$USERR3
 40
0.0
  9
$USERR4
 40
0.0
  9
$USERR5
 40
0.0
  9
$WORLDVIEW
 70
     1
  9
$SHADEDGE
 70
     3
  9
$SHADEDIF
 70
    70
  9
$TILEMODE
 70
     1
  9
$MAXACTVP
 70
    64
  9
$PINSBASE
 10
0.0
 20
0.0
 30
0.0
  9
$PLIMCHECK
 70
     0
  9
$PEXTMIN
 10
1.000000000000000E+20
 20
1.000000000000000E+20
 30
1.000000000000000E+20
  9
$PEXTMAX
 10
-1.000000000000000E+20
 20
-1.000000000000000E+20
 30
-1.000000000000000E+20
  9
$PLIMMIN
 10
0.0
 20
0.0
  9
$PLIMMAX
 10
420.0
 20
297.0
  9
$UNITMODE
 70
     0
  9
$VISRETAIN
 70
     1
  9
$PLINEGEN
 70
     0
  9
$PSLTSCALE
 70
     1
  9
$TREEDEPTH
 70
  3020
  9
$CMLSTYLE
  2
Standard
  9
$CMLJUST
 70
     0
  9
$CMLSCALE
 40
20.0
  9
$PROXYGRAPHICS
 70
     1
  9
$MEASUREMENT
 70
     1
  9
$CELWEIGHT
370
    -1
  9
$ENDCAPS
280
     0
  9
$JOINSTYLE
280
     0
  9
$LWDISPLAY
290
     0
  9
$INSUNITS
 70
     4
  9
$HYPERLINKBASE
  1

  9
$STYLESHEET
  1

  9
$XEDIT
290
     1
  9
$CEPSNTYPE
380
     0
  9
$PSTYLEMODE
290
     1
  9
$FINGERPRINTGUID
  2
{1260197C-D939-432B-872D-03FB1FBFFFFF}
  9
$VERSIONGUID
  2
{FAEB1C32-E019-11D5-929B-00C0DF256EC4}
  9
$EXTNAMES
290
     1
  9
$PSVPSCALE
 40
0.0
  9
$OLESTARTUP
290
     0
  9
$SORTENTS
280
   127
  9
$INDEXCTL
280
     0
  9
$HIDETEXT
280
     1
  9
$XCLIPFRAME
280
     2
  9
$HALOGAP
280
     0
  9
$OBSCOLOR
 70
   257
  9
$OBSLTYPE
280
     0
  9
$INTERSECTIONDISPLAY
280
     0
  9
$INTERSECTIONCOLOR
 70
   257
  9
$DIMASSOC
280
     2
  9
$PROJECTNAME
  1

  9
$CAMERADISPLAY
290
     0
  9
$LENSLENGTH
 40
50.0
  9
$CAMERAHEIGHT
 40
0.0
  9
$STEPSPERSEC
 40
2.0
  9
$STEPSIZE
 40
6.0
  9
$3DDWFPREC
 40
2.0
  9
$PSOLWIDTH
 40
5.0
  9
$PSOLHEIGHT
 40
80.0
  9
$LOFTANG1
 40
1.570796326794897
  9
$LOFTANG2
 40
1.570796326794897
  9
$LOFTMAG1
 40
0.0
  9
$LOFTMAG2
 40
0.0
  9
$LOFTPARAM
 70
     7
  9
$LOFTNORMALS
280
     1
  9
$LATITUDE
 40
37.795
  9
$LONGITUDE
 40
-122.394
  9
$NORTHDIRECTION
 40
0.0
  9
$TIMEZONE
 70
 -8000
  9
$LIGHTGLYPHDISPLAY
280
     1
  9
$TILEMODELIGHTSYNCH
280
     1
  9
$CMATERIAL
347
44
  9
$SOLIDHIST
280
     0
  9
$SHOWHIST
280
     1
  9
$DWFFRAME
280
     2
  9
$DGNFRAME
280
     2
  9
$REALWORLDSCALE
290
     1
  9
$INTERFERECOLOR
 62
   256
  9
$CSHADOW
280
     0
  9
$SHADOWPLANELOCATION
 40
0.0
  0
ENDSEC
  0
SECTION
  2
CLASSES
  0
CLASS
  1
ACDBDICTIONARYWDFLT
  2
AcDbDictionaryWithDefault
  3
ObjectDBX Classes
 90
        0
 91
        4
280
     0
281
     0
  0
CLASS
  1
VISUALSTYLE
  2
AcDbVisualStyle
  3
ObjectDBX Classes
 90
     4095
 91
        4
280
     0
281
     0
  0
CLASS
  1
MATERIAL
  2
AcDbMaterial
  3
ObjectDBX Classes
 90
     1153
 91
        4
280
     0
281
     0
  0
CLASS
  1
SCALE
  2
AcDbScale
  3
ObjectDBX Classes
 90
     1153
 91
        4
280
     0
281
     0
  0
CLASS
  1
TABLESTYLE
  2
AcDbTableStyle
  3
ObjectDBX Classes
 90
     4095
 91
        4
280
     0
281
     0
  0
CLASS
  1
MLEADERSTYLE
  2
AcDbMLeaderStyle
  3
ACDB_MLEADERSTYLE_CLASS
 90
     4095
 91
        4
280
     0
281
     0
  0
CLASS
  1
SUN
  2
AcDbSun
  3
SCENEOE
 90
     1153
 91
        4
280
     0
281
     0
  0
CLASS
  1
DICTIONARYVAR
  2
AcDbDictionaryVar
  3
ObjectDBX Classes
 90
        0
 91
        4
280
     0
281
     0
  0
CLASS
  1
CELLSTYLEMAP
  2
AcDbCellStyleMap
  3
ObjectDBX Classes
 90
     1152
 91
        4
280
     0
281
     0
  0
ENDSEC
  0
SECTION
  2
TABLES
  0
TABLE
  2
VPORT
  5
8
330
0
100
AcDbSymbolTable
 70
     1
  0
VPORT
  5
29
330
8
100
AcDbSymbolTableRecord
100
AcDbViewportTableRecord
  2
*Active
 70
     0
 10
0.0
 20
0.0
 11
1.0
 21
1.0
 12
0.0
 22
-0.3550000000000182
 13
0.0
 23
0.0
 14
10.0
 24
10.0
 15
10.0
 25
10.0
 16
0.0
 26
0.0
 36
1.0
 17
0.0
 27
0.0
 37
0.0
 40
43.13579999999996
 41
1.953180420903289
 42
50.0
 43
0.0
 44
0.0
 50
0.0
 51
0.0
 71
     0
 72
   100
 73
     1
 74
     3
 75
     0
 76
     0
 77
     0
 78
     0
281
     0
 65
     1
110
0.0
120
0.0
130
0.0
111
1.0
121
0.0
131
0.0
112
0.0
122
1.0
132
0.0
 79
     0
146
0.0
348
2F
 60
     3
 61
     5
292
     1
282
     1
141
0.0
142
0.0
 63
   250
361
6D
  0
ENDTAB
  0
TABLE
  2
LTYPE
  5
5
330
0
100
AcDbSymbolTable
 70
     3
  0
LTYPE
  5
14
330
5
100
AcDbSymbolTableRecord
100
AcDbLinetypeTableRecord
  2
ByBlock
 70
     0
  3

 72
    65
 73
     0
 40
0.0
  0
LTYPE
  5
15
330
5
100
AcDbSymbolTableRecord
100
AcDbLinetypeTableRecord
  2
ByLayer
 70
     0
  3

 72
    65
 73
     0
 40
0.0
  0
LTYPE
  5
16
330
5
100
AcDbSymbolTableRecord
100
AcDbLinetypeTableRecord
  2
Continuous
 70
     0
  3
Solid line
 72
    65
 73
     0
 40
0.0
  0
LTYPE
  5
9A
330
5
100
AcDbSymbolTableRecord
100
AcDbLinetypeTableRecord
  2
Dashed
 70
     0
  3

 72
    65
 73
     2
 40
2.0
 49
1.0
 74
     0
 49
-1.0
 74
     0
  0
LTYPE
  5
131
330
5
100
AcDbSymbolTableRecord
100
AcDbLinetypeTableRecord
  2
Center
 70
     0
  3

 72
    65
 73
     4
 40
1.5
 49
0.45
 74
     0
 49
-0.5
 74
     0
 49
0.05
 74
     0
 49
-0.5
 74
     0
  0
ENDTAB
  0
TABLE
  2
LAYER
  5
2
330
0
100
AcDbSymbolTable
 70
     7
  0
LAYER
  5
10
330
2
100
AcDbSymbolTableRecord
100
AcDbLayerTableRecord
  2
0
 70
     0
 62
     7
  6
Continuous
370
    -3
390
F
347
46
348
0
  0
LAYER
  5
72
330
2
100
AcDbSymbolTableRecord
100
AcDbLayerTableRecord
  2
AM_6
 70
     0
 62
    -2
  6
Continuous
370
    35
390
F
347
46
348
0
  0
LAYER
  5
9B
330
2
100
AcDbSymbolTableRecord
100
AcDbLayerTableRecord
  2
AM_9
 70
     0
 62
     6
  6
Dashed
370
    25
390
F
347
46
348
0
  0
LAYER
  5
BE
330
2
100
AcDbSymbolTableRecord
100
AcDbLayerTableRecord
  2
AM_4
 70
     0
 62
     7
  6
Continuous
370
    50
390
F
347
46
348
0
  0
LAYER
  5
12E
330
2
100
AcDbSymbolTableRecord
100
AcDbLayerTableRecord
  2
AM_5
 70
     0
 62
     3
  6
Continuous
370
    25
390
F
347
46
348
0
  0
LAYER
  5
132
330
2
100
AcDbSymbolTableRecord
100
AcDbLayerTableRecord
  2
AM_7
 70
     0
 62
     7
  6
Center
370
    25
390
F
347
46
348
0
  0
LAYER
  5
198
330
2
100
AcDbSymbolTableRecord
100
AcDbLayerTableRecord
  2
ConnectionPoints
 70
     0
 62
     7
  6
Continuous
370
    50
390
F
347
46
348
0
  0
ENDTAB
  0
TABLE
  2
STYLE
  5
3
330
0
100
AcDbSymbolTable
 70
     1
  0
STYLE
  5
11
330
3
100
AcDbSymbolTableRecord
100
AcDbTextStyleTableRecord
  2
Standard
 70
     0
 40
0.0
 41
1.0
 50
0.0
 71
     0
 42
2.5
  3
txt
  4

  0
ENDTAB
  0
TABLE
  2
VIEW
  5
6
330
0
100
AcDbSymbolTable
 70
     0
  0
ENDTAB
  0
TABLE
  2
UCS
  5
7
330
0
100
AcDbSymbolTable
 70
     0
  0
ENDTAB
  0
TABLE
  2
APPID
  5
9
330
0
100
AcDbSymbolTable
 70
     1
  0
APPID
  5
12
330
9
100
AcDbSymbolTableRecord
100
AcDbRegAppTableRecord
  2
ACAD
 70
     0
  0
ENDTAB
  0
TABLE
  2
DIMSTYLE
  5
A
330
0
100
AcDbSymbolTable
 70
     1
100
AcDbDimStyleTable
  0
DIMSTYLE
105
27
330
A
100
AcDbSymbolTableRecord
100
AcDbDimStyleTableRecord
  2
ISO-25
 70
     0
 41
2.5
 42
0.625
 43
3.75
 44
1.25
 73
     0
 74
     0
 77
     1
 78
     8
140
2.5
141
2.5
143
0.03937007874016
147
0.625
171
     3
172
     1
178
     0
271
     2
272
     2
274
     3
278
    44
283
     0
284
     8
340
11
  0
ENDTAB
  0
TABLE
  2
BLOCK_RECORD
  5
1
330
0
100
AcDbSymbolTable
 70
     5
  0
BLOCK_RECORD
  5
1F
330
1
100
AcDbSymbolTableRecord
100
AcDbBlockTableRecord
  2
*Model_Space
340
22
 70
     0
280
     1
281
     0
  0
BLOCK_RECORD
  5
1B
330
1
100
AcDbSymbolTableRecord
100
AcDbBlockTableRecord
  2
*Paper_Space
340
1E
 70
     0
280
     1
281
     0
  0
BLOCK_RECORD
  5
23
330
1
100
AcDbSymbolTableRecord
100
AcDbBlockTableRecord
  2
*Paper_Space0
340
26
 70
     0
280
     1
281
     0
  0
BLOCK_RECORD
  5
6E
330
1
100
AcDbSymbolTableRecord
100
AcDbBlockTableRecord
  2
1_136748_4
340
0
102
{BLKREFS
331
6F
102
}
 70
     0
280
     1
281
     0
  0
BLOCK_RECORD
  5
88
330
1
100
AcDbSymbolTableRecord
100
AcDbBlockTableRecord
  2
2_405020c_M_0_in_136748_4
340
0
102
{BLKREFS
331
89
102
}
 70
     0
280
     1
281
     0
  0
BLOCK_RECORD
  5
E6
330
1
100
AcDbSymbolTableRecord
100
AcDbBlockTableRecord
  2
3_127862_0_in_136748_4
340
0
102
{BLKREFS
331
E7
102
}
 70
     0
280
     1
281
     0
  0
BLOCK_RECORD
  5
148
330
1
100
AcDbSymbolTableRecord
100
AcDbBlockTableRecord
  2
4_136748H_0_in_136748_4
340
0
102
{BLKREFS
331
149
102
}
 70
     0
280
     1
281
     0
  0
ENDTAB
  0
ENDSEC
  0
SECTION
  2
BLOCKS
  0
BLOCK
  5
20
330
1F
100
AcDbEntity
  8
0
100
AcDbBlockBegin
  2
*Model_Space
 70
     0
 10
0.0
 20
0.0
 30
0.0
  3
*Model_Space
  1

  0
ENDBLK
  5
21
330
1F
100
AcDbEntity
  8
0
100
AcDbBlockEnd
  0
BLOCK
  5
1C
330
1B
100
AcDbEntity
 67
     1
  8
0
100
AcDbBlockBegin
  2
*Paper_Space
 70
     0
 10
0.0
 20
0.0
 30
0.0
  3
*Paper_Space
  1

  0
ENDBLK
  5
1D
330
1B
100
AcDbEntity
 67
     1
  8
0
100
AcDbBlockEnd
  0
BLOCK
  5
24
330
23
100
AcDbEntity
  8
0
100
AcDbBlockBegin
  2
*Paper_Space0
 70
     0
 10
0.0
 20
0.0
 30
0.0
  3
*Paper_Space0
  1

  0
ENDBLK
  5
25
330
23
100
AcDbEntity
  8
0
100
AcDbBlockEnd
  0
BLOCK
  5
70
330
6E
100
AcDbEntity
  8
0
100
AcDbBlockBegin
  2
1_136748_4
 70
     2
 10
0.0
 20
0.0
 30
0.0
  3
1_136748_4
  1

  0
ATTDEF
  5
73
330
6E
100
AcDbEntity
  8
AM_6
100
AcDbText
 10
46.29999999999998
 20
20.79
 30
0.0
 40
0.5
  1
Set Screw Tapped Base Metric Bore - Polymer Housing, Stainless Steel Insert
100
AcDbAttributeDefinition
  3

  2
NN
 70
     8
280
     0
  0
ATTDEF
  5
74
330
6E
100
AcDbEntity
  8
AM_6
100
AcDbText
 10
46.29999999999998
 20
20.29
 30
0.0
 40
0.5
  1
SC Pillow Block Bearings -(Normal Duty) -Corrosion Resistant Insert -Polymer Housed -Tapped Base Housing -E-Z KLEEN
100
AcDbAttributeDefinition
  3

  2
NT
 70
     8
280
     0
  0
ATTDEF
  5
75
330
6E
100
AcDbEntity
  8
AM_6
100
AcDbText
 10
46.29999999999998
 20
19.79
 30
0.0
 40
0.5
  1
136748
100
AcDbAttributeDefinition
  3

  2
NB
 70
     8
280
     0
  0
ATTDEF
  5
76
330
6E
100
AcDbEntity
  8
AM_6
100
AcDbText
 10
46.29999999999998
 20
19.29
 30
0.0
 40
0.5
  1
$PN.
100
AcDbAttributeDefinition
  3

  2
NBSYN
 70
     8
280
     0
  0
ATTDEF
  5
77
330
6E
100
AcDbEntity
  8
AM_6
100
AcDbText
 10
46.29999999999998
 20
18.79
 30
0.0
 40
0.5
  1
136748
100
AcDbAttributeDefinition
  3

  2
LINA
 70
     8
280
     0
  0
ATTDEF
  5
78
330
6E
100
AcDbEntity
  8
AM_6
100
AcDbText
 10
46.29999999999998
 20
18.29
 30
0.0
 40
0.5
  1
205
100
AcDbAttributeDefinition
  3

  2
SERIES
 70
     8
280
     0
  0
ATTDEF
  5
79
330
6E
100
AcDbEntity
  8
AM_6
100
AcDbText
 10
46.29999999999998
 20
17.79
 30
0.0
 40
0.5
  1
25
100
AcDbAttributeDefinition
  3

  2
SS
 70
     8
280
     0
  0
ATTDEF
  5
7A
330
6E
100
AcDbEntity
  8
AM_6
100
AcDbText
 10
46.29999999999998
 20
17.29
 30
0.0
 40
0.5
  1
136748
100
AcDbAttributeDefinition
  3

  2
PN
 70
     8
280
     0
  0
ATTDEF
  5
7B
330
6E
100
AcDbEntity
  8
AM_6
100
AcDbText
 10
46.29999999999998
 20
16.79
 30
0.0
 40
0.5
  1
TB-SCEZ-25M-PSS
100
AcDbAttributeDefinition
  3

  2
DESCRIPTION
 70
     8
280
     0
  0
ATTDEF
  5
7C
330
6E
100
AcDbEntity
  8
AM_6
100
AcDbText
 10
46.29999999999998
 20
16.29
 30
0.0
 40
0.5
  1
0.28
100
AcDbAttributeDefinition
  3

  2
W
 70
     8
280
     0
  0
ATTDEF
  5
7D
330
6E
100
AcDbEntity
  8
AM_6
100
AcDbText
 10
46.29999999999998
 20
15.79
 30
0.0
 40
0.5
  1
34.0
100
AcDbAttributeDefinition
  3

  2
A
 70
     8
280
     0
  0
ATTDEF
  5
7E
330
6E
100
AcDbEntity
  8
AM_6
100
AcDbText
 10
46.29999999999998
 20
15.29
 30
0.0
 40
0.5
  1
82.6
100
AcDbAttributeDefinition
  3

  2
B
 70
     8
280
     0
  0
ATTDEF
  5
7F
330
6E
100
AcDbEntity
  8
AM_6
100
AcDbText
 10
46.29999999999998
 20
14.79
 30
0.0
 40
0.5
  1
37.8
100
AcDbAttributeDefinition
  3

  2
C
 70
     8
280
     0
  0
ATTDEF
  5
80
330
6E
100
AcDbEntity
  8
AM_6
100
AcDbText
 10
46.29999999999998
 20
14.29
 30
0.0
 40
0.5
  1
50.8
100
AcDbAttributeDefinition
  3

  2
D
 70
     8
280
     0
  0
ATTDEF
  5
81
330
6E
100
AcDbEntity
  8
AM_6
100
AcDbText
 10
46.29999999999998
 20
13.79
 30
0.0
 40
0.5
  1
73.4
100
AcDbAttributeDefinition
  3

  2
J
 70
     8
280
     0
  0
ATTDEF
  5
82
330
6E
100
AcDbEntity
  8
AM_6
100
AcDbText
 10
46.29999999999998
 20
13.29
 30
0.0
 40
0.5
  1
33.5
100
AcDbAttributeDefinition
  3

  2
L
 70
     8
280
     0
  0
ATTDEF
  5
83
330
6E
100
AcDbEntity
  8
AM_6
100
AcDbText
 10
46.29999999999998
 20
12.79
 30
0.0
 40
0.5
  1
36.5
100
AcDbAttributeDefinition
  3

  2
M
 70
     8
280
     0
  0
ATTDEF
  5
84
330
6E
100
AcDbEntity
  8
AM_6
100
AcDbText
 10
46.29999999999998
 20
12.29
 30
0.0
 40
0.5
  1
10.2
100
AcDbAttributeDefinition
  3

  2
N
 70
     8
280
     0
  0
ATTDEF
  5
85
330
6E
100
AcDbEntity
  8
AM_6
100
AcDbText
 10
46.29999999999998
 20
11.79
 30
0.0
 40
0.5
  1
M10 x 1.5
100
AcDbAttributeDefinition
  3

  2
R
 70
     8
280
     0
  0
ATTDEF
  5
86
330
6E
100
AcDbEntity
  8
AM_6
100
AcDbText
 10
46.29999999999998
 20
11.29
 30
0.0
 40
0.5
  1
19.8
100
AcDbAttributeDefinition
  3

  2
S
 70
     8
280
     0
  0
ATTDEF
  5
87
330
6E
100
AcDbEntity
  8
AM_6
100
AcDbText
 10
46.29999999999998
 20
10.79
 30
0.0
 40
0.5
  1
baldor
100
AcDbAttributeDefinition
  3

  2
COMPANY
 70
     8
280
     0
  0
INSERT
  5
89
330
6E
100
AcDbEntity
  8
0
100
AcDbBlockReference
  2
2_405020c_M_0_in_136748_4
 10
0.0
 20
0.0
 30
0.0
  0
INSERT
  5
E7
330
6E
100
AcDbEntity
  8
0
100
AcDbBlockReference
  2
3_127862_0_in_136748_4
 10
0.0
 20
0.0
 30
0.0
  0
INSERT
  5
149
330
6E
100
AcDbEntity
  8
0
100
AcDbBlockReference
  2
4_136748H_0_in_136748_4
 10
0.0
 20
0.0
 30
0.0
  0
ENDBLK
  5
71
330
6E
100
AcDbEntity
  8
0
100
AcDbBlockEnd
  0
BLOCK
  5
8A
330
88
100
AcDbEntity
  8
0
100
AcDbBlockBegin
  2
2_405020c_M_0_in_136748_4
 70
     2
 10
0.0
 20
0.0
 30
0.0
  3
2_405020c_M_0_in_136748_4
  1

  0
ATTDEF
  5
8C
330
88
100
AcDbEntity
  8
AM_6
100
AcDbText
 10
36.47990932980793
 20
4.041451884327381
 30
0.0
 40
0.5
  1
405020C -Metric
100
AcDbAttributeDefinition
  3

  2
NN
 70
     8
280
     0
  0
ATTDEF
  5
8D
330
88
100
AcDbEntity
  8
AM_6
100
AcDbText
 10
36.47990932980793
 20
3.541451884327381
 30
0.0
 40
0.5
  1
Grease fitting
100
AcDbAttributeDefinition
  3

  2
NT
 70
     8
280
     0
  0
ATTDEF
  5
8E
330
88
100
AcDbEntity
  8
AM_6
100
AcDbText
 10
36.47990932980793
 20
3.041451884327381
 30
0.0
 40
0.5
  1
405020c-M
100
AcDbAttributeDefinition
  3

  2
NB
 70
     8
280
     0
  0
ATTDEF
  5
8F
330
88
100
AcDbEntity
  8
AM_6
100
AcDbText
 10
36.47990932980793
 20
2.541451884327381
 30
0.0
 40
0.5
  1
$MN.-M
100
AcDbAttributeDefinition
  3

  2
NBSYN
 70
     8
280
     0
  0
ATTDEF
  5
90
330
88
100
AcDbEntity
  8
AM_6
100
AcDbText
 10
36.47990932980793
 20
2.041451884327381
 30
0.0
 40
0.5
  1
405020c
100
AcDbAttributeDefinition
  3

  2
LINA
 70
     8
280
     0
  0
ATTDEF
  5
91
330
88
100
AcDbEntity
  8
AM_6
100
AcDbText
 10
36.47990932980793
 20
1.541451884327381
 30
0.0
 40
0.5
  1
405020c
100
AcDbAttributeDefinition
  3

  2
MN
 70
     8
280
     0
  0
ATTDEF
  5
92
330
88
100
AcDbEntity
  8
AM_6
100
AcDbText
 10
36.47990932980793
 20
1.041451884327381
 30
0.0
 40
0.5
  1
5.842
100
AcDbAttributeDefinition
  3

  2
NDR
 70
     8
280
     0
  0
ATTDEF
  5
93
330
88
100
AcDbEntity
  8
AM_6
100
AcDbText
 10
36.47990932980793
 20
0.5414518843273814
 30
0.0
 40
0.5
  1
5.359
100
AcDbAttributeDefinition
  3

  2
KDR
 70
     8
280
     0
  0
ATTDEF
  5
94
330
88
100
AcDbEntity
  8
AM_6
100
AcDbText
 10
36.47990932980793
 20
0.0414518843273814
 30
0.0
 40
0.5
  1
4.000
100
AcDbAttributeDefinition
  3

  2
BZE
 70
     8
280
     0
  0
ATTDEF
  5
95
330
88
100
AcDbEntity
  8
AM_6
100
AcDbText
 10
36.47990932980793
 20
-0.4585481156726186
 30
0.0
 40
0.5
  1
7
100
AcDbAttributeDefinition
  3

  2
WAF
 70
     8
280
     0
  0
ATTDEF
  5
96
330
88
100
AcDbEntity
  8
AM_6
100
AcDbText
 10
36.47990932980793
 20
-0.9585481156726186
 30
0.0
 40
0.5
  1
7.0000
100
AcDbAttributeDefinition
  3

  2
WAF1
 70
     8
280
     0
  0
ATTDEF
  5
97
330
88
100
AcDbEntity
  8
AM_6
100
AcDbText
 10
36.47990932980793
 20
-1.458548115672619
 30
0.0
 40
0.5
  1
13.843
100
AcDbAttributeDefinition
  3

  2
BL
 70
     8
280
     0
  0
ATTDEF
  5
98
330
88
100
AcDbEntity
  8
AM_6
100
AcDbText
 10
36.47990932980793
 20
-1.958548115672619
 30
0.0
 40
0.5
  1
5.080
100
AcDbAttributeDefinition
  3

  2
TL
 70
     8
280
     0
  0
ATTDEF
  5
99
330
88
100
AcDbEntity
  8
AM_6
100
AcDbText
 10
36.47990932980793
 20
-2.458548115672619
 30
0.0
 40
0.5
  1
baldor
100
AcDbAttributeDefinition
  3

  2
COMPANY
 70
     8
280
     0
  0
ELLIPSE
  5
9C
330
88
100
AcDbEntity
  8
AM_9
100
AcDbEllipse
 10
20.05701254043276
 20
0.0000000000000012
 30
0.0
 11
-4.692312313253165E-16
 21
-2.55437585025611
 31
0.0
210
0.0
220
0.0
230
1.0
 40
0.7071067811865476
 41
0.0
 42
6.283185307179586
  0
LINE
  5
9D
330
88
100
AcDbEntity
  8
AM_9
100
AcDbLine
 10
27.09620285066391
 20
-2.020725942163689
 30
0.0
 11
26.22657690276632
 21
-2.020725942163689
 31
0.0
  0
LINE
  5
9E
330
88
100
AcDbEntity
  8
AM_9
100
AcDbLine
 10
27.09620285066391
 20
2.020725942163692
 30
0.0
 11
26.22657690276632
 21
2.020725942163692
 31
0.0
  0
LWPOLYLINE
  5
9F
330
88
100
AcDbEntity
  8
AM_9
100
AcDbPolyline
 90
        3
 70
     0
 43
0.0
 10
26.15848963776569
 20
1.143594580901739
 10
26.15130595445687
 20
1.014905835062989
 10
26.12398872301334
 20
0.0000000000000013
  0
LINE
  5
A0
330
88
100
AcDbEntity
  8
AM_9
100
AcDbLine
 10
26.22657690276632
 20
2.020725942163692
 30
0.0
 11
26.15848963776569
 21
1.143594580901739
 31
0.0
  0
LWPOLYLINE
  5
A1
330
88
100
AcDbEntity
  8
AM_9
100
AcDbPolyline
 90
        3
 70
     0
 43
0.0
 10
26.15611713065018
 20
-1.10261135405954
 10
26.18585382279397
 20
-1.546688894797462
 10
26.22657690276632
 20
-2.020725942163689
  0
LWPOLYLINE
  5
A2
330
88
100
AcDbEntity
  8
AM_9
100
AcDbPolyline
 90
        3
 70
     0
 43
0.0
 10
26.12398872301334
 20
0.0000000000000013
 10
26.13998353506074
 20
-0.7733444473987301
 10
26.15611713065018
 20
-1.10261135405954
  0
LWPOLYLINE
  5
A3
330
88
100
AcDbEntity
  8
AM_9
100
AcDbPolyline
 90
        3
 70
     0
 43
0.0
 10
26.22657690276632
 20
-2.020725942163689
 10
25.5353694455998
 20
-2.523635995714041
 10
24.88655185593688
 20
-3.031088913245534
  0
LWPOLYLINE
  5
A4
330
88
100
AcDbEntity
  8
AM_9
100
AcDbPolyline
 90
        3
 70
     0
 43
0.0
 10
24.88655185593688
 20
3.031088913245537
 10
25.53234830200406
 20
2.525907427704615
 10
26.22657690276632
 20
2.020725942163692
  0
LWPOLYLINE
  5
A5
330
88
100
AcDbEntity
  8
AM_9
100
AcDbPolyline
 90
        3
 70
     0
 43
0.0
 10
26.37510758254647
 20
-2.682631185199014
 10
26.55299458434971
 20
-2.525907427704612
 10
27.09620285066391
 20
-2.020725942163689
  0
LWPOLYLINE
  5
A6
330
88
100
AcDbEntity
  8
AM_9
100
AcDbPolyline
 90
        4
 70
     0
 43
0.0
 10
27.09620285066391
 20
-2.020725942163689
 10
27.13692593063626
 20
-1.546688894797462
 10
27.182703142585
 20
-0.775618166840897
 10
27.19879103041689
 20
0.0000000000000014
  0
LWPOLYLINE
  5
A7
330
88
100
AcDbEntity
  8
AM_9
100
AcDbPolyline
 90
        3
 70
     0
 43
0.0
 10
27.09620285066391
 20
2.020725942163692
 10
26.5555372901163
 20
2.523635995714043
 10
26.37514792607594
 20
2.682596126444211
  0
LWPOLYLINE
  5
A8
330
88
100
AcDbEntity
  8
AM_9
100
AcDbPolyline
 90
        3
 70
     0
 43
0.0
 10
27.19864119511586
 20
0.0744066746491631
 10
27.17171301788794
 20
1.010362971081847
 10
27.09620285066391
 20
2.020725942163692
  0
LINE
  5
A9
330
88
100
AcDbEntity
  8
AM_9
100
AcDbLine
 10
27.19879103041689
 20
0.0000000000000014
 30
0.0
 11
27.19873217431355
 21
0.0466321760127415
 31
0.0
  0
LWPOLYLINE
  5
AA
330
88
100
AcDbEntity
  8
AM_9
100
AcDbPolyline
 90
        3
 70
     0
 43
0.0
 10
23.7517031686134
 20
4.041451884327381
 10
24.29236872916101
 20
3.53854183077703
 10
24.88655185593688
 20
3.031088913245537
  0
LWPOLYLINE
  5
AB
330
88
100
AcDbEntity
  8
AM_9
100
AcDbPolyline
 90
        3
 70
     0
 43
0.0
 10
24.88655185593688
 20
-3.031088913245534
 10
24.2949114349276
 20
-3.536270398786457
 10
23.7517031686134
 20
-4.041451884327379
  0
LINE
  5
AC
330
88
100
AcDbEntity
  8
AM_9
100
AcDbLine
 10
20.17141511210385
 20
-2.802418772605764
 30
0.0
 11
23.58382032112972
 21
-2.953308440111944
 31
0.0
  0
LINE
  5
AD
330
88
100
AcDbEntity
  8
AM_9
100
AcDbLine
 10
23.58382032112972
 20
2.953308440111947
 30
0.0
 11
20.17141511210385
 21
2.802418772605766
 31
0.0
  0
ELLIPSE
  5
AE
330
88
100
AcDbEntity
  8
AM_9
100
AcDbEllipse
 10
24.72391729626398
 20
-0.000000000000012
 30
0.0
 11
2.143131898507852E-16
 21
3.499999999999973
 31
0.0
210
0.0
220
0.0
230
1.0
 40
0.7071067811865505
 41
3.850326533439294
 42
5.57445142733009
  0
ELLIPSE
  5
AF
330
88
100
AcDbEntity
  8
AM_9
100
AcDbEllipse
 10
25.44037421471655
 20
0.0000000000000182
 30
0.0
 11
1.522711690942023E-16
 21
2.486776909068304
 31
0.0
210
0.0
220
0.0
230
1.0
 40
0.7071067811865526
 41
5.362829592198686
 42
5.984242208656111
  0
ELLIPSE
  5
B0
330
88
100
AcDbEntity
  8
AM_9
100
AcDbEllipse
 10
25.44037421471655
 20
0.0000000000000124
 30
0.0
 11
1.522711690942043E-16
 21
2.486776909068336
 31
0.0
210
0.0
220
0.0
230
1.0
 40
0.7071067811865478
 41
3.440535752113266
 42
4.100121561169003
  0
ELLIPSE
  5
B1
330
88
100
AcDbEntity
  8
AM_9
100
AcDbEllipse
 10
25.44037421471926
 20
-0.0000000000015619
 30
0.0
 11
1.522711690939507E-16
 21
2.486776909064195
 31
0.0
210
0.0
220
0.0
230
1.0
 40
0.707106781186548
 41
4.295075384591952
 42
5.173790694965169
  0
LINE
  5
B2
330
88
100
AcDbEntity
  8
AM_9
100
AcDbLine
 10
25.50341644307181
 20
-2.037134287548046
 30
0.0
 11
25.48686149248331
 21
-2.025078352100355
 31
0.0
  0
LWPOLYLINE
  5
B3
330
88
100
AcDbEntity
  8
AM_9
100
AcDbPolyline
 90
        4
 70
     0
 43
0.0
 10
25.94037421471656
 20
-2.19388369025487
 10
25.89879919886036
 20
-2.192436496909256
 10
25.78616373173724
 20
-2.17406456817658
 10
25.72532921904804
 20
-2.15548957172908
  0
LWPOLYLINE
  5
B4
330
88
100
AcDbEntity
  8
AM_9
100
AcDbPolyline
 90
       15
 70
     0
 43
0.0
 10
25.64825703053421
 20
2.123386917451696
 10
25.74102635039158
 20
2.160856498448655
 10
25.84631816851187
 20
2.186488654338633
 10
25.95808965582216
 20
2.193620839220899
 10
26.08612638709318
 20
2.176170523198557
 10
26.19281403403772
 20
2.141104914595607
 10
26.29854979144353
 20
2.088278423386158
 10
26.40472530207439
 20
2.016934510331827
 10
26.52111189357209
 20
1.916493247152295
 10
26.63406136560502
 20
1.794264091748116
 10
26.74191633525319
 20
1.650622893694066
 10
26.8427458448211
 20
1.486356592130621
 10
26.93447177811679
 20
1.30284117629234
 10
27.01501939493846
 20
1.102155287785651
 10
27.07187125964302
 20
0.925035231921923
  0
LWPOLYLINE
  5
B5
330
88
100
AcDbEntity
  8
AM_9
100
AcDbPolyline
 90
        4
 70
     0
 43
0.0
 10
25.48953341007349
 20
2.027055405138197
 10
25.52847675711293
 20
2.054511809750807
 10
25.63583762090197
 20
2.117322043620538
 10
25.64825703053421
 20
2.123386917451696
  0
LWPOLYLINE
  5
B6
330
88
100
AcDbEntity
  8
AM_9
100
AcDbPolyline
 90
       13
 70
     0
 43
0.0
 10
27.08062033281301
 20
-0.8939207166684633
 10
27.04759638775319
 20
-1.005410971496514
 10
26.9728465860448
 20
-1.2129649406278
 10
26.88637063185471
 20
-1.403878977455275
 10
26.79031337957008
 20
-1.575906456266599
 10
26.68706185466409
 20
-1.727314802443955
 10
26.57922929783356
 20
-1.856876176954586
 10
26.46943405292927
 20
-1.964089155352908
 10
26.35996943539082
 20
-2.049285067704013
 10
26.25243995992856
 20
-2.11352470857012
 10
26.14713545543983
 20
-2.158371409269858
 10
26.04200199609551
 20
-2.185252849216017
 10
25.94037421471656
 20
-2.19388369025487
  0
ELLIPSE
  5
B7
330
88
100
AcDbEntity
  8
AM_9
100
AcDbEllipse
 10
26.23921045344667
 20
-0.0000000000000213
 30
0.0
 11
1.400736253841391E-16
 21
2.287575903218199
 31
0.0
210
0.0
220
0.0
230
1.0
 40
0.707106781186545
 41
2.65648040711601
 42
3.141592653589793
  0
ELLIPSE
  5
B8
330
88
100
AcDbEntity
  8
AM_9
100
AcDbEllipse
 10
27.7923971149769
 20
-0.0000000000018225
 30
0.0
 11
2.027916041955391E-16
 21
3.311838226935807
 31
0.0
210
0.0
220
0.0
230
1.0
 40
0.7071067811865474
 41
2.656480407115982
 42
6.768297553652884
  0
ELLIPSE
  5
B9
330
88
100
AcDbEntity
  8
AM_9
100
AcDbEllipse
 10
28.36752198428305
 20
0.0000000000000011
 30
0.0
 11
2.036609237928306E-16
 21
3.326035293353598
 31
0.0
210
0.0
220
0.0
230
1.0
 40
0.7071067811865492
 41
3.579974428543798
 42
5.844803532225583
  0
ELLIPSE
  5
BA
330
88
100
AcDbEntity
  8
AM_9
100
AcDbEllipse
 10
29.63008263709258
 20
0.0000000000000011
 30
0.0
 11
1.572521564385673E-16
 21
2.568122605604365
 31
0.0
210
0.0
220
0.0
230
1.0
 40
0.7071067811865456
 41
3.5799744285438
 42
5.831150537036819
  0
ELLIPSE
  5
BB
330
88
100
AcDbEntity
  8
AM_9
100
AcDbEllipse
 10
23.6491149888604
 20
0.0000000000000098
 30
0.0
 11
2.143131898507856E-16
 21
3.499999999999981
 31
0.0
210
0.0
220
0.0
230
1.0
 40
0.7071067811865459
 41
0.0
 42
6.283185307179586
  0
ELLIPSE
  5
BC
330
88
100
AcDbEntity
  8
AM_9
100
AcDbEllipse
 10
23.64911498884588
 20
0.0000000000005564
 30
0.0
 11
1.809263597660075E-16
 21
2.954751686641004
 31
0.0
210
0.0
220
0.0
230
1.0
 40
0.7071067811864704
 41
0.0
 42
6.283185307179586
  0
ELLIPSE
  5
BD
330
88
100
AcDbEntity
  8
AM_9
100
AcDbEllipse
 10
20.23337376162814
 20
-0.0000000000012683
 30
0.0
 11
1.716825172002487E-16
 21
2.803788281156343
 31
0.0
210
0.0
220
0.0
230
1.0
 40
0.7071067811864872
 41
0.0
 42
6.283185307179586
  0
LINE
  5
BF
330
88
100
AcDbEntity
  8
AM_4
100
AcDbLine
 10
25.96135416334043
 20
-3.031088913245534
 30
0.0
 11
26.37510758254647
 21
-2.682631185199014
 31
0.0
  0
LINE
  5
C0
330
88
100
AcDbEntity
  8
AM_4
100
AcDbLine
 10
26.37514792607594
 20
2.682596126444211
 30
0.0
 11
25.96135416334043
 21
3.031088913245537
 31
0.0
  0
LWPOLYLINE
  5
C1
330
88
100
AcDbEntity
  8
AM_4
100
AcDbPolyline
 90
        3
 70
     0
 43
0.0
 10
24.621329116511
 20
-4.041451884327379
 10
25.31253657367751
 20
-3.538541830777028
 10
25.96135416334043
 20
-3.031088913245534
  0
LWPOLYLINE
  5
C2
330
88
100
AcDbEntity
  8
AM_4
100
AcDbPolyline
 90
        3
 70
     0
 43
0.0
 10
25.96135416334043
 20
3.031088913245537
 10
25.31555771727325
 20
3.536270398786459
 10
24.621329116511
 20
4.041451884327381
  0
LWPOLYLINE
  5
C3
330
88
100
AcDbEntity
  8
AM_4
100
AcDbPolyline
 90
        3
 70
     0
 43
0.0
 10
21.17424125470751
 20
0.0000000000000016
 10
21.20131926723646
 20
1.010362971081847
 10
21.27682943446048
 20
2.020725942163692
  0
LWPOLYLINE
  5
C4
330
88
100
AcDbEntity
  8
AM_4
100
AcDbPolyline
 90
        4
 70
     0
 43
0.0
 10
21.27682943446048
 20
-2.020725942163689
 10
21.23610635448814
 20
-1.546688894797461
 10
21.19032914253939
 20
-0.7756181668408967
 10
21.17424125470751
 20
0.0000000000000016
  0
LWPOLYLINE
  5
C5
330
88
100
AcDbEntity
  8
AM_4
100
AcDbPolyline
 90
        4
 70
     0
 43
0.0
 10
22.24904356211106
 20
0.0000000000000017
 10
22.23304875006366
 20
-0.7733444473987299
 10
22.18717846233043
 20
-1.546688894797461
 10
22.14645538235808
 20
-2.020725942163689
  0
LINE
  5
C6
330
88
100
AcDbEntity
  8
AM_4
100
AcDbLine
 10
22.14645538235808
 20
-2.020725942163689
 30
0.0
 11
21.27682943446048
 21
-2.020725942163689
 31
0.0
  0
LWPOLYLINE
  5
C7
330
88
100
AcDbEntity
  8
AM_4
100
AcDbPolyline
 90
        3
 70
     0
 43
0.0
 10
22.41167812178396
 20
-3.031088913245535
 10
21.82003770077469
 20
-2.525907427704612
 10
21.27682943446048
 20
-2.020725942163689
  0
LWPOLYLINE
  5
C8
330
88
100
AcDbEntity
  8
AM_4
100
AcDbPolyline
 90
        3
 70
     0
 43
0.0
 10
23.7517031686134
 20
-4.041451884327379
 10
23.06049571144689
 20
-3.538541830777028
 10
22.41167812178396
 20
-3.031088913245535
  0
LINE
  5
C9
330
88
100
AcDbEntity
  8
AM_4
100
AcDbLine
 10
24.621329116511
 20
-4.041451884327379
 30
0.0
 11
23.7517031686134
 21
-4.041451884327379
 31
0.0
  0
LWPOLYLINE
  5
CA
330
88
100
AcDbEntity
  8
AM_4
100
AcDbPolyline
 90
        3
 70
     0
 43
0.0
 10
23.48648042918752
 20
-3.031088913245534
 10
24.07812085019679
 20
-3.536270398786457
 10
24.621329116511
 20
-4.041451884327379
  0
LWPOLYLINE
  5
CB
330
88
100
AcDbEntity
  8
AM_4
100
AcDbPolyline
 90
        3
 70
     0
 43
0.0
 10
22.14645538235808
 20
-2.020725942163689
 10
22.83766283952459
 20
-2.523635995714041
 10
23.48648042918752
 20
-3.031088913245534
  0
LINE
  5
CC
330
88
100
AcDbEntity
  8
AM_4
100
AcDbLine
 10
24.621329116511
 20
4.041451884327381
 30
0.0
 11
23.7517031686134
 21
4.041451884327381
 31
0.0
  0
LWPOLYLINE
  5
CD
330
88
100
AcDbEntity
  8
AM_4
100
AcDbPolyline
 90
        3
 70
     0
 43
0.0
 10
22.41167812178396
 20
3.031088913245537
 10
23.05747456785114
 20
3.536270398786459
 10
23.7517031686134
 20
4.041451884327381
  0
LWPOLYLINE
  5
CE
330
88
100
AcDbEntity
  8
AM_4
100
AcDbPolyline
 90
        3
 70
     0
 43
0.0
 10
21.27682943446048
 20
2.020725942163692
 10
21.8174949950081
 20
2.523635995714044
 10
22.41167812178396
 20
3.031088913245537
  0
LINE
  5
CF
330
88
100
AcDbEntity
  8
AM_4
100
AcDbLine
 10
22.14645538235808
 20
2.020725942163692
 30
0.0
 11
21.27682943446048
 21
2.020725942163692
 31
0.0
  0
LWPOLYLINE
  5
D0
330
88
100
AcDbEntity
  8
AM_4
100
AcDbPolyline
 90
        3
 70
     0
 43
0.0
 10
24.621329116511
 20
4.041451884327381
 10
24.08066355596339
 20
3.53854183077703
 10
23.48648042918752
 20
3.031088913245537
  0
LWPOLYLINE
  5
D1
330
88
100
AcDbEntity
  8
AM_4
100
AcDbPolyline
 90
        3
 70
     0
 43
0.0
 10
23.48648042918752
 20
3.031088913245537
 10
22.84068398312034
 20
2.525907427704615
 10
22.14645538235808
 20
2.020725942163692
  0
LWPOLYLINE
  5
D2
330
88
100
AcDbEntity
  8
AM_4
100
AcDbPolyline
 90
        3
 70
     0
 43
0.0
 10
22.14645538235808
 20
2.020725942163692
 10
22.22172633066753
 20
1.014905835062989
 10
22.24904356211106
 20
0.0000000000000017
  0
ELLIPSE
  5
D3
330
88
100
AcDbEntity
  8
AM_4
100
AcDbEllipse
 10
24.72391729626377
 20
-0.0000000000000098
 30
0.0
 11
2.143131898507875E-16
 21
3.500000000000012
 31
0.0
210
0.0
220
0.0
230
1.0
 40
0.7071067811865793
 41
5.574451427330045
 42
10.13351184061892
  0
ELLIPSE
  5
D4
330
88
100
AcDbEntity
  8
AM_4
100
AcDbEllipse
 10
25.44037421471656
 20
0.0000000000000016
 30
0.0
 11
1.522711690942037E-16
 21
2.486776909068325
 31
0.0
210
0.0
220
0.0
230
1.0
 40
0.7071067811865478
 41
5.984242208656115
 42
9.72372105929285
  0
LINE
  5
D5
330
88
100
AcDbEntity
  8
AM_4
100
AcDbLine
 10
25.4849296357097
 20
-2.023641373606683
 30
0.0
 11
26.70038699084876
 21
-2.929726987111136
 31
0.0
  0
LINE
  5
D6
330
88
100
AcDbEntity
  8
AM_4
100
AcDbLine
 10
26.70038699084876
 20
2.929726987111139
 30
0.0
 11
25.4849296357097
 21
2.023641373606686
 31
0.0
  0
ELLIPSE
  5
D7
330
88
100
AcDbEntity
  8
AM_4
100
AcDbEllipse
 10
26.23921045344667
 20
0.0000000000000016
 30
0.0
 11
1.400736253841403E-16
 21
2.287575903218218
 31
0.0
210
0.0
220
0.0
230
1.0
 40
0.7071067811865452
 41
0.4851122464737783
 42
2.656480407116015
  0
ELLIPSE
  5
D8
330
88
100
AcDbEntity
  8
AM_4
100
AcDbEllipse
 10
27.79239711488881
 20
-0.0000000000659703
 30
0.0
 11
2.027916041910830E-16
 21
3.311838226863034
 31
0.0
210
0.0
220
0.0
230
1.0
 40
0.7071067811774283
 41
-3.637259678346135
 42
-3.626704900044681
  0
LWPOLYLINE
  5
D9
330
88
100
AcDbEntity
  8
AM_4
100
AcDbPolyline
 90
        7
 70
     0
 43
0.0
 10
28.0912333537076
 20
-3.405530439901158
 10
28.26743144397576
 20
-3.398475229618036
 10
28.51284190580003
 20
-3.364910723928542
 10
28.75328076401241
 20
-3.304357755361415
 10
28.9872157817536
 20
-3.217516806959878
 10
29.21324498801107
 20
-3.105041144715583
 10
29.38207925407747
 20
-3.00066019800756
  0
LWPOLYLINE
  5
DA
330
88
100
AcDbEntity
  8
AM_4
100
AcDbPolyline
 90
       13
 70
     0
 43
0.0
 10
29.38113829195131
 20
3.001294192843508
 10
29.18404625642727
 20
3.121260073453922
 10
28.94568440588478
 20
3.235044731927874
 10
28.70114971483436
 20
3.319885134887901
 10
28.45295028369881
 20
3.375684779415131
 10
28.20340346107028
 20
3.402673106855186
 10
27.95462333803706
 20
3.40129136852051
 10
27.7085426228992
 20
3.372103487571139
 10
27.46720085558517
 20
3.315814120184531
 10
27.23213070342311
 20
3.233128071803436
 10
27.00474662651865
 20
3.124705724854159
 10
26.78641696963222
 20
2.991175443664222
 10
26.68831087021449
 20
2.92067034516108
  0
LWPOLYLINE
  5
DB
330
88
100
AcDbEntity
  8
AM_4
100
AcDbPolyline
 90
        8
 70
     0
 43
0.0
 10
26.68591368594571
 20
-2.91885958368912
 10
26.73319791484789
 20
-2.953790663577953
 10
26.96107310700327
 20
-3.100421548667712
 10
27.19820523060982
 20
-3.21879468810101
 10
27.44192630238229
 20
-3.308277686982382
 10
27.68970084042781
 20
-3.368710229520917
 10
27.93917954097412
 20
-3.400277856694186
 10
28.0912333537076
 20
-3.405530439901158
  0
LINE
  5
DC
330
88
100
AcDbEntity
  8
AM_4
100
AcDbLine
 10
26.67439788842302
 20
-2.910100607706627
 30
0.0
 11
26.68591368594571
 21
-2.91885958368912
 31
0.0
  0
ELLIPSE
  5
DD
330
88
100
AcDbEntity
  8
AM_4
100
AcDbEllipse
 10
27.79239711497748
 20
0.0000000000000022
 30
0.0
 11
2.027916041956618E-16
 21
3.311838226937812
 31
0.0
210
0.0
220
0.0
230
1.0
 40
0.7071067811865461
 41
0.4899127048906324
 42
2.645925628815011
  0
ELLIPSE
  5
DE
330
88
100
AcDbEntity
  8
AM_4
100
AcDbEllipse
 10
27.79239711467491
 20
-0.0000000000161489
 30
0.0
 11
2.027916041967701E-16
 21
3.31183822695591
 31
0.0
210
0.0
220
0.0
230
1.0
 40
0.7071067811428366
 41
0.4851122463827062
 42
0.4899127047999978
  0
ELLIPSE
  5
DF
330
88
100
AcDbEntity
  8
AM_4
100
AcDbEllipse
 10
29.84549171239814
 20
0.0000000000000018
 30
0.0
 11
-3.872094701371913E-16
 21
-2.107870178878142
 31
0.0
210
0.0
220
0.0
230
1.0
 40
0.707106781186548
 41
0.0
 42
6.283185307179586
  0
LWPOLYLINE
  5
E0
330
88
100
AcDbEntity
  8
AM_4
100
AcDbPolyline
 90
       23
 70
     0
 43
0.0
 10
30.39736995960059
 20
-2.327616252316098
 10
30.41326834866419
 20
-2.317009977702935
 10
30.59037667365686
 20
-2.181828881286826
 10
30.75613080908715
 20
-2.022801502285024
 10
30.90867086240128
 20
-1.841315219310426
 10
31.04614533245878
 20
-1.639240915080739
 10
31.16685931699601
 20
-1.418894236261674
 10
31.26938797984914
 20
-1.182907613356796
 10
31.35262056882698
 20
-0.9340825199190292
 10
31.41573072036575
 20
-0.6753469772401234
 10
31.45818313913294
 20
-0.4095099228817545
 10
31.47963620002703
 20
-0.1393530638023551
 10
31.47990932980793
 20
0.1323648386651839
 10
31.45896371959035
 20
0.4029058119366886
 10
31.41690052373259
 20
0.6695042985061637
 10
31.35394743329704
 20
0.9294656444979822
 10
31.27045781391458
 20
1.180110614035141
 10
31.16692608013573
 20
1.418757740516559
 10
31.04402888982218
 20
1.642697304765737
 10
30.90277256217431
 20
1.849080948539983
 10
30.74451236123119
 20
2.035129622620623
 10
30.57107238586846
 20
2.198175514124619
 10
30.42625771302088
 20
2.308167517078546
  0
ELLIPSE
  5
E1
330
88
100
AcDbEntity
  8
AM_4
100
AcDbEllipse
 10
28.36752198428304
 20
0.0000000000000022
 30
0.0
 11
2.036609237928307E-16
 21
3.326035293353599
 31
0.0
210
0.0
220
0.0
230
1.0
 40
0.707106781186549
 41
5.844803532225581
 42
9.863159735723386
  0
ELLIPSE
  5
E2
330
88
100
AcDbEntity
  8
AM_4
100
AcDbEllipse
 10
29.63008263709258
 20
0.0000000000000029
 30
0.0
 11
1.572521564385672E-16
 21
2.568122605604363
 31
0.0
210
0.0
220
0.0
230
1.0
 40
0.7071067811865489
 41
5.844803532225579
 42
9.863159735723386
  0
LINE
  5
E3
330
88
100
AcDbEntity
  8
AM_4
100
AcDbLine
 10
30.40090212293348
 20
2.325280275130746
 30
0.0
 11
29.36582822134377
 21
3.011524545263592
 31
0.0
  0
LINE
  5
E4
330
88
100
AcDbEntity
  8
AM_4
100
AcDbLine
 10
29.36582822134377
 20
-3.011524545263589
 30
0.0
 11
30.40090212293348
 21
-2.325280275130742
 31
0.0
  0
ELLIPSE
  5
E5
330
88
100
AcDbEntity
  8
AM_4
100
AcDbEllipse
 10
29.63008263709292
 20
0.0000000000011013
 30
0.0
 11
1.572521564384947E-16
 21
2.568122605603179
 31
0.0
210
0.0
220
0.0
230
1.0
 40
0.7071067811864543
 41
-0.4520347701428395
 42
-0.438381774954073
  0
ENDBLK
  5
8B
330
88
100
AcDbEntity
  8
0
100
AcDbBlockEnd
  0
BLOCK
  5
E8
330
E6
100
AcDbEntity
  8
0
100
AcDbBlockBegin
  2
3_127862_0_in_136748_4
 70
     2
 10
0.0
 20
0.0
 30
0.0
  3
3_127862_0_in_136748_4
  1

  0
ATTDEF
  5
EA
330
E6
100
AcDbEntity
  8
AM_6
100
AcDbText
 10
30.98141558347151
 20
14.2
 30
0.0
 40
0.5
  1
Set Screw Insert Metric Bore - Stainless Steel
100
AcDbAttributeDefinition
  3

  2
NN
 70
     8
280
     0
  0
ATTDEF
  5
EB
330
E6
100
AcDbEntity
  8
AM_6
100
AcDbText
 10
30.98141558347151
 20
13.7
 30
0.0
 40
0.5
  1
SC Medium Duty Bearing Inserts
100
AcDbAttributeDefinition
  3

  2
NT
 70
     8
280
     0
  0
ATTDEF
  5
EC
330
E6
100
AcDbEntity
  8
AM_6
100
AcDbText
 10
30.98141558347151
 20
13.2
 30
0.0
 40
0.5
  1
127862
100
AcDbAttributeDefinition
  3

  2
NB
 70
     8
280
     0
  0
ATTDEF
  5
ED
330
E6
100
AcDbEntity
  8
AM_6
100
AcDbText
 10
30.98141558347151
 20
12.7
 30
0.0
 40
0.5
  1
$PN.
100
AcDbAttributeDefinition
  3

  2
NBSYN
 70
     8
280
     0
  0
ATTDEF
  5
EE
330
E6
100
AcDbEntity
  8
AM_6
100
AcDbText
 10
30.98141558347151
 20
12.2
 30
0.0
 40
0.5
  1
127862
100
AcDbAttributeDefinition
  3

  2
LINA
 70
     8
280
     0
  0
ATTDEF
  5
EF
330
E6
100
AcDbEntity
  8
AM_6
100
AcDbText
 10
30.98141558347151
 20
11.7
 30
0.0
 40
0.5
  1
205
100
AcDbAttributeDefinition
  3

  2
SERIES
 70
     8
280
     0
  0
ATTDEF
  5
F0
330
E6
100
AcDbEntity
  8
AM_6
100
AcDbText
 10
30.98141558347151
 20
11.2
 30
0.0
 40
0.5
  1
25
100
AcDbAttributeDefinition
  3

  2
SS
 70
     8
280
     0
  0
ATTDEF
  5
F1
330
E6
100
AcDbEntity
  8
AM_6
100
AcDbText
 10
30.98141558347151
 20
10.7
 30
0.0
 40
0.5
  1
127862
100
AcDbAttributeDefinition
  3

  2
PN
 70
     8
280
     0
  0
ATTDEF
  5
F2
330
E6
100
AcDbEntity
  8
AM_6
100
AcDbText
 10
30.98141558347151
 20
10.2
 30
0.0
 40
0.5
  1
INS-SC-25M-SS
100
AcDbAttributeDefinition
  3

  2
DESCRIPTION
 70
     8
280
     0
  0
ATTDEF
  5
F3
330
E6
100
AcDbEntity
  8
AM_6
100
AcDbText
 10
30.98141558347151
 20
9.7
 30
0.0
 40
0.5
  1
0.18
100
AcDbAttributeDefinition
  3

  2
WEIGHT
 70
     8
280
     0
  0
ATTDEF
  5
F4
330
E6
100
AcDbEntity
  8
AM_6
100
AcDbText
 10
30.98141558347151
 20
9.2
 30
0.0
 40
0.5
  1
34.0
100
AcDbAttributeDefinition
  3

  2
A
 70
     8
280
     0
  0
ATTDEF
  5
F5
330
E6
100
AcDbEntity
  8
AM_6
100
AcDbText
 10
30.98141558347151
 20
8.7
 30
0.0
 40
0.5
  1
15.0
100
AcDbAttributeDefinition
  3

  2
C
 70
     8
280
     0
  0
ATTDEF
  5
F6
330
E6
100
AcDbEntity
  8
AM_6
100
AcDbText
 10
30.98141558347151
 20
8.2
 30
0.0
 40
0.5
  1
52
100
AcDbAttributeDefinition
  3

  2
D
 70
     8
280
     0
  0
ATTDEF
  5
F7
330
E6
100
AcDbEntity
  8
AM_6
100
AcDbText
 10
30.98141558347151
 20
7.699999999999999
 30
0.0
 40
0.5
  1
3.8
100
AcDbAttributeDefinition
  3

  2
J
 70
     8
280
     0
  0
ATTDEF
  5
F8
330
E6
100
AcDbEntity
  8
AM_6
100
AcDbText
 10
30.98141558347151
 20
7.199999999999999
 30
0.0
 40
0.5
  1
33.5
100
AcDbAttributeDefinition
  3

  2
L
 70
     8
280
     0
  0
ATTDEF
  5
F9
330
E6
100
AcDbEntity
  8
AM_6
100
AcDbText
 10
30.98141558347151
 20
6.699999999999999
 30
0.0
 40
0.5
  1
M6 x 1
100
AcDbAttributeDefinition
  3

  2
N
 70
     8
280
     0
  0
ATTDEF
  5
FA
330
E6
100
AcDbEntity
  8
AM_6
100
AcDbText
 10
30.98141558347151
 20
6.199999999999999
 30
0.0
 40
0.5
  1
14.2
100
AcDbAttributeDefinition
  3

  2
W
 70
     8
280
     0
  0
ATTDEF
  5
FB
330
E6
100
AcDbEntity
  8
AM_6
100
AcDbText
 10
30.98141558347151
 20
5.699999999999999
 30
0.0
 40
0.5
  1
19.8
100
AcDbAttributeDefinition
  3

  2
Y
 70
     8
280
     0
  0
ATTDEF
  5
FC
330
E6
100
AcDbEntity
  8
AM_6
100
AcDbText
 10
30.98141558347151
 20
5.199999999999999
 30
0.0
 40
0.5
  1
baldor
100
AcDbAttributeDefinition
  3

  2
COMPANY
 70
     8
280
     0
  0
LINE
  5
FD
330
E6
100
AcDbEntity
  8
AM_9
100
AcDbLine
 10
-11.9730004335581
 20
-15.8248446947762
 30
0.0
 11
-11.80543487047819
 21
-16.03384697383059
 31
0.0
  0
LINE
  5
FE
330
E6
100
AcDbEntity
  8
AM_9
100
AcDbLine
 10
-11.8059952140883
 20
-11.26685193523769
 30
0.0
 11
-11.9730004335581
 21
-11.4751553052238
 31
0.0
  0
LWPOLYLINE
  5
FF
330
E6
100
AcDbEntity
  8
AM_9
100
AcDbPolyline
 90
       26
 70
     0
 43
0.0
 10
-11.80278685806198
 20
-16.03714966453196
 10
-11.75913331770126
 20
-16.08719705087035
 10
-11.58475452252772
 20
-16.22249272756308
 10
-11.37343075120329
 20
-16.28267678203651
 10
-11.14036351358147
 20
-16.25681763390308
 10
-10.88929777427482
 20
-16.14270957456662
 10
-10.63240960309259
 20
-15.94344765475314
 10
-10.38186809320649
 20
-15.66295200050054
 10
-10.15026868853508
 20
-15.30619805998023
 10
-9.962694882739724
 20
-14.90227403207036
 10
-9.821587912092442
 20
-14.44512453638269
 10
-9.750068620193597
 20
-14.02120956781289
 10
-9.730520491006562
 20
-13.58327940995444
 10
-9.75825524867466
 20
-13.20740124273368
 10
-9.824160831867058
 20
-12.8439508811826
 10
-9.9241268894983
 20
-12.50213435128992
 10
-10.0515738672883
 20
-12.18807075123433
 10
-10.2194695786703
 20
-11.8748463155206
 10
-10.40556660406064
 20
-11.60622489241347
 10
-10.63140198356116
 20
-11.35761195647368
 10
-10.86167955487053
 20
-11.17455078938244
 10
-11.10762650711841
 20
-11.05352455769045
 10
-11.34022447013846
 20
-11.01544795341422
 10
-11.55677129737762
 20
-11.06422800559581
 10
-11.74687803564813
 20
-11.19972274657206
 10
-11.80274143280976
 20
-11.26279373229867
  0
LWPOLYLINE
  5
100
330
E6
100
AcDbEntity
  8
AM_9
100
AcDbPolyline
 90
        3
 70
     0
 43
0.0
 10
-11.88842601583323
 20
-11.38753313282107
 10
-11.90523678659503
 20
-11.417255580422
 10
-12.03389676443105
 20
-11.71331153735199
  0
LINE
  5
101
330
E6
100
AcDbEntity
  8
AM_9
100
AcDbLine
 10
-11.80274143280976
 20
-11.26279373229867
 30
0.0
 11
-11.88842601583323
 21
-11.38753313282107
 31
0.0
  0
LINE
  5
102
330
E6
100
AcDbEntity
  8
AM_9
100
AcDbLine
 10
-11.48850351421842
 20
-11.1915
 30
0.0
 11
-14.68988976618354
 21
-11.1915
 31
0.0
  0
LINE
  5
103
330
E6
100
AcDbEntity
  8
AM_9
100
AcDbLine
 10
-14.68988976618354
 20
-16.1085
 30
0.0
 11
-11.48850351421842
 21
-16.1085
 31
0.0
  0
LINE
  5
104
330
E6
100
AcDbEntity
  8
AM_9
100
AcDbLine
 10
-14.20539284684386
 20
-11.4751553052238
 30
0.0
 11
-14.54612520192388
 21
-11.05016440941944
 31
0.0
  0
LINE
  5
105
330
E6
100
AcDbEntity
  8
AM_9
100
AcDbLine
 10
-14.5459763431496
 20
-16.24964992102824
 30
0.0
 11
-14.20539284684386
 21
-15.82484469477621
 31
0.0
  0
LWPOLYLINE
  5
106
330
E6
100
AcDbEntity
  8
AM_9
100
AcDbPolyline
 90
        6
 70
     0
 43
0.0
 10
-14.5492162977505
 20
-11.04630900579106
 10
-14.45355667198204
 20
-11.17602574444578
 10
-14.28390474828113
 20
-11.46170863128753
 10
-14.12353233462118
 20
-11.82010535593743
 10
-13.99101253765535
 20
-12.22102371781037
 10
-13.90177556937012
 20
-12.59866588806419
  0
LWPOLYLINE
  5
107
330
E6
100
AcDbEntity
  8
AM_9
100
AcDbPolyline
 90
        4
 70
     0
 43
0.0
 10
-16.10720501930112
 20
-12.7526461645662
 10
-16.06995260193758
 20
-12.38421552915846
 10
-16.00786591080065
 20
-11.97648870344175
 10
-15.92501589169707
 20
-11.60579582940735
  0
ELLIPSE
  5
108
330
E6
100
AcDbEntity
  8
AM_9
100
AcDbEllipse
 10
-14.6898897661834
 20
-13.64999999999984
 30
0.0
 11
1.505397077851777E-16
 21
2.458499999999825
 31
0.0
210
0.0
220
0.0
230
1.0
 40
0.4226182617406835
 41
3.468539559390612
 42
7.465675682605234
  0
LINE
  5
109
330
E6
100
AcDbEntity
  8
AM_9
100
AcDbLine
 10
-11.88681078508214
 20
-15.91518588931572
 30
0.0
 11
-11.80278685806198
 21
-16.03714966453196
 31
0.0
  0
LWPOLYLINE
  5
10A
330
E6
100
AcDbEntity
  8
AM_9
100
AcDbPolyline
 90
       12
 70
     0
 43
0.0
 10
-12.200583058081
 20
-12.49745693967607
 10
-12.22612076271216
 20
-12.73450118854198
 10
-12.25613259160412
 20
-13.18991741265466
 10
-12.26543603791554
 20
-13.59700000403288
 10
-12.25997030306045
 20
-14.00586887334026
 10
-12.24208672547584
 20
-14.36619299610173
 10
-12.21176541185421
 20
-14.70799238279153
 10
-12.16577911799826
 20
-15.04067147328236
 10
-12.10500718252792
 20
-15.33982025891578
 10
-12.01666667457945
 20
-15.63531726523525
 10
-11.90773147586636
 20
-15.87872224599322
 10
-11.88681078508214
 20
-15.91518588931572
  0
LWPOLYLINE
  5
10B
330
E6
100
AcDbEntity
  8
AM_9
100
AcDbPolyline
 90
        4
 70
     0
 43
0.0
 10
-12.03389676443105
 20
-11.71331153735199
 10
-12.11305173099736
 20
-11.99420314803179
 10
-12.17509354515748
 20
-12.3163293794695
 10
-12.200583058081
 20
-12.49745693967607
  0
LINE
  5
10C
330
E6
100
AcDbEntity
  8
AM_9
100
AcDbLine
 10
2.26854896939769
 20
-11.9376922539657
 30
0.0
 11
2.030605744551653
 21
-11.72112705696286
 31
0.0
  0
LWPOLYLINE
  5
10D
330
E6
100
AcDbEntity
  8
AM_9
100
AcDbPolyline
 90
       31
 70
     0
 43
0.0
 10
-2.258701941967453
 20
-11.92771253518973
 10
-2.316823772607222
 20
-11.98809692850143
 10
-2.642975344262933
 20
-12.41503563848465
 10
-2.821696470786535
 20
-12.76474567333685
 10
-2.944267230947947
 20
-13.15038104405797
 10
-2.997401237148314
 20
-13.54168046402386
 10
-2.980042821268967
 20
-13.94978297945135
 10
-2.902706878899502
 20
-14.30803485831494
 10
-2.766802087750525
 20
-14.65804153437293
 10
-2.575499303316468
 20
-14.98919238923022
 10
-2.332635367975731
 20
-15.29483494034234
 10
-2.015015665309843
 20
-15.59147073655708
 10
-1.648449101332963
 20
-15.84345305281904
 10
-1.203924234392109
 20
-16.05865018012722
 10
-0.7181031644153419
 20
-16.2063592590445
 10
-0.1945123666725326
 20
-16.27898867000104
 10
0.3492321733528205
 20
-16.26633547985202
 10
0.874867447862011
 20
-16.1676393376659
 10
1.390413063010798
 20
-15.97872335311335
 10
1.8496720190983
 20
-15.71499259961142
 10
2.2670478646971
 20
-15.36383549011004
 10
2.585265151831616
 20
-14.97476529306111
 10
2.830880583984251
 20
-14.51277134577976
 10
2.95578866467816
 20
-14.09537874337953
 10
2.999991278007736
 20
-13.64372352817469
 10
2.967823403333145
 20
-13.26969887104697
 10
2.871600940772669
 20
-12.89586268799771
 10
2.723364064614847
 20
-12.55586173732559
 10
2.521908552706468
 20
-12.23510272328719
 10
2.294560597082513
 20
-11.96453957031153
 10
2.26854896939769
 20
-11.9376922539657
  0
LWPOLYLINE
  5
10E
330
E6
100
AcDbEntity
  8
AM_9
100
AcDbPolyline
 90
       10
 70
     0
 43
0.0
 10
2.030605744551653
 20
-11.72112705696286
 10
1.607995015194507
 20
-11.4332827300455
 10
1.128848655873155
 20
-11.21301698495919
 10
0.6307718282911375
 20
-11.07556143333008
 10
0.1022869022488824
 20
-11.01690639255255
 10
-0.4314889307467382
 20
-11.04336119319628
 10
-0.9681985536835981
 20
-11.15935381951216
 10
-1.463323468644113
 20
-11.3564440544414
 10
-1.929983954648383
 20
-11.64278820779914
 10
-2.258701941967453
 20
-11.92771253518973
  0
LINE
  5
10F
330
E6
100
AcDbEntity
  8
AM_9
100
AcDbLine
 10
12.5
 20
-19.13
 30
0.0
 11
12.5
 21
13.53
 31
0.0
  0
LINE
  5
110
330
E6
100
AcDbEntity
  8
AM_9
100
AcDbLine
 10
-12.5
 20
13.53
 30
0.0
 11
-12.5
 21
-19.13
 31
0.0
  0
LINE
  5
111
330
E6
100
AcDbEntity
  8
AM_9
100
AcDbLine
 10
12.5
 20
13.53
 30
0.0
 11
13.17
 21
14.2
 31
0.0
  0
LINE
  5
112
330
E6
100
AcDbEntity
  8
AM_9
100
AcDbLine
 10
-13.17
 20
14.2
 30
0.0
 11
-12.5
 21
13.53
 31
0.0
  0
LINE
  5
113
330
E6
100
AcDbEntity
  8
AM_9
100
AcDbLine
 10
-12.5
 20
-19.13
 30
0.0
 11
-13.17
 21
-19.8
 31
0.0
  0
LINE
  5
114
330
E6
100
AcDbEntity
  8
AM_9
100
AcDbLine
 10
13.17
 20
-19.8
 30
0.0
 11
12.5
 21
-19.13
 31
0.0
  0
ARC
  5
115
330
E6
100
AcDbEntity
  8
AM_9
100
AcDbCircle
 10
-0.0000000000000012
 20
-13.65
 30
0.0
 40
2.458499999999999
100
AcDbArc
 50
35.93298248487763
 51
144.0670175151224
  0
LINE
  5
116
330
E6
100
AcDbEntity
  8
AM_9
100
AcDbLine
 10
16.75
 20
7.5
 30
0.0
 11
16.75
 21
12.80456550837022
 31
0.0
  0
LINE
  5
117
330
E6
100
AcDbEntity
  8
AM_9
100
AcDbLine
 10
-16.75
 20
12.80456550837022
 30
0.0
 11
-16.75
 21
7.5
 31
0.0
  0
LWPOLYLINE
  5
118
330
E6
100
AcDbEntity
  8
AM_9
100
AcDbPolyline
 90
       10
 70
     0
 43
0.0
 10
-15.92501589169707
 20
-11.60579582940735
 10
-15.82852449416698
 20
-11.30436978292084
 10
-15.71265042657085
 20
-11.0512461175862
 10
-15.55877120306001
 20
-10.83448462231086
 10
-15.38232715572861
 20
-10.69809162826643
 10
-15.20233019216669
 20
-10.65087789144766
 10
-15.01126652055626
 20
-10.68019586110394
 10
-14.8234671793863
 20
-10.77995614949736
 10
-14.63710539678554
 20
-10.94470177424756
 10
-14.5492162977505
 20
-11.04630900579106
  0
LWPOLYLINE
  5
119
330
E6
100
AcDbEntity
  8
AM_9
100
AcDbPolyline
 90
       13
 70
     0
 43
0.0
 10
-2.428168121426933
 20
-12.20996586590333
 10
-2.394879532856211
 20
-12.14613204947834
 10
-2.096993028269081
 20
-11.69314378822452
 10
-1.746620030137655
 20
-11.32410821804265
 10
-1.321066352221639
 20
-11.01476898545484
 10
-0.8943243686675688
 20
-10.81144369816569
 10
-0.4214105817338257
 20
-10.68510040771098
 10
0.0116298068076138
 20
-10.65002657956852
 10
0.4577805668764933
 20
-10.6914639754911
 10
0.8622434636237699
 20
-10.79977485707065
 10
1.253988728361948
 20
-10.97648424575081
 10
1.523447110065434
 20
-11.14652573373039
 10
1.774703255908149
 20
-11.34921252470706
  0
LWPOLYLINE
  5
11A
330
E6
100
AcDbEntity
  8
AM_9
100
AcDbPolyline
 90
        4
 70
     0
 43
0.0
 10
1.774703255908149
 20
-11.34921252470706
 10
2.067987065105583
 20
-11.65727386151124
 10
2.318740072240787
 20
-12.0123708239002
 10
2.4267753423707
 20
-12.20722072887474
  0
LINE
  5
11B
330
E6
100
AcDbEntity
  8
AM_9
100
AcDbLine
 10
16.74999999999999
 20
-12.80456550837022
 30
0.0
 11
16.74999999999999
 21
-7.499999999999998
 31
0.0
  0
LINE
  5
11C
330
E6
100
AcDbEntity
  8
AM_9
100
AcDbLine
 10
-16.74999999999999
 20
-7.499999999999998
 30
0.0
 11
-16.74999999999999
 21
-12.80456550837022
 31
0.0
  0
LINE
  5
11D
330
E6
100
AcDbEntity
  8
AM_9
100
AcDbLine
 10
24.733333346
 20
-4.559999999999996
 30
0.0
 11
24.733333346
 21
-3.039999999999999
 31
0.0
  0
LINE
  5
11E
330
E6
100
AcDbEntity
  8
AM_9
100
AcDbLine
 10
-24.733333346
 20
-3.039999999999999
 30
0.0
 11
-24.733333346
 21
-4.559999999999996
 31
0.0
  0
LINE
  5
11F
330
E6
100
AcDbEntity
  8
AM_9
100
AcDbLine
 10
-24.32344547961904
 20
7.5
 30
0.0
 11
24.32344547961904
 21
7.5
 31
0.0
  0
ARC
  5
120
330
E6
100
AcDbEntity
  8
AM_9
100
AcDbCircle
 10
24.32344547961904
 20
6.739999999999994
 30
0.0
 40
0.7600000000000051
100
AcDbArc
 50
15.48799418240051
 51
90.0
  0
ARC
  5
121
330
E6
100
AcDbEntity
  8
AM_9
100
AcDbCircle
 10
-24.32344547961904
 20
6.739999999999994
 30
0.0
 40
0.760000000000006
100
AcDbArc
 50
90.0
 51
164.5120058175995
  0
LINE
  5
122
330
E6
100
AcDbEntity
  8
AM_9
100
AcDbLine
 10
-24.32344547961905
 20
-7.499999999999998
 30
0.0
 11
24.32344547961905
 21
-7.499999999999998
 31
0.0
  0
ARC
  5
123
330
E6
100
AcDbEntity
  8
AM_9
100
AcDbCircle
 10
24.32344547961905
 20
-6.740000000000008
 30
0.0
 40
0.75999999999999
100
AcDbArc
 50
270.0
 51
344.5120058176004
  0
ARC
  5
124
330
E6
100
AcDbEntity
  8
AM_9
100
AcDbCircle
 10
-24.32344547961905
 20
-6.740000000000008
 30
0.0
 40
0.7599999999999906
100
AcDbArc
 50
195.4879941823996
 51
270.0
  0
ARC
  5
125
330
E6
100
AcDbEntity
  8
AM_9
100
AcDbCircle
 10
0.0000000000522746
 20
0.0000000000117941
 30
0.0
 40
26.00000000005346
100
AcDbArc
 50
190.1010411166272
 51
195.4879941823943
  0
ARC
  5
126
330
E6
100
AcDbEntity
  8
AM_9
100
AcDbCircle
 10
-0.0000000011352235
 20
0.0000000002574758
 30
0.0
 40
26.00000000116147
100
AcDbArc
 50
344.5120058177204
 51
349.8989588832578
  0
LINE
  5
127
330
E6
100
AcDbEntity
  8
AM_9
100
AcDbLine
 10
-25.05584716601004
 20
-6.942947702060222
 30
0.0
 11
25.05584716600878
 21
-6.942947702060222
 31
0.0
  0
LINE
  5
128
330
E6
100
AcDbEntity
  8
AM_9
100
AcDbLine
 10
-25.59699982419808
 20
-4.56
 30
0.0
 11
25.59699982419682
 21
-4.56
 31
0.0
  0
ARC
  5
129
330
E6
100
AcDbEntity
  8
AM_9
100
AcDbCircle
 10
-0.0000000000017941
 20
0.0000000000001288
 30
0.0
 40
25.99999999999822
100
AcDbArc
 50
164.5120058175992
 51
186.7145576420696
  0
ARC
  5
12A
330
E6
100
AcDbEntity
  8
AM_9
100
AcDbCircle
 10
-0.0000000000105516
 20
-0.0000000000007773
 30
0.0
 40
26.00000000001019
100
AcDbArc
 50
353.2854423579354
 51
15.48799418239563
  0
LINE
  5
12B
330
E6
100
AcDbEntity
  8
AM_9
100
AcDbLine
 10
22.43354367737782
 20
-3.039999999999995
 30
0.0
 11
25.82166532197313
 21
-3.039999999999996
 31
0.0
  0
LINE
  5
12C
330
E6
100
AcDbEntity
  8
AM_9
100
AcDbLine
 10
-25.82166532197332
 20
-3.039999999999996
 30
0.0
 11
22.40085994452616
 21
-3.039999999999995
 31
0.0
  0
LINE
  5
12D
330
E6
100
AcDbEntity
  8
AM_9
100
AcDbLine
 10
-25.05584716601009
 20
6.942947702060223
 30
0.0
 11
25.05584716600991
 21
6.942947702060223
 31
0.0
  0
ARC
  5
12F
330
E6
100
AcDbEntity
  8
AM_5
100
AcDbCircle
 10
0.0
 20
-13.8
 30
0.0
 40
3.0
100
AcDbArc
 50
75.00000000000001
 51
15.0
  0
ELLIPSE
  5
130
330
E6
100
AcDbEntity
  8
AM_9
100
AcDbEllipse
 10
-11.48850351421841
 20
-13.65
 30
0.0
 11
1.505397077851884E-16
 21
2.458500000000001
 31
0.0
210
0.0
220
0.0
230
1.0
 40
0.4226182617406995
 41
0.0
 42
6.283185307179586
  0
LINE
  5
133
330
E6
100
AcDbEntity
  8
AM_7
100
AcDbLine
 10
-2.581425000000004
 20
-13.65
 30
0.0
 11
2.581425000000019
 21
-13.65
 31
0.0
  0
ELLIPSE
  5
134
330
E6
100
AcDbEntity
  8
AM_4
100
AcDbEllipse
 10
-14.68988976618354
 20
-13.65
 30
0.0
 11
1.505397077851884E-16
 21
2.458500000000001
 31
0.0
210
0.0
220
0.0
230
1.0
 40
0.422618261740701
 41
1.182490375425522
 42
3.468539559390742
  0
LWPOLYLINE
  5
135
330
E6
100
AcDbEntity
  8
AM_4
100
AcDbPolyline
 90
       10
 70
     0
 43
0.0
 10
-13.90177556937012
 20
-12.59866588806419
 10
-13.88508647499854
 20
-12.68898936729919
 10
-13.82087987549395
 20
-13.18145554656722
 10
-13.80181628092041
 20
-13.7100000065773
 10
-13.83210340624973
 20
-14.23689336776269
 10
-13.91265142553021
 20
-14.75430503551771
 10
-14.03900091222446
 20
-15.23976775421745
 10
-14.20335833676364
 20
-15.67100969344607
 10
-14.39945613135832
 20
-16.04142989907515
 10
-14.54926494498505
 20
-16.25375169696479
  0
LWPOLYLINE
  5
136
330
E6
100
AcDbEntity
  8
AM_4
100
AcDbPolyline
 90
       17
 70
     0
 43
0.0
 10
-14.54926494498505
 20
-16.25375169696479
 10
-14.60632077689753
 20
-16.32112574303293
 10
-14.82474355781562
 20
-16.52118060122207
 10
-15.02640840400167
 20
-16.6245134350803
 10
-15.22231589821086
 20
-16.64806525380605
 10
-15.39445138219844
 20
-16.59534863870444
 10
-15.55151760708217
 20
-16.47372139233029
 10
-15.69087383325223
 20
-16.28626426772491
 10
-15.81084807459571
 20
-16.04094352065449
 10
-15.91657448509558
 20
-15.72478253782067
 10
-16.00073536384087
 20
-15.36164688172556
 10
-16.06852650815526
 20
-14.92696648699575
 10
-16.1138154076525
 20
-14.46074687575215
 10
-16.13845654203561
 20
-13.94531911054246
 10
-16.13995907973191
 20
-13.42194287206022
 10
-16.11746005773712
 20
-12.89228608647556
 10
-16.10720501930112
 20
-12.7526461645662
  0
ARC
  5
137
330
E6
100
AcDbEntity
  8
AM_4
100
AcDbCircle
 10
-0.0000000000000012
 20
-13.65000000000001
 30
0.0
 40
2.458500000000007
100
AcDbArc
 50
144.0670175151221
 51
35.93298248487787
  0
LINE
  5
138
330
E6
100
AcDbEntity
  8
AM_4
100
AcDbLine
 10
16.08
 20
-19.8
 30
0.0
 11
16.75
 21
-19.13
 31
0.0
  0
LINE
  5
139
330
E6
100
AcDbEntity
  8
AM_4
100
AcDbLine
 10
-16.75
 20
-19.13
 30
0.0
 11
-16.08
 21
-19.8
 31
0.0
  0
LINE
  5
13A
330
E6
100
AcDbEntity
  8
AM_4
100
AcDbLine
 10
-16.08
 20
-19.8
 30
0.0
 11
16.08
 21
-19.8
 31
0.0
  0
LINE
  5
13B
330
E6
100
AcDbEntity
  8
AM_4
100
AcDbLine
 10
-16.08
 20
14.2
 30
0.0
 11
-16.75
 21
13.53
 31
0.0
  0
LINE
  5
13C
330
E6
100
AcDbEntity
  8
AM_4
100
AcDbLine
 10
16.75
 20
13.53
 30
0.0
 11
16.08
 21
14.2
 31
0.0
  0
LINE
  5
13D
330
E6
100
AcDbEntity
  8
AM_4
100
AcDbLine
 10
-16.08
 20
14.2
 30
0.0
 11
16.08
 21
14.2
 31
0.0
  0
LINE
  5
13E
330
E6
100
AcDbEntity
  8
AM_4
100
AcDbLine
 10
16.75
 20
12.80456550837022
 30
0.0
 11
16.75
 21
13.53
 31
0.0
  0
LINE
  5
13F
330
E6
100
AcDbEntity
  8
AM_4
100
AcDbLine
 10
-16.75
 20
13.53
 30
0.0
 11
-16.75
 21
12.80456550837022
 31
0.0
  0
LINE
  5
140
330
E6
100
AcDbEntity
  8
AM_4
100
AcDbLine
 10
-16.75
 20
13.53
 30
0.0
 11
16.75
 21
13.53
 31
0.0
  0
LWPOLYLINE
  5
141
330
E6
100
AcDbEntity
  8
AM_4
100
AcDbPolyline
 90
       26
 70
     0
 43
0.0
 10
2.4267753423707
 20
-12.20722072887474
 10
2.537923505697258
 20
-12.45165841760029
 10
2.688786575127495
 20
-12.93284578268054
 10
2.762986322877459
 20
-13.4454857221561
 10
2.752786119372757
 20
-13.97791128487009
 10
2.656113255875288
 20
-14.49756326819215
 10
2.468369209342502
 20
-15.00770047090623
 10
2.206590499170317
 20
-15.46007866782137
 10
1.858674563248427
 20
-15.87156834534959
 10
1.473782871142693
 20
-16.18818971052024
 10
1.02206136004411
 20
-16.4373098195803
 10
0.5867461439643161
 20
-16.58157896490818
 10
0.1168448793199316
 20
-16.64731582356577
 10
-0.3086659840085245
 20
-16.63121918477887
 10
-0.7376544532430653
 20
-16.54112881785384
 10
-1.129089882540969
 20
-16.38825077256104
 10
-1.50046729281553
 20
-16.16973894612676
 10
-1.841144005239901
 20
-15.88864127696786
 10
-2.141252115605628
 20
-15.54983058938826
 10
-2.398334670226057
 20
-15.14740867680457
 10
-2.594172011402801
 20
-14.69808315922361
 10
-2.721608919049878
 20
-14.20395115759562
 10
-2.769306617524394
 20
-13.68158233813054
 10
-2.731471432660282
 20
-13.1559907268375
 10
-2.603560789261686
 20
-12.62949587729405
 10
-2.428168121426933
 20
-12.20996586590333
  0
LINE
  5
142
330
E6
100
AcDbEntity
  8
AM_4
100
AcDbLine
 10
16.74999999999999
 20
-19.13
 30
0.0
 11
16.74999999999999
 21
-12.80456550837022
 31
0.0
  0
LINE
  5
143
330
E6
100
AcDbEntity
  8
AM_4
100
AcDbLine
 10
-16.74999999999999
 20
-12.80456550837022
 30
0.0
 11
-16.74999999999999
 21
-19.13
 31
0.0
  0
LINE
  5
144
330
E6
100
AcDbEntity
  8
AM_4
100
AcDbLine
 10
-16.74999999999999
 20
-19.13
 30
0.0
 11
16.74999999999999
 21
-19.13
 31
0.0
  0
ARC
  5
145
330
E6
100
AcDbEntity
  8
AM_5
100
AcDbCircle
 10
-0.0000000000000001
 20
-13.65
 30
0.0
 40
3.0
100
AcDbArc
 50
75.0
 51
14.99999999999997
  0
ARC
  5
146
330
E6
100
AcDbEntity
  8
AM_5
100
AcDbCircle
 10
0.0000000000000009
 20
-13.65
 30
0.0
 40
3.0
100
AcDbArc
 50
14.99999999999997
 51
183.8515706674819
  0
ARC
  5
147
330
E6
100
AcDbEntity
  8
AM_5
100
AcDbCircle
 10
-0.0000000000000009
 20
-13.8
 30
0.0
 40
3.0
100
AcDbArc
 50
165.0
 51
105.0
  0
ENDBLK
  5
E9
330
E6
100
AcDbEntity
  8
0
100
AcDbBlockEnd
  0
BLOCK
  5
14A
330
148
100
AcDbEntity
  8
0
100
AcDbBlockBegin
  2
4_136748H_0_in_136748_4
 70
     2
 10
0.0
 20
0.0
 30
0.0
  3
4_136748H_0_in_136748_4
  1

  0
ATTDEF
  5
14C
330
148
100
AcDbEntity
  8
AM_6
100
AcDbText
 10
46.29999999999998
 20
20.79
 30
0.0
 40
0.5
  1
TB-SCEZ-PSS - Metric - Housing
100
AcDbAttributeDefinition
  3

  2
NN
 70
     8
280
     0
  0
ATTDEF
  5
14D
330
148
100
AcDbEntity
  8
AM_6
100
AcDbText
 10
46.29999999999998
 20
20.29
 30
0.0
 40
0.5
  1
SC Pillow Block Bearings -(Normal Duty) -Corrosion Resistant Insert -Polymer Housed -Tapped Base Housing -E-Z KLEEN
100
AcDbAttributeDefinition
  3

  2
NT
 70
     8
280
     0
  0
ATTDEF
  5
14E
330
148
100
AcDbEntity
  8
AM_6
100
AcDbText
 10
46.29999999999998
 20
19.79
 30
0.0
 40
0.5
  1
136748H
100
AcDbAttributeDefinition
  3

  2
NB
 70
     8
280
     0
  0
ATTDEF
  5
14F
330
148
100
AcDbEntity
  8
AM_6
100
AcDbText
 10
46.29999999999998
 20
19.29
 30
0.0
 40
0.5
  1
$PN.H
100
AcDbAttributeDefinition
  3

  2
NBSYN
 70
     8
280
     0
  0
ATTDEF
  5
150
330
148
100
AcDbEntity
  8
AM_6
100
AcDbText
 10
46.29999999999998
 20
18.79
 30
0.0
 40
0.5
  1
136748
100
AcDbAttributeDefinition
  3

  2
LINA
 70
     8
280
     0
  0
ATTDEF
  5
151
330
148
100
AcDbEntity
  8
AM_6
100
AcDbText
 10
46.29999999999998
 20
18.29
 30
0.0
 40
0.5
  1
205
100
AcDbAttributeDefinition
  3

  2
SERIES
 70
     8
280
     0
  0
ATTDEF
  5
152
330
148
100
AcDbEntity
  8
AM_6
100
AcDbText
 10
46.29999999999998
 20
17.79
 30
0.0
 40
0.5
  1
25
100
AcDbAttributeDefinition
  3

  2
SS
 70
     8
280
     0
  0
ATTDEF
  5
153
330
148
100
AcDbEntity
  8
AM_6
100
AcDbText
 10
46.29999999999998
 20
17.29
 30
0.0
 40
0.5
  1
136748
100
AcDbAttributeDefinition
  3

  2
PN
 70
     8
280
     0
  0
ATTDEF
  5
154
330
148
100
AcDbEntity
  8
AM_6
100
AcDbText
 10
46.29999999999998
 20
16.79
 30
0.0
 40
0.5
  1
TB-SCEZ-25M-PSS
100
AcDbAttributeDefinition
  3

  2
DESCRIPTION
 70
     8
280
     0
  0
ATTDEF
  5
155
330
148
100
AcDbEntity
  8
AM_6
100
AcDbText
 10
46.29999999999998
 20
16.29
 30
0.0
 40
0.5
  1
0.28
100
AcDbAttributeDefinition
  3

  2
W
 70
     8
280
     0
  0
ATTDEF
  5
156
330
148
100
AcDbEntity
  8
AM_6
100
AcDbText
 10
46.29999999999998
 20
15.79
 30
0.0
 40
0.5
  1
34.0
100
AcDbAttributeDefinition
  3

  2
A
 70
     8
280
     0
  0
ATTDEF
  5
157
330
148
100
AcDbEntity
  8
AM_6
100
AcDbText
 10
46.29999999999998
 20
15.29
 30
0.0
 40
0.5
  1
82.6
100
AcDbAttributeDefinition
  3

  2
B
 70
     8
280
     0
  0
ATTDEF
  5
158
330
148
100
AcDbEntity
  8
AM_6
100
AcDbText
 10
46.29999999999998
 20
14.79
 30
0.0
 40
0.5
  1
37.8
100
AcDbAttributeDefinition
  3

  2
C
 70
     8
280
     0
  0
ATTDEF
  5
159
330
148
100
AcDbEntity
  8
AM_6
100
AcDbText
 10
46.29999999999998
 20
14.29
 30
0.0
 40
0.5
  1
50.8
100
AcDbAttributeDefinition
  3

  2
D
 70
     8
280
     0
  0
ATTDEF
  5
15A
330
148
100
AcDbEntity
  8
AM_6
100
AcDbText
 10
46.29999999999998
 20
13.79
 30
0.0
 40
0.5
  1
73.4
100
AcDbAttributeDefinition
  3

  2
J
 70
     8
280
     0
  0
ATTDEF
  5
15B
330
148
100
AcDbEntity
  8
AM_6
100
AcDbText
 10
46.29999999999998
 20
13.29
 30
0.0
 40
0.5
  1
33.5
100
AcDbAttributeDefinition
  3

  2
L
 70
     8
280
     0
  0
ATTDEF
  5
15C
330
148
100
AcDbEntity
  8
AM_6
100
AcDbText
 10
46.29999999999998
 20
12.79
 30
0.0
 40
0.5
  1
36.5
100
AcDbAttributeDefinition
  3

  2
M
 70
     8
280
     0
  0
ATTDEF
  5
15D
330
148
100
AcDbEntity
  8
AM_6
100
AcDbText
 10
46.29999999999998
 20
12.29
 30
0.0
 40
0.5
  1
10.2
100
AcDbAttributeDefinition
  3

  2
N
 70
     8
280
     0
  0
ATTDEF
  5
15E
330
148
100
AcDbEntity
  8
AM_6
100
AcDbText
 10
46.29999999999998
 20
11.79
 30
0.0
 40
0.5
  1
M10 x 1.5
100
AcDbAttributeDefinition
  3

  2
R
 70
     8
280
     0
  0
ATTDEF
  5
15F
330
148
100
AcDbEntity
  8
AM_6
100
AcDbText
 10
46.29999999999998
 20
11.29
 30
0.0
 40
0.5
  1
19.8
100
AcDbAttributeDefinition
  3

  2
S
 70
     8
280
     0
  0
ATTDEF
  5
160
330
148
100
AcDbEntity
  8
AM_6
100
AcDbText
 10
46.29999999999998
 20
10.79
 30
0.0
 40
0.5
  1
1565
100
AcDbAttributeDefinition
  3

  2
CAPS
 70
     8
280
     0
  0
ATTDEF
  5
161
330
148
100
AcDbEntity
  8
AM_6
100
AcDbText
 10
46.29999999999998
 20
10.29
 30
0.0
 40
0.5
  1
3146
100
AcDbAttributeDefinition
  3

  2
CAPD
 70
     8
280
     0
  0
ATTDEF
  5
162
330
148
100
AcDbEntity
  8
AM_6
100
AcDbText
 10
46.29999999999998
 20
9.79
 30
0.0
 40
0.5
  1
baldor
100
AcDbAttributeDefinition
  3

  2
COMPANY
 70
     8
280
     0
  0
CIRCLE
  5
163
330
148
100
AcDbEntity
  8
AM_9
100
AcDbCircle
 10
25.4
 20
-0.0000000000000015
 30
0.0
 40
4.187999999999997
  0
CIRCLE
  5
164
330
148
100
AcDbEntity
  8
AM_9
100
AcDbCircle
 10
-25.4
 20
-0.0000000000000015
 30
0.0
 40
4.187999999999997
  0
LINE
  5
165
330
148
100
AcDbEntity
  8
AM_9
100
AcDbLine
 10
27.25
 20
-5.670000000000002
 30
0.0
 11
22.798026230356
 21
-5.670000000000001
 31
0.0
  0
LINE
  5
166
330
148
100
AcDbEntity
  8
AM_9
100
AcDbLine
 10
-22.798026230356
 20
-5.670000000000001
 30
0.0
 11
-27.25
 21
-5.670000000000002
 31
0.0
  0
LINE
  5
167
330
148
100
AcDbEntity
  8
AM_9
100
AcDbLine
 10
-22.798026230356
 20
-5.670000000000001
 30
0.0
 11
-22.798026230356
 21
9.450000000000003
 31
0.0
  0
LINE
  5
168
330
148
100
AcDbEntity
  8
AM_9
100
AcDbLine
 10
22.798026230356
 20
9.450000000000003
 30
0.0
 11
22.798026230356
 21
-5.670000000000001
 31
0.0
  0
LINE
  5
169
330
148
100
AcDbEntity
  8
AM_9
100
AcDbLine
 10
26.0
 20
-9.45
 30
0.0
 11
26.0
 21
-5.670000000000002
 31
0.0
  0
LINE
  5
16A
330
148
100
AcDbEntity
  8
AM_9
100
AcDbLine
 10
-26.0
 20
-5.670000000000002
 30
0.0
 11
-26.0
 21
-9.45
 31
0.0
  0
LINE
  5
16B
330
148
100
AcDbEntity
  8
AM_9
100
AcDbLine
 10
-24.21389064153054
 20
9.45
 30
0.0
 11
24.21389064153053
 21
9.450000000000003
 31
0.0
  0
LINE
  5
16C
330
148
100
AcDbEntity
  8
AM_9
100
AcDbLine
 10
-24.21389064153054
 20
-5.670000000000001
 30
0.0
 11
-24.21389064153054
 21
9.45
 31
0.0
  0
LINE
  5
16D
330
148
100
AcDbEntity
  8
AM_9
100
AcDbLine
 10
24.21389064153053
 20
-5.670000000000001
 30
0.0
 11
24.21389064153053
 21
9.450000000000003
 31
0.0
  0
LINE
  5
16E
330
148
100
AcDbEntity
  8
AM_9
100
AcDbLine
 10
27.25
 20
-5.670000000000002
 30
0.0
 11
27.25
 21
15.06369541280281
 31
0.0
  0
LINE
  5
16F
330
148
100
AcDbEntity
  8
AM_9
100
AcDbLine
 10
-27.25
 20
15.06369541280281
 30
0.0
 11
-27.25
 21
-5.670000000000002
 31
0.0
  0
LINE
  5
170
330
148
100
AcDbEntity
  8
AM_9
100
AcDbLine
 10
-27.25
 20
-9.45
 30
0.0
 11
27.25
 21
-9.45
 31
0.0
  0
LINE
  5
171
330
148
100
AcDbEntity
  8
AM_9
100
AcDbLine
 10
27.25
 20
-15.06369541280281
 30
0.0
 11
27.25
 21
-9.45
 31
0.0
  0
LINE
  5
172
330
148
100
AcDbEntity
  8
AM_9
100
AcDbLine
 10
-27.25
 20
-9.45
 30
0.0
 11
-27.25
 21
-15.06369541280281
 31
0.0
  0
LWPOLYLINE
  5
173
330
148
100
AcDbEntity
  8
AM_9
100
AcDbPolyline
 90
       17
 70
     0
 43
0.0
 10
-16.74999999999998
 20
-17.3228253172354
 10
-14.81291951192781
 20
-17.46766597721502
 10
-12.76310376208453
 20
-17.59421096964235
 10
-10.61615308603902
 20
-17.70149721071506
 10
-8.388407074800266
 20
-17.78870818735739
 10
-6.096820220663608
 20
-17.85518017137765
 10
-3.758832883286995
 20
-17.90040727084058
 10
-1.39223855802322
 20
-17.92404528021039
 10
0.9849515433237374
 20
-17.92591429996276
 10
3.354645568695998
 20
-17.90600010572883
 10
5.698808715700108
 20
-17.86445425655123
 10
7.999600487342955
 20
-17.80159294142828
 10
10.23951046898628
 20
-17.71789457292476
 10
12.40149159317516
 20
-17.61399614616344
 10
14.46908987811462
 20
-17.49068839090756
 10
16.42656965240629
 20
-17.34890975362988
 10
16.74999999999998
 20
-17.3228253172354
  0
LINE
  5
174
330
148
100
AcDbEntity
  8
AM_9
100
AcDbLine
 10
27.18464889479316
 20
-3.212027549151529
 30
0.0
 11
27.18464889479316
 21
3.210487572085332
 31
0.0
  0
LINE
  5
175
330
148
100
AcDbEntity
  8
AM_9
100
AcDbLine
 10
-16.74999999999999
 20
-18.9
 30
0.0
 11
16.74999999999999
 21
-18.9
 31
0.0
  0
LINE
  5
176
330
148
100
AcDbEntity
  8
AM_7
100
AcDbLine
 10
20.15
 20
-0.0000000000000022
 30
0.0
 11
30.65
 21
-0.0000000000000022
 31
0.0
  0
LINE
  5
177
330
148
100
AcDbEntity
  8
AM_7
100
AcDbLine
 10
25.4
 20
-5.250000000000004
 30
0.0
 11
25.4
 21
5.249999999999998
 31
0.0
  0
LINE
  5
178
330
148
100
AcDbEntity
  8
AM_7
100
AcDbLine
 10
-30.65
 20
-0.0000000000000022
 30
0.0
 11
-20.15
 21
-0.0000000000000022
 31
0.0
  0
LINE
  5
179
330
148
100
AcDbEntity
  8
AM_7
100
AcDbLine
 10
-25.4
 20
-5.250000000000004
 30
0.0
 11
-25.4
 21
5.249999999999998
 31
0.0
  0
LINE
  5
17A
330
148
100
AcDbEntity
  8
AM_7
100
AcDbLine
 10
0.0
 20
-21.5
 30
0.0
 11
0.0
 21
20.79
 31
0.0
  0
LINE
  5
17B
330
148
100
AcDbEntity
  8
AM_4
100
AcDbLine
 10
41.29999999999998
 20
-18.9
 30
0.0
 11
41.29999999999998
 21
18.9
 31
0.0
  0
LINE
  5
17C
330
148
100
AcDbEntity
  8
AM_4
100
AcDbLine
 10
-41.3
 20
-18.9
 30
0.0
 11
-41.3
 21
18.9
 31
0.0
  0
LWPOLYLINE
  5
17D
330
148
100
AcDbEntity
  8
AM_4
100
AcDbPolyline
 90
       37
 70
     0
 43
0.0
 10
-27.25
 20
15.06369541280281
 10
-27.14630552300007
 20
14.81407348573656
 10
-26.83601126958268
 20
14.56635133226112
 10
-26.32147876637712
 20
14.32241426754317
 10
-25.60662391641601
 20
14.08411879993844
 10
-24.69688719674872
 20
13.85327850184214
 10
-23.59919225312597
 20
13.63165020730797
 10
-22.32189320687504
 20
13.42092064148014
 10
-20.87471107499217
 20
13.22269358359661
 10
-19.26865978733344
 20
13.03847766126064
 10
-17.51596236395822
 20
12.86967486887381
 10
-15.62995789056603
 20
12.71756989761211
 10
-13.62500000000003
 20
12.58332035815033
 10
-11.51634763243409
 20
12.46794797054586
 10
-9.320048905624512
 20
12.37233078833212
 10
-7.052818979043733
 20
12.297196516001
 10
-4.731912841423898
 20
12.24311697073225
 10
-2.374993989873734
 20
12.21050373051948
 10
-0.0000000000000517
 20
12.19960500181312
 10
2.374993989873631
 20
12.21050373051947
 10
4.731912841423796
 20
12.24311697073224
 10
7.052818979043633
 20
12.297196516001
 10
9.320048905624413
 20
12.37233078833212
 10
11.516347632434
 20
12.46794797054585
 10
13.62499999999994
 20
12.58332035815032
 10
15.62995789056595
 20
12.7175698976121
 10
17.51596236395814
 20
12.8696748688738
 10
19.26865978733337
 20
13.03847766126063
 10
20.8747110749921
 20
13.2226935835966
 10
22.32189320687498
 20
13.42092064148013
 10
23.59919225312591
 20
13.63165020730796
 10
24.69688719674868
 20
13.85327850184213
 10
25.60662391641598
 20
14.08411879993843
 10
26.32147876637709
 20
14.32241426754316
 10
26.83601126958266
 20
14.56635133226111
 10
27.14630552300006
 20
14.81407348573654
 10
27.25
 20
15.0636954128028
  0
LWPOLYLINE
  5
17E
330
148
100
AcDbEntity
  8
AM_4
100
AcDbPolyline
 90
       19
 70
     0
 43
0.0
 10
27.25
 20
15.06369541280281
 10
27.14630552300007
 20
15.31331733986906
 10
26.83601126958268
 20
15.56103949334449
 10
26.32147876637712
 20
15.80497655806244
 10
25.60662391641601
 20
16.04327202566717
 10
24.69688719674872
 20
16.27411232376347
 10
23.59919225312597
 20
16.49574061829765
 10
22.32189320687504
 20
16.70647018412547
 10
20.87471107499217
 20
16.904697242009
 10
19.26865978733344
 20
17.08891316434498
 10
17.51596236395822
 20
17.2577159567318
 10
15.62995789056604
 20
17.4098209279935
 10
13.62500000000004
 20
17.54407046745528
 10
11.5163476324341
 20
17.65944285505975
 10
9.320048905624516
 20
17.75506003727349
 10
7.052818979043736
 20
17.83019430960461
 10
4.731912841423901
 20
17.88427385487337
 10
2.374993989873738
 20
17.91688709508614
 10
0.0000000000000551
 20
17.92778582379249
  0
LWPOLYLINE
  5
17F
330
148
100
AcDbEntity
  8
AM_4
100
AcDbPolyline
 90
       12
 70
     0
 43
0.0
 10
16.74999999999998
 20
-17.3228253172354
 10
18.55960287414562
 20
-17.16079131458311
 10
20.2279559638244
 20
-16.98279714585716
 10
21.74236209464473
 20
-16.79019745415734
 10
23.09129572152763
 20
-16.58445803943239
 10
24.26449064506414
 20
-16.3671447028572
 10
25.25301814349168
 20
-16.1399113301405
 10
26.04935492565799
 20
-15.90448730445592
 10
26.64744038780949
 20
-15.66266434479184
 10
27.04272273844533
 20
-15.416282869888
 10
27.23219364019917
 20
-15.1672179915376
 10
27.25
 20
-15.06369541280281
  0
LWPOLYLINE
  5
180
330
148
100
AcDbEntity
  8
AM_4
100
AcDbPolyline
 90
       12
 70
     0
 43
0.0
 10
-27.25
 20
-15.06369541280281
 10
-27.14630552300007
 20
-15.31331733986906
 10
-26.83601126958268
 20
-15.5610394933445
 10
-26.32147876637712
 20
-15.80497655806244
 10
-25.60662391641601
 20
-16.04327202566718
 10
-24.69688719674872
 20
-16.27411232376348
 10
-23.59919225312597
 20
-16.49574061829765
 10
-22.32189320687504
 20
-16.70647018412547
 10
-20.87471107499217
 20
-16.904697242009
 10
-19.26865978733344
 20
-17.08891316434498
 10
-17.51596236395822
 20
-17.2577159567318
 10
-16.74999999999998
 20
-17.3228253172354
  0
LWPOLYLINE
  5
181
330
148
100
AcDbEntity
  8
AM_4
100
AcDbPolyline
 90
       19
 70
     0
 43
0.0
 10
27.25
 20
-15.06369541280281
 10
27.14630552300007
 20
-14.81407348573656
 10
26.83601126958268
 20
-14.56635133226112
 10
26.32147876637712
 20
-14.32241426754317
 10
25.60662391641601
 20
-14.08411879993844
 10
24.69688719674872
 20
-13.85327850184214
 10
23.59919225312597
 20
-13.63165020730797
 10
22.32189320687504
 20
-13.42092064148014
 10
20.87471107499217
 20
-13.22269358359661
 10
19.26865978733344
 20
-13.03847766126064
 10
17.51596236395822
 20
-12.86967486887381
 10
15.62995789056604
 20
-12.71756989761211
 10
13.62500000000004
 20
-12.58332035815033
 10
11.5163476324341
 20
-12.46794797054586
 10
9.320048905624516
 20
-12.37233078833212
 10
7.052818979043736
 20
-12.297196516001
 10
4.731912841423901
 20
-12.24311697073225
 10
2.374993989873738
 20
-12.21050373051948
 10
0.0000000000000551
 20
-12.19960500181312
  0
LINE
  5
182
330
148
100
AcDbEntity
  8
AM_4
100
AcDbLine
 10
-27.18464889479316
 20
-12.94967285462751
 30
0.0
 11
-27.18464889479316
 21
12.94967285462751
 31
0.0
  0
LINE
  5
183
330
148
100
AcDbEntity
  8
AM_4
100
AcDbLine
 10
-10.39822997772085
 20
-11.18534913149934
 30
0.0
 11
-10.39822997772085
 21
11.18534913149934
 31
0.0
  0
LINE
  5
184
330
148
100
AcDbEntity
  8
AM_4
100
AcDbLine
 10
10.39822997772085
 20
-11.18534913149935
 30
0.0
 11
10.39822997772085
 21
11.18534913149934
 31
0.0
  0
LINE
  5
185
330
148
100
AcDbEntity
  8
AM_4
100
AcDbLine
 10
27.18464889479316
 20
3.210487572085332
 30
0.0
 11
27.18464889479316
 21
12.94967285462751
 31
0.0
  0
LINE
  5
186
330
148
100
AcDbEntity
  8
AM_4
100
AcDbLine
 10
27.18464889479316
 20
-12.94967285462752
 30
0.0
 11
27.18464889479316
 21
-3.212027549151529
 31
0.0
  0
LWPOLYLINE
  5
187
330
148
100
AcDbEntity
  8
AM_4
100
AcDbPolyline
 90
       19
 70
     0
 43
0.0
 10
0.0
 20
-12.19960500181312
 10
-2.374993989873685
 20
-12.21050373051947
 10
-4.731912841423852
 20
-12.24311697073225
 10
-7.052818979043692
 20
-12.297196516001
 10
-9.320048905624471
 20
-12.37233078833212
 10
-11.51634763243406
 20
-12.46794797054586
 10
-13.625
 20
-12.58332035815033
 10
-15.62995789056601
 20
-12.71756989761211
 10
-17.5159623639582
 20
-12.86967486887381
 10
-19.26865978733342
 20
-13.03847766126063
 10
-20.87471107499215
 20
-13.22269358359661
 10
-22.32189320687502
 20
-13.42092064148014
 10
-23.59919225312596
 20
-13.63165020730797
 10
-24.69688719674871
 20
-13.85327850184214
 10
-25.60662391641601
 20
-14.08411879993844
 10
-26.32147876637711
 20
-14.32241426754317
 10
-26.83601126958267
 20
-14.56635133226112
 10
-27.14630552300007
 20
-14.81407348573655
 10
-27.25
 20
-15.06369541280281
  0
LINE
  5
188
330
148
100
AcDbEntity
  8
AM_4
100
AcDbLine
 10
16.74999999999999
 20
-18.9
 30
0.0
 11
41.29999999999998
 21
-18.9
 31
0.0
  0
LINE
  5
189
330
148
100
AcDbEntity
  8
AM_4
100
AcDbLine
 10
-41.3
 20
-18.9
 30
0.0
 11
-16.74999999999999
 21
-18.9
 31
0.0
  0
LINE
  5
18A
330
148
100
AcDbEntity
  8
AM_4
100
AcDbLine
 10
27.18464889479316
 20
-12.94967285462752
 30
0.0
 11
41.29999999999998
 21
-18.9
 31
0.0
  0
LINE
  5
18B
330
148
100
AcDbEntity
  8
AM_4
100
AcDbLine
 10
10.39822997772085
 20
-11.18534913149935
 30
0.0
 11
27.18464889479316
 21
-12.94967285462752
 31
0.0
  0
LINE
  5
18C
330
148
100
AcDbEntity
  8
AM_4
100
AcDbLine
 10
-10.39822997772085
 20
-11.18534913149934
 30
0.0
 11
10.39822997772085
 21
-11.18534913149935
 31
0.0
  0
LINE
  5
18D
330
148
100
AcDbEntity
  8
AM_4
100
AcDbLine
 10
-27.18464889479316
 20
-12.94967285462751
 30
0.0
 11
-10.39822997772085
 21
-11.18534913149934
 31
0.0
  0
LINE
  5
18E
330
148
100
AcDbEntity
  8
AM_4
100
AcDbLine
 10
-41.3
 20
-18.9
 30
0.0
 11
-27.18464889479316
 21
-12.94967285462751
 31
0.0
  0
LWPOLYLINE
  5
18F
330
148
100
AcDbEntity
  8
AM_4
100
AcDbPolyline
 90
       19
 70
     0
 43
0.0
 10
-0.0000004060566425
 20
17.92778582379249
 10
-2.37499439438516
 20
17.91688709136648
 10
-4.731913241311581
 20
17.88427384746236
 10
-7.052819371264287
 20
17.83019429855866
 10
-9.320049287192903
 20
17.75506002267666
 10
-11.51634800044636
 20
17.65944283702314
 10
-13.62500035165537
 20
17.54407044611615
 10
-15.62995822318813
 20
17.40982090351425
 10
-17.51596267501563
 20
17.25771592929874
 10
-19.26866007445883
 20
17.08891313416688
 10
-20.87471133600033
 20
16.90469720931555
 10
-22.32189343977954
 20
16.70647014916548
 10
-23.59919245615427
 20
16.49574058133718
 10
-24.69688736835566
 20
16.27411228508382
 10
-25.60662405529555
 20
16.04327198556271
 10
-26.3214788714723
 20
15.8049765168384
 10
-26.83601134009366
 20
15.5610394513146
 10
-27.14630555839023
 20
15.31331729735319
 10
-27.25
 20
15.06369541280281
  0
LINE
  5
190
330
148
100
AcDbEntity
  8
AM_4
100
AcDbLine
 10
-10.39822997772085
 20
11.18534913149934
 30
0.0
 11
-27.18464889479316
 21
12.94967285462751
 31
0.0
  0
LINE
  5
191
330
148
100
AcDbEntity
  8
AM_4
100
AcDbLine
 10
10.39822997772085
 20
11.18534913149934
 30
0.0
 11
-10.39822997772085
 21
11.18534913149934
 31
0.0
  0
LINE
  5
192
330
148
100
AcDbEntity
  8
AM_4
100
AcDbLine
 10
27.18464889479316
 20
12.94967285462751
 30
0.0
 11
10.39822997772085
 21
11.18534913149934
 31
0.0
  0
LINE
  5
193
330
148
100
AcDbEntity
  8
AM_4
100
AcDbLine
 10
41.29999999999998
 20
18.9
 30
0.0
 11
27.18464889479316
 21
12.94967285462751
 31
0.0
  0
LINE
  5
194
330
148
100
AcDbEntity
  8
AM_4
100
AcDbLine
 10
-41.3
 20
18.9
 30
0.0
 11
41.29999999999998
 21
18.9
 31
0.0
  0
LINE
  5
195
330
148
100
AcDbEntity
  8
AM_4
100
AcDbLine
 10
-27.18464889479316
 20
12.94967285462751
 30
0.0
 11
-41.3
 21
18.9
 31
0.0
  0
ARC
  5
196
330
148
100
AcDbEntity
  8
AM_5
100
AcDbCircle
 10
25.4
 20
0.0000000000000007
 30
0.0
 40
4.999999999999999
100
AcDbArc
 50
75.00000000000001
 51
15.0
  0
ARC
  5
197
330
148
100
AcDbEntity
  8
AM_5
100
AcDbCircle
 10
-25.4
 20
0.0000000000000002
 30
0.0
 40
5.0
100
AcDbArc
 50
75.00000000000001
 51
15.0
  0
ENDBLK
  5
14B
330
148
100
AcDbEntity
  8
0
100
AcDbBlockEnd
  0
ENDSEC
  0
SECTION
  2
ENTITIES
  0
INSERT
  5
6F
330
1F
100
AcDbEntity
  8
0
100
AcDbBlockReference
  2
1_136748_4
 10
0.0
 20
0.0
 30
0.0
  0
POINT
  5
199
330
1F
100
AcDbEntity
  8
ConnectionPoints
100
AcDbPoint
 10
0.0
 20
14.2
 30
-0.0000000000000009
  0
POINT
  5
19A
330
1F
100
AcDbEntity
  8
ConnectionPoints
100
AcDbPoint
 10
0.0
 20
-19.8
 30
0.0000000000000012
  0
POINT
  5
19B
330
1F
100
AcDbEntity
  8
ConnectionPoints
100
AcDbPoint
 10
23.64911498886042
 20
0.0000000000000014
 30
23.64911498886042
  0
POINT
  5
19C
330
1F
100
AcDbEntity
  8
ConnectionPoints
100
AcDbPoint
 10
0.0
 20
-19.8
 30
0.0000000000000012
  0
ENDSEC
  0
SECTION
  2
OBJECTS
  0
DICTIONARY
  5
C
330
0
100
AcDbDictionary
281
     1
  3
ACAD_DETAILVIEWSTYLE
350
1A4
  3
ACAD_GROUP
350
D
  3
ACAD_LAYOUT
350
1A
  3
ACAD_MATERIAL
350
43
  3
ACAD_MLEADERSTYLE
350
6B
  3
ACAD_MLINESTYLE
350
17
  3
ACAD_PLOTSETTINGS
350
19
  3
ACAD_PLOTSTYLENAME
350
E
  3
ACAD_SCALELIST
350
47
  3
ACAD_SECTIONVIEWSTYLE
350
1A5
  3
ACAD_TABLESTYLE
350
69
  3
ACAD_VISUALSTYLE
350
2A
  3
ACDB_RECOMPOSE_DATA
350
1A1
  3
AcDbVariableDictionary
350
19D
  0
SUN
  5
6D
330
29
100
AcDbSun
 90
        1
290
     0
 63
     7
421
 16777215
 40
1.0
291
     1
 91
  2455826
 92
 54000000
292
     0
 70
     2
 71
   256
280
     1
  0
DICTIONARY
  5
1A4
102
{ACAD_REACTORS
330
C
102
}
330
C
100
AcDbDictionary
281
     1
  0
DICTIONARY
  5
D
102
{ACAD_REACTORS
330
C
102
}
330
C
100
AcDbDictionary
281
     1
  0
DICTIONARY
  5
1A
102
{ACAD_REACTORS
330
C
102
}
330
C
100
AcDbDictionary
281
     1
  3
Layout1
350
1E
  3
Layout2
350
26
  3
Model
350
22
  0
DICTIONARY
  5
43
102
{ACAD_REACTORS
330
C
102
}
330
C
100
AcDbDictionary
281
     1
  3
ByBlock
350
45
  3
ByLayer
350
44
  3
Global
350
46
  0
DICTIONARY
  5
6B
102
{ACAD_REACTORS
330
C
102
}
330
C
100
AcDbDictionary
281
     1
  3
Standard
350
6C
  0
DICTIONARY
  5
17
102
{ACAD_REACTORS
330
C
102
}
330
C
100
AcDbDictionary
281
     1
  3
Standard
350
18
  0
DICTIONARY
  5
19
102
{ACAD_REACTORS
330
C
102
}
330
C
100
AcDbDictionary
281
     1
  0
ACDBDICTIONARYWDFLT
  5
E
102
{ACAD_REACTORS
330
C
102
}
330
C
100
AcDbDictionary
281
     1
  3
Normal
350
F
100
AcDbDictionaryWithDefault
340
F
  0
DICTIONARY
  5
47
102
{ACAD_REACTORS
330
C
102
}
330
C
100
AcDbDictionary
281
     1
  3
A0
350
48
  3
A1
350
49
  3
A2
350
4A
  3
A3
350
4B
  3
A4
350
4C
  3
A5
350
4D
  3
A6
350
4E
  3
A7
350
4F
  3
A8
350
50
  3
A9
350
51
  3
B0
350
52
  3
B1
350
53
  3
B2
350
54
  3
B3
350
55
  3
B4
350
56
  3
B5
350
57
  3
B6
350
58
  3
B7
350
59
  3
B8
350
5A
  3
B9
350
5B
  3
C0
350
5C
  3
C1
350
5D
  3
C2
350
5E
  3
C3
350
5F
  3
C4
350
60
  3
C5
350
61
  3
C6
350
62
  3
C7
350
63
  3
C8
350
64
  3
C9
350
65
  3
D0
350
66
  3
D1
350
67
  3
D2
350
68
  0
DICTIONARY
  5
1A5
102
{ACAD_REACTORS
330
C
102
}
330
C
100
AcDbDictionary
281
     1
  0
DICTIONARY
  5
69
102
{ACAD_REACTORS
330
C
102
}
330
C
100
AcDbDictionary
281
     1
  3
Standard
350
6A
  0
DICTIONARY
  5
2A
102
{ACAD_REACTORS
330
C
102
}
330
C
100
AcDbDictionary
281
     1
  3
2dWireframe
350
2F
  3
Basic
350
32
  3
Brighten
350
36
  3
ColorChange
350
3A
  3
Conceptual
350
34
  3
Dim
350
35
  3
EdgeColorOff
350
3D
  3
Facepattern
350
39
  3
Flat
350
2B
  3
FlatWithEdges
350
2C
  3
Gouraud
350
2D
  3
GouraudWithEdges
350
2E
  3
Hidden
350
31
  3
JitterOff
350
3B
  3
Linepattern
350
38
  3
OverhangOff
350
3C
  3
Realistic
350
33
  3
Shaded
350
42
  3
Shaded with edges
350
41
  3
Shades of Gray
350
3E
  3
Sketchy
350
3F
  3
Thicken
350
37
  3
Wireframe
350
30
  3
X-Ray
350
40
  0
XRECORD
  5
1A1
102
{ACAD_REACTORS
330
C
102
}
330
C
100
AcDbXrecord
280
     1
 90
        1
330
6A
  0
DICTIONARY
  5
19D
102
{ACAD_REACTORS
330
C
102
}
330
C
100
AcDbDictionary
281
     1
  3
CANNOSCALE
350
19E
  3
CMLEADERSTYLE
350
1A3
  3
CTABLESTYLE
350
1A2
  0
LAYOUT
  5
1E
102
{ACAD_REACTORS
330
1A
102
}
330
1A
100
AcDbPlotSettings
  1

  2
none_device
  4

  6

 40
0.0
 41
0.0
 42
0.0
 43
0.0
 44
0.0
 45
0.0
 46
0.0
 47
0.0
 48
0.0
 49
0.0
140
0.0
141
0.0
142
1.0
143
1.0
 70
   688
 72
     1
 73
     0
 74
     5
  7

 75
    16
 76
     0
 77
     2
 78
   300
147
1.0
148
0.0
149
0.0
100
AcDbLayout
  1
Layout1
 70
     1
 71
     1
 10
0.0
 20
0.0
 11
420.0
 21
297.0
 12
0.0
 22
0.0
 32
0.0
 14
1.000000000000000E+20
 24
1.000000000000000E+20
 34
1.000000000000000E+20
 15
-1.000000000000000E+20
 25
-1.000000000000000E+20
 35
-1.000000000000000E+20
146
0.0
 13
0.0
 23
0.0
 33
0.0
 16
1.0
 26
0.0
 36
0.0
 17
0.0
 27
1.0
 37
0.0
 76
     0
330
1B
  0
LAYOUT
  5
26
102
{ACAD_REACTORS
330
1A
102
}
330
1A
100
AcDbPlotSettings
  1

  2
none_device
  4

  6

 40
0.0
 41
0.0
 42
0.0
 43
0.0
 44
0.0
 45
0.0
 46
0.0
 47
0.0
 48
0.0
 49
0.0
140
0.0
141
0.0
142
1.0
143
1.0
 70
   688
 72
     1
 73
     0
 74
     5
  7

 75
    16
 76
     0
 77
     2
 78
   300
147
1.0
148
0.0
149
0.0
100
AcDbLayout
  1
Layout2
 70
     1
 71
     2
 10
0.0
 20
0.0
 11
0.0
 21
0.0
 12
0.0
 22
0.0
 32
0.0
 14
0.0
 24
0.0
 34
0.0
 15
0.0
 25
0.0
 35
0.0
146
0.0
 13
0.0
 23
0.0
 33
0.0
 16
1.0
 26
0.0
 36
0.0
 17
0.0
 27
1.0
 37
0.0
 76
     0
330
23
  0
LAYOUT
  5
22
102
{ACAD_REACTORS
330
1A
102
}
330
1A
100
AcDbPlotSettings
  1

  2
none_device
  4
Letter_(8.50_x_11.00_Inches)
  6

 40
6.35
 41
6.35
 42
6.35000508
 43
6.35000508
 44
215.9
 45
279.4
 46
0.0
 47
0.0
 48
0.0
 49
0.0
140
0.0
141
0.0
142
1.0
143
1.0
 70
  1712
 72
     1
 73
     0
 74
     0
  7

 75
     0
 76
     0
 77
     2
 78
   300
147
1.0
148
0.0
149
0.0
100
AcDbLayout
  1
Model
 70
     1
 71
     0
 10
0.0
 20
0.0
 11
420.0
 21
297.0
 12
0.0
 22
0.0
 32
0.0
 14
1.000000000000000E+20
 24
1.000000000000000E+20
 34
1.000000000000000E+20
 15
-1.000000000000000E+20
 25
-1.000000000000000E+20
 35
-1.000000000000000E+20
146
0.0
 13
0.0
 23
0.0
 33
0.0
 16
1.0
 26
0.0
 36
0.0
 17
0.0
 27
1.0
 37
0.0
 76
     0
330
1F
331
29
  0
MATERIAL
  5
45
102
{ACAD_REACTORS
330
43
102
}
330
43
100
AcDbMaterial
  1
ByBlock
 72
     1
 94
      127
  0
MATERIAL
  5
44
102
{ACAD_REACTORS
330
43
102
}
330
43
100
AcDbMaterial
  1
ByLayer
 72
     1
 94
      127
  0
MATERIAL
  5
46
102
{ACAD_REACTORS
330
43
102
}
330
43
100
AcDbMaterial
  1
Global
 72
     1
 94
      127
  0
MLEADERSTYLE
  5
6C
102
{ACAD_REACTORS
330
6B
102
}
330
6B
100
AcDbMLeaderStyle
179
     2
170
     2
171
     1
172
     0
 90
        2
 40
0.0
 41
0.0
173
     1
 91
-1056964608
340
14
 92
       -2
290
     1
 42
2.0
291
     1
 43
8.0
  3
Standard
341
0
 44
4.0
300

342
11
174
     1
178
     6
175
     1
176
     0
 93
-1056964608
 45
4.0
292
     0
297
     0
 46
4.0
343
0
 94
-1056964608
 47
1.0
 49
1.0
140
1.0
293
     1
141
0.0
294
     1
177
     0
142
1.0
295
     0
296
     0
143
3.75
271
     0
272
     9
273
     9
298
     0
  0
MLINESTYLE
  5
18
102
{ACAD_REACTORS
330
17
102
}
330
17
100
AcDbMlineStyle
  2
Standard
 70
     0
  3

 62
   256
 51
90.0
 52
90.0
 71
     2
 49
0.5
 62
   256
  6
BYLAYER
 49
-0.5
 62
   256
  6
BYLAYER
  0
ACDBPLACEHOLDER
  5
F
102
{ACAD_REACTORS
330
E
102
}
330
E
  0
SCALE
  5
48
102
{ACAD_REACTORS
330
47
102
}
330
47
100
AcDbScale
 70
     0
300
1:1
140
1.0
141
1.0
290
     1
  0
SCALE
  5
49
102
{ACAD_REACTORS
330
47
102
}
330
47
100
AcDbScale
 70
     0
300
1:2
140
1.0
141
2.0
290
     0
  0
SCALE
  5
4A
102
{ACAD_REACTORS
330
47
102
}
330
47
100
AcDbScale
 70
     0
300
1:4
140
1.0
141
4.0
290
     0
  0
SCALE
  5
4B
102
{ACAD_REACTORS
330
47
102
}
330
47
100
AcDbScale
 70
     0
300
1:5
140
1.0
141
5.0
290
     0
  0
SCALE
  5
4C
102
{ACAD_REACTORS
330
47
102
}
330
47
100
AcDbScale
 70
     0
300
1:8
140
1.0
141
8.0
290
     0
  0
SCALE
  5
4D
102
{ACAD_REACTORS
330
47
102
}
330
47
100
AcDbScale
 70
     0
300
1:10
140
1.0
141
10.0
290
     0
  0
SCALE
  5
4E
102
{ACAD_REACTORS
330
47
102
}
330
47
100
AcDbScale
 70
     0
300
1:16
140
1.0
141
16.0
290
     0
  0
SCALE
  5
4F
102
{ACAD_REACTORS
330
47
102
}
330
47
100
AcDbScale
 70
     0
300
1:20
140
1.0
141
20.0
290
     0
  0
SCALE
  5
50
102
{ACAD_REACTORS
330
47
102
}
330
47
100
AcDbScale
 70
     0
300
1:30
140
1.0
141
30.0
290
     0
  0
SCALE
  5
51
102
{ACAD_REACTORS
330
47
102
}
330
47
100
AcDbScale
 70
     0
300
1:40
140
1.0
141
40.0
290
     0
  0
SCALE
  5
52
102
{ACAD_REACTORS
330
47
102
}
330
47
100
AcDbScale
 70
     0
300
1:50
140
1.0
141
50.0
290
     0
  0
SCALE
  5
53
102
{ACAD_REACTORS
330
47
102
}
330
47
100
AcDbScale
 70
     0
300
1:100
140
1.0
141
100.0
290
     0
  0
SCALE
  5
54
102
{ACAD_REACTORS
330
47
102
}
330
47
100
AcDbScale
 70
     0
300
2:1
140
2.0
141
1.0
290
     0
  0
SCALE
  5
55
102
{ACAD_REACTORS
330
47
102
}
330
47
100
AcDbScale
 70
     0
300
4:1
140
4.0
141
1.0
290
     0
  0
SCALE
  5
56
102
{ACAD_REACTORS
330
47
102
}
330
47
100
AcDbScale
 70
     0
300
8:1
140
8.0
141
1.0
290
     0
  0
SCALE
  5
57
102
{ACAD_REACTORS
330
47
102
}
330
47
100
AcDbScale
 70
     0
300
10:1
140
10.0
141
1.0
290
     0
  0
SCALE
  5
58
102
{ACAD_REACTORS
330
47
102
}
330
47
100
AcDbScale
 70
     0
300
100:1
140
100.0
141
1.0
290
     0
  0
SCALE
  5
59
102
{ACAD_REACTORS
330
47
102
}
330
47
100
AcDbScale
 70
     0
300
1/128" = 1'-0"
140
0.0078125
141
12.0
290
     0
  0
SCALE
  5
5A
102
{ACAD_REACTORS
330
47
102
}
330
47
100
AcDbScale
 70
     0
300
1/64" = 1'-0"
140
0.015625
141
12.0
290
     0
  0
SCALE
  5
5B
102
{ACAD_REACTORS
330
47
102
}
330
47
100
AcDbScale
 70
     0
300
1/32" = 1'-0"
140
0.03125
141
12.0
290
     0
  0
SCALE
  5
5C
102
{ACAD_REACTORS
330
47
102
}
330
47
100
AcDbScale
 70
     0
300
1/16" = 1'-0"
140
0.0625
141
12.0
290
     0
  0
SCALE
  5
5D
102
{ACAD_REACTORS
330
47
102
}
330
47
100
AcDbScale
 70
     0
300
3/32" = 1'-0"
140
0.09375
141
12.0
290
     0
  0
SCALE
  5
5E
102
{ACAD_REACTORS
330
47
102
}
330
47
100
AcDbScale
 70
     0
300
1/8" = 1'-0"
140
0.125
141
12.0
290
     0
  0
SCALE
  5
5F
102
{ACAD_REACTORS
330
47
102
}
330
47
100
AcDbScale
 70
     0
300
3/16" = 1'-0"
140
0.1875
141
12.0
290
     0
  0
SCALE
  5
60
102
{ACAD_REACTORS
330
47
102
}
330
47
100
AcDbScale
 70
     0
300
1/4" = 1'-0"
140
0.25
141
12.0
290
     0
  0
SCALE
  5
61
102
{ACAD_REACTORS
330
47
102
}
330
47
100
AcDbScale
 70
     0
300
3/8" = 1'-0"
140
0.375
141
12.0
290
     0
  0
SCALE
  5
62
102
{ACAD_REACTORS
330
47
102
}
330
47
100
AcDbScale
 70
     0
300
1/2" = 1'-0"
140
0.5
141
12.0
290
     0
  0
SCALE
  5
63
102
{ACAD_REACTORS
330
47
102
}
330
47
100
AcDbScale
 70
     0
300
3/4" = 1'-0"
140
0.75
141
12.0
290
     0
  0
SCALE
  5
64
102
{ACAD_REACTORS
330
47
102
}
330
47
100
AcDbScale
 70
     0
300
1" = 1'-0"
140
1.0
141
12.0
290
     0
  0
SCALE
  5
65
102
{ACAD_REACTORS
330
47
102
}
330
47
100
AcDbScale
 70
     0
300
1-1/2" = 1'-0"
140
1.5
141
12.0
290
     0
  0
SCALE
  5
66
102
{ACAD_REACTORS
330
47
102
}
330
47
100
AcDbScale
 70
     0
300
3" = 1'-0"
140
3.0
141
12.0
290
     0
  0
SCALE
  5
67
102
{ACAD_REACTORS
330
47
102
}
330
47
100
AcDbScale
 70
     0
300
6" = 1'-0"
140
6.0
141
12.0
290
     0
  0
SCALE
  5
68
102
{ACAD_REACTORS
330
47
102
}
330
47
100
AcDbScale
 70
     0
300
1'-0" = 1'-0"
140
12.0
141
12.0
290
     0
  0
TABLESTYLE
  5
6A
102
{ACAD_REACTORS
330
69
102
}
102
{ACAD_XDICTIONARY
360
19F
102
}
330
69
100
AcDbTableStyle
  3
Standard
 70
     0
 71
     0
 40
0.06
 41
0.06
280
     0
281
     0
  7
Standard
140
4.5
170
     2
 62
     0
 63
   257
283
     0
 90
        4
 91
        0
  1

274
    -2
284
     1
 64
     0
275
    -2
285
     1
 65
     0
276
    -2
286
     1
 66
     0
277
    -2
287
     1
 67
     0
278
    -2
288
     1
 68
     0
279
    -2
289
     1
 69
     0
  7
Standard
140
6.0
170
     5
 62
     0
 63
   257
283
     0
 90
        4
 91
        0
  1

274
    -2
284
     1
 64
     0
275
    -2
285
     1
 65
     0
276
    -2
286
     1
 66
     0
277
    -2
287
     1
 67
     0
278
    -2
288
     1
 68
     0
279
    -2
289
     1
 69
     0
  7
Standard
140
4.5
170
     5
 62
     0
 63
   257
283
     0
 90
        4
 91
        0
  1

274
    -2
284
     1
 64
     0
275
    -2
285
     1
 65
     0
276
    -2
286
     1
 66
     0
277
    -2
287
     1
 67
     0
278
    -2
288
     1
 68
     0
279
    -2
289
     1
 69
     0
  0
VISUALSTYLE
  5
2F
102
{ACAD_REACTORS
330
2A
102
}
330
2A
100
AcDbVisualStyle
  2
2dWireframe
 70
     4
177
     3
291
     0
 70
    58
 90
        0
176
     1
 90
        2
176
     1
 90
        0
176
     1
 90
        0
176
     1
 40
0.6
176
     1
 40
30.0
176
     1
 62
     7
420
 16777215
176
     1
 90
        1
176
     1
 90
        4
176
     1
 62
     7
176
     1
 62
   257
176
     1
 90
        1
176
     1
 90
        1
176
     1
 40
1.0
176
     1
 90
        0
176
     1
 62
   257
176
     1
 40
1.0
176
     1
 90
        1
176
     1
 90
        6
176
     1
 90
        2
176
     1
 62
     7
176
     1
 90
        5
176
     1
 90
        0
176
     1
 90
        0
176
     1
290
     0
176
     1
 90
        1
176
     1
 40
0.0
176
     1
 90
        0
176
     1
290
     1
176
     1
290
     1
176
     1
290
     0
176
     1
290
     0
176
     1
290
     0
176
     1
290
     0
176
     1
290
     0
176
     1
290
     0
176
     1
290
     0
176
     1
 90
       50
176
     1
 40
0.0
176
     1
 40
1.0
176
     1
 90
        0
176
     1
 62
    18
420
        0
176
     1
 90
       50
176
     1
 90
        3
176
     1
 62
     5
420
      255
176
     1
290
     0
176
     1
 90
       50
176
     1
 90
       50
176
     1
 90
       50
176
     1
290
     0
176
     1
 90
       50
176
     1
 62
   256
176
     0
 40
1.0
176
     0
 90
        2
176
     1
  1
strokes_ogs.tif
176
     1
290
     0
176
     1
 40
1.0
176
     1
 40
1.0
176
     1
  0
VISUALSTYLE
  5
32
102
{ACAD_REACTORS
330
2A
102
}
330
2A
100
AcDbVisualStyle
  2
Basic
 70
     7
177
     3
291
     1
 70
    58
 90
        1
176
     1
 90
        0
176
     1
 90
        1
176
     1
 90
        0
176
     1
 40
0.6
176
     1
 40
30.0
176
     1
 62
     7
420
 16777215
176
     1
 90
        0
176
     1
 90
        4
176
     1
 62
     7
176
     1
 62
   257
176
     1
 90
        1
176
     1
 90
        1
176
     1
 40
1.0
176
     1
 90
        8
176
     1
 62
     7
176
     1
 40
1.0
176
     1
 90
        1
176
     1
 90
        6
176
     1
 90
        2
176
     1
 62
     7
176
     1
 90
        5
176
     1
 90
        0
176
     1
 90
        0
176
     1
290
     0
176
     1
 90
        1
176
     1
 40
0.0
176
     1
 90
        0
176
     1
290
     0
176
     1
290
     1
176
     1
290
     1
176
     1
290
     0
176
     1
290
     0
176
     1
290
     0
176
     1
290
     0
176
     1
290
     0
176
     1
290
     0
176
     1
 90
       50
176
     1
 40
0.0
176
     1
 40
1.0
176
     1
 90
        0
176
     1
 62
    18
420
        0
176
     1
 90
       50
176
     1
 90
        3
176
     1
 62
     5
420
      255
176
     1
290
     0
176
     1
 90
       50
176
     1
 90
       50
176
     1
 90
       50
176
     1
290
     0
176
     1
 90
       50
176
     1
 62
   256
176
     0
 40
1.0
176
     0
 90
        2
176
     1
  1
strokes_ogs.tif
176
     1
290
     0
176
     1
 40
1.0
176
     1
 40
1.0
176
     1
  0
VISUALSTYLE
  5
36
102
{ACAD_REACTORS
330
2A
102
}
330
2A
100
AcDbVisualStyle
  2
Brighten
 70
    12
177
     3
291
     1
 70
    58
 90
        2
176
     1
 90
        2
176
     1
 90
        0
176
     1
 90
        0
176
     1
 40
0.6
176
     1
 40
30.0
176
     1
 62
     7
420
 16777215
176
     1
 90
        1
176
     1
 90
        4
176
     1
 62
     7
176
     1
 62
   257
176
     1
 90
        1
176
     1
 90
        1
176
     1
 40
1.0
176
     1
 90
        8
176
     1
 62
     7
176
     1
 40
1.0
176
     1
 90
        1
176
     1
 90
        6
176
     1
 90
        2
176
     1
 62
     7
176
     1
 90
        5
176
     1
 90
        0
176
     1
 90
        0
176
     1
290
     0
176
     1
 90
        1
176
     1
 40
50.0
176
     1
 90
        0
176
     1
290
     0
176
     1
290
     1
176
     1
290
     1
176
     1
290
     0
176
     1
290
     0
176
     1
290
     0
176
     1
290
     0
176
     1
290
     0
176
     1
290
     0
176
     1
 90
       50
176
     1
 40
0.0
176
     1
 40
1.0
176
     1
 90
        0
176
     1
 62
    18
420
        0
176
     1
 90
       50
176
     1
 90
        3
176
     1
 62
     5
420
      255
176
     1
290
     0
176
     1
 90
       50
176
     1
 90
       50
176
     1
 90
       50
176
     1
290
     0
176
     1
 90
       50
176
     1
 62
   256
176
     0
 40
1.0
176
     0
 90
        2
176
     1
  1
strokes_ogs.tif
176
     1
290
     0
176
     1
 40
1.0
176
     1
 40
1.0
176
     1
  0
VISUALSTYLE
  5
3A
102
{ACAD_REACTORS
330
2A
102
}
330
2A
100
AcDbVisualStyle
  2
ColorChange
 70
    16
177
     3
291
     1
 70
    58
 90
        2
176
     1
 90
        2
176
     1
 90
        3
176
     1
 90
        0
176
     1
 40
0.6
176
     1
 40
30.0
176
     1
 62
     8
420
  8421504
176
     1
 90
        1
176
     1
 90
        4
176
     1
 62
     7
176
     1
 62
   257
176
     1
 90
        1
176
     1
 90
        1
176
     1
 40
1.0
176
     1
 90
        8
176
     1
 62
     8
420
  8421504
176
     1
 40
1.0
176
     1
 90
        1
176
     1
 90
        6
176
     1
 90
        2
176
     1
 62
     7
176
     1
 90
        5
176
     1
 90
        0
176
     1
 90
        0
176
     1
290
     0
176
     1
 90
        1
176
     1
 40
0.0
176
     1
 90
        0
176
     1
290
     0
176
     1
290
     1
176
     1
290
     1
176
     1
290
     0
176
     1
290
     0
176
     1
290
     0
176
     1
290
     0
176
     1
290
     0
176
     1
290
     0
176
     1
 90
       50
176
     1
 40
0.0
176
     1
 40
1.0
176
     1
 90
        0
176
     1
 62
    18
420
        0
176
     1
 90
       50
176
     1
 90
        3
176
     1
 62
     5
420
      255
176
     1
290
     0
176
     1
 90
       50
176
     1
 90
       50
176
     1
 90
       50
176
     1
290
     0
176
     1
 90
       50
176
     1
 62
   256
176
     0
 40
1.0
176
     0
 90
        2
176
     1
  1
strokes_ogs.tif
176
     1
290
     0
176
     1
 40
1.0
176
     1
 40
1.0
176
     1
  0
VISUALSTYLE
  5
34
102
{ACAD_REACTORS
330
2A
102
}
330
2A
100
AcDbVisualStyle
  2
Conceptual
 70
     9
177
     3
291
     0
 70
    58
 90
        3
176
     1
 90
        2
176
     1
 90
        0
176
     1
 90
        0
176
     1
 40
0.6
176
     1
 40
30.0
176
     1
 62
     7
420
 16777215
176
     1
 90
        2
176
     1
 90
        2
176
     1
 62
     7
176
     1
 62
   257
176
     1
 90
        1
176
     1
 90
        1
176
     1
 40
179.0
176
     1
 90
        8
176
     1
 62
     7
176
     1
 40
1.0
176
     1
 90
        1
176
     1
 90
        6
176
     1
 90
        2
176
     1
 62
     7
176
     1
 90
        3
176
     1
 90
        0
176
     1
 90
        0
176
     1
290
     0
176
     1
 90
        1
176
     1
 40
0.0
176
     1
 90
        0
176
     1
290
     0
176
     1
290
     1
176
     1
290
     1
176
     1
290
     0
176
     1
290
     0
176
     1
290
     0
176
     1
290
     0
176
     1
290
     0
176
     1
290
     0
176
     1
 90
       50
176
     1
 40
0.0
176
     1
 40
1.0
176
     1
 90
        0
176
     1
 62
    18
420
        0
176
     1
 90
       50
176
     1
 90
        3
176
     1
 62
     5
420
      255
176
     1
290
     0
176
     1
 90
       50
176
     1
 90
       50
176
     1
 90
       50
176
     1
290
     0
176
     1
 90
       50
176
     1
 62
   256
176
     0
 40
1.0
176
     0
 90
        2
176
     1
  1
strokes_ogs.tif
176
     1
290
     0
176
     1
 40
1.0
176
     1
 40
1.0
176
     1
  0
VISUALSTYLE
  5
35
102
{ACAD_REACTORS
330
2A
102
}
330
2A
100
AcDbVisualStyle
  2
Dim
 70
    11
177
     3
291
     1
 70
    58
 90
        2
176
     1
 90
        2
176
     1
 90
        0
176
     1
 90
        0
176
     1
 40
0.6
176
     1
 40
30.0
176
     1
 62
     7
420
 16777215
176
     1
 90
        1
176
     1
 90
        4
176
     1
 62
     7
176
     1
 62
   257
176
     1
 90
        1
176
     1
 90
        1
176
     1
 40
1.0
176
     1
 90
        8
176
     1
 62
     7
176
     1
 40
1.0
176
     1
 90
        1
176
     1
 90
        6
176
     1
 90
        2
176
     1
 62
     7
176
     1
 90
        5
176
     1
 90
        0
176
     1
 90
        0
176
     1
290
     0
176
     1
 90
        1
176
     1
 40
-50.0
176
     1
 90
        0
176
     1
290
     0
176
     1
290
     1
176
     1
290
     1
176
     1
290
     0
176
     1
290
     0
176
     1
290
     0
176
     1
290
     0
176
     1
290
     0
176
     1
290
     0
176
     1
 90
       50
176
     1
 40
0.0
176
     1
 40
1.0
176
     1
 90
        0
176
     1
 62
    18
420
        0
176
     1
 90
       50
176
     1
 90
        3
176
     1
 62
     5
420
      255
176
     1
290
     0
176
     1
 90
       50
176
     1
 90
       50
176
     1
 90
       50
176
     1
290
     0
176
     1
 90
       50
176
     1
 62
   256
176
     0
 40
1.0
176
     0
 90
        2
176
     1
  1
strokes_ogs.tif
176
     1
290
     0
176
     1
 40
1.0
176
     1
 40
1.0
176
     1
  0
VISUALSTYLE
  5
3D
102
{ACAD_REACTORS
330
2A
102
}
330
2A
100
AcDbVisualStyle
  2
EdgeColorOff
 70
    22
177
     3
291
     1
 70
    58
 90
        2
176
     0
 90
        2
176
     0
 90
        0
176
     0
 90
        0
176
     0
 40
0.6
176
     0
 40
30.0
176
     0
 62
     7
420
 16777215
176
     0
 90
        1
176
     0
 90
        4
176
     0
 62
     7
176
     0
 62
   257
176
     0
 90
        1
176
     0
 90
        1
176
     0
 40
1.0
176
     0
 90
        8
176
     2
 62
     7
176
     0
 40
1.0
176
     0
 90
        1
176
     0
 90
        6
176
     0
 90
        2
176
     0
 62
     7
176
     0
 90
        5
176
     0
 90
        0
176
     0
 90
        0
176
     0
290
     0
176
     0
 90
        1
176
     0
 40
0.0
176
     0
 90
        0
176
     0
290
     0
176
     0
290
     1
176
     0
290
     1
176
     0
290
     0
176
     0
290
     0
176
     0
290
     0
176
     0
290
     0
176
     0
290
     0
176
     0
290
     0
176
     0
 90
       50
176
     0
 40
0.0
176
     0
 40
1.0
176
     0
 90
        0
176
     0
 62
    18
420
        0
176
     0
 90
       50
176
     0
 90
        3
176
     0
 62
     5
420
      255
176
     0
290
     0
176
     0
 90
       50
176
     0
 90
       50
176
     0
 90
       50
176
     0
290
     0
176
     0
 90
       50
176
     0
 62
   256
176
     0
 40
1.0
176
     0
 90
        2
176
     0
  1
strokes_ogs.tif
176
     0
290
     0
176
     0
 40
1.0
176
     0
 40
1.0
176
     0
  0
VISUALSTYLE
  5
39
102
{ACAD_REACTORS
330
2A
102
}
330
2A
100
AcDbVisualStyle
  2
Facepattern
 70
    15
177
     3
291
     1
 70
    58
 90
        2
176
     1
 90
        2
176
     1
 90
        0
176
     1
 90
        0
176
     1
 40
0.6
176
     1
 40
30.0
176
     1
 62
     7
420
 16777215
176
     1
 90
        1
176
     1
 90
        4
176
     1
 62
     7
176
     1
 62
   257
176
     1
 90
        1
176
     1
 90
        1
176
     1
 40
1.0
176
     1
 90
        8
176
     1
 62
     7
176
     1
 40
1.0
176
     1
 90
        1
176
     1
 90
        6
176
     1
 90
        2
176
     1
 62
     7
176
     1
 90
        5
176
     1
 90
        0
176
     1
 90
        0
176
     1
290
     0
176
     1
 90
        1
176
     1
 40
0.0
176
     1
 90
        0
176
     1
290
     0
176
     1
290
     1
176
     1
290
     1
176
     1
290
     0
176
     1
290
     0
176
     1
290
     0
176
     1
290
     0
176
     1
290
     0
176
     1
290
     0
176
     1
 90
       50
176
     1
 40
0.0
176
     1
 40
1.0
176
     1
 90
        0
176
     1
 62
    18
420
        0
176
     1
 90
       50
176
     1
 90
        3
176
     1
 62
     5
420
      255
176
     1
290
     0
176
     1
 90
       50
176
     1
 90
       50
176
     1
 90
       50
176
     1
290
     0
176
     1
 90
       50
176
     1
 62
   256
176
     0
 40
1.0
176
     0
 90
        2
176
     1
  1
strokes_ogs.tif
176
     1
290
     0
176
     1
 40
1.0
176
     1
 40
1.0
176
     1
  0
VISUALSTYLE
  5
2B
102
{ACAD_REACTORS
330
2A
102
}
330
2A
100
AcDbVisualStyle
  2
Flat
 70
     0
177
     3
291
     1
 70
    58
 90
        2
176
     1
 90
        1
176
     1
 90
        1
176
     1
 90
        2
176
     1
 40
0.6
176
     1
 40
30.0
176
     1
 62
     7
420
 16777215
176
     1
 90
        0
176
     1
 90
        0
176
     1
 62
     7
176
     1
 62
   257
176
     1
 90
        1
176
     1
 90
        1
176
     1
 40
1.0
176
     1
 90
        8
176
     1
 62
     7
176
     1
 40
1.0
176
     1
 90
        1
176
     1
 90
        6
176
     1
 90
        2
176
     1
 62
     7
176
     1
 90
        5
176
     1
 90
        0
176
     1
 90
        0
176
     1
290
     0
176
     1
 90
       13
176
     1
 40
0.0
176
     1
 90
        0
176
     1
290
     0
176
     1
290
     1
176
     1
290
     1
176
     1
290
     0
176
     1
290
     0
176
     1
290
     0
176
     1
290
     0
176
     1
290
     0
176
     1
290
     0
176
     1
 90
       50
176
     1
 40
0.0
176
     1
 40
1.0
176
     1
 90
        0
176
     1
 62
    18
420
        0
176
     1
 90
       50
176
     1
 90
        3
176
     1
 62
     5
420
      255
176
     1
290
     0
176
     1
 90
       50
176
     1
 90
       50
176
     1
 90
       50
176
     1
290
     0
176
     1
 90
       50
176
     1
 62
   256
176
     0
 40
1.0
176
     0
 90
        2
176
     1
  1
strokes_ogs.tif
176
     1
290
     0
176
     1
 40
1.0
176
     1
 40
1.0
176
     1
  0
VISUALSTYLE
  5
2C
102
{ACAD_REACTORS
330
2A
102
}
330
2A
100
AcDbVisualStyle
  2
FlatWithEdges
 70
     1
177
     3
291
     1
 70
    58
 90
        2
176
     1
 90
        1
176
     1
 90
        1
176
     1
 90
        2
176
     1
 40
0.6
176
     1
 40
30.0
176
     1
 62
     7
420
 16777215
176
     1
 90
        1
176
     1
 90
        0
176
     1
 62
     7
176
     1
 62
   257
176
     1
 90
        1
176
     1
 90
        1
176
     1
 40
1.0
176
     1
 90
        0
176
     1
 62
   257
176
     1
 40
1.0
176
     1
 90
        1
176
     1
 90
        6
176
     1
 90
        2
176
     1
 62
     7
176
     1
 90
        5
176
     1
 90
        0
176
     1
 90
        0
176
     1
290
     0
176
     1
 90
       13
176
     1
 40
0.0
176
     1
 90
        0
176
     1
290
     0
176
     1
290
     1
176
     1
290
     1
176
     1
290
     0
176
     1
290
     0
176
     1
290
     0
176
     1
290
     0
176
     1
290
     0
176
     1
290
     0
176
     1
 90
       50
176
     1
 40
0.0
176
     1
 40
1.0
176
     1
 90
        0
176
     1
 62
    18
420
        0
176
     1
 90
       50
176
     1
 90
        3
176
     1
 62
     5
420
      255
176
     1
290
     0
176
     1
 90
       50
176
     1
 90
       50
176
     1
 90
       50
176
     1
290
     0
176
     1
 90
       50
176
     1
 62
   256
176
     0
 40
1.0
176
     0
 90
        2
176
     1
  1
strokes_ogs.tif
176
     1
290
     0
176
     1
 40
1.0
176
     1
 40
1.0
176
     1
  0
VISUALSTYLE
  5
2D
102
{ACAD_REACTORS
330
2A
102
}
330
2A
100
AcDbVisualStyle
  2
Gouraud
 70
     2
177
     3
291
     1
 70
    58
 90
        2
176
     1
 90
        2
176
     1
 90
        1
176
     1
 90
        2
176
     1
 40
0.6
176
     1
 40
30.0
176
     1
 62
     7
420
 16777215
176
     1
 90
        0
176
     1
 90
        0
176
     1
 62
     7
176
     1
 62
   257
176
     1
 90
        1
176
     1
 90
        1
176
     1
 40
1.0
176
     1
 90
        0
176
     1
 62
     7
176
     1
 40
1.0
176
     1
 90
        1
176
     1
 90
        6
176
     1
 90
        2
176
     1
 62
     7
176
     1
 90
        5
176
     1
 90
        0
176
     1
 90
        0
176
     1
290
     0
176
     1
 90
       13
176
     1
 40
0.0
176
     1
 90
        0
176
     1
290
     0
176
     1
290
     1
176
     1
290
     1
176
     1
290
     0
176
     1
290
     0
176
     1
290
     0
176
     1
290
     0
176
     1
290
     0
176
     1
290
     0
176
     1
 90
       50
176
     1
 40
0.0
176
     1
 40
1.0
176
     1
 90
        0
176
     1
 62
    18
420
        0
176
     1
 90
       50
176
     1
 90
        3
176
     1
 62
     5
420
      255
176
     1
290
     0
176
     1
 90
       50
176
     1
 90
       50
176
     1
 90
       50
176
     1
290
     0
176
     1
 90
       50
176
     1
 62
   256
176
     0
 40
1.0
176
     0
 90
        2
176
     1
  1
strokes_ogs.tif
176
     1
290
     0
176
     1
 40
1.0
176
     1
 40
1.0
176
     1
  0
VISUALSTYLE
  5
2E
102
{ACAD_REACTORS
330
2A
102
}
330
2A
100
AcDbVisualStyle
  2
GouraudWithEdges
 70
     3
177
     3
291
     1
 70
    58
 90
        2
176
     1
 90
        2
176
     1
 90
        1
176
     1
 90
        2
176
     1
 40
0.6
176
     1
 40
30.0
176
     1
 62
     7
420
 16777215
176
     1
 90
        1
176
     1
 90
        0
176
     1
 62
     7
176
     1
 62
   257
176
     1
 90
        1
176
     1
 90
        1
176
     1
 40
1.0
176
     1
 90
        0
176
     1
 62
   257
176
     1
 40
1.0
176
     1
 90
        1
176
     1
 90
        6
176
     1
 90
        2
176
     1
 62
     7
176
     1
 90
        5
176
     1
 90
        0
176
     1
 90
        0
176
     1
290
     0
176
     1
 90
       13
176
     1
 40
0.0
176
     1
 90
        0
176
     1
290
     0
176
     1
290
     1
176
     1
290
     1
176
     1
290
     0
176
     1
290
     0
176
     1
290
     0
176
     1
290
     0
176
     1
290
     0
176
     1
290
     0
176
     1
 90
       50
176
     1
 40
0.0
176
     1
 40
1.0
176
     1
 90
        0
176
     1
 62
    18
420
        0
176
     1
 90
       50
176
     1
 90
        3
176
     1
 62
     5
420
      255
176
     1
290
     0
176
     1
 90
       50
176
     1
 90
       50
176
     1
 90
       50
176
     1
290
     0
176
     1
 90
       50
176
     1
 62
   256
176
     0
 40
1.0
176
     0
 90
        2
176
     1
  1
strokes_ogs.tif
176
     1
290
     0
176
     1
 40
1.0
176
     1
 40
1.0
176
     1
  0
VISUALSTYLE
  5
31
102
{ACAD_REACTORS
330
2A
102
}
330
2A
100
AcDbVisualStyle
  2
Hidden
 70
     6
177
     3
291
     0
 70
    58
 90
        1
176
     1
 90
        2
176
     1
 90
        2
176
     1
 90
        0
176
     1
 40
0.6
176
     1
 40
30.0
176
     1
 62
     7
420
 16777215
176
     1
 90
        2
176
     1
 90
        2
176
     1
 62
     7
176
     1
 62
   257
176
     1
 90
        2
176
     1
 90
        1
176
     1
 40
40.0
176
     1
 90
        0
176
     1
 62
   257
176
     1
 40
1.0
176
     1
 90
        1
176
     1
 90
        6
176
     1
 90
        2
176
     1
 62
     7
176
     1
 90
        3
176
     1
 90
        0
176
     1
 90
        0
176
     1
290
     0
176
     1
 90
        1
176
     1
 40
0.0
176
     1
 90
        0
176
     1
290
     0
176
     1
290
     1
176
     1
290
     1
176
     1
290
     0
176
     1
290
     0
176
     1
290
     0
176
     1
290
     0
176
     1
290
     0
176
     1
290
     0
176
     1
 90
       50
176
     1
 40
0.0
176
     1
 40
1.0
176
     1
 90
        0
176
     1
 62
    18
420
        0
176
     1
 90
       50
176
     1
 90
        3
176
     1
 62
     5
420
      255
176
     1
290
     0
176
     1
 90
       50
176
     1
 90
       50
176
     1
 90
       50
176
     1
290
     0
176
     1
 90
       50
176
     1
 62
   256
176
     0
 40
1.0
176
     0
 90
        2
176
     1
  1
strokes_ogs.tif
176
     1
290
     0
176
     1
 40
1.0
176
     1
 40
1.0
176
     1
  0
VISUALSTYLE
  5
3B
102
{ACAD_REACTORS
330
2A
102
}
330
2A
100
AcDbVisualStyle
  2
JitterOff
 70
    20
177
     3
291
     1
 70
    58
 90
        2
176
     0
 90
        2
176
     0
 90
        0
176
     0
 90
        0
176
     0
 40
0.6
176
     0
 40
30.0
176
     0
 62
     7
420
 16777215
176
     0
 90
        1
176
     0
 90
        4
176
     0
 62
     7
176
     0
 62
   257
176
     0
 90
        1
176
     0
 90
        1
176
     0
 40
1.0
176
     0
 90
       10
176
     2
 62
     7
176
     0
 40
1.0
176
     0
 90
        1
176
     0
 90
        6
176
     0
 90
        2
176
     0
 62
     7
176
     0
 90
        5
176
     0
 90
        0
176
     0
 90
        0
176
     0
290
     0
176
     0
 90
        1
176
     0
 40
0.0
176
     0
 90
        0
176
     0
290
     0
176
     0
290
     1
176
     0
290
     1
176
     0
290
     0
176
     0
290
     0
176
     0
290
     0
176
     0
290
     0
176
     0
290
     0
176
     0
290
     0
176
     0
 90
       50
176
     0
 40
0.0
176
     0
 40
1.0
176
     0
 90
        0
176
     0
 62
    18
420
        0
176
     0
 90
       50
176
     0
 90
        3
176
     0
 62
     5
420
      255
176
     0
290
     0
176
     0
 90
       50
176
     0
 90
       50
176
     0
 90
       50
176
     0
290
     0
176
     0
 90
       50
176
     0
 62
   256
176
     0
 40
1.0
176
     0
 90
        2
176
     0
  1
strokes_ogs.tif
176
     0
290
     0
176
     0
 40
1.0
176
     0
 40
1.0
176
     0
  0
VISUALSTYLE
  5
38
102
{ACAD_REACTORS
330
2A
102
}
330
2A
100
AcDbVisualStyle
  2
Linepattern
 70
    14
177
     3
291
     1
 70
    58
 90
        2
176
     1
 90
        2
176
     1
 90
        0
176
     1
 90
        0
176
     1
 40
0.6
176
     1
 40
30.0
176
     1
 62
     7
420
 16777215
176
     1
 90
        1
176
     1
 90
        4
176
     1
 62
     7
176
     1
 62
   257
176
     1
 90
        7
176
     1
 90
        7
176
     1
 40
1.0
176
     1
 90
        8
176
     1
 62
     7
176
     1
 40
1.0
176
     1
 90
        1
176
     1
 90
        6
176
     1
 90
        2
176
     1
 62
     7
176
     1
 90
        5
176
     1
 90
        0
176
     1
 90
        0
176
     1
290
     0
176
     1
 90
        1
176
     1
 40
0.0
176
     1
 90
        0
176
     1
290
     0
176
     1
290
     1
176
     1
290
     1
176
     1
290
     0
176
     1
290
     0
176
     1
290
     0
176
     1
290
     0
176
     1
290
     0
176
     1
290
     0
176
     1
 90
       50
176
     1
 40
0.0
176
     1
 40
1.0
176
     1
 90
        0
176
     1
 62
    18
420
        0
176
     1
 90
       50
176
     1
 90
        3
176
     1
 62
     5
420
      255
176
     1
290
     0
176
     1
 90
       50
176
     1
 90
       50
176
     1
 90
       50
176
     1
290
     0
176
     1
 90
       50
176
     1
 62
   256
176
     0
 40
1.0
176
     0
 90
        2
176
     1
  1
strokes_ogs.tif
176
     1
290
     0
176
     1
 40
1.0
176
     1
 40
1.0
176
     1
  0
VISUALSTYLE
  5
3C
102
{ACAD_REACTORS
330
2A
102
}
330
2A
100
AcDbVisualStyle
  2
OverhangOff
 70
    21
177
     3
291
     1
 70
    58
 90
        2
176
     0
 90
        2
176
     0
 90
        0
176
     0
 90
        0
176
     0
 40
0.6
176
     0
 40
30.0
176
     0
 62
     7
420
 16777215
176
     0
 90
        1
176
     0
 90
        4
176
     0
 62
     7
176
     0
 62
   257
176
     0
 90
        1
176
     0
 90
        1
176
     0
 40
1.0
176
     0
 90
        9
176
     2
 62
     7
176
     0
 40
1.0
176
     0
 90
        1
176
     0
 90
        6
176
     0
 90
        2
176
     0
 62
     7
176
     0
 90
        5
176
     0
 90
        0
176
     0
 90
        0
176
     0
290
     0
176
     0
 90
        1
176
     0
 40
0.0
176
     0
 90
        0
176
     0
290
     0
176
     0
290
     1
176
     0
290
     1
176
     0
290
     0
176
     0
290
     0
176
     0
290
     0
176
     0
290
     0
176
     0
290
     0
176
     0
290
     0
176
     0
 90
       50
176
     0
 40
0.0
176
     0
 40
1.0
176
     0
 90
        0
176
     0
 62
    18
420
        0
176
     0
 90
       50
176
     0
 90
        3
176
     0
 62
     5
420
      255
176
     0
290
     0
176
     0
 90
       50
176
     0
 90
       50
176
     0
 90
       50
176
     0
290
     0
176
     0
 90
       50
176
     0
 62
   256
176
     0
 40
1.0
176
     0
 90
        2
176
     0
  1
strokes_ogs.tif
176
     0
290
     0
176
     0
 40
1.0
176
     0
 40
1.0
176
     0
  0
VISUALSTYLE
  5
33
102
{ACAD_REACTORS
330
2A
102
}
330
2A
100
AcDbVisualStyle
  2
Realistic
 70
     8
177
     3
291
     0
 70
    58
 90
        2
176
     1
 90
        3
176
     1
 90
        0
176
     1
 90
        2
176
     1
 40
0.6
176
     1
 40
30.0
176
     1
 62
     7
420
 16777215
176
     1
 90
        0
176
     1
 90
        0
176
     1
 62
     7
176
     1
 62
   257
176
     1
 90
        1
176
     1
 90
        1
176
     1
 40
1.0
176
     1
 90
        8
176
     1
 62
   257
176
     1
 40
1.0
176
     1
 90
        1
176
     1
 90
        6
176
     1
 90
        2
176
     1
 62
     7
176
     1
 90
        3
176
     1
 90
        0
176
     1
 90
        0
176
     1
290
     0
176
     1
 90
       13
176
     1
 40
0.0
176
     1
 90
        0
176
     1
290
     0
176
     1
290
     1
176
     1
290
     1
176
     1
290
     0
176
     1
290
     0
176
     1
290
     0
176
     1
290
     0
176
     1
290
     0
176
     1
290
     0
176
     1
 90
       50
176
     1
 40
0.0
176
     1
 40
1.0
176
     1
 90
        0
176
     1
 62
    18
420
        0
176
     1
 90
       50
176
     1
 90
        3
176
     1
 62
     5
420
      255
176
     1
290
     0
176
     1
 90
       50
176
     1
 90
       50
176
     1
 90
       50
176
     1
290
     0
176
     1
 90
       50
176
     1
 62
   256
176
     0
 40
1.0
176
     0
 90
        2
176
     1
  1
strokes_ogs.tif
176
     1
290
     0
176
     1
 40
1.0
176
     1
 40
1.0
176
     1
  0
VISUALSTYLE
  5
42
102
{ACAD_REACTORS
330
2A
102
}
330
2A
100
AcDbVisualStyle
  2
Shaded
 70
    27
177
     3
291
     0
 70
    58
 90
        2
176
     1
 90
        2
176
     1
 90
        1
176
     1
 90
        2
176
     1
 40
0.6
176
     1
 40
30.0
176
     1
 62
     7
420
 16777215
176
     1
 90
        0
176
     1
 90
        4
176
     1
 62
     7
176
     1
 62
   257
176
     1
 90
        1
176
     1
 90
        1
176
     1
 40
1.0
176
     1
 90
        8
176
     1
 62
   257
176
     1
 40
1.0
176
     1
 90
        1
176
     1
 90
        6
176
     1
 90
        2
176
     1
 62
     8
420
  7895160
176
     1
 90
        3
176
     1
 90
        0
176
     1
 90
        0
176
     1
290
     0
176
     1
 90
        5
176
     1
 40
0.0
176
     1
 90
        0
176
     1
290
     0
176
     1
290
     1
176
     1
290
     1
176
     1
290
     0
176
     1
290
     0
176
     1
290
     0
176
     1
290
     0
176
     1
290
     0
176
     1
290
     0
176
     1
 90
       50
176
     1
 40
0.0
176
     1
 40
1.0
176
     1
 90
        0
176
     1
 62
    18
420
        0
176
     1
 90
       50
176
     1
 90
        3
176
     1
 62
     5
420
      255
176
     1
290
     0
176
     1
 90
       50
176
     1
 90
       50
176
     1
 90
       50
176
     1
290
     0
176
     1
 90
       50
176
     1
 62
   256
176
     0
 40
1.0
176
     0
 90
        2
176
     1
  1
strokes_ogs.tif
176
     1
290
     0
176
     1
 40
1.0
176
     1
 40
1.0
176
     1
  0
VISUALSTYLE
  5
41
102
{ACAD_REACTORS
330
2A
102
}
330
2A
100
AcDbVisualStyle
  2
Shaded with edges
 70
    26
177
     3
291
     0
 70
    58
 90
        2
176
     1
 90
        2
176
     1
 90
        1
176
     1
 90
        2
176
     1
 40
0.6
176
     1
 40
30.0
176
     1
 62
     7
420
 16777215
176
     1
 90
        1
176
     1
 90
       10
176
     1
 62
     7
176
     1
 62
   257
176
     1
 90
        2
176
     1
 90
        1
176
     1
 40
1.0
176
     1
 90
        8
176
     1
 62
   257
176
     1
 40
1.0
176
     1
 90
        1
176
     1
 90
        6
176
     1
 90
        2
176
     1
 62
     7
176
     1
 90
        3
176
     1
 90
        0
176
     1
 90
        0
176
     1
290
     0
176
     1
 90
        5
176
     1
 40
0.0
176
     1
 90
        0
176
     1
290
     0
176
     1
290
     1
176
     1
290
     1
176
     1
290
     0
176
     1
290
     0
176
     1
290
     0
176
     1
290
     0
176
     1
290
     0
176
     1
290
     0
176
     1
 90
       50
176
     1
 40
0.0
176
     1
 40
1.0
176
     1
 90
        0
176
     1
 62
    18
420
        0
176
     1
 90
       50
176
     1
 90
        3
176
     1
 62
     5
420
      255
176
     1
290
     0
176
     1
 90
       50
176
     1
 90
       50
176
     1
 90
       50
176
     1
290
     0
176
     1
 90
       50
176
     1
 62
   256
176
     0
 40
1.0
176
     0
 90
        2
176
     1
  1
strokes_ogs.tif
176
     1
290
     0
176
     1
 40
1.0
176
     1
 40
1.0
176
     1
  0
VISUALSTYLE
  5
3E
102
{ACAD_REACTORS
330
2A
102
}
330
2A
100
AcDbVisualStyle
  2
Shades of Gray
 70
    23
177
     3
291
     0
 70
    58
 90
        2
176
     1
 90
        2
176
     1
 90
        3
176
     1
 90
        0
176
     1
 40
0.6
176
     1
 40
30.0
176
     1
 62
     7
420
 16777215
176
     1
 90
        2
176
     1
 90
        2
176
     1
 62
     7
176
     1
 62
     7
176
     1
 90
        1
176
     1
 90
        1
176
     1
 40
40.0
176
     1
 90
        8
176
     1
 62
     7
176
     1
 40
1.0
176
     1
 90
        1
176
     1
 90
        6
176
     1
 90
        2
176
     1
 62
     7
176
     1
 90
        3
176
     1
 90
        0
176
     1
 90
        0
176
     1
290
     0
176
     1
 90
        1
176
     1
 40
0.0
176
     1
 90
        0
176
     1
290
     0
176
     1
290
     1
176
     1
290
     1
176
     1
290
     0
176
     1
290
     0
176
     1
290
     0
176
     1
290
     0
176
     1
290
     0
176
     1
290
     0
176
     1
 90
       50
176
     1
 40
0.0
176
     1
 40
1.0
176
     1
 90
        0
176
     1
 62
    18
420
        0
176
     1
 90
       50
176
     1
 90
        3
176
     1
 62
     5
420
      255
176
     1
290
     0
176
     1
 90
       50
176
     1
 90
       50
176
     1
 90
       50
176
     1
290
     0
176
     1
 90
       50
176
     1
 62
   256
176
     0
 40
1.0
176
     0
 90
        2
176
     1
  1
strokes_ogs.tif
176
     1
290
     0
176
     1
 40
1.0
176
     1
 40
1.0
176
     1
  0
VISUALSTYLE
  5
3F
102
{ACAD_REACTORS
330
2A
102
}
330
2A
100
AcDbVisualStyle
  2
Sketchy
 70
    24
177
     3
291
     0
 70
    58
 90
        1
176
     1
 90
        2
176
     1
 90
        2
176
     1
 90
        0
176
     1
 40
0.6
176
     1
 40
30.0
176
     1
 62
     7
420
 16777215
176
     1
 90
        2
176
     1
 90
        2
176
     1
 62
     7
176
     1
 62
     7
176
     1
 90
        1
176
     1
 90
        1
176
     1
 40
40.0
176
     1
 90
       11
176
     1
 62
     7
176
     1
 40
1.0
176
     1
 90
        1
176
     1
 90
        6
176
     1
 90
        2
176
     1
 62
     7
176
     1
 90
        6
176
     1
 90
        0
176
     1
 90
        0
176
     1
290
     0
176
     1
 90
        1
176
     1
 40
0.0
176
     1
 90
        0
176
     1
290
     0
176
     1
290
     1
176
     1
290
     1
176
     1
290
     0
176
     1
290
     0
176
     1
290
     0
176
     1
290
     0
176
     1
290
     0
176
     1
290
     0
176
     1
 90
       50
176
     1
 40
0.0
176
     1
 40
1.0
176
     1
 90
        0
176
     1
 62
    18
420
        0
176
     1
 90
       50
176
     1
 90
        3
176
     1
 62
     5
420
      255
176
     1
290
     0
176
     1
 90
       50
176
     1
 90
       50
176
     1
 90
       50
176
     1
290
     0
176
     1
 90
       50
176
     1
 62
   256
176
     0
 40
1.0
176
     0
 90
        2
176
     1
  1
strokes_ogs.tif
176
     1
290
     0
176
     1
 40
1.0
176
     1
 40
1.0
176
     1
  0
VISUALSTYLE
  5
37
102
{ACAD_REACTORS
330
2A
102
}
330
2A
100
AcDbVisualStyle
  2
Thicken
 70
    13
177
     3
291
     1
 70
    58
 90
        2
176
     1
 90
        2
176
     1
 90
        0
176
     1
 90
        0
176
     1
 40
0.6
176
     1
 40
30.0
176
     1
 62
     7
420
 16777215
176
     1
 90
        1
176
     1
 90
        4
176
     1
 62
     7
176
     1
 62
   257
176
     1
 90
        1
176
     1
 90
        1
176
     1
 40
1.0
176
     1
 90
       12
176
     1
 62
     7
176
     1
 40
1.0
176
     1
 90
        1
176
     1
 90
        6
176
     1
 90
        2
176
     1
 62
     7
176
     1
 90
        5
176
     1
 90
        0
176
     1
 90
        0
176
     1
290
     0
176
     1
 90
        1
176
     1
 40
0.0
176
     1
 90
        0
176
     1
290
     0
176
     1
290
     1
176
     1
290
     1
176
     1
290
     0
176
     1
290
     0
176
     1
290
     0
176
     1
290
     0
176
     1
290
     0
176
     1
290
     0
176
     1
 90
       50
176
     1
 40
0.0
176
     1
 40
1.0
176
     1
 90
        0
176
     1
 62
    18
420
        0
176
     1
 90
       50
176
     1
 90
        3
176
     1
 62
     5
420
      255
176
     1
290
     0
176
     1
 90
       50
176
     1
 90
       50
176
     1
 90
       50
176
     1
290
     0
176
     1
 90
       50
176
     1
 62
   256
176
     0
 40
1.0
176
     0
 90
        2
176
     1
  1
strokes_ogs.tif
176
     1
290
     0
176
     1
 40
1.0
176
     1
 40
1.0
176
     1
  0
VISUALSTYLE
  5
30
102
{ACAD_REACTORS
330
2A
102
}
330
2A
100
AcDbVisualStyle
  2
Wireframe
 70
     5
177
     3
291
     0
 70
    58
 90
        0
176
     1
 90
        2
176
     1
 90
        0
176
     1
 90
        0
176
     1
 40
0.6
176
     1
 40
30.0
176
     1
 62
     7
420
 16777215
176
     1
 90
        1
176
     1
 90
        4
176
     1
 62
     7
176
     1
 62
   257
176
     1
 90
        1
176
     1
 90
        1
176
     1
 40
1.0
176
     1
 90
        0
176
     1
 62
   257
176
     1
 40
1.0
176
     1
 90
        1
176
     1
 90
        6
176
     1
 90
        2
176
     1
 62
     7
176
     1
 90
        3
176
     1
 90
        0
176
     1
 90
        0
176
     1
290
     0
176
     1
 90
        1
176
     1
 40
0.0
176
     1
 90
        0
176
     1
290
     0
176
     1
290
     1
176
     1
290
     1
176
     1
290
     0
176
     1
290
     0
176
     1
290
     0
176
     1
290
     0
176
     1
290
     0
176
     1
290
     0
176
     1
 90
       50
176
     1
 40
0.0
176
     1
 40
1.0
176
     1
 90
        0
176
     1
 62
    18
420
        0
176
     1
 90
       50
176
     1
 90
        3
176
     1
 62
     5
420
      255
176
     1
290
     0
176
     1
 90
       50
176
     1
 90
       50
176
     1
 90
       50
176
     1
290
     0
176
     1
 90
       50
176
     1
 62
   256
176
     0
 40
1.0
176
     0
 90
        2
176
     1
  1
strokes_ogs.tif
176
     1
290
     0
176
     1
 40
1.0
176
     1
 40
1.0
176
     1
  0
VISUALSTYLE
  5
40
102
{ACAD_REACTORS
330
2A
102
}
330
2A
100
AcDbVisualStyle
  2
X-Ray
 70
    25
177
     3
291
     0
 70
    58
 90
        2
176
     1
 90
        2
176
     1
 90
        1
176
     1
 90
        1
176
     1
 40
0.5
176
     1
 40
30.0
176
     1
 62
     7
420
 16777215
176
     1
 90
        1
176
     1
 90
        0
176
     1
 62
     7
176
     1
 62
   257
176
     1
 90
        1
176
     1
 90
        1
176
     1
 40
1.0
176
     1
 90
        8
176
     1
 62
     7
176
     1
 40
1.0
176
     1
 90
        1
176
     1
 90
        6
176
     1
 90
        2
176
     1
 62
     7
176
     1
 90
        3
176
     1
 90
        0
176
     1
 90
        0
176
     1
290
     0
176
     1
 90
       13
176
     1
 40
0.0
176
     1
 90
        0
176
     1
290
     0
176
     1
290
     1
176
     1
290
     1
176
     1
290
     0
176
     1
290
     0
176
     1
290
     0
176
     1
290
     0
176
     1
290
     0
176
     1
290
     0
176
     1
 90
       50
176
     1
 40
0.0
176
     1
 40
1.0
176
     1
 90
        0
176
     1
 62
    18
420
        0
176
     1
 90
       50
176
     1
 90
        3
176
     1
 62
     5
420
      255
176
     1
290
     0
176
     1
 90
       50
176
     1
 90
       50
176
     1
 90
       50
176
     1
290
     0
176
     1
 90
       50
176
     1
 62
   256
176
     0
 40
1.0
176
     0
 90
        2
176
     1
  1
strokes_ogs.tif
176
     1
290
     0
176
     1
 40
1.0
176
     1
 40
1.0
176
     1
  0
DICTIONARYVAR
  5
19E
102
{ACAD_REACTORS
330
19D
102
}
330
19D
100
DictionaryVariables
280
     0
  1
1:1
  0
DICTIONARYVAR
  5
1A3
102
{ACAD_REACTORS
330
19D
102
}
330
19D
100
DictionaryVariables
280
     0
  1
Standard
  0
DICTIONARYVAR
  5
1A2
102
{ACAD_REACTORS
330
19D
102
}
330
19D
100
DictionaryVariables
280
     0
  1
Standard
  0
DICTIONARY
  5
19F
330
6A
100
AcDbDictionary
280
     1
281
     1
  3
ACAD_ROUNDTRIP_2008_TABLESTYLE_CELLSTYLEMAP
360
1A0
  0
CELLSTYLEMAP
  5
1A0
102
{ACAD_REACTORS
330
19F
102
}
330
19F
100
AcDbCellStyleMap
 90
        3
300
CELLSTYLE
  1
TABLEFORMAT_BEGIN
 90
        5
170
     1
 91
        0
 92
    32768
 62
   257
 93
        1
300
CONTENTFORMAT
  1
CONTENTFORMAT_BEGIN
 90
        0
 91
        0
 92
        4
 93
        0
300

 40
0.0
140
1.0
 94
        5
 62
     0
340
11
144
6.0
309
CONTENTFORMAT_END
171
     1
301
MARGIN
  1
CELLMARGIN_BEGIN
 40
1.5
 40
1.5
 40
1.5
 40
1.5
 40
1.5
 40
1.5
309
CELLMARGIN_END
 94
        6
 95
        1
302
GRIDFORMAT
  1
GRIDFORMAT_BEGIN
 90
        0
 91
        1
 62
     0
 92
       -2
340
14
 93
        0
 40
0.045
309
GRIDFORMAT_END
 95
        2
302
GRIDFORMAT
  1
GRIDFORMAT_BEGIN
 90
        0
 91
        1
 62
     0
 92
       -2
340
14
 93
        0
 40
0.045
309
GRIDFORMAT_END
 95
        4
302
GRIDFORMAT
  1
GRIDFORMAT_BEGIN
 90
        0
 91
        1
 62
     0
 92
       -2
340
14
 93
        0
 40
0.045
309
GRIDFORMAT_END
 95
        8
302
GRIDFORMAT
  1
GRIDFORMAT_BEGIN
 90
        0
 91
        1
 62
     0
 92
       -2
340
14
 93
        0
 40
0.045
309
GRIDFORMAT_END
 95
       16
302
GRIDFORMAT
  1
GRIDFORMAT_BEGIN
 90
        0
 91
        1
 62
     0
 92
       -2
340
14
 93
        0
 40
0.045
309
GRIDFORMAT_END
 95
       32
302
GRIDFORMAT
  1
GRIDFORMAT_BEGIN
 90
        0
 91
        1
 62
     0
 92
       -2
340
14
 93
        0
 40
0.045
309
GRIDFORMAT_END
309
TABLEFORMAT_END
  1
CELLSTYLE_BEGIN
 90
        1
 91
        1
300
_TITLE
309
CELLSTYLE_END
300
CELLSTYLE
  1
TABLEFORMAT_BEGIN
 90
        5
170
     1
 91
        0
 92
        0
 62
   257
 93
        1
300
CONTENTFORMAT
  1
CONTENTFORMAT_BEGIN
 90
        0
 91
        0
 92
        4
 93
        0
300

 40
0.0
140
1.0
 94
        5
 62
     0
340
11
144
4.5
309
CONTENTFORMAT_END
171
     1
301
MARGIN
  1
CELLMARGIN_BEGIN
 40
1.5
 40
1.5
 40
1.5
 40
1.5
 40
1.5
 40
1.5
309
CELLMARGIN_END
 94
        6
 95
        1
302
GRIDFORMAT
  1
GRIDFORMAT_BEGIN
 90
        0
 91
        1
 62
     0
 92
       -2
340
14
 93
        0
 40
0.045
309
GRIDFORMAT_END
 95
        2
302
GRIDFORMAT
  1
GRIDFORMAT_BEGIN
 90
        0
 91
        1
 62
     0
 92
       -2
340
14
 93
        0
 40
0.045
309
GRIDFORMAT_END
 95
        4
302
GRIDFORMAT
  1
GRIDFORMAT_BEGIN
 90
        0
 91
        1
 62
     0
 92
       -2
340
14
 93
        0
 40
0.045
309
GRIDFORMAT_END
 95
        8
302
GRIDFORMAT
  1
GRIDFORMAT_BEGIN
 90
        0
 91
        1
 62
     0
 92
       -2
340
14
 93
        0
 40
0.045
309
GRIDFORMAT_END
 95
       16
302
GRIDFORMAT
  1
GRIDFORMAT_BEGIN
 90
        0
 91
        1
 62
     0
 92
       -2
340
14
 93
        0
 40
0.045
309
GRIDFORMAT_END
 95
       32
302
GRIDFORMAT
  1
GRIDFORMAT_BEGIN
 90
        0
 91
        1
 62
     0
 92
       -2
340
14
 93
        0
 40
0.045
309
GRIDFORMAT_END
309
TABLEFORMAT_END
  1
CELLSTYLE_BEGIN
 90
        2
 91
        1
300
_HEADER
309
CELLSTYLE_END
300
CELLSTYLE
  1
TABLEFORMAT_BEGIN
 90
        5
170
     1
 91
        0
 92
        0
 62
   257
 93
        1
300
CONTENTFORMAT
  1
CONTENTFORMAT_BEGIN
 90
        0
 91
        0
 92
        4
 93
        0
300

 40
0.0
140
1.0
 94
        2
 62
     0
340
11
144
4.5
309
CONTENTFORMAT_END
171
     1
301
MARGIN
  1
CELLMARGIN_BEGIN
 40
1.5
 40
1.5
 40
1.5
 40
1.5
 40
1.5
 40
1.5
309
CELLMARGIN_END
 94
        6
 95
        1
302
GRIDFORMAT
  1
GRIDFORMAT_BEGIN
 90
        0
 91
        1
 62
     0
 92
       -2
340
14
 93
        0
 40
0.045
309
GRIDFORMAT_END
 95
        2
302
GRIDFORMAT
  1
GRIDFORMAT_BEGIN
 90
        0
 91
        1
 62
     0
 92
       -2
340
14
 93
        0
 40
0.045
309
GRIDFORMAT_END
 95
        4
302
GRIDFORMAT
  1
GRIDFORMAT_BEGIN
 90
        0
 91
        1
 62
     0
 92
       -2
340
14
 93
        0
 40
0.045
309
GRIDFORMAT_END
 95
        8
302
GRIDFORMAT
  1
GRIDFORMAT_BEGIN
 90
        0
 91
        1
 62
     0
 92
       -2
340
14
 93
        0
 40
0.045
309
GRIDFORMAT_END
 95
       16
302
GRIDFORMAT
  1
GRIDFORMAT_BEGIN
 90
        0
 91
        1
 62
     0
 92
       -2
340
14
 93
        0
 40
0.045
309
GRIDFORMAT_END
 95
       32
302
GRIDFORMAT
  1
GRIDFORMAT_BEGIN
 90
        0
 91
        1
 62
     0
 92
       -2
340
14
 93
        0
 40
0.045
309
GRIDFORMAT_END
309
TABLEFORMAT_END
  1
CELLSTYLE_BEGIN
 90
        3
 91
        2
300
_DATA
309
CELLSTYLE_END
  0
ENDSEC
  0
EOF