0
SECTION
  2
HEADER
  9
$ACADVER
  1
AC1027
  9
$ACADMAINTVER
 70
     8
  9
$DWGCODEPAGE
  3
ANSI_1252
  9
$REQUIREDVERSIONS
160
                 0
  9
$COMMENTS
  1
File was created by Cadenas
  9
$CUSTOMPROPERTYTAG
  1
NN
  9
$CUSTOMPROPERTY
  1
Set Screw Four-Bolt Flange Inch Bore - Polymer Housing, Stainless Steel Insert
  9
$CUSTOMPROPERTYTAG
  1
NT
  9
$CUSTOMPROPERTY
  1
SC 4 Bolt Flange Bearings -(Normal Duty) -Corrosion Resistant Insert -Polymer Housed -E-Z KLEEN
  9
$CUSTOMPROPERTYTAG
  1
NB
  9
$CUSTOMPROPERTY
  1
136728
  9
$CUSTOMPROPERTYTAG
  1
NBSYN
  9
$CUSTOMPROPERTY
  1
$PN.
  9
$CUSTOMPROPERTYTAG
  1
LINA
  9
$CUSTOMPROPERTY
  1
136728
  9
$CUSTOMPROPERTYTAG
  1
SERIES
  9
$CUSTOMPROPERTY
  1
206
  9
$CUSTOMPROPERTYTAG
  1
SS
  9
$CUSTOMPROPERTY
  1
1-1/4
  9
$CUSTOMPROPERTYTAG
  1
PN
  9
$CUSTOMPROPERTY
  1
136728
  9
$CUSTOMPROPERTYTAG
  1
DESCRIPTION
  9
$CUSTOMPROPERTY
  1
F4B-SCEZ-104S-PSS
  9
$CUSTOMPROPERTYTAG
  1
W
  9
$CUSTOMPROPERTY
  1
0.84
  9
$CUSTOMPROPERTYTAG
  1
A
  9
$CUSTOMPROPERTY
  1
1.52
  9
$CUSTOMPROPERTYTAG
  1
B
  9
$CUSTOMPROPERTY
  1
4.25
  9
$CUSTOMPROPERTYTAG
  1
C
  9
$CUSTOMPROPERTY
  1
1.72
  9
$CUSTOMPROPERTYTAG
  1
D
  9
$CUSTOMPROPERTY
  1
3.25
  9
$CUSTOMPROPERTYTAG
  1
F
  9
$CUSTOMPROPERTY
  1
3/8
  9
$CUSTOMPROPERTYTAG
  1
H
  9
$CUSTOMPROPERTY
  1
0.60
  9
$CUSTOMPROPERTYTAG
  1
J
  9
$CUSTOMPROPERTY
  1
0.45
  9
$CUSTOMPROPERTYTAG
  1
L
  9
$CUSTOMPROPERTY
  1
1.57
  9
$CUSTOMPROPERTYTAG
  1
COMPANY
  9
$CUSTOMPROPERTY
  1
baldor
  9
$INSBASE
 10
0.0
 20
0.0
 30
0.0
  9
$EXTMIN
 10
1.000000000000000E+20
 20
1.000000000000000E+20
 30
1.000000000000000E+20
  9
$EXTMAX
 10
-1.000000000000000E+20
 20
-1.000000000000000E+20
 30
-1.000000000000000E+20
  9
$LIMMIN
 10
0.0
 20
0.0
  9
$LIMMAX
 10
12.0
 20
9.0
  9
$ORTHOMODE
 70
     0
  9
$REGENMODE
 70
     1
  9
$FILLMODE
 70
     1
  9
$QTEXTMODE
 70
     0
  9
$MIRRTEXT
 70
     1
  9
$LTSCALE
 40
1.0
  9
$ATTMODE
 70
     1
  9
$TEXTSIZE
 40
0.2
  9
$TRACEWID
 40
0.05
  9
$TEXTSTYLE
  7
Standard
  9
$CLAYER
  8
0
  9
$CELTYPE
  6
ByLayer
  9
$CECOLOR
 62
   256
  9
$CELTSCALE
 40
1.0
  9
$DISPSILH
 70
     0
  9
$DIMSCALE
 40
1.0
  9
$DIMASZ
 40
0.18
  9
$DIMEXO
 40
0.0625
  9
$DIMDLI
 40
0.38
  9
$DIMRND
 40
0.0
  9
$DIMDLE
 40
0.0
  9
$DIMEXE
 40
0.18
  9
$DIMTP
 40
0.0
  9
$DIMTM
 40
0.0
  9
$DIMTXT
 40
0.18
  9
$DIMCEN
 40
0.09
  9
$DIMTSZ
 40
0.0
  9
$DIMTOL
 70
     0
  9
$DIMLIM
 70
     0
  9
$DIMTIH
 70
     1
  9
$DIMTOH
 70
     1
  9
$DIMSE1
 70
     0
  9
$DIMSE2
 70
     0
  9
$DIMTAD
 70
     0
  9
$DIMZIN
 70
     0
  9
$DIMBLK
  1

  9
$DIMASO
 70
     1
  9
$DIMSHO
 70
     1
  9
$DIMPOST
  1

  9
$DIMAPOST
  1

  9
$DIMALT
 70
     0
  9
$DIMALTD
 70
     2
  9
$DIMALTF
 40
25.4
  9
$DIMLFAC
 40
1.0
  9
$DIMTOFL
 70
     0
  9
$DIMTVP
 40
0.0
  9
$DIMTIX
 70
     0
  9
$DIMSOXD
 70
     0
  9
$DIMSAH
 70
     0
  9
$DIMBLK1
  1

  9
$DIMBLK2
  1

  9
$DIMSTYLE
  2
Standard
  9
$DIMCLRD
 70
     0
  9
$DIMCLRE
 70
     0
  9
$DIMCLRT
 70
     0
  9
$DIMTFAC
 40
1.0
  9
$DIMGAP
 40
0.09
  9
$DIMJUST
 70
     0
  9
$DIMSD1
 70
     0
  9
$DIMSD2
 70
     0
  9
$DIMTOLJ
 70
     1
  9
$DIMTZIN
 70
     0
  9
$DIMALTZ
 70
     0
  9
$DIMALTTZ
 70
     0
  9
$DIMUPT
 70
     0
  9
$DIMDEC
 70
     4
  9
$DIMTDEC
 70
     4
  9
$DIMALTU
 70
     2
  9
$DIMALTTD
 70
     2
  9
$DIMTXSTY
  7
Standard
  9
$DIMAUNIT
 70
     0
  9
$DIMADEC
 70
     0
  9
$DIMALTRND
 40
0.0
  9
$DIMAZIN
 70
     0
  9
$DIMDSEP
 70
    46
  9
$DIMATFIT
 70
     3
  9
$DIMFRAC
 70
     0
  9
$DIMLDRBLK
  1

  9
$DIMLUNIT
 70
     2
  9
$DIMLWD
 70
    -2
  9
$DIMLWE
 70
    -2
  9
$DIMTMOVE
 70
     0
  9
$DIMFXL
 40
1.0
  9
$DIMFXLON
 70
     0
  9
$DIMJOGANG
 40
0.7853981633974483
  9
$DIMTFILL
 70
     0
  9
$DIMTFILLCLR
 70
     0
  9
$DIMARCSYM
 70
     0
  9
$DIMLTYPE
  6

  9
$DIMLTEX1
  6

  9
$DIMLTEX2
  6

  9
$DIMTXTDIRECTION
 70
     0
  9
$LUNITS
 70
     2
  9
$LUPREC
 70
     4
  9
$SKETCHINC
 40
0.1
  9
$FILLETRAD
 40
0.5
  9
$AUNITS
 70
     0
  9
$AUPREC
 70
     0
  9
$MENU
  1
.
  9
$ELEVATION
 40
0.0
  9
$PELEVATION
 40
0.0
  9
$THICKNESS
 40
0.0
  9
$LIMCHECK
 70
     0
  9
$CHAMFERA
 40
0.0
  9
$CHAMFERB
 40
0.0
  9
$CHAMFERC
 40
0.0
  9
$CHAMFERD
 40
0.0
  9
$SKPOLY
 70
     0
  9
$TDCREATE
 40
2458168.893897847
  9
$TDUCREATE
 40
2458168.852231181
  9
$TDUPDATE
 40
2458168.893898021
  9
$TDUUPDATE
 40
2458168.852231354
  9
$TDINDWG
 40
0.0000000116
  9
$TDUSRTIMER
 40
0.0000000116
  9
$USRTIMER
 70
     1
  9
$ANGBASE
 50
0.0
  9
$ANGDIR
 70
     0
  9
$PDMODE
 70
     0
  9
$PDSIZE
 40
0.0
  9
$PLINEWID
 40
0.0
  9
$SPLFRAME
 70
     0
  9
$SPLINETYPE
 70
     6
  9
$SPLINESEGS
 70
     8
  9
$HANDSEED
  5
180
  9
$SURFTAB1
 70
     6
  9
$SURFTAB2
 70
     6
  9
$SURFTYPE
 70
     6
  9
$SURFU
 70
     6
  9
$SURFV
 70
     6
  9
$UCSBASE
  2

  9
$UCSNAME
  2

  9
$UCSORG
 10
0.0
 20
0.0
 30
0.0
  9
$UCSXDIR
 10
1.0
 20
0.0
 30
0.0
  9
$UCSYDIR
 10
0.0
 20
1.0
 30
0.0
  9
$UCSORTHOREF
  2

  9
$UCSORTHOVIEW
 70
     0
  9
$UCSORGTOP
 10
0.0
 20
0.0
 30
0.0
  9
$UCSORGBOTTOM
 10
0.0
 20
0.0
 30
0.0
  9
$UCSORGLEFT
 10
0.0
 20
0.0
 30
0.0
  9
$UCSORGRIGHT
 10
0.0
 20
0.0
 30
0.0
  9
$UCSORGFRONT
 10
0.0
 20
0.0
 30
0.0
  9
$UCSORGBACK
 10
0.0
 20
0.0
 30
0.0
  9
$PUCSBASE
  2

  9
$PUCSNAME
  2

  9
$PUCSORG
 10
0.0
 20
0.0
 30
0.0
  9
$PUCSXDIR
 10
1.0
 20
0.0
 30
0.0
  9
$PUCSYDIR
 10
0.0
 20
1.0
 30
0.0
  9
$PUCSORTHOREF
  2

  9
$PUCSORTHOVIEW
 70
     0
  9
$PUCSORGTOP
 10
0.0
 20
0.0
 30
0.0
  9
$PUCSORGBOTTOM
 10
0.0
 20
0.0
 30
0.0
  9
$PUCSORGLEFT
 10
0.0
 20
0.0
 30
0.0
  9
$PUCSORGRIGHT
 10
0.0
 20
0.0
 30
0.0
  9
$PUCSORGFRONT
 10
0.0
 20
0.0
 30
0.0
  9
$PUCSORGBACK
 10
0.0
 20
0.0
 30
0.0
  9
$USERI1
 70
     0
  9
$USERI2
 70
     0
  9
$USERI3
 70
     0
  9
$USERI4
 70
     0
  9
$USERI5
 70
     0
  9
$USERR1
 40
0.0
  9
$USERR2
 40
0.0
  9
$USERR3
 40
0.0
  9
$USERR4
 40
0.0
  9
$USERR5
 40
0.0
  9
$WORLDVIEW
 70
     1
  9
$SHADEDGE
 70
     3
  9
$SHADEDIF
 70
    70
  9
$TILEMODE
 70
     1
  9
$MAXACTVP
 70
    64
  9
$PINSBASE
 10
0.0
 20
0.0
 30
0.0
  9
$PLIMCHECK
 70
     0
  9
$PEXTMIN
 10
1.000000000000000E+20
 20
1.000000000000000E+20
 30
1.000000000000000E+20
  9
$PEXTMAX
 10
-1.000000000000000E+20
 20
-1.000000000000000E+20
 30
-1.000000000000000E+20
  9
$PLIMMIN
 10
0.0
 20
0.0
  9
$PLIMMAX
 10
12.0
 20
9.0
  9
$UNITMODE
 70
     0
  9
$VISRETAIN
 70
     1
  9
$PLINEGEN
 70
     0
  9
$PSLTSCALE
 70
     1
  9
$TREEDEPTH
 70
  3020
  9
$CMLSTYLE
  2
Standard
  9
$CMLJUST
 70
     0
  9
$CMLSCALE
 40
1.0
  9
$PROXYGRAPHICS
 70
     1
  9
$MEASUREMENT
 70
     0
  9
$CELWEIGHT
370
    -1
  9
$ENDCAPS
280
     0
  9
$JOINSTYLE
280
     0
  9
$LWDISPLAY
290
     0
  9
$INSUNITS
 70
     1
  9
$HYPERLINKBASE
  1

  9
$STYLESHEET
  1

  9
$XEDIT
290
     1
  9
$CEPSNTYPE
380
     0
  9
$PSTYLEMODE
290
     1
  9
$FINGERPRINTGUID
  2
{AAF6FE15-C2CB-421C-92D9-BEE5491ACE86}
  9
$VERSIONGUID
  2
{FAEB1C32-E019-11D5-929B-00C0DF256EC4}
  9
$EXTNAMES
290
     1
  9
$PSVPSCALE
 40
0.0
  9
$OLESTARTUP
290
     0
  9
$SORTENTS
280
   127
  9
$INDEXCTL
280
     0
  9
$HIDETEXT
280
     1
  9
$XCLIPFRAME
280
     2
  9
$HALOGAP
280
     0
  9
$OBSCOLOR
 70
   257
  9
$OBSLTYPE
280
     0
  9
$INTERSECTIONDISPLAY
280
     0
  9
$INTERSECTIONCOLOR
 70
   257
  9
$DIMASSOC
280
     2
  9
$PROJECTNAME
  1

  9
$CAMERADISPLAY
290
     0
  9
$LENSLENGTH
 40
50.0
  9
$CAMERAHEIGHT
 40
0.0
  9
$STEPSPERSEC
 40
2.0
  9
$STEPSIZE
 40
6.0
  9
$3DDWFPREC
 40
2.0
  9
$PSOLWIDTH
 40
0.25
  9
$PSOLHEIGHT
 40
4.0
  9
$LOFTANG1
 40
1.570796326794897
  9
$LOFTANG2
 40
1.570796326794897
  9
$LOFTMAG1
 40
0.0
  9
$LOFTMAG2
 40
0.0
  9
$LOFTPARAM
 70
     7
  9
$LOFTNORMALS
280
     1
  9
$LATITUDE
 40
37.795
  9
$LONGITUDE
 40
-122.394
  9
$NORTHDIRECTION
 40
0.0
  9
$TIMEZONE
 70
 -8000
  9
$LIGHTGLYPHDISPLAY
280
     1
  9
$TILEMODELIGHTSYNCH
280
     1
  9
$CMATERIAL
347
44
  9
$SOLIDHIST
280
     0
  9
$SHOWHIST
280
     1
  9
$DWFFRAME
280
     2
  9
$DGNFRAME
280
     2
  9
$REALWORLDSCALE
290
     1
  9
$INTERFERECOLOR
 62
   256
  9
$CSHADOW
280
     0
  9
$SHADOWPLANELOCATION
 40
0.0
  0
ENDSEC
  0
SECTION
  2
CLASSES
  0
CLASS
  1
ACDBDICTIONARYWDFLT
  2
AcDbDictionaryWithDefault
  3
ObjectDBX Classes
 90
        0
 91
        4
280
     0
281
     0
  0
CLASS
  1
VISUALSTYLE
  2
AcDbVisualStyle
  3
ObjectDBX Classes
 90
     4095
 91
        4
280
     0
281
     0
  0
CLASS
  1
MATERIAL
  2
AcDbMaterial
  3
ObjectDBX Classes
 90
     1153
 91
        4
280
     0
281
     0
  0
CLASS
  1
SCALE
  2
AcDbScale
  3
ObjectDBX Classes
 90
     1153
 91
        4
280
     0
281
     0
  0
CLASS
  1
TABLESTYLE
  2
AcDbTableStyle
  3
ObjectDBX Classes
 90
     4095
 91
        4
280
     0
281
     0
  0
CLASS
  1
MLEADERSTYLE
  2
AcDbMLeaderStyle
  3
ACDB_MLEADERSTYLE_CLASS
 90
     4095
 91
        4
280
     0
281
     0
  0
CLASS
  1
SUN
  2
AcDbSun
  3
SCENEOE
 90
     1153
 91
        4
280
     0
281
     0
  0
CLASS
  1
DICTIONARYVAR
  2
AcDbDictionaryVar
  3
ObjectDBX Classes
 90
        0
 91
        4
280
     0
281
     0
  0
CLASS
  1
CELLSTYLEMAP
  2
AcDbCellStyleMap
  3
ObjectDBX Classes
 90
     1152
 91
        4
280
     0
281
     0
  0
ENDSEC
  0
SECTION
  2
TABLES
  0
TABLE
  2
VPORT
  5
8
330
0
100
AcDbSymbolTable
 70
     1
  0
VPORT
  5
29
330
8
100
AcDbSymbolTableRecord
100
AcDbViewportTableRecord
  2
*Active
 70
     0
 10
0.0
 20
0.0
 11
1.0
 21
1.0
 12
-0.8662500000000009
 22
0.0
 13
0.0
 23
0.0
 14
0.5
 24
0.5
 15
0.5
 25
0.5
 16
0.0
 26
0.0
 36
1.0
 17
0.0
 27
0.0
 37
0.0
 40
4.335
 41
0.4375294117647052
 42
50.0
 43
0.0
 44
0.0
 50
0.0
 51
0.0
 71
     0
 72
   100
 73
     1
 74
     3
 75
     0
 76
     0
 77
     0
 78
     0
281
     0
 65
     1
110
0.0
120
0.0
130
0.0
111
1.0
121
0.0
131
0.0
112
0.0
122
1.0
132
0.0
 79
     0
146
0.0
348
2F
 60
     3
 61
     5
292
     1
282
     1
141
0.0
142
0.0
 63
   250
361
6D
  0
ENDTAB
  0
TABLE
  2
LTYPE
  5
5
330
0
100
AcDbSymbolTable
 70
     3
  0
LTYPE
  5
14
330
5
100
AcDbSymbolTableRecord
100
AcDbLinetypeTableRecord
  2
ByBlock
 70
     0
  3

 72
    65
 73
     0
 40
0.0
  0
LTYPE
  5
15
330
5
100
AcDbSymbolTableRecord
100
AcDbLinetypeTableRecord
  2
ByLayer
 70
     0
  3

 72
    65
 73
     0
 40
0.0
  0
LTYPE
  5
16
330
5
100
AcDbSymbolTableRecord
100
AcDbLinetypeTableRecord
  2
Continuous
 70
     0
  3
Solid line
 72
    65
 73
     0
 40
0.0
  0
LTYPE
  5
98
330
5
100
AcDbSymbolTableRecord
100
AcDbLinetypeTableRecord
  2
Dashed
 70
     0
  3

 72
    65
 73
     2
 40
2.0
 49
1.0
 74
     0
 49
-1.0
 74
     0
  0
LTYPE
  5
A6
330
5
100
AcDbSymbolTableRecord
100
AcDbLinetypeTableRecord
  2
Center
 70
     0
  3

 72
    65
 73
     4
 40
1.5
 49
0.45
 74
     0
 49
-0.5
 74
     0
 49
0.05
 74
     0
 49
-0.5
 74
     0
  0
ENDTAB
  0
TABLE
  2
LAYER
  5
2
330
0
100
AcDbSymbolTable
 70
     7
  0
LAYER
  5
10
330
2
100
AcDbSymbolTableRecord
100
AcDbLayerTableRecord
  2
0
 70
     0
 62
     7
  6
Continuous
370
    -3
390
F
347
46
348
0
  0
LAYER
  5
72
330
2
100
AcDbSymbolTableRecord
100
AcDbLayerTableRecord
  2
AM_6
 70
     0
 62
    -2
  6
Continuous
370
    35
390
F
347
46
348
0
  0
LAYER
  5
99
330
2
100
AcDbSymbolTableRecord
100
AcDbLayerTableRecord
  2
AM_9
 70
     0
 62
     6
  6
Dashed
370
    25
390
F
347
46
348
0
  0
LAYER
  5
A0
330
2
100
AcDbSymbolTableRecord
100
AcDbLayerTableRecord
  2
AM_5
 70
     0
 62
     3
  6
Continuous
370
    25
390
F
347
46
348
0
  0
LAYER
  5
A7
330
2
100
AcDbSymbolTableRecord
100
AcDbLayerTableRecord
  2
AM_7
 70
     0
 62
     7
  6
Center
370
    25
390
F
347
46
348
0
  0
LAYER
  5
A9
330
2
100
AcDbSymbolTableRecord
100
AcDbLayerTableRecord
  2
AM_4
 70
     0
 62
     7
  6
Continuous
370
    50
390
F
347
46
348
0
  0
LAYER
  5
172
330
2
100
AcDbSymbolTableRecord
100
AcDbLayerTableRecord
  2
ConnectionPoints
 70
     0
 62
     7
  6
Continuous
370
    50
390
F
347
46
348
0
  0
ENDTAB
  0
TABLE
  2
STYLE
  5
3
330
0
100
AcDbSymbolTable
 70
     1
  0
STYLE
  5
11
330
3
100
AcDbSymbolTableRecord
100
AcDbTextStyleTableRecord
  2
Standard
 70
     0
 40
0.0
 41
1.0
 50
0.0
 71
     0
 42
0.2
  3
txt
  4

  0
ENDTAB
  0
TABLE
  2
VIEW
  5
6
330
0
100
AcDbSymbolTable
 70
     0
  0
ENDTAB
  0
TABLE
  2
UCS
  5
7
330
0
100
AcDbSymbolTable
 70
     0
  0
ENDTAB
  0
TABLE
  2
APPID
  5
9
330
0
100
AcDbSymbolTable
 70
     1
  0
APPID
  5
12
330
9
100
AcDbSymbolTableRecord
100
AcDbRegAppTableRecord
  2
ACAD
 70
     0
  0
ENDTAB
  0
TABLE
  2
DIMSTYLE
  5
A
330
0
100
AcDbSymbolTable
 70
     1
100
AcDbDimStyleTable
  0
DIMSTYLE
105
27
330
A
100
AcDbSymbolTableRecord
100
AcDbDimStyleTableRecord
  2
Standard
 70
     0
178
     0
340
11
  0
ENDTAB
  0
TABLE
  2
BLOCK_RECORD
  5
1
330
0
100
AcDbSymbolTable
 70
     5
  0
BLOCK_RECORD
  5
1F
330
1
100
AcDbSymbolTableRecord
100
AcDbBlockTableRecord
  2
*Model_Space
340
22
 70
     0
280
     1
281
     0
  0
BLOCK_RECORD
  5
1B
330
1
100
AcDbSymbolTableRecord
100
AcDbBlockTableRecord
  2
*Paper_Space
340
1E
 70
     0
280
     1
281
     0
  0
BLOCK_RECORD
  5
23
330
1
100
AcDbSymbolTableRecord
100
AcDbBlockTableRecord
  2
*Paper_Space0
340
26
 70
     0
280
     1
281
     0
  0
BLOCK_RECORD
  5
6E
330
1
100
AcDbSymbolTableRecord
100
AcDbBlockTableRecord
  2
1_136728_2
340
0
102
{BLKREFS
331
6F
102
}
 70
     0
280
     1
281
     0
  0
BLOCK_RECORD
  5
86
330
1
100
AcDbSymbolTableRecord
100
AcDbBlockTableRecord
  2
2_405020c_Inch_0_in_136728_2
340
0
102
{BLKREFS
331
87
102
}
 70
     0
280
     1
281
     0
  0
BLOCK_RECORD
  5
D1
330
1
100
AcDbSymbolTableRecord
100
AcDbBlockTableRecord
  2
3_127821_0_in_136728_2
340
0
102
{BLKREFS
331
D2
102
}
 70
     0
280
     1
281
     0
  0
BLOCK_RECORD
  5
121
330
1
100
AcDbSymbolTableRecord
100
AcDbBlockTableRecord
  2
4_136728H_0_in_136728_2
340
0
102
{BLKREFS
331
122
102
}
 70
     0
280
     1
281
     0
  0
ENDTAB
  0
ENDSEC
  0
SECTION
  2
BLOCKS
  0
BLOCK
  5
20
330
1F
100
AcDbEntity
  8
0
100
AcDbBlockBegin
  2
*Model_Space
 70
     0
 10
0.0
 20
0.0
 30
0.0
  3
*Model_Space
  1

  0
ENDBLK
  5
21
330
1F
100
AcDbEntity
  8
0
100
AcDbBlockEnd
  0
BLOCK
  5
1C
330
1B
100
AcDbEntity
 67
     1
  8
0
100
AcDbBlockBegin
  2
*Paper_Space
 70
     0
 10
0.0
 20
0.0
 30
0.0
  3
*Paper_Space
  1

  0
ENDBLK
  5
1D
330
1B
100
AcDbEntity
 67
     1
  8
0
100
AcDbBlockEnd
  0
BLOCK
  5
24
330
23
100
AcDbEntity
  8
0
100
AcDbBlockBegin
  2
*Paper_Space0
 70
     0
 10
0.0
 20
0.0
 30
0.0
  3
*Paper_Space0
  1

  0
ENDBLK
  5
25
330
23
100
AcDbEntity
  8
0
100
AcDbBlockEnd
  0
BLOCK
  5
70
330
6E
100
AcDbEntity
  8
0
100
AcDbBlockBegin
  2
1_136728_2
 70
     2
 10
0.0
 20
0.0
 30
0.0
  3
1_136728_2
  1

  0
ATTDEF
  5
73
330
6E
100
AcDbEntity
  8
AM_6
100
AcDbText
 10
5.0635
 20
2.125
 30
0.0
 40
0.5
  1
Set Screw Four-Bolt Flange Inch Bore - Polymer Housing, Stainless Steel Insert
100
AcDbAttributeDefinition
  3

  2
NN
 70
     8
280
     0
  0
ATTDEF
  5
74
330
6E
100
AcDbEntity
  8
AM_6
100
AcDbText
 10
5.0635
 20
1.625
 30
0.0
 40
0.5
  1
SC 4 Bolt Flange Bearings -(Normal Duty) -Corrosion Resistant Insert -Polymer Housed -E-Z KLEEN
100
AcDbAttributeDefinition
  3

  2
NT
 70
     8
280
     0
  0
ATTDEF
  5
75
330
6E
100
AcDbEntity
  8
AM_6
100
AcDbText
 10
5.0635
 20
1.125
 30
0.0
 40
0.5
  1
136728
100
AcDbAttributeDefinition
  3

  2
NB
 70
     8
280
     0
  0
ATTDEF
  5
76
330
6E
100
AcDbEntity
  8
AM_6
100
AcDbText
 10
5.0635
 20
0.625
 30
0.0
 40
0.5
  1
$PN.
100
AcDbAttributeDefinition
  3

  2
NBSYN
 70
     8
280
     0
  0
ATTDEF
  5
77
330
6E
100
AcDbEntity
  8
AM_6
100
AcDbText
 10
5.0635
 20
0.125
 30
0.0
 40
0.5
  1
136728
100
AcDbAttributeDefinition
  3

  2
LINA
 70
     8
280
     0
  0
ATTDEF
  5
78
330
6E
100
AcDbEntity
  8
AM_6
100
AcDbText
 10
5.0635
 20
-0.375
 30
0.0
 40
0.5
  1
206
100
AcDbAttributeDefinition
  3

  2
SERIES
 70
     8
280
     0
  0
ATTDEF
  5
79
330
6E
100
AcDbEntity
  8
AM_6
100
AcDbText
 10
5.0635
 20
-0.875
 30
0.0
 40
0.5
  1
1-1/4
100
AcDbAttributeDefinition
  3

  2
SS
 70
     8
280
     0
  0
ATTDEF
  5
7A
330
6E
100
AcDbEntity
  8
AM_6
100
AcDbText
 10
5.0635
 20
-1.375
 30
0.0
 40
0.5
  1
136728
100
AcDbAttributeDefinition
  3

  2
PN
 70
     8
280
     0
  0
ATTDEF
  5
7B
330
6E
100
AcDbEntity
  8
AM_6
100
AcDbText
 10
5.0635
 20
-1.875
 30
0.0
 40
0.5
  1
F4B-SCEZ-104S-PSS
100
AcDbAttributeDefinition
  3

  2
DESCRIPTION
 70
     8
280
     0
  0
ATTDEF
  5
7C
330
6E
100
AcDbEntity
  8
AM_6
100
AcDbText
 10
5.0635
 20
-2.375
 30
0.0
 40
0.5
  1
0.84
100
AcDbAttributeDefinition
  3

  2
W
 70
     8
280
     0
  0
ATTDEF
  5
7D
330
6E
100
AcDbEntity
  8
AM_6
100
AcDbText
 10
5.0635
 20
-2.875
 30
0.0
 40
0.5
  1
1.52
100
AcDbAttributeDefinition
  3

  2
A
 70
     8
280
     0
  0
ATTDEF
  5
7E
330
6E
100
AcDbEntity
  8
AM_6
100
AcDbText
 10
5.0635
 20
-3.375
 30
0.0
 40
0.5
  1
4.25
100
AcDbAttributeDefinition
  3

  2
B
 70
     8
280
     0
  0
ATTDEF
  5
7F
330
6E
100
AcDbEntity
  8
AM_6
100
AcDbText
 10
5.0635
 20
-3.875
 30
0.0
 40
0.5
  1
1.72
100
AcDbAttributeDefinition
  3

  2
C
 70
     8
280
     0
  0
ATTDEF
  5
80
330
6E
100
AcDbEntity
  8
AM_6
100
AcDbText
 10
5.0635
 20
-4.375
 30
0.0
 40
0.5
  1
3.25
100
AcDbAttributeDefinition
  3

  2
D
 70
     8
280
     0
  0
ATTDEF
  5
81
330
6E
100
AcDbEntity
  8
AM_6
100
AcDbText
 10
5.0635
 20
-4.875
 30
0.0
 40
0.5
  1
3/8
100
AcDbAttributeDefinition
  3

  2
F
 70
     8
280
     0
  0
ATTDEF
  5
82
330
6E
100
AcDbEntity
  8
AM_6
100
AcDbText
 10
5.0635
 20
-5.375
 30
0.0
 40
0.5
  1
0.60
100
AcDbAttributeDefinition
  3

  2
H
 70
     8
280
     0
  0
ATTDEF
  5
83
330
6E
100
AcDbEntity
  8
AM_6
100
AcDbText
 10
5.0635
 20
-5.875
 30
0.0
 40
0.5
  1
0.45
100
AcDbAttributeDefinition
  3

  2
J
 70
     8
280
     0
  0
ATTDEF
  5
84
330
6E
100
AcDbEntity
  8
AM_6
100
AcDbText
 10
5.0635
 20
-6.375
 30
0.0
 40
0.5
  1
1.57
100
AcDbAttributeDefinition
  3

  2
L
 70
     8
280
     0
  0
ATTDEF
  5
85
330
6E
100
AcDbEntity
  8
AM_6
100
AcDbText
 10
5.0635
 20
-6.875
 30
0.0
 40
0.5
  1
baldor
100
AcDbAttributeDefinition
  3

  2
COMPANY
 70
     8
280
     0
  0
INSERT
  5
87
330
6E
100
AcDbEntity
  8
0
100
AcDbBlockReference
  2
2_405020c_Inch_0_in_136728_2
 10
0.0
 20
0.0
 30
0.0
  0
INSERT
  5
D2
330
6E
100
AcDbEntity
  8
0
100
AcDbBlockReference
  2
3_127821_0_in_136728_2
 10
0.0
 20
0.0
 30
0.0
  0
INSERT
  5
122
330
6E
100
AcDbEntity
  8
0
100
AcDbBlockReference
  2
4_136728H_0_in_136728_2
 10
0.0
 20
0.0
 30
0.0
  0
ENDBLK
  5
71
330
6E
100
AcDbEntity
  8
0
100
AcDbBlockEnd
  0
BLOCK
  5
88
330
86
100
AcDbEntity
  8
0
100
AcDbBlockBegin
  2
2_405020c_Inch_0_in_136728_2
 70
     2
 10
0.0
 20
0.0
 30
0.0
  3
2_405020c_Inch_0_in_136728_2
  1

  0
ATTDEF
  5
8A
330
86
100
AcDbEntity
  8
AM_6
100
AcDbText
 10
4.227408630723041
 20
1.99725
 30
0.0
 40
0.5
  1
405020C -Inch
100
AcDbAttributeDefinition
  3

  2
NN
 70
     8
280
     0
  0
ATTDEF
  5
8B
330
86
100
AcDbEntity
  8
AM_6
100
AcDbText
 10
4.227408630723041
 20
1.49725
 30
0.0
 40
0.5
  1
Grease fitting
100
AcDbAttributeDefinition
  3

  2
NT
 70
     8
280
     0
  0
ATTDEF
  5
8C
330
86
100
AcDbEntity
  8
AM_6
100
AcDbText
 10
4.227408630723041
 20
0.99725
 30
0.0
 40
0.5
  1
405020c-Inch
100
AcDbAttributeDefinition
  3

  2
NB
 70
     8
280
     0
  0
ATTDEF
  5
8D
330
86
100
AcDbEntity
  8
AM_6
100
AcDbText
 10
4.227408630723041
 20
0.49725
 30
0.0
 40
0.5
  1
$MN.-Inch
100
AcDbAttributeDefinition
  3

  2
NBSYN
 70
     8
280
     0
  0
ATTDEF
  5
8E
330
86
100
AcDbEntity
  8
AM_6
100
AcDbText
 10
4.227408630723041
 20
-0.00275
 30
0.0
 40
0.5
  1
405020c
100
AcDbAttributeDefinition
  3

  2
LINA
 70
     8
280
     0
  0
ATTDEF
  5
8F
330
86
100
AcDbEntity
  8
AM_6
100
AcDbText
 10
4.227408630723041
 20
-0.50275
 30
0.0
 40
0.5
  1
405020c
100
AcDbAttributeDefinition
  3

  2
MN
 70
     8
280
     0
  0
ATTDEF
  5
90
330
86
100
AcDbEntity
  8
AM_6
100
AcDbText
 10
4.227408630723041
 20
-1.00275
 30
0.0
 40
0.5
  1
0.230
100
AcDbAttributeDefinition
  3

  2
NDR
 70
     8
280
     0
  0
ATTDEF
  5
91
330
86
100
AcDbEntity
  8
AM_6
100
AcDbText
 10
4.227408630723041
 20
-1.50275
 30
0.0
 40
0.5
  1
0.210
100
AcDbAttributeDefinition
  3

  2
KDR
 70
     8
280
     0
  0
ATTDEF
  5
92
330
86
100
AcDbEntity
  8
AM_6
100
AcDbText
 10
4.227408630723041
 20
-2.00275
 30
0.0
 40
0.5
  1
0.157
100
AcDbAttributeDefinition
  3

  2
BZE
 70
     8
280
     0
  0
ATTDEF
  5
93
330
86
100
AcDbEntity
  8
AM_6
100
AcDbText
 10
4.227408630723041
 20
-2.50275
 30
0.0
 40
0.5
  1
9/32
100
AcDbAttributeDefinition
  3

  2
WAF
 70
     8
280
     0
  0
ATTDEF
  5
94
330
86
100
AcDbEntity
  8
AM_6
100
AcDbText
 10
4.227408630723041
 20
-3.00275
 30
0.0
 40
0.5
  1
0.2813
100
AcDbAttributeDefinition
  3

  2
WAF1
 70
     8
280
     0
  0
ATTDEF
  5
95
330
86
100
AcDbEntity
  8
AM_6
100
AcDbText
 10
4.227408630723041
 20
-3.50275
 30
0.0
 40
0.5
  1
0.545
100
AcDbAttributeDefinition
  3

  2
BL
 70
     8
280
     0
  0
ATTDEF
  5
96
330
86
100
AcDbEntity
  8
AM_6
100
AcDbText
 10
4.227408630723041
 20
-4.00275
 30
0.0
 40
0.5
  1
0.200
100
AcDbAttributeDefinition
  3

  2
TL
 70
     8
280
     0
  0
ATTDEF
  5
97
330
86
100
AcDbEntity
  8
AM_6
100
AcDbText
 10
4.227408630723041
 20
-4.50275
 30
0.0
 40
0.5
  1
baldor
100
AcDbAttributeDefinition
  3

  2
COMPANY
 70
     8
280
     0
  0
LINE
  5
9A
330
86
100
AcDbEntity
  8
AM_9
100
AcDbLine
 10
-0.8349113772963423
 20
1.425
 30
0.0
 11
-1.035088622703658
 21
1.425
 31
0.0
  0
LINE
  5
9B
330
86
100
AcDbEntity
  8
AM_9
100
AcDbLine
 10
-0.8349113772963423
 20
1.425
 30
0.0
 11
-0.8245837404060109
 21
1.435327636890331
 31
0.0
  0
LINE
  5
9C
330
86
100
AcDbEntity
  8
AM_9
100
AcDbLine
 10
-1.045416259593989
 20
1.435327636890331
 30
0.0
 11
-1.035088622703658
 21
1.425
 31
0.0
  0
LINE
  5
9D
330
86
100
AcDbEntity
  8
AM_9
100
AcDbLine
 10
-0.8245837404060109
 20
1.435327636890331
 30
0.0
 11
-1.045416259593989
 21
1.435327636890331
 31
0.0
  0
LINE
  5
9E
330
86
100
AcDbEntity
  8
AM_9
100
AcDbLine
 10
-0.8245837404060109
 20
1.435327636890331
 30
0.0
 11
-0.8186561828467228
 21
1.625
 31
0.0
  0
LINE
  5
9F
330
86
100
AcDbEntity
  8
AM_9
100
AcDbLine
 10
-1.051343817153277
 20
1.625
 30
0.0
 11
-1.045416259593989
 21
1.435327636890331
 31
0.0
  0
LINE
  5
A1
330
86
100
AcDbEntity
  8
AM_5
100
AcDbLine
 10
-1.040766386187875
 20
1.606679352154371
 30
0.0
 11
-1.035088622703658
 21
1.425
 31
0.0
  0
LINE
  5
A2
330
86
100
AcDbEntity
  8
AM_5
100
AcDbLine
 10
-1.051343817153277
 20
1.625
 30
0.0
 11
-1.040766386187875
 21
1.606679352154371
 31
0.0
  0
LINE
  5
A3
330
86
100
AcDbEntity
  8
AM_5
100
AcDbLine
 10
-0.81922873170333
 20
1.606679352154371
 30
0.0
 11
-1.05077126829667
 21
1.606679352154371
 31
0.0
  0
LINE
  5
A4
330
86
100
AcDbEntity
  8
AM_5
100
AcDbLine
 10
-0.8292336138121253
 20
1.606679352154371
 30
0.0
 11
-0.8349113772963423
 21
1.425
 31
0.0
  0
LINE
  5
A5
330
86
100
AcDbEntity
  8
AM_5
100
AcDbLine
 10
-0.8186561828467228
 20
1.625
 30
0.0
 11
-0.8292336138121253
 21
1.606679352154371
 31
0.0
  0
LINE
  5
A8
330
86
100
AcDbEntity
  8
AM_7
100
AcDbLine
 10
-0.935
 20
1.99725
 30
0.0
 11
-0.935
 21
1.39775
 31
0.0
  0
LINE
  5
AA
330
86
100
AcDbEntity
  8
AM_4
100
AcDbLine
 10
-0.7943500000000002
 20
1.625
 30
0.0
 11
-0.7725913692769583
 21
1.630830207530646
 31
0.0
  0
LINE
  5
AB
330
86
100
AcDbEntity
  8
AM_4
100
AcDbLine
 10
-1.097408630723042
 20
1.630830207530646
 30
0.0
 11
-1.07565
 21
1.625
 31
0.0
  0
LINE
  5
AC
330
86
100
AcDbEntity
  8
AM_4
100
AcDbLine
 10
-0.7725913692769583
 20
1.685836459136021
 30
0.0
 11
-0.79435
 21
1.691666666666667
 31
0.0
  0
LINE
  5
AD
330
86
100
AcDbEntity
  8
AM_4
100
AcDbLine
 10
-1.07565
 20
1.691666666666667
 30
0.0
 11
-1.097408630723042
 21
1.685836459136021
 31
0.0
  0
LINE
  5
AE
330
86
100
AcDbEntity
  8
AM_4
100
AcDbLine
 10
-0.854193570283272
 20
1.97
 30
0.0
 11
-1.015806429654424
 21
1.97
 31
0.0
  0
ARC
  5
AF
330
86
100
AcDbEntity
  8
AM_4
100
AcDbCircle
 10
-1.015806429716728
 20
1.944999999999999
 30
0.0
 40
0.0250000000000008
100
AcDbArc
 50
90.0
 51
156.9999999999983
  0
ARC
  5
B0
330
86
100
AcDbEntity
  8
AM_4
100
AcDbCircle
 10
-0.8541935702832725
 20
1.944999999999999
 30
0.0
 40
0.0250000000000009
100
AcDbArc
 50
23.00000000000156
 51
90.0
  0
ARC
  5
B1
330
86
100
AcDbEntity
  8
AM_4
100
AcDbCircle
 10
-1.079684789639099
 20
1.758342555146223
 30
0.0
 40
0.0500000000000001
100
AcDbArc
 50
315.0000000000002
 51
24.99999999999998
  0
ARC
  5
B2
330
86
100
AcDbEntity
  8
AM_4
100
AcDbCircle
 10
-0.7903152103609011
 20
1.758342555146223
 30
0.0
 40
0.05
100
AcDbArc
 50
155.0
 51
224.9999999999998
  0
LINE
  5
B3
330
86
100
AcDbEntity
  8
AM_4
100
AcDbLine
 10
-0.8356305997127337
 20
1.779473468233258
 30
0.0
 11
-1.034369400287266
 21
1.779473468233258
 31
0.0
  0
LINE
  5
B4
330
86
100
AcDbEntity
  8
AM_4
100
AcDbLine
 10
-0.8356305997127337
 20
1.779473468233258
 30
0.0
 11
-0.8037580886531095
 21
1.847824288774639
 31
0.0
  0
LINE
  5
B5
330
86
100
AcDbEntity
  8
AM_4
100
AcDbLine
 10
-1.066241911346891
 20
1.847824288774639
 30
0.0
 11
-1.034369400287266
 21
1.779473468233258
 31
0.0
  0
LINE
  5
B6
330
86
100
AcDbEntity
  8
AM_4
100
AcDbLine
 10
-0.8311809489469609
 20
1.954768278212232
 30
0.0
 11
-1.038819051053039
 21
1.954768278212232
 31
0.0
  0
LINE
  5
B7
330
86
100
AcDbEntity
  8
AM_4
100
AcDbLine
 10
-1.038819051053039
 20
1.954768278212232
 30
0.0
 11
-1.06695176466768
 21
1.888491758286138
 31
0.0
  0
LINE
  5
B8
330
86
100
AcDbEntity
  8
AM_4
100
AcDbLine
 10
-0.80304823533232
 20
1.888491758286138
 30
0.0
 11
-0.8311809489469609
 21
1.954768278212232
 31
0.0
  0
LINE
  5
B9
330
86
100
AcDbEntity
  8
AM_4
100
AcDbLine
 10
-0.80304823533232
 20
1.888491758286138
 30
0.0
 11
-1.06695176466768
 21
1.888491758286138
 31
0.0
  0
LINE
  5
BA
330
86
100
AcDbEntity
  8
AM_4
100
AcDbLine
 10
-0.8037580886531095
 20
1.847824288774639
 30
0.0
 11
-1.066241911346891
 21
1.847824288774639
 31
0.0
  0
ARC
  5
BB
330
86
100
AcDbEntity
  8
AM_4
100
AcDbCircle
 10
-1.020926521995056
 20
1.868955201861674
 30
0.0
 40
0.0500000000000021
100
AcDbArc
 50
157.0000000000008
 51
204.9999999999989
  0
ARC
  5
BC
330
86
100
AcDbEntity
  8
AM_4
100
AcDbCircle
 10
-0.8490734780049418
 20
1.868955201861674
 30
0.0
 40
0.0499999999999998
100
AcDbArc
 50
334.9999999999999
 51
23.00000000000023
  0
LWPOLYLINE
  5
BD
330
86
100
AcDbEntity
  8
AM_4
100
AcDbPolyline
 90
        3
 70
     0
 43
0.0
 10
-0.935
 20
1.625
 10
-0.9756021576807604
 20
1.626538875462469
 10
-1.016204315361521
 20
1.630830207530646
  0
LWPOLYLINE
  5
BE
330
86
100
AcDbEntity
  8
AM_4
100
AcDbPolyline
 90
        4
 70
     0
 43
0.0
 10
-0.8537956846384791
 20
1.630830207530646
 10
-0.8726982481560968
 20
1.628531798436252
 10
-0.9037571743791796
 20
1.625918591732272
 10
-0.935
 20
1.625
  0
LWPOLYLINE
  5
BF
330
86
100
AcDbEntity
  8
AM_4
100
AcDbPolyline
 90
        4
 70
     0
 43
0.0
 10
-0.935
 20
1.691666666666667
 10
-0.9038491240780484
 20
1.690753410066301
 10
-0.8726982481560968
 20
1.688134868230415
 10
-0.8537956846384791
 20
1.685836459136021
  0
LWPOLYLINE
  5
C0
330
86
100
AcDbEntity
  8
AM_4
100
AcDbPolyline
 90
        3
 70
     0
 43
0.0
 10
-1.016204315361521
 20
1.685836459136021
 10
-0.9757847159147455
 20
1.690114196110488
 10
-0.935
 20
1.691666666666667
  0
LINE
  5
C1
330
86
100
AcDbEntity
  8
AM_4
100
AcDbLine
 10
-0.8537956846384791
 20
1.685836459136021
 30
0.0
 11
-0.8537956846384791
 21
1.630830207530646
 31
0.0
  0
LWPOLYLINE
  5
C2
330
86
100
AcDbEntity
  8
AM_4
100
AcDbPolyline
 90
        3
 70
     0
 43
0.0
 10
-0.8131935269577187
 20
1.625
 10
-0.8334946057980989
 20
1.626538875462469
 10
-0.8537956846384791
 20
1.630830207530646
  0
LWPOLYLINE
  5
C3
330
86
100
AcDbEntity
  8
AM_4
100
AcDbPolyline
 90
        3
 70
     0
 43
0.0
 10
-0.7725913692769583
 20
1.630830207530646
 10
-0.7928011690003459
 20
1.626552470556179
 10
-0.8131935269577187
 20
1.625
  0
LINE
  5
C4
330
86
100
AcDbEntity
  8
AM_4
100
AcDbLine
 10
-0.7725913692769583
 20
1.685836459136021
 30
0.0
 11
-0.7725913692769583
 21
1.630830207530646
 31
0.0
  0
LWPOLYLINE
  5
C5
330
86
100
AcDbEntity
  8
AM_4
100
AcDbPolyline
 90
        3
 70
     0
 43
0.0
 10
-0.8131935269577187
 20
1.691666666666667
 10
-0.7928924481173385
 20
1.690127791204197
 10
-0.7725913692769583
 20
1.685836459136021
  0
LWPOLYLINE
  5
C6
330
86
100
AcDbEntity
  8
AM_4
100
AcDbPolyline
 90
        3
 70
     0
 43
0.0
 10
-0.8537956846384791
 20
1.685836459136021
 10
-0.8335858849150914
 20
1.690114196110488
 10
-0.8131935269577187
 20
1.691666666666667
  0
LINE
  5
C7
330
86
100
AcDbEntity
  8
AM_4
100
AcDbLine
 10
-0.79435
 20
1.691666666666667
 30
0.0
 11
-1.07565
 21
1.691666666666667
 31
0.0
  0
LINE
  5
C8
330
86
100
AcDbEntity
  8
AM_4
100
AcDbLine
 10
-0.8256705494202287
 20
1.722987216086895
 30
0.0
 11
-1.044329450579771
 21
1.722987216086895
 31
0.0
  0
LINE
  5
C9
330
86
100
AcDbEntity
  8
AM_4
100
AcDbLine
 10
-1.044329450579771
 20
1.722987216086895
 30
0.0
 11
-1.07565
 21
1.691666666666667
 31
0.0
  0
LINE
  5
CA
330
86
100
AcDbEntity
  8
AM_4
100
AcDbLine
 10
-0.79435
 20
1.691666666666667
 30
0.0
 11
-0.8256705494202287
 21
1.722987216086895
 31
0.0
  0
LINE
  5
CB
330
86
100
AcDbEntity
  8
AM_4
100
AcDbLine
 10
-1.097408630723042
 20
1.685836459136021
 30
0.0
 11
-1.097408630723042
 21
1.630830207530646
 31
0.0
  0
LWPOLYLINE
  5
CC
330
86
100
AcDbEntity
  8
AM_4
100
AcDbPolyline
 90
        3
 70
     0
 43
0.0
 10
-1.056806473042281
 20
1.625
 10
-1.077107551882662
 20
1.626538875462469
 10
-1.097408630723042
 20
1.630830207530646
  0
LWPOLYLINE
  5
CD
330
86
100
AcDbEntity
  8
AM_4
100
AcDbPolyline
 90
        3
 70
     0
 43
0.0
 10
-1.016204315361521
 20
1.630830207530646
 10
-1.036414115084909
 20
1.626552470556179
 10
-1.056806473042281
 20
1.625
  0
LINE
  5
CE
330
86
100
AcDbEntity
  8
AM_4
100
AcDbLine
 10
-1.016204315361521
 20
1.685836459136021
 30
0.0
 11
-1.016204315361521
 21
1.630830207530646
 31
0.0
  0
LWPOLYLINE
  5
CF
330
86
100
AcDbEntity
  8
AM_4
100
AcDbPolyline
 90
        3
 70
     0
 43
0.0
 10
-1.056806473042281
 20
1.691666666666667
 10
-1.036505394201901
 20
1.690127791204197
 10
-1.016204315361521
 20
1.685836459136021
  0
LWPOLYLINE
  5
D0
330
86
100
AcDbEntity
  8
AM_4
100
AcDbPolyline
 90
        3
 70
     0
 43
0.0
 10
-1.097408630723042
 20
1.685836459136021
 10
-1.077198830999654
 20
1.690114196110488
 10
-1.056806473042281
 20
1.691666666666667
  0
ENDBLK
  5
89
330
86
100
AcDbEntity
  8
0
100
AcDbBlockEnd
  0
BLOCK
  5
D3
330
D1
100
AcDbEntity
  8
0
100
AcDbBlockBegin
  2
3_127821_0_in_136728_2
 70
     2
 10
0.0
 20
0.0
 30
0.0
  3
3_127821_0_in_136728_2
  1

  0
ATTDEF
  5
D5
330
D1
100
AcDbEntity
  8
AM_6
100
AcDbText
 10
4.8
 20
1.219718908979781
 30
0.0
 40
0.5
  1
Set Screw Insert Inch Bore - Stainless Steel
100
AcDbAttributeDefinition
  3

  2
NN
 70
     8
280
     0
  0
ATTDEF
  5
D6
330
D1
100
AcDbEntity
  8
AM_6
100
AcDbText
 10
4.8
 20
0.7197189089797806
 30
0.0
 40
0.5
  1
SC Medium Duty Bearing Inserts
100
AcDbAttributeDefinition
  3

  2
NT
 70
     8
280
     0
  0
ATTDEF
  5
D7
330
D1
100
AcDbEntity
  8
AM_6
100
AcDbText
 10
4.8
 20
0.2197189089797806
 30
0.0
 40
0.5
  1
127821
100
AcDbAttributeDefinition
  3

  2
NB
 70
     8
280
     0
  0
ATTDEF
  5
D8
330
D1
100
AcDbEntity
  8
AM_6
100
AcDbText
 10
4.8
 20
-0.2802810910202194
 30
0.0
 40
0.5
  1
$PN.
100
AcDbAttributeDefinition
  3

  2
NBSYN
 70
     8
280
     0
  0
ATTDEF
  5
D9
330
D1
100
AcDbEntity
  8
AM_6
100
AcDbText
 10
4.8
 20
-0.7802810910202194
 30
0.0
 40
0.5
  1
127821
100
AcDbAttributeDefinition
  3

  2
LINA
 70
     8
280
     0
  0
ATTDEF
  5
DA
330
D1
100
AcDbEntity
  8
AM_6
100
AcDbText
 10
4.8
 20
-1.280281091020219
 30
0.0
 40
0.5
  1
206
100
AcDbAttributeDefinition
  3

  2
SERIES
 70
     8
280
     0
  0
ATTDEF
  5
DB
330
D1
100
AcDbEntity
  8
AM_6
100
AcDbText
 10
4.8
 20
-1.780281091020219
 30
0.0
 40
0.5
  1
1-1/4
100
AcDbAttributeDefinition
  3

  2
SS
 70
     8
280
     0
  0
ATTDEF
  5
DC
330
D1
100
AcDbEntity
  8
AM_6
100
AcDbText
 10
4.8
 20
-2.280281091020219
 30
0.0
 40
0.5
  1
127821
100
AcDbAttributeDefinition
  3

  2
PN
 70
     8
280
     0
  0
ATTDEF
  5
DD
330
D1
100
AcDbEntity
  8
AM_6
100
AcDbText
 10
4.8
 20
-2.780281091020219
 30
0.0
 40
0.5
  1
INS-SC-104S-SS
100
AcDbAttributeDefinition
  3

  2
DESCRIPTION
 70
     8
280
     0
  0
ATTDEF
  5
DE
330
D1
100
AcDbEntity
  8
AM_6
100
AcDbText
 10
4.8
 20
-3.280281091020219
 30
0.0
 40
0.5
  1
0.58
100
AcDbAttributeDefinition
  3

  2
WEIGHT
 70
     8
280
     0
  0
ATTDEF
  5
DF
330
D1
100
AcDbEntity
  8
AM_6
100
AcDbText
 10
4.8
 20
-3.780281091020219
 30
0.0
 40
0.5
  1
1.52
100
AcDbAttributeDefinition
  3

  2
A
 70
     8
280
     0
  0
ATTDEF
  5
E0
330
D1
100
AcDbEntity
  8
AM_6
100
AcDbText
 10
4.8
 20
-4.280281091020219
 30
0.0
 40
0.5
  1
0.69
100
AcDbAttributeDefinition
  3

  2
C
 70
     8
280
     0
  0
ATTDEF
  5
E1
330
D1
100
AcDbEntity
  8
AM_6
100
AcDbText
 10
4.8
 20
-4.780281091020219
 30
0.0
 40
0.5
  1
2.4409
100
AcDbAttributeDefinition
  3

  2
D
 70
     8
280
     0
  0
ATTDEF
  5
E2
330
D1
100
AcDbEntity
  8
AM_6
100
AcDbText
 10
4.8
 20
-5.280281091020219
 30
0.0
 40
0.5
  1
0.18
100
AcDbAttributeDefinition
  3

  2
J
 70
     8
280
     0
  0
ATTDEF
  5
E3
330
D1
100
AcDbEntity
  8
AM_6
100
AcDbText
 10
4.8
 20
-5.780281091020219
 30
0.0
 40
0.5
  1
1.57
100
AcDbAttributeDefinition
  3

  2
L
 70
     8
280
     0
  0
ATTDEF
  5
E4
330
D1
100
AcDbEntity
  8
AM_6
100
AcDbText
 10
4.8
 20
-6.280281091020219
 30
0.0
 40
0.5
  1
5/16 - 24
100
AcDbAttributeDefinition
  3

  2
N
 70
     8
280
     0
  0
ATTDEF
  5
E5
330
D1
100
AcDbEntity
  8
AM_6
100
AcDbText
 10
4.8
 20
-6.780281091020219
 30
0.0
 40
0.5
  1
0.58
100
AcDbAttributeDefinition
  3

  2
W
 70
     8
280
     0
  0
ATTDEF
  5
E6
330
D1
100
AcDbEntity
  8
AM_6
100
AcDbText
 10
4.8
 20
-7.280281091020219
 30
0.0
 40
0.5
  1
0.94
100
AcDbAttributeDefinition
  3

  2
Y
 70
     8
280
     0
  0
ATTDEF
  5
E7
330
D1
100
AcDbEntity
  8
AM_6
100
AcDbText
 10
4.8
 20
-7.780281091020219
 30
0.0
 40
0.5
  1
baldor
100
AcDbAttributeDefinition
  3

  2
COMPANY
 70
     8
280
     0
  0
LINE
  5
E8
330
D1
100
AcDbEntity
  8
AM_9
100
AcDbLine
 10
-1.2963
 20
0.6249999999999999
 30
0.0
 11
-1.2963
 21
0.7617924915141182
 31
0.0
  0
LINE
  5
E9
330
D1
100
AcDbEntity
  8
AM_9
100
AcDbLine
 10
-1.5487
 20
0.7617924915141182
 30
0.0
 11
-1.5487
 21
0.625
 31
0.0
  0
LINE
  5
EA
330
D1
100
AcDbEntity
  8
AM_9
100
AcDbLine
 10
-1.5487
 20
0.7617924915141182
 30
0.0
 11
-1.2963
 21
0.7617924915141182
 31
0.0
  0
LINE
  5
EB
330
D1
100
AcDbEntity
  8
AM_9
100
AcDbLine
 10
-1.2963
 20
0.7617924915141182
 30
0.0
 11
-1.273092491514118
 21
0.7850000000000003
 31
0.0
  0
LINE
  5
EC
330
D1
100
AcDbEntity
  8
AM_9
100
AcDbLine
 10
-1.571907508485882
 20
0.7850000000000003
 30
0.0
 11
-1.5487
 21
0.7617924915141182
 31
0.0
  0
LWPOLYLINE
  5
ED
330
D1
100
AcDbEntity
  8
AM_9
100
AcDbPolyline
 90
       20
 70
     0
 43
0.0
 10
-1.5487
 20
0.625
 10
-1.546999240001592
 20
0.6246588034767252
 10
-1.541751511704867
 20
0.6236340938754841
 10
-1.533414287744168
 20
0.6220936739959635
 10
-1.521762081820198
 20
0.6201221822248255
 10
-1.507562539541849
 20
0.6180082488392115
 10
-1.490531011773787
 20
0.6158951035387155
 10
-1.471888416554471
 20
0.6141154416636647
 10
-1.451218768812365
 20
0.6127995819859035
 10
-1.430582996714825
 20
0.612179626282917
 10
-1.409094230838911
 20
0.6122730392943988
 10
-1.388909875742565
 20
0.613047189413368
 10
-1.36910889330017
 20
0.6144502992713347
 10
-1.351191272319546
 20
0.6162657662432703
 10
-1.334778864916453
 20
0.6183797842267694
 10
-1.320962308528711
 20
0.6204905017720406
 10
-1.30966785837606
 20
0.6224384726086949
 10
-1.301840750340804
 20
0.6239048120733804
 10
-1.297286469384892
 20
0.6248015590962467
 10
-1.296300000001164
 20
0.6249999999997651
  0
LINE
  5
EE
330
D1
100
AcDbEntity
  8
AM_9
100
AcDbLine
 10
-1.6886
 20
-0.625
 30
0.0
 11
-0.2314000000000002
 21
-0.625
 31
0.0
  0
LINE
  5
EF
330
D1
100
AcDbEntity
  8
AM_9
100
AcDbLine
 10
-0.2314000000000002
 20
0.625
 30
0.0
 11
-1.2963
 21
0.625
 31
0.0
  0
LINE
  5
F0
330
D1
100
AcDbEntity
  8
AM_9
100
AcDbLine
 10
-1.5487
 20
0.625
 30
0.0
 11
-1.6886
 21
0.625
 31
0.0
  0
LINE
  5
F1
330
D1
100
AcDbEntity
  8
AM_9
100
AcDbLine
 10
-1.6886
 20
0.625
 30
0.0
 11
-1.72
 21
0.6564
 31
0.0
  0
LINE
  5
F2
330
D1
100
AcDbEntity
  8
AM_9
100
AcDbLine
 10
-1.72
 20
-0.6564
 30
0.0
 11
-1.6886
 21
-0.625
 31
0.0
  0
LINE
  5
F3
330
D1
100
AcDbEntity
  8
AM_9
100
AcDbLine
 10
-0.2314000000000002
 20
-0.625
 30
0.0
 11
-0.2
 21
-0.6564
 31
0.0
  0
LINE
  5
F4
330
D1
100
AcDbEntity
  8
AM_9
100
AcDbLine
 10
-0.2
 20
0.6564
 30
0.0
 11
-0.2314000000000002
 21
0.625
 31
0.0
  0
LWPOLYLINE
  5
F5
330
D1
100
AcDbEntity
  8
AM_9
100
AcDbPolyline
 90
        4
 70
     0
 43
0.0
 10
-1.544397364563871
 20
0.2933863273147603
 10
-1.545386009438898
 20
0.2898962820602872
 10
-1.548439916070579
 20
0.2714535181301568
 10
-1.548699999673183
 20
0.264144644937486
  0
LINE
  5
F6
330
D1
100
AcDbEntity
  8
AM_9
100
AcDbLine
 10
-1.2963
 20
0.2641202981945879
 30
0.0
 11
-1.2963
 21
0.3219474185708133
 31
0.0
  0
LINE
  5
F7
330
D1
100
AcDbEntity
  8
AM_9
100
AcDbLine
 10
-1.5487
 20
0.3219474185708133
 30
0.0
 11
-1.5487
 21
0.2640997749318257
 31
0.0
  0
LWPOLYLINE
  5
F8
330
D1
100
AcDbEntity
  8
AM_9
100
AcDbPolyline
 90
       21
 70
     0
 43
0.0
 10
-1.548699999673183
 20
0.264144644937486
 10
-1.547987979044199
 20
0.2519432328591639
 10
-1.544148645269547
 20
0.2333151240223345
 10
-1.536844046921747
 20
0.2147709001397893
 10
-1.526611529702755
 20
0.1977685759002013
 10
-1.513209265664726
 20
0.1820014724140794
 10
-1.497428303467721
 20
0.1685919943853529
 10
-1.479018447249434
 20
0.1575313805850435
 10
-1.459469981318021
 20
0.1498089309433495
 10
-1.438228654931976
 20
0.1452968771618864
 10
-1.417504634624366
 20
0.1444179456445382
 10
-1.396318449976847
 20
0.1470446557754647
 10
-1.376656122218056
 20
0.1528576263401213
 10
-1.35773586588837
 20
0.1619732912863549
 10
-1.340874593025417
 20
0.1737550299694327
 10
-1.325846405595611
 20
0.1883583501535019
 10
-1.313703512232197
 20
0.2047905189157393
 10
-1.304356992819948
 20
0.2232573758930748
 10
-1.298638296759365
 20
0.2420232637191779
 10
-1.296328164412498
 20
0.2617177346402671
 10
-1.296300000529086
 20
0.2641259402455001
  0
LWPOLYLINE
  5
F9
330
D1
100
AcDbEntity
  8
AM_9
100
AcDbPolyline
 90
        3
 70
     0
 43
0.0
 10
-1.296300000529086
 20
0.2641259402455001
 10
-1.29758184556416
 20
0.2802880125087914
 10
-1.300606414649166
 20
0.2933987913220929
  0
LINE
  5
FA
330
D1
100
AcDbEntity
  8
AM_9
100
AcDbLine
 10
-0.2
 20
0.7535999999999999
 30
0.0
 11
-0.2314
 21
0.7849999999999999
 31
0.0
  0
LINE
  5
FB
330
D1
100
AcDbEntity
  8
AM_9
100
AcDbLine
 10
-0.2314
 20
-0.7849999999999999
 30
0.0
 11
-0.2
 21
-0.7535999999999999
 31
0.0
  0
LINE
  5
FC
330
D1
100
AcDbEntity
  8
AM_9
100
AcDbLine
 10
-0.2
 20
0.7535999999999999
 30
0.0
 11
-0.2
 21
-0.7535999999999999
 31
0.0
  0
LINE
  5
FD
330
D1
100
AcDbEntity
  8
AM_9
100
AcDbLine
 10
-1.27
 20
-0.7850000000000003
 30
0.0
 11
-1.125
 21
-0.7850000000000003
 31
0.0
  0
LINE
  5
FE
330
D1
100
AcDbEntity
  8
AM_9
100
AcDbLine
 10
-1.125
 20
0.7850000000000003
 30
0.0
 11
-1.27
 21
0.7850000000000003
 31
0.0
  0
LINE
  5
FF
330
D1
100
AcDbEntity
  8
AM_9
100
AcDbLine
 10
-0.4350000000000001
 20
-0.7850000000000003
 30
0.0
 11
-0.2314
 21
-0.7850000000000003
 31
0.0
  0
LINE
  5
100
330
D1
100
AcDbEntity
  8
AM_9
100
AcDbLine
 10
-0.2314
 20
0.7850000000000003
 30
0.0
 11
-0.4350000000000001
 21
0.7850000000000003
 31
0.0
  0
LINE
  5
101
330
D1
100
AcDbEntity
  8
AM_9
100
AcDbLine
 10
-0.2314
 20
0.7850000000000003
 30
0.0
 11
-0.2314
 21
-0.7850000000000003
 31
0.0
  0
LINE
  5
102
330
D1
100
AcDbEntity
  8
AM_9
100
AcDbLine
 10
-0.996
 20
-1.16045
 30
0.0
 11
-0.924
 21
-1.16045
 31
0.0
  0
LINE
  5
103
330
D1
100
AcDbEntity
  8
AM_9
100
AcDbLine
 10
-0.924
 20
1.16045
 30
0.0
 11
-0.996
 21
1.16045
 31
0.0
  0
LINE
  5
104
330
D1
100
AcDbEntity
  8
AM_9
100
AcDbLine
 10
-0.4350000000000001
 20
1.143433777050512
 30
0.0
 11
-0.4350000000000001
 21
-1.143433777050512
 31
0.0
  0
ARC
  5
105
330
D1
100
AcDbEntity
  8
AM_9
100
AcDbCircle
 10
-0.4709999999999998
 20
-1.143433777050512
 30
0.0
 40
0.0359999999999997
100
AcDbArc
 50
285.1223189033524
 51
0.0
  0
ARC
  5
106
330
D1
100
AcDbEntity
  8
AM_9
100
AcDbCircle
 10
-0.4709999999999998
 20
1.143433777050512
 30
0.0
 40
0.0359999999999998
100
AcDbArc
 50
0.0
 51
74.87768109664765
  0
LINE
  5
107
330
D1
100
AcDbEntity
  8
AM_9
100
AcDbLine
 10
-1.125
 20
1.143433777050513
 30
0.0
 11
-1.125
 21
-1.143433777050513
 31
0.0
  0
ARC
  5
108
330
D1
100
AcDbEntity
  8
AM_9
100
AcDbCircle
 10
-1.089000000000001
 20
-1.143433777050513
 30
0.0
 40
0.0359999999999987
100
AcDbArc
 50
180.0
 51
254.8776810966493
  0
ARC
  5
109
330
D1
100
AcDbEntity
  8
AM_9
100
AcDbCircle
 10
-1.089000000000001
 20
1.143433777050513
 30
0.0
 40
0.0359999999999987
100
AcDbArc
 50
105.1223189033507
 51
180.0
  0
ARC
  5
10A
330
D1
100
AcDbEntity
  8
AM_9
100
AcDbCircle
 10
-0.7800000000000149
 20
0.0000000000000704
 30
0.0
 40
1.220449999999928
100
AcDbArc
 50
100.1941295136171
 51
105.1223189033527
  0
ARC
  5
10B
330
D1
100
AcDbEntity
  8
AM_9
100
AcDbCircle
 10
-0.779999999992748
 20
0.0000000000323284
 30
0.0
 40
1.220450000033071
100
AcDbArc
 50
254.8776810967144
 51
259.805870486316
  0
LINE
  5
10C
330
D1
100
AcDbEntity
  8
AM_9
100
AcDbLine
 10
-1.098391700789396
 20
1.178187135971377
 30
0.0
 11
-1.098391700789396
 21
-1.178187135971346
 31
0.0
  0
LINE
  5
10D
330
D1
100
AcDbEntity
  8
AM_9
100
AcDbLine
 10
-0.996
 20
1.201183667263254
 30
0.0
 11
-0.996
 21
-1.201183667263223
 31
0.0
  0
ARC
  5
10E
330
D1
100
AcDbEntity
  8
AM_9
100
AcDbCircle
 10
-0.7800000000000119
 20
-0.0000000000001621
 30
0.0
 40
1.220450000000159
100
AcDbArc
 50
74.87768109664889
 51
96.77607158936583
  0
ARC
  5
10F
330
D1
100
AcDbEntity
  8
AM_9
100
AcDbCircle
 10
-0.7800000000000112
 20
0.0000000000001643
 30
0.0
 40
1.220450000000159
100
AcDbArc
 50
263.2239284106342
 51
285.1223189033511
  0
LINE
  5
110
330
D1
100
AcDbEntity
  8
AM_9
100
AcDbLine
 10
-0.9239999999999999
 20
1.211924998710729
 30
0.0
 11
-0.9239999999999999
 21
-1.211924998710726
 31
0.0
  0
LINE
  5
111
330
D1
100
AcDbEntity
  8
AM_9
100
AcDbLine
 10
-0.4616082992106041
 20
1.178187135971377
 30
0.0
 11
-0.4616082992106041
 21
-1.178187135971374
 31
0.0
  0
LINE
  5
112
330
D1
100
AcDbEntity
  8
AM_5
100
AcDbLine
 10
-1.26625
 20
0.625
 30
0.0
 11
-1.26625
 21
0.7850000000000003
 31
0.0
  0
LINE
  5
113
330
D1
100
AcDbEntity
  8
AM_5
100
AcDbLine
 10
-1.57875
 20
0.625
 30
0.0
 11
-1.57875
 21
0.7850000000000003
 31
0.0
  0
LINE
  5
114
330
D1
100
AcDbEntity
  8
AM_7
100
AcDbLine
 10
-1.4225
 20
0.8023044336975789
 30
0.0
 11
-1.4225
 21
0.5721417056614481
 31
0.0
  0
LWPOLYLINE
  5
115
330
D1
100
AcDbEntity
  8
AM_4
100
AcDbPolyline
 90
        9
 70
     0
 43
0.0
 10
-1.4225
 20
0.3730717793187859
 10
-1.443143854263337
 20
0.371678207364105
 10
-1.463787708526673
 20
0.3673653048634682
 10
-1.482688071828915
 20
0.3604733385633977
 10
-1.500412873499789
 20
0.3507588371345247
 10
-1.515711514846388
 20
0.3387835460123036
 10
-1.52878689288874
 20
0.3242323402065224
 10
-1.538629871027807
 20
0.3080810616463804
 10
-1.544397364563871
 20
0.2933863273147603
  0
LWPOLYLINE
  5
116
330
D1
100
AcDbEntity
  8
AM_4
100
AcDbPolyline
 90
       10
 70
     0
 43
0.0
 10
-1.300606414649166
 20
0.2933987913220929
 10
-1.302356528109199
 20
0.2986387576292448
 10
-1.310221796263244
 20
0.315232830841407
 10
-1.321392417128452
 20
0.3306478552287418
 10
-1.335202227532444
 20
0.343909383489212
 10
-1.351886602579294
 20
0.3552069116646124
 10
-1.370281313323551
 20
0.3637607844427651
 10
-1.390775828046097
 20
0.369746175589371
 10
-1.406370214145215
 20
0.3722235210647132
 10
-1.4225
 20
0.3730717793187859
  0
LINE
  5
117
330
D1
100
AcDbEntity
  8
AM_4
100
AcDbLine
 10
-1.72
 20
-0.7535999999999999
 30
0.0
 11
-1.6886
 21
-0.7849999999999999
 31
0.0
  0
LINE
  5
118
330
D1
100
AcDbEntity
  8
AM_4
100
AcDbLine
 10
-1.6886
 20
0.7849999999999999
 30
0.0
 11
-1.72
 21
0.7535999999999999
 31
0.0
  0
LINE
  5
119
330
D1
100
AcDbEntity
  8
AM_4
100
AcDbLine
 10
-1.72
 20
0.7535999999999999
 30
0.0
 11
-1.72
 21
-0.7535999999999999
 31
0.0
  0
LWPOLYLINE
  5
11A
330
D1
100
AcDbEntity
  8
AM_4
100
AcDbPolyline
 90
       39
 70
     0
 43
0.0
 10
-1.27325529407132
 20
0.3259524891853897
 10
-1.2763759991159
 20
0.305725960583553
 10
-1.283263254747349
 20
0.2860658271896632
 10
-1.293086332483389
 20
0.2684447178769288
 10
-1.305697929555566
 20
0.2523114151166441
 10
-1.321899915271872
 20
0.2370946264262543
 10
-1.340367113579667
 20
0.2243335702691511
 10
-1.362427631662575
 20
0.2135987568712764
 10
-1.385975968321238
 20
0.2063041050425357
 10
-1.411887645858185
 20
0.202555444457548
 10
-1.438086351652826
 20
0.2029385601421146
 10
-1.464422596366129
 20
0.2076471722673426
 10
-1.489559955762053
 20
0.2165401858989178
 10
-1.512551324455014
 20
0.2293322532864113
 10
-1.532849541499679
 20
0.2456758604201462
 10
-1.548959721387407
 20
0.2642075542938393
 10
-1.561240190868011
 20
0.2849874517590124
 10
-1.568530475254919
 20
0.3053678409135245
 10
-1.571767293686992
 20
0.3263700943589354
 10
-1.570946696171614
 20
0.3456284820412263
 10
-1.566580866676042
 20
0.3642520958862889
 10
-1.558947702829434
 20
0.381474930010625
 10
-1.548345625636964
 20
0.3972319138113131
 10
-1.534306033351307
 20
0.4119313763494578
 10
-1.517806848023355
 20
0.4244685749996153
 10
-1.497611154968721
 20
0.4354368361906046
 10
-1.475618501968656
 20
0.4435663998781962
 10
-1.45068569091338
 20
0.4490115679285949
 10
-1.425010337075125
 20
0.4510663036760306
 10
-1.39839454417829
 20
0.4495680782837959
 10
-1.372456809424353
 20
0.4444394463399229
 10
-1.347903938688698
 20
0.4356635513791897
 10
-1.325549624771334
 20
0.423388271710312
 10
-1.306746838826559
 20
0.4082565416959296
 10
-1.291464028779264
 20
0.3902488548782734
 10
-1.281127631703202
 20
0.3713351422956064
 10
-1.274883959891522
 20
0.350798217923498
 10
-1.273314918574031
 20
0.3384672463806815
 10
-1.273255264964603
 20
0.3259524624744007
  0
LINE
  5
11B
330
D1
100
AcDbEntity
  8
AM_4
100
AcDbLine
 10
-1.6886
 20
-0.7850000000000003
 30
0.0
 11
-1.27
 21
-0.7850000000000003
 31
0.0
  0
LINE
  5
11C
330
D1
100
AcDbEntity
  8
AM_4
100
AcDbLine
 10
-1.27
 20
0.7850000000000003
 30
0.0
 11
-1.273092491514118
 21
0.7850000000000003
 31
0.0
  0
LINE
  5
11D
330
D1
100
AcDbEntity
  8
AM_4
100
AcDbLine
 10
-1.571907508485882
 20
0.7850000000000003
 30
0.0
 11
-1.6886
 21
0.7850000000000003
 31
0.0
  0
LINE
  5
11E
330
D1
100
AcDbEntity
  8
AM_4
100
AcDbLine
 10
-1.6886
 20
0.7850000000000003
 30
0.0
 11
-1.6886
 21
-0.7850000000000003
 31
0.0
  0
LWPOLYLINE
  5
11F
330
D1
100
AcDbEntity
  8
AM_4
100
AcDbPolyline
 90
       20
 70
     0
 43
0.0
 10
-1.273092491514538
 20
0.784999999999933
 10
-1.274681851863557
 20
0.7847471517867646
 10
-1.27959469236034
 20
0.7839818414788834
 10
-1.287895099120408
 20
0.782744937392084
 10
-1.299222521065817
 20
0.7811715953268253
 10
-1.313545802987711
 20
0.779373492494824
 10
-1.331127590924366
 20
0.7774618902780104
 10
-1.351279517092963
 20
0.7756763881256433
 10
-1.374291665904582
 20
0.7741733572787116
 10
-1.399151531618249
 20
0.7731978505748353
 10
-1.425165473493329
 20
0.7729023856378466
 10
-1.451833094403495
 20
0.7733708953989824
 10
-1.47729230687602
 20
0.7745446936242819
 10
-1.501891924896666
 20
0.7763478623195984
 10
-1.523092374959912
 20
0.7784234910788668
 10
-1.541879708813864
 20
0.780661024737876
 10
-1.555578829015865
 20
0.7825252351141209
 10
-1.565672799721713
 20
0.7840228767776349
 10
-1.570680049672804
 20
0.7848045002271877
 10
-1.571907508485013
 20
0.7849999999998611
  0
ELLIPSE
  5
120
330
D1
100
AcDbEntity
  8
AM_4
100
AcDbEllipse
 10
-1.4225
 20
0.3219474185708132
 30
0.0
 11
0.1261999999999999
 21
0.0
 31
0.0
210
0.0
220
0.0
230
1.0
 40
0.9063077870366502
 41
0.0
 42
6.283185307179586
  0
ENDBLK
  5
D4
330
D1
100
AcDbEntity
  8
0
100
AcDbBlockEnd
  0
BLOCK
  5
123
330
121
100
AcDbEntity
  8
0
100
AcDbBlockBegin
  2
4_136728H_0_in_136728_2
 70
     2
 10
0.0
 20
0.0
 30
0.0
  3
4_136728H_0_in_136728_2
  1

  0
ATTDEF
  5
125
330
121
100
AcDbEntity
  8
AM_6
100
AcDbText
 10
5.0635
 20
2.125
 30
0.0
 40
0.5
  1
F4B-SCEZ-PSS -I-Housing
100
AcDbAttributeDefinition
  3

  2
NN
 70
     8
280
     0
  0
ATTDEF
  5
126
330
121
100
AcDbEntity
  8
AM_6
100
AcDbText
 10
5.0635
 20
1.625
 30
0.0
 40
0.5
  1
SC 4 Bolt Flange Bearings -(Normal Duty) -Corrosion Resistant Insert -Polymer Housed -E-Z KLEEN
100
AcDbAttributeDefinition
  3

  2
NT
 70
     8
280
     0
  0
ATTDEF
  5
127
330
121
100
AcDbEntity
  8
AM_6
100
AcDbText
 10
5.0635
 20
1.125
 30
0.0
 40
0.5
  1
136728H
100
AcDbAttributeDefinition
  3

  2
NB
 70
     8
280
     0
  0
ATTDEF
  5
128
330
121
100
AcDbEntity
  8
AM_6
100
AcDbText
 10
5.0635
 20
0.625
 30
0.0
 40
0.5
  1
$PN.H
100
AcDbAttributeDefinition
  3

  2
NBSYN
 70
     8
280
     0
  0
ATTDEF
  5
129
330
121
100
AcDbEntity
  8
AM_6
100
AcDbText
 10
5.0635
 20
0.125
 30
0.0
 40
0.5
  1
136728
100
AcDbAttributeDefinition
  3

  2
LINA
 70
     8
280
     0
  0
ATTDEF
  5
12A
330
121
100
AcDbEntity
  8
AM_6
100
AcDbText
 10
5.0635
 20
-0.375
 30
0.0
 40
0.5
  1
206
100
AcDbAttributeDefinition
  3

  2
SERIES
 70
     8
280
     0
  0
ATTDEF
  5
12B
330
121
100
AcDbEntity
  8
AM_6
100
AcDbText
 10
5.0635
 20
-0.875
 30
0.0
 40
0.5
  1
1-1/4
100
AcDbAttributeDefinition
  3

  2
SS
 70
     8
280
     0
  0
ATTDEF
  5
12C
330
121
100
AcDbEntity
  8
AM_6
100
AcDbText
 10
5.0635
 20
-1.375
 30
0.0
 40
0.5
  1
136728
100
AcDbAttributeDefinition
  3

  2
PN
 70
     8
280
     0
  0
ATTDEF
  5
12D
330
121
100
AcDbEntity
  8
AM_6
100
AcDbText
 10
5.0635
 20
-1.875
 30
0.0
 40
0.5
  1
F4B-SCEZ-104S-PSS
100
AcDbAttributeDefinition
  3

  2
DESCRIPTION
 70
     8
280
     0
  0
ATTDEF
  5
12E
330
121
100
AcDbEntity
  8
AM_6
100
AcDbText
 10
5.0635
 20
-2.375
 30
0.0
 40
0.5
  1
0.84
100
AcDbAttributeDefinition
  3

  2
W
 70
     8
280
     0
  0
ATTDEF
  5
12F
330
121
100
AcDbEntity
  8
AM_6
100
AcDbText
 10
5.0635
 20
-2.875
 30
0.0
 40
0.5
  1
1.52
100
AcDbAttributeDefinition
  3

  2
A
 70
     8
280
     0
  0
ATTDEF
  5
130
330
121
100
AcDbEntity
  8
AM_6
100
AcDbText
 10
5.0635
 20
-3.375
 30
0.0
 40
0.5
  1
4.25
100
AcDbAttributeDefinition
  3

  2
B
 70
     8
280
     0
  0
ATTDEF
  5
131
330
121
100
AcDbEntity
  8
AM_6
100
AcDbText
 10
5.0635
 20
-3.875
 30
0.0
 40
0.5
  1
1.72
100
AcDbAttributeDefinition
  3

  2
C
 70
     8
280
     0
  0
ATTDEF
  5
132
330
121
100
AcDbEntity
  8
AM_6
100
AcDbText
 10
5.0635
 20
-4.375
 30
0.0
 40
0.5
  1
3.25
100
AcDbAttributeDefinition
  3

  2
D
 70
     8
280
     0
  0
ATTDEF
  5
133
330
121
100
AcDbEntity
  8
AM_6
100
AcDbText
 10
5.0635
 20
-4.875
 30
0.0
 40
0.5
  1
3/8
100
AcDbAttributeDefinition
  3

  2
F
 70
     8
280
     0
  0
ATTDEF
  5
134
330
121
100
AcDbEntity
  8
AM_6
100
AcDbText
 10
5.0635
 20
-5.375
 30
0.0
 40
0.5
  1
0.60
100
AcDbAttributeDefinition
  3

  2
H
 70
     8
280
     0
  0
ATTDEF
  5
135
330
121
100
AcDbEntity
  8
AM_6
100
AcDbText
 10
5.0635
 20
-5.875
 30
0.0
 40
0.5
  1
0.45
100
AcDbAttributeDefinition
  3

  2
J
 70
     8
280
     0
  0
ATTDEF
  5
136
330
121
100
AcDbEntity
  8
AM_6
100
AcDbText
 10
5.0635
 20
-6.375
 30
0.0
 40
0.5
  1
1.57
100
AcDbAttributeDefinition
  3

  2
L
 70
     8
280
     0
  0
ATTDEF
  5
137
330
121
100
AcDbEntity
  8
AM_6
100
AcDbText
 10
5.0635
 20
-6.875
 30
0.0
 40
0.5
  1
2250
100
AcDbAttributeDefinition
  3

  2
CAPS
 70
     8
280
     0
  0
ATTDEF
  5
138
330
121
100
AcDbEntity
  8
AM_6
100
AcDbText
 10
5.0635
 20
-7.375
 30
0.0
 40
0.5
  1
4368
100
AcDbAttributeDefinition
  3

  2
CAPD
 70
     8
280
     0
  0
ATTDEF
  5
139
330
121
100
AcDbEntity
  8
AM_6
100
AcDbText
 10
5.0635
 20
-7.875
 30
0.0
 40
0.5
  1
baldor
100
AcDbAttributeDefinition
  3

  2
COMPANY
 70
     8
280
     0
  0
LINE
  5
13A
330
121
100
AcDbEntity
  8
AM_9
100
AcDbLine
 10
-0.6
 20
1.625
 30
0.0
 11
-0.5399999999999999
 21
1.625
 31
0.0
  0
LINE
  5
13B
330
121
100
AcDbEntity
  8
AM_9
100
AcDbLine
 10
-0.6
 20
-1.625
 30
0.0
 11
-0.5399999999999999
 21
-1.625
 31
0.0
  0
LINE
  5
13C
330
121
100
AcDbEntity
  8
AM_9
100
AcDbLine
 10
-0.8254999999999998
 20
-0.5000000000000001
 30
0.0
 11
-0.0674180828645801
 21
-0.4999999999999994
 31
0.0
  0
LINE
  5
13D
330
121
100
AcDbEntity
  8
AM_9
100
AcDbLine
 10
-0.8254999999999998
 20
0.4999999999999995
 30
0.0
 11
-0.0674180828645801
 21
0.4999999999999989
 31
0.0
  0
LINE
  5
13E
330
121
100
AcDbEntity
  8
AM_9
100
AcDbLine
 10
-1.15
 20
-1.22045
 30
0.0
 11
-0.0833333333333333
 21
-1.22045
 31
0.0
  0
LINE
  5
13F
330
121
100
AcDbEntity
  8
AM_9
100
AcDbLine
 10
-0.0833333333333333
 20
1.22045
 30
0.0
 11
-1.15
 21
1.22045
 31
0.0
  0
LINE
  5
140
330
121
100
AcDbEntity
  8
AM_9
100
AcDbLine
 10
-0.8254999999999998
 20
-0.5000000000000001
 30
0.0
 11
-0.8254999999999998
 21
0.4999999999999995
 31
0.0
  0
LINE
  5
141
330
121
100
AcDbEntity
  8
AM_9
100
AcDbLine
 10
-0.0833333333333333
 20
-0.5000000000000001
 30
0.0
 11
-0.0833333333333333
 21
-1.241283333333333
 31
0.0
  0
LINE
  5
142
330
121
100
AcDbEntity
  8
AM_9
100
AcDbLine
 10
-0.0674180828645801
 20
-0.4999999999999994
 30
0.0
 11
-0.0674180828645801
 21
0.4999999999999989
 31
0.0
  0
LINE
  5
143
330
121
100
AcDbEntity
  8
AM_9
100
AcDbLine
 10
-0.0833333333333333
 20
1.241283333333333
 30
0.0
 11
-0.0833333333333333
 21
0.4999999999999998
 31
0.0
  0
ARC
  5
144
330
121
100
AcDbEntity
  8
AM_9
100
AcDbCircle
 10
-0.0208333333333337
 20
-1.241283333333334
 30
0.0
 40
0.0624999999999996
100
AcDbArc
 50
180.0
 51
270.0
  0
ARC
  5
145
330
121
100
AcDbEntity
  8
AM_9
100
AcDbCircle
 10
-0.0208333333333337
 20
1.241283333333334
 30
0.0
 40
0.0624999999999996
100
AcDbArc
 50
90.0
 51
180.0
  0
LINE
  5
146
330
121
100
AcDbEntity
  8
AM_9
100
AcDbLine
 10
-1.27
 20
-1.303783333333333
 30
0.0
 11
-1.15
 21
-1.303783333333333
 31
0.0
  0
LINE
  5
147
330
121
100
AcDbEntity
  8
AM_9
100
AcDbLine
 10
-1.15
 20
1.303783333333333
 30
0.0
 11
-1.27
 21
1.303783333333333
 31
0.0
  0
LINE
  5
148
330
121
100
AcDbEntity
  8
AM_9
100
AcDbLine
 10
-1.15
 20
1.303783333333333
 30
0.0
 11
-1.15
 21
-1.303783333333333
 31
0.0
  0
LINE
  5
149
330
121
100
AcDbEntity
  8
AM_9
100
AcDbLine
 10
-0.0208333333333333
 20
-1.303783333333333
 30
0.0
 11
0.0
 21
-1.303783333333333
 31
0.0
  0
LINE
  5
14A
330
121
100
AcDbEntity
  8
AM_9
100
AcDbLine
 10
0.0
 20
1.303783333333333
 30
0.0
 11
-0.0208333333333333
 21
1.303783333333333
 31
0.0
  0
LINE
  5
14B
330
121
100
AcDbEntity
  8
AM_9
100
AcDbLine
 10
-0.0208333333333333
 20
1.303783333333333
 30
0.0
 11
-0.0208333333333333
 21
-1.303783333333333
 31
0.0
  0
LINE
  5
14C
330
121
100
AcDbEntity
  8
AM_9
100
AcDbLine
 10
-0.5399999999999999
 20
2.125
 30
0.0
 11
-0.5399999999999999
 21
1.529809703885628
 31
0.0
  0
LINE
  5
14D
330
121
100
AcDbEntity
  8
AM_9
100
AcDbLine
 10
-0.5399999999999999
 20
-1.529809703885628
 30
0.0
 11
-0.5399999999999999
 21
-2.125
 31
0.0
  0
LINE
  5
14E
330
121
100
AcDbEntity
  8
AM_9
100
AcDbLine
 10
-0.5999999999999999
 20
-1.529809703885628
 30
0.0
 11
-0.5399999999999999
 21
-1.529809703885628
 31
0.0
  0
LINE
  5
14F
330
121
100
AcDbEntity
  8
AM_9
100
AcDbLine
 10
-0.5999999999999998
 20
-1.570082521472477
 30
0.0
 11
-0.5399999999999999
 21
-1.570082521472477
 31
0.0
  0
LINE
  5
150
330
121
100
AcDbEntity
  8
AM_9
100
AcDbLine
 10
-0.5399999999999999
 20
1.529809703885628
 30
0.0
 11
-0.5999999999999999
 21
1.529809703885628
 31
0.0
  0
LINE
  5
151
330
121
100
AcDbEntity
  8
AM_9
100
AcDbLine
 10
-0.5999999999999998
 20
1.570082521472478
 30
0.0
 11
-0.5399999999999999
 21
1.570082521472478
 31
0.0
  0
LINE
  5
152
330
121
100
AcDbEntity
  8
AM_9
100
AcDbLine
 10
-0.5999999999999999
 20
-1.8125
 30
0.0
 11
0.0000000000000001
 21
-1.8125
 31
0.0
  0
LINE
  5
153
330
121
100
AcDbEntity
  8
AM_9
100
AcDbLine
 10
0.0000000000000001
 20
-1.4375
 30
0.0
 11
-0.5999999999999999
 21
-1.4375
 31
0.0
  0
LINE
  5
154
330
121
100
AcDbEntity
  8
AM_9
100
AcDbLine
 10
-0.5999999999999999
 20
1.4375
 30
0.0
 11
0.0000000000000001
 21
1.4375
 31
0.0
  0
LINE
  5
155
330
121
100
AcDbEntity
  8
AM_9
100
AcDbLine
 10
0.0000000000000001
 20
1.8125
 30
0.0
 11
-0.5999999999999999
 21
1.8125
 31
0.0
  0
LINE
  5
156
330
121
100
AcDbEntity
  8
AM_7
100
AcDbLine
 10
0.0299999999999999
 20
1.625
 30
0.0
 11
-0.63
 21
1.625
 31
0.0
  0
LINE
  5
157
330
121
100
AcDbEntity
  8
AM_7
100
AcDbLine
 10
0.0299999999999999
 20
-1.625
 30
0.0
 11
-0.63
 21
-1.625
 31
0.0
  0
LINE
  5
158
330
121
100
AcDbEntity
  8
AM_7
100
AcDbLine
 10
-1.796
 20
0.0
 30
0.0
 11
0.0635
 21
0.0
 31
0.0
  0
LINE
  5
159
330
121
100
AcDbEntity
  8
AM_4
100
AcDbLine
 10
-1.27
 20
1.625
 30
0.0
 11
-0.6
 21
1.625
 31
0.0
  0
LINE
  5
15A
330
121
100
AcDbEntity
  8
AM_4
100
AcDbLine
 10
-1.27
 20
-1.625
 30
0.0
 11
-0.6
 21
-1.625
 31
0.0
  0
LINE
  5
15B
330
121
100
AcDbEntity
  8
AM_4
100
AcDbLine
 10
-1.27
 20
-1.570082521472477
 30
0.0
 11
-0.5999999999999998
 21
-1.570082521472477
 31
0.0
  0
LINE
  5
15C
330
121
100
AcDbEntity
  8
AM_4
100
AcDbLine
 10
-1.27
 20
1.570082521472478
 30
0.0
 11
-0.5999999999999998
 21
1.570082521472478
 31
0.0
  0
LINE
  5
15D
330
121
100
AcDbEntity
  8
AM_4
100
AcDbLine
 10
-1.27
 20
-0.7280145173838025
 30
0.0
 11
-0.5399999999999999
 21
-0.7280145173838025
 31
0.0
  0
LINE
  5
15E
330
121
100
AcDbEntity
  8
AM_4
100
AcDbLine
 10
-1.27
 20
-1.625
 30
0.0
 11
-1.27
 21
1.625
 31
0.0
  0
LINE
  5
15F
330
121
100
AcDbEntity
  8
AM_4
100
AcDbLine
 10
-1.27
 20
0.7280145173838016
 30
0.0
 11
-0.5399999999999999
 21
0.7280145173838016
 31
0.0
  0
LINE
  5
160
330
121
100
AcDbEntity
  8
AM_4
100
AcDbLine
 10
-1.27
 20
0.5954319959113241
 30
0.0
 11
-0.5399999999999999
 21
0.5954319959113241
 31
0.0
  0
LINE
  5
161
330
121
100
AcDbEntity
  8
AM_4
100
AcDbLine
 10
-1.27
 20
-0.5954319959113256
 30
0.0
 11
-0.5399999999999999
 21
-0.5954319959113256
 31
0.0
  0
LINE
  5
162
330
121
100
AcDbEntity
  8
AM_4
100
AcDbLine
 10
-0.5999999999999999
 20
-2.125
 30
0.0
 11
0.0000000000000001
 21
-2.125
 31
0.0
  0
LINE
  5
163
330
121
100
AcDbEntity
  8
AM_4
100
AcDbLine
 10
-0.5999999999999999
 20
2.125
 30
0.0
 11
0.0000000000000001
 21
2.125
 31
0.0
  0
LINE
  5
164
330
121
100
AcDbEntity
  8
AM_4
100
AcDbLine
 10
-0.5999999999999999
 20
-2.070082521472478
 30
0.0
 11
0.0000000000000001
 21
-2.070082521472478
 31
0.0
  0
LINE
  5
165
330
121
100
AcDbEntity
  8
AM_4
100
AcDbLine
 10
-0.5999999999999999
 20
2.070082521472477
 30
0.0
 11
0.0000000000000001
 21
2.070082521472477
 31
0.0
  0
LINE
  5
166
330
121
100
AcDbEntity
  8
AM_4
100
AcDbLine
 10
-0.5999999999999999
 20
-1.84658414519419
 30
0.0
 11
0.0000000000000001
 21
-1.84658414519419
 31
0.0
  0
LINE
  5
167
330
121
100
AcDbEntity
  8
AM_4
100
AcDbLine
 10
0.0000000000000001
 20
-2.125
 30
0.0
 11
0.0000000000000001
 21
2.125
 31
0.0
  0
LINE
  5
168
330
121
100
AcDbEntity
  8
AM_4
100
AcDbLine
 10
-0.5999999999999999
 20
1.846584145194189
 30
0.0
 11
0.0000000000000001
 21
1.846584145194189
 31
0.0
  0
LINE
  5
169
330
121
100
AcDbEntity
  8
AM_4
100
AcDbLine
 10
-0.5399999999999998
 20
-1.363477631085023
 30
0.0
 11
-0.5399999999999998
 21
1.363477631085024
 31
0.0
  0
LINE
  5
16A
330
121
100
AcDbEntity
  8
AM_4
100
AcDbLine
 10
-0.5999999999999999
 20
-1.714001623721712
 30
0.0
 11
0.0000000000000001
 21
-1.714001623721712
 31
0.0
  0
LINE
  5
16B
330
121
100
AcDbEntity
  8
AM_4
100
AcDbLine
 10
-0.5999999999999999
 20
1.714001623721712
 30
0.0
 11
0.0000000000000001
 21
1.714001623721712
 31
0.0
  0
LINE
  5
16C
330
121
100
AcDbEntity
  8
AM_4
100
AcDbLine
 10
-0.5999999999999999
 20
0.7682873349706514
 30
0.0
 11
-0.5999999999999999
 21
2.125
 31
0.0
  0
LINE
  5
16D
330
121
100
AcDbEntity
  8
AM_4
100
AcDbLine
 10
-0.5999999999999999
 20
0.7682873349706514
 30
0.0
 11
-0.5399999999999999
 21
0.7682873349706514
 31
0.0
  0
LINE
  5
16E
330
121
100
AcDbEntity
  8
AM_4
100
AcDbLine
 10
-0.5399999999999998
 20
1.363477631085024
 30
0.0
 11
-0.5999999999999999
 21
1.363477631085023
 31
0.0
  0
LINE
  5
16F
330
121
100
AcDbEntity
  8
AM_4
100
AcDbLine
 10
-0.5399999999999999
 20
-0.7682873349706512
 30
0.0
 11
-0.5999999999999999
 21
-0.7682873349706514
 31
0.0
  0
LINE
  5
170
330
121
100
AcDbEntity
  8
AM_4
100
AcDbLine
 10
-0.5999999999999999
 20
-2.125
 30
0.0
 11
-0.5999999999999999
 21
-0.7682873349706514
 31
0.0
  0
LINE
  5
171
330
121
100
AcDbEntity
  8
AM_4
100
AcDbLine
 10
-0.5999999999999999
 20
-1.363477631085023
 30
0.0
 11
-0.5399999999999998
 21
-1.363477631085023
 31
0.0
  0
ENDBLK
  5
124
330
121
100
AcDbEntity
  8
0
100
AcDbBlockEnd
  0
ENDSEC
  0
SECTION
  2
ENTITIES
  0
INSERT
  5
6F
330
1F
100
AcDbEntity
  8
0
100
AcDbBlockReference
  2
1_136728_2
 10
0.0
 20
0.0
 30
0.0
  0
POINT
  5
173
330
1F
100
AcDbEntity
  8
ConnectionPoints
100
AcDbPoint
 10
-0.2000000000000001
 20
0.0
 30
0.0
  0
POINT
  5
174
330
1F
100
AcDbEntity
  8
ConnectionPoints
100
AcDbPoint
 10
-1.72
 20
0.0
 30
0.0000000000000001
  0
POINT
  5
175
330
1F
100
AcDbEntity
  8
ConnectionPoints
100
AcDbPoint
 10
-0.935
 20
1.625
 30
0.0000000000000001
  0
POINT
  5
176
330
1F
100
AcDbEntity
  8
ConnectionPoints
100
AcDbPoint
 10
-1.72
 20
0.0
 30
0.0000000000000001
  0
ENDSEC
  0
SECTION
  2
OBJECTS
  0
DICTIONARY
  5
C
330
0
100
AcDbDictionary
281
     1
  3
ACAD_DETAILVIEWSTYLE
350
17E
  3
ACAD_GROUP
350
D
  3
ACAD_LAYOUT
350
1A
  3
ACAD_MATERIAL
350
43
  3
ACAD_MLEADERSTYLE
350
6B
  3
ACAD_MLINESTYLE
350
17
  3
ACAD_PLOTSETTINGS
350
19
  3
ACAD_PLOTSTYLENAME
350
E
  3
ACAD_SCALELIST
350
47
  3
ACAD_SECTIONVIEWSTYLE
350
17F
  3
ACAD_TABLESTYLE
350
69
  3
ACAD_VISUALSTYLE
350
2A
  3
ACDB_RECOMPOSE_DATA
350
17B
  3
AcDbVariableDictionary
350
177
  0
SUN
  5
6D
330
29
100
AcDbSun
 90
        1
290
     0
 63
     7
421
 16777215
 40
1.0
291
     1
 91
  2455826
 92
 54000000
292
     0
 70
     2
 71
   256
280
     1
  0
DICTIONARY
  5
17E
102
{ACAD_REACTORS
330
C
102
}
330
C
100
AcDbDictionary
281
     1
  0
DICTIONARY
  5
D
102
{ACAD_REACTORS
330
C
102
}
330
C
100
AcDbDictionary
281
     1
  0
DICTIONARY
  5
1A
102
{ACAD_REACTORS
330
C
102
}
330
C
100
AcDbDictionary
281
     1
  3
Layout1
350
1E
  3
Layout2
350
26
  3
Model
350
22
  0
DICTIONARY
  5
43
102
{ACAD_REACTORS
330
C
102
}
330
C
100
AcDbDictionary
281
     1
  3
ByBlock
350
45
  3
ByLayer
350
44
  3
Global
350
46
  0
DICTIONARY
  5
6B
102
{ACAD_REACTORS
330
C
102
}
330
C
100
AcDbDictionary
281
     1
  3
Standard
350
6C
  0
DICTIONARY
  5
17
102
{ACAD_REACTORS
330
C
102
}
330
C
100
AcDbDictionary
281
     1
  3
Standard
350
18
  0
DICTIONARY
  5
19
102
{ACAD_REACTORS
330
C
102
}
330
C
100
AcDbDictionary
281
     1
  0
ACDBDICTIONARYWDFLT
  5
E
102
{ACAD_REACTORS
330
C
102
}
330
C
100
AcDbDictionary
281
     1
  3
Normal
350
F
100
AcDbDictionaryWithDefault
340
F
  0
DICTIONARY
  5
47
102
{ACAD_REACTORS
330
C
102
}
330
C
100
AcDbDictionary
281
     1
  3
A0
350
48
  3
A1
350
49
  3
A2
350
4A
  3
A3
350
4B
  3
A4
350
4C
  3
A5
350
4D
  3
A6
350
4E
  3
A7
350
4F
  3
A8
350
50
  3
A9
350
51
  3
B0
350
52
  3
B1
350
53
  3
B2
350
54
  3
B3
350
55
  3
B4
350
56
  3
B5
350
57
  3
B6
350
58
  3
B7
350
59
  3
B8
350
5A
  3
B9
350
5B
  3
C0
350
5C
  3
C1
350
5D
  3
C2
350
5E
  3
C3
350
5F
  3
C4
350
60
  3
C5
350
61
  3
C6
350
62
  3
C7
350
63
  3
C8
350
64
  3
C9
350
65
  3
D0
350
66
  3
D1
350
67
  3
D2
350
68
  0
DICTIONARY
  5
17F
102
{ACAD_REACTORS
330
C
102
}
330
C
100
AcDbDictionary
281
     1
  0
DICTIONARY
  5
69
102
{ACAD_REACTORS
330
C
102
}
330
C
100
AcDbDictionary
281
     1
  3
Standard
350
6A
  0
DICTIONARY
  5
2A
102
{ACAD_REACTORS
330
C
102
}
330
C
100
AcDbDictionary
281
     1
  3
2dWireframe
350
2F
  3
Basic
350
32
  3
Brighten
350
36
  3
ColorChange
350
3A
  3
Conceptual
350
34
  3
Dim
350
35
  3
EdgeColorOff
350
3D
  3
Facepattern
350
39
  3
Flat
350
2B
  3
FlatWithEdges
350
2C
  3
Gouraud
350
2D
  3
GouraudWithEdges
350
2E
  3
Hidden
350
31
  3
JitterOff
350
3B
  3
Linepattern
350
38
  3
OverhangOff
350
3C
  3
Realistic
350
33
  3
Shaded
350
42
  3
Shaded with edges
350
41
  3
Shades of Gray
350
3E
  3
Sketchy
350
3F
  3
Thicken
350
37
  3
Wireframe
350
30
  3
X-Ray
350
40
  0
XRECORD
  5
17B
102
{ACAD_REACTORS
330
C
102
}
330
C
100
AcDbXrecord
280
     1
 90
        1
330
6A
  0
DICTIONARY
  5
177
102
{ACAD_REACTORS
330
C
102
}
330
C
100
AcDbDictionary
281
     1
  3
CANNOSCALE
350
178
  3
CMLEADERSTYLE
350
17D
  3
CTABLESTYLE
350
17C
  0
LAYOUT
  5
1E
102
{ACAD_REACTORS
330
1A
102
}
330
1A
100
AcDbPlotSettings
  1

  2
none_device
  4

  6

 40
0.0
 41
0.0
 42
0.0
 43
0.0
 44
0.0
 45
0.0
 46
0.0
 47
0.0
 48
0.0
 49
0.0
140
0.0
141
0.0
142
1.0
143
1.0
 70
   688
 72
     0
 73
     0
 74
     5
  7

 75
    16
 76
     0
 77
     2
 78
   300
147
1.0
148
0.0
149
0.0
100
AcDbLayout
  1
Layout1
 70
     1
 71
     1
 10
0.0
 20
0.0
 11
12.0
 21
9.0
 12
0.0
 22
0.0
 32
0.0
 14
1.000000000000000E+20
 24
1.000000000000000E+20
 34
1.000000000000000E+20
 15
-1.000000000000000E+20
 25
-1.000000000000000E+20
 35
-1.000000000000000E+20
146
0.0
 13
0.0
 23
0.0
 33
0.0
 16
1.0
 26
0.0
 36
0.0
 17
0.0
 27
1.0
 37
0.0
 76
     0
330
1B
  0
LAYOUT
  5
26
102
{ACAD_REACTORS
330
1A
102
}
330
1A
100
AcDbPlotSettings
  1

  2
none_device
  4

  6

 40
0.0
 41
0.0
 42
0.0
 43
0.0
 44
0.0
 45
0.0
 46
0.0
 47
0.0
 48
0.0
 49
0.0
140
0.0
141
0.0
142
1.0
143
1.0
 70
   688
 72
     0
 73
     0
 74
     5
  7

 75
    16
 76
     0
 77
     2
 78
   300
147
1.0
148
0.0
149
0.0
100
AcDbLayout
  1
Layout2
 70
     1
 71
     2
 10
0.0
 20
0.0
 11
0.0
 21
0.0
 12
0.0
 22
0.0
 32
0.0
 14
0.0
 24
0.0
 34
0.0
 15
0.0
 25
0.0
 35
0.0
146
0.0
 13
0.0
 23
0.0
 33
0.0
 16
1.0
 26
0.0
 36
0.0
 17
0.0
 27
1.0
 37
0.0
 76
     0
330
23
  0
LAYOUT
  5
22
102
{ACAD_REACTORS
330
1A
102
}
330
1A
100
AcDbPlotSettings
  1

  2
none_device
  4
Letter_(8.50_x_11.00_Inches)
  6

 40
6.35
 41
6.35
 42
6.35000508
 43
6.35000508
 44
215.9
 45
279.4
 46
0.0
 47
0.0
 48
0.0
 49
0.0
140
0.0
141
0.0
142
1.0
143
1.0
 70
  1712
 72
     0
 73
     0
 74
     0
  7

 75
     0
 76
     0
 77
     2
 78
   300
147
1.0
148
0.0
149
0.0
100
AcDbLayout
  1
Model
 70
     1
 71
     0
 10
0.0
 20
0.0
 11
12.0
 21
9.0
 12
0.0
 22
0.0
 32
0.0
 14
1.000000000000000E+20
 24
1.000000000000000E+20
 34
1.000000000000000E+20
 15
-1.000000000000000E+20
 25
-1.000000000000000E+20
 35
-1.000000000000000E+20
146
0.0
 13
0.0
 23
0.0
 33
0.0
 16
1.0
 26
0.0
 36
0.0
 17
0.0
 27
1.0
 37
0.0
 76
     0
330
1F
331
29
  0
MATERIAL
  5
45
102
{ACAD_REACTORS
330
43
102
}
330
43
100
AcDbMaterial
  1
ByBlock
 72
     1
 94
      127
  0
MATERIAL
  5
44
102
{ACAD_REACTORS
330
43
102
}
330
43
100
AcDbMaterial
  1
ByLayer
 72
     1
 94
      127
  0
MATERIAL
  5
46
102
{ACAD_REACTORS
330
43
102
}
330
43
100
AcDbMaterial
  1
Global
 72
     1
 94
      127
  0
MLEADERSTYLE
  5
6C
102
{ACAD_REACTORS
330
6B
102
}
330
6B
100
AcDbMLeaderStyle
179
     2
170
     2
171
     1
172
     0
 90
        2
 40
0.0
 41
0.0
173
     1
 91
-1056964608
340
14
 92
       -2
290
     1
 42
0.09
291
     1
 43
0.36
  3
Standard
341
0
 44
0.18
300

342
11
174
     1
178
     6
175
     1
176
     0
 93
-1056964608
 45
0.18
292
     0
297
     0
 46
0.18
343
0
 94
-1056964608
 47
1.0
 49
1.0
140
1.0
293
     1
141
0.0
294
     1
177
     0
142
1.0
295
     0
296
     0
143
0.125
271
     0
272
     9
273
     9
298
     0
  0
MLINESTYLE
  5
18
102
{ACAD_REACTORS
330
17
102
}
330
17
100
AcDbMlineStyle
  2
Standard
 70
     0
  3

 62
   256
 51
90.0
 52
90.0
 71
     2
 49
0.5
 62
   256
  6
BYLAYER
 49
-0.5
 62
   256
  6
BYLAYER
  0
ACDBPLACEHOLDER
  5
F
102
{ACAD_REACTORS
330
E
102
}
330
E
  0
SCALE
  5
48
102
{ACAD_REACTORS
330
47
102
}
330
47
100
AcDbScale
 70
     0
300
1:1
140
1.0
141
1.0
290
     1
  0
SCALE
  5
49
102
{ACAD_REACTORS
330
47
102
}
330
47
100
AcDbScale
 70
     0
300
1:2
140
1.0
141
2.0
290
     0
  0
SCALE
  5
4A
102
{ACAD_REACTORS
330
47
102
}
330
47
100
AcDbScale
 70
     0
300
1:4
140
1.0
141
4.0
290
     0
  0
SCALE
  5
4B
102
{ACAD_REACTORS
330
47
102
}
330
47
100
AcDbScale
 70
     0
300
1:5
140
1.0
141
5.0
290
     0
  0
SCALE
  5
4C
102
{ACAD_REACTORS
330
47
102
}
330
47
100
AcDbScale
 70
     0
300
1:8
140
1.0
141
8.0
290
     0
  0
SCALE
  5
4D
102
{ACAD_REACTORS
330
47
102
}
330
47
100
AcDbScale
 70
     0
300
1:10
140
1.0
141
10.0
290
     0
  0
SCALE
  5
4E
102
{ACAD_REACTORS
330
47
102
}
330
47
100
AcDbScale
 70
     0
300
1:16
140
1.0
141
16.0
290
     0
  0
SCALE
  5
4F
102
{ACAD_REACTORS
330
47
102
}
330
47
100
AcDbScale
 70
     0
300
1:20
140
1.0
141
20.0
290
     0
  0
SCALE
  5
50
102
{ACAD_REACTORS
330
47
102
}
330
47
100
AcDbScale
 70
     0
300
1:30
140
1.0
141
30.0
290
     0
  0
SCALE
  5
51
102
{ACAD_REACTORS
330
47
102
}
330
47
100
AcDbScale
 70
     0
300
1:40
140
1.0
141
40.0
290
     0
  0
SCALE
  5
52
102
{ACAD_REACTORS
330
47
102
}
330
47
100
AcDbScale
 70
     0
300
1:50
140
1.0
141
50.0
290
     0
  0
SCALE
  5
53
102
{ACAD_REACTORS
330
47
102
}
330
47
100
AcDbScale
 70
     0
300
1:100
140
1.0
141
100.0
290
     0
  0
SCALE
  5
54
102
{ACAD_REACTORS
330
47
102
}
330
47
100
AcDbScale
 70
     0
300
2:1
140
2.0
141
1.0
290
     0
  0
SCALE
  5
55
102
{ACAD_REACTORS
330
47
102
}
330
47
100
AcDbScale
 70
     0
300
4:1
140
4.0
141
1.0
290
     0
  0
SCALE
  5
56
102
{ACAD_REACTORS
330
47
102
}
330
47
100
AcDbScale
 70
     0
300
8:1
140
8.0
141
1.0
290
     0
  0
SCALE
  5
57
102
{ACAD_REACTORS
330
47
102
}
330
47
100
AcDbScale
 70
     0
300
10:1
140
10.0
141
1.0
290
     0
  0
SCALE
  5
58
102
{ACAD_REACTORS
330
47
102
}
330
47
100
AcDbScale
 70
     0
300
100:1
140
100.0
141
1.0
290
     0
  0
SCALE
  5
59
102
{ACAD_REACTORS
330
47
102
}
330
47
100
AcDbScale
 70
     0
300
1/128" = 1'-0"
140
0.0078125
141
12.0
290
     0
  0
SCALE
  5
5A
102
{ACAD_REACTORS
330
47
102
}
330
47
100
AcDbScale
 70
     0
300
1/64" = 1'-0"
140
0.015625
141
12.0
290
     0
  0
SCALE
  5
5B
102
{ACAD_REACTORS
330
47
102
}
330
47
100
AcDbScale
 70
     0
300
1/32" = 1'-0"
140
0.03125
141
12.0
290
     0
  0
SCALE
  5
5C
102
{ACAD_REACTORS
330
47
102
}
330
47
100
AcDbScale
 70
     0
300
1/16" = 1'-0"
140
0.0625
141
12.0
290
     0
  0
SCALE
  5
5D
102
{ACAD_REACTORS
330
47
102
}
330
47
100
AcDbScale
 70
     0
300
3/32" = 1'-0"
140
0.09375
141
12.0
290
     0
  0
SCALE
  5
5E
102
{ACAD_REACTORS
330
47
102
}
330
47
100
AcDbScale
 70
     0
300
1/8" = 1'-0"
140
0.125
141
12.0
290
     0
  0
SCALE
  5
5F
102
{ACAD_REACTORS
330
47
102
}
330
47
100
AcDbScale
 70
     0
300
3/16" = 1'-0"
140
0.1875
141
12.0
290
     0
  0
SCALE
  5
60
102
{ACAD_REACTORS
330
47
102
}
330
47
100
AcDbScale
 70
     0
300
1/4" = 1'-0"
140
0.25
141
12.0
290
     0
  0
SCALE
  5
61
102
{ACAD_REACTORS
330
47
102
}
330
47
100
AcDbScale
 70
     0
300
3/8" = 1'-0"
140
0.375
141
12.0
290
     0
  0
SCALE
  5
62
102
{ACAD_REACTORS
330
47
102
}
330
47
100
AcDbScale
 70
     0
300
1/2" = 1'-0"
140
0.5
141
12.0
290
     0
  0
SCALE
  5
63
102
{ACAD_REACTORS
330
47
102
}
330
47
100
AcDbScale
 70
     0
300
3/4" = 1'-0"
140
0.75
141
12.0
290
     0
  0
SCALE
  5
64
102
{ACAD_REACTORS
330
47
102
}
330
47
100
AcDbScale
 70
     0
300
1" = 1'-0"
140
1.0
141
12.0
290
     0
  0
SCALE
  5
65
102
{ACAD_REACTORS
330
47
102
}
330
47
100
AcDbScale
 70
     0
300
1-1/2" = 1'-0"
140
1.5
141
12.0
290
     0
  0
SCALE
  5
66
102
{ACAD_REACTORS
330
47
102
}
330
47
100
AcDbScale
 70
     0
300
3" = 1'-0"
140
3.0
141
12.0
290
     0
  0
SCALE
  5
67
102
{ACAD_REACTORS
330
47
102
}
330
47
100
AcDbScale
 70
     0
300
6" = 1'-0"
140
6.0
141
12.0
290
     0
  0
SCALE
  5
68
102
{ACAD_REACTORS
330
47
102
}
330
47
100
AcDbScale
 70
     0
300
1'-0" = 1'-0"
140
12.0
141
12.0
290
     0
  0
TABLESTYLE
  5
6A
102
{ACAD_REACTORS
330
69
102
}
102
{ACAD_XDICTIONARY
360
179
102
}
330
69
100
AcDbTableStyle
  3
Standard
 70
     0
 71
     0
 40
0.06
 41
0.06
280
     0
281
     0
  7
Standard
140
0.18
170
     2
 62
     0
 63
   257
283
     0
 90
        4
 91
        0
  1

274
    -2
284
     1
 64
     0
275
    -2
285
     1
 65
     0
276
    -2
286
     1
 66
     0
277
    -2
287
     1
 67
     0
278
    -2
288
     1
 68
     0
279
    -2
289
     1
 69
     0
  7
Standard
140
0.25
170
     5
 62
     0
 63
   257
283
     0
 90
        4
 91
        0
  1

274
    -2
284
     1
 64
     0
275
    -2
285
     1
 65
     0
276
    -2
286
     1
 66
     0
277
    -2
287
     1
 67
     0
278
    -2
288
     1
 68
     0
279
    -2
289
     1
 69
     0
  7
Standard
140
0.18
170
     5
 62
     0
 63
   257
283
     0
 90
        4
 91
        0
  1

274
    -2
284
     1
 64
     0
275
    -2
285
     1
 65
     0
276
    -2
286
     1
 66
     0
277
    -2
287
     1
 67
     0
278
    -2
288
     1
 68
     0
279
    -2
289
     1
 69
     0
  0
VISUALSTYLE
  5
2F
102
{ACAD_REACTORS
330
2A
102
}
330
2A
100
AcDbVisualStyle
  2
2dWireframe
 70
     4
177
     3
291
     0
 70
    58
 90
        0
176
     1
 90
        2
176
     1
 90
        0
176
     1
 90
        0
176
     1
 40
0.6
176
     1
 40
30.0
176
     1
 62
     7
420
 16777215
176
     1
 90
        1
176
     1
 90
        4
176
     1
 62
     7
176
     1
 62
   257
176
     1
 90
        1
176
     1
 90
        1
176
     1
 40
1.0
176
     1
 90
        0
176
     1
 62
   257
176
     1
 40
1.0
176
     1
 90
        1
176
     1
 90
        6
176
     1
 90
        2
176
     1
 62
     7
176
     1
 90
        5
176
     1
 90
        0
176
     1
 90
        0
176
     1
290
     0
176
     1
 90
        1
176
     1
 40
0.0
176
     1
 90
        0
176
     1
290
     1
176
     1
290
     1
176
     1
290
     0
176
     1
290
     0
176
     1
290
     0
176
     1
290
     0
176
     1
290
     0
176
     1
290
     0
176
     1
290
     0
176
     1
 90
       50
176
     1
 40
0.0
176
     1
 40
1.0
176
     1
 90
        0
176
     1
 62
    18
420
        0
176
     1
 90
       50
176
     1
 90
        3
176
     1
 62
     5
420
      255
176
     1
290
     0
176
     1
 90
       50
176
     1
 90
       50
176
     1
 90
       50
176
     1
290
     0
176
     1
 90
       50
176
     1
 62
   256
176
     0
 40
1.0
176
     0
 90
        2
176
     1
  1
strokes_ogs.tif
176
     1
290
     0
176
     1
 40
1.0
176
     1
 40
1.0
176
     1
  0
VISUALSTYLE
  5
32
102
{ACAD_REACTORS
330
2A
102
}
330
2A
100
AcDbVisualStyle
  2
Basic
 70
     7
177
     3
291
     1
 70
    58
 90
        1
176
     1
 90
        0
176
     1
 90
        1
176
     1
 90
        0
176
     1
 40
0.6
176
     1
 40
30.0
176
     1
 62
     7
420
 16777215
176
     1
 90
        0
176
     1
 90
        4
176
     1
 62
     7
176
     1
 62
   257
176
     1
 90
        1
176
     1
 90
        1
176
     1
 40
1.0
176
     1
 90
        8
176
     1
 62
     7
176
     1
 40
1.0
176
     1
 90
        1
176
     1
 90
        6
176
     1
 90
        2
176
     1
 62
     7
176
     1
 90
        5
176
     1
 90
        0
176
     1
 90
        0
176
     1
290
     0
176
     1
 90
        1
176
     1
 40
0.0
176
     1
 90
        0
176
     1
290
     0
176
     1
290
     1
176
     1
290
     1
176
     1
290
     0
176
     1
290
     0
176
     1
290
     0
176
     1
290
     0
176
     1
290
     0
176
     1
290
     0
176
     1
 90
       50
176
     1
 40
0.0
176
     1
 40
1.0
176
     1
 90
        0
176
     1
 62
    18
420
        0
176
     1
 90
       50
176
     1
 90
        3
176
     1
 62
     5
420
      255
176
     1
290
     0
176
     1
 90
       50
176
     1
 90
       50
176
     1
 90
       50
176
     1
290
     0
176
     1
 90
       50
176
     1
 62
   256
176
     0
 40
1.0
176
     0
 90
        2
176
     1
  1
strokes_ogs.tif
176
     1
290
     0
176
     1
 40
1.0
176
     1
 40
1.0
176
     1
  0
VISUALSTYLE
  5
36
102
{ACAD_REACTORS
330
2A
102
}
330
2A
100
AcDbVisualStyle
  2
Brighten
 70
    12
177
     3
291
     1
 70
    58
 90
        2
176
     1
 90
        2
176
     1
 90
        0
176
     1
 90
        0
176
     1
 40
0.6
176
     1
 40
30.0
176
     1
 62
     7
420
 16777215
176
     1
 90
        1
176
     1
 90
        4
176
     1
 62
     7
176
     1
 62
   257
176
     1
 90
        1
176
     1
 90
        1
176
     1
 40
1.0
176
     1
 90
        8
176
     1
 62
     7
176
     1
 40
1.0
176
     1
 90
        1
176
     1
 90
        6
176
     1
 90
        2
176
     1
 62
     7
176
     1
 90
        5
176
     1
 90
        0
176
     1
 90
        0
176
     1
290
     0
176
     1
 90
        1
176
     1
 40
50.0
176
     1
 90
        0
176
     1
290
     0
176
     1
290
     1
176
     1
290
     1
176
     1
290
     0
176
     1
290
     0
176
     1
290
     0
176
     1
290
     0
176
     1
290
     0
176
     1
290
     0
176
     1
 90
       50
176
     1
 40
0.0
176
     1
 40
1.0
176
     1
 90
        0
176
     1
 62
    18
420
        0
176
     1
 90
       50
176
     1
 90
        3
176
     1
 62
     5
420
      255
176
     1
290
     0
176
     1
 90
       50
176
     1
 90
       50
176
     1
 90
       50
176
     1
290
     0
176
     1
 90
       50
176
     1
 62
   256
176
     0
 40
1.0
176
     0
 90
        2
176
     1
  1
strokes_ogs.tif
176
     1
290
     0
176
     1
 40
1.0
176
     1
 40
1.0
176
     1
  0
VISUALSTYLE
  5
3A
102
{ACAD_REACTORS
330
2A
102
}
330
2A
100
AcDbVisualStyle
  2
ColorChange
 70
    16
177
     3
291
     1
 70
    58
 90
        2
176
     1
 90
        2
176
     1
 90
        3
176
     1
 90
        0
176
     1
 40
0.6
176
     1
 40
30.0
176
     1
 62
     8
420
  8421504
176
     1
 90
        1
176
     1
 90
        4
176
     1
 62
     7
176
     1
 62
   257
176
     1
 90
        1
176
     1
 90
        1
176
     1
 40
1.0
176
     1
 90
        8
176
     1
 62
     8
420
  8421504
176
     1
 40
1.0
176
     1
 90
        1
176
     1
 90
        6
176
     1
 90
        2
176
     1
 62
     7
176
     1
 90
        5
176
     1
 90
        0
176
     1
 90
        0
176
     1
290
     0
176
     1
 90
        1
176
     1
 40
0.0
176
     1
 90
        0
176
     1
290
     0
176
     1
290
     1
176
     1
290
     1
176
     1
290
     0
176
     1
290
     0
176
     1
290
     0
176
     1
290
     0
176
     1
290
     0
176
     1
290
     0
176
     1
 90
       50
176
     1
 40
0.0
176
     1
 40
1.0
176
     1
 90
        0
176
     1
 62
    18
420
        0
176
     1
 90
       50
176
     1
 90
        3
176
     1
 62
     5
420
      255
176
     1
290
     0
176
     1
 90
       50
176
     1
 90
       50
176
     1
 90
       50
176
     1
290
     0
176
     1
 90
       50
176
     1
 62
   256
176
     0
 40
1.0
176
     0
 90
        2
176
     1
  1
strokes_ogs.tif
176
     1
290
     0
176
     1
 40
1.0
176
     1
 40
1.0
176
     1
  0
VISUALSTYLE
  5
34
102
{ACAD_REACTORS
330
2A
102
}
330
2A
100
AcDbVisualStyle
  2
Conceptual
 70
     9
177
     3
291
     0
 70
    58
 90
        3
176
     1
 90
        2
176
     1
 90
        0
176
     1
 90
        0
176
     1
 40
0.6
176
     1
 40
30.0
176
     1
 62
     7
420
 16777215
176
     1
 90
        2
176
     1
 90
        2
176
     1
 62
     7
176
     1
 62
   257
176
     1
 90
        1
176
     1
 90
        1
176
     1
 40
179.0
176
     1
 90
        8
176
     1
 62
     7
176
     1
 40
1.0
176
     1
 90
        1
176
     1
 90
        6
176
     1
 90
        2
176
     1
 62
     7
176
     1
 90
        3
176
     1
 90
        0
176
     1
 90
        0
176
     1
290
     0
176
     1
 90
        1
176
     1
 40
0.0
176
     1
 90
        0
176
     1
290
     0
176
     1
290
     1
176
     1
290
     1
176
     1
290
     0
176
     1
290
     0
176
     1
290
     0
176
     1
290
     0
176
     1
290
     0
176
     1
290
     0
176
     1
 90
       50
176
     1
 40
0.0
176
     1
 40
1.0
176
     1
 90
        0
176
     1
 62
    18
420
        0
176
     1
 90
       50
176
     1
 90
        3
176
     1
 62
     5
420
      255
176
     1
290
     0
176
     1
 90
       50
176
     1
 90
       50
176
     1
 90
       50
176
     1
290
     0
176
     1
 90
       50
176
     1
 62
   256
176
     0
 40
1.0
176
     0
 90
        2
176
     1
  1
strokes_ogs.tif
176
     1
290
     0
176
     1
 40
1.0
176
     1
 40
1.0
176
     1
  0
VISUALSTYLE
  5
35
102
{ACAD_REACTORS
330
2A
102
}
330
2A
100
AcDbVisualStyle
  2
Dim
 70
    11
177
     3
291
     1
 70
    58
 90
        2
176
     1
 90
        2
176
     1
 90
        0
176
     1
 90
        0
176
     1
 40
0.6
176
     1
 40
30.0
176
     1
 62
     7
420
 16777215
176
     1
 90
        1
176
     1
 90
        4
176
     1
 62
     7
176
     1
 62
   257
176
     1
 90
        1
176
     1
 90
        1
176
     1
 40
1.0
176
     1
 90
        8
176
     1
 62
     7
176
     1
 40
1.0
176
     1
 90
        1
176
     1
 90
        6
176
     1
 90
        2
176
     1
 62
     7
176
     1
 90
        5
176
     1
 90
        0
176
     1
 90
        0
176
     1
290
     0
176
     1
 90
        1
176
     1
 40
-50.0
176
     1
 90
        0
176
     1
290
     0
176
     1
290
     1
176
     1
290
     1
176
     1
290
     0
176
     1
290
     0
176
     1
290
     0
176
     1
290
     0
176
     1
290
     0
176
     1
290
     0
176
     1
 90
       50
176
     1
 40
0.0
176
     1
 40
1.0
176
     1
 90
        0
176
     1
 62
    18
420
        0
176
     1
 90
       50
176
     1
 90
        3
176
     1
 62
     5
420
      255
176
     1
290
     0
176
     1
 90
       50
176
     1
 90
       50
176
     1
 90
       50
176
     1
290
     0
176
     1
 90
       50
176
     1
 62
   256
176
     0
 40
1.0
176
     0
 90
        2
176
     1
  1
strokes_ogs.tif
176
     1
290
     0
176
     1
 40
1.0
176
     1
 40
1.0
176
     1
  0
VISUALSTYLE
  5
3D
102
{ACAD_REACTORS
330
2A
102
}
330
2A
100
AcDbVisualStyle
  2
EdgeColorOff
 70
    22
177
     3
291
     1
 70
    58
 90
        2
176
     0
 90
        2
176
     0
 90
        0
176
     0
 90
        0
176
     0
 40
0.6
176
     0
 40
30.0
176
     0
 62
     7
420
 16777215
176
     0
 90
        1
176
     0
 90
        4
176
     0
 62
     7
176
     0
 62
   257
176
     0
 90
        1
176
     0
 90
        1
176
     0
 40
1.0
176
     0
 90
        8
176
     2
 62
     7
176
     0
 40
1.0
176
     0
 90
        1
176
     0
 90
        6
176
     0
 90
        2
176
     0
 62
     7
176
     0
 90
        5
176
     0
 90
        0
176
     0
 90
        0
176
     0
290
     0
176
     0
 90
        1
176
     0
 40
0.0
176
     0
 90
        0
176
     0
290
     0
176
     0
290
     1
176
     0
290
     1
176
     0
290
     0
176
     0
290
     0
176
     0
290
     0
176
     0
290
     0
176
     0
290
     0
176
     0
290
     0
176
     0
 90
       50
176
     0
 40
0.0
176
     0
 40
1.0
176
     0
 90
        0
176
     0
 62
    18
420
        0
176
     0
 90
       50
176
     0
 90
        3
176
     0
 62
     5
420
      255
176
     0
290
     0
176
     0
 90
       50
176
     0
 90
       50
176
     0
 90
       50
176
     0
290
     0
176
     0
 90
       50
176
     0
 62
   256
176
     0
 40
1.0
176
     0
 90
        2
176
     0
  1
strokes_ogs.tif
176
     0
290
     0
176
     0
 40
1.0
176
     0
 40
1.0
176
     0
  0
VISUALSTYLE
  5
39
102
{ACAD_REACTORS
330
2A
102
}
330
2A
100
AcDbVisualStyle
  2
Facepattern
 70
    15
177
     3
291
     1
 70
    58
 90
        2
176
     1
 90
        2
176
     1
 90
        0
176
     1
 90
        0
176
     1
 40
0.6
176
     1
 40
30.0
176
     1
 62
     7
420
 16777215
176
     1
 90
        1
176
     1
 90
        4
176
     1
 62
     7
176
     1
 62
   257
176
     1
 90
        1
176
     1
 90
        1
176
     1
 40
1.0
176
     1
 90
        8
176
     1
 62
     7
176
     1
 40
1.0
176
     1
 90
        1
176
     1
 90
        6
176
     1
 90
        2
176
     1
 62
     7
176
     1
 90
        5
176
     1
 90
        0
176
     1
 90
        0
176
     1
290
     0
176
     1
 90
        1
176
     1
 40
0.0
176
     1
 90
        0
176
     1
290
     0
176
     1
290
     1
176
     1
290
     1
176
     1
290
     0
176
     1
290
     0
176
     1
290
     0
176
     1
290
     0
176
     1
290
     0
176
     1
290
     0
176
     1
 90
       50
176
     1
 40
0.0
176
     1
 40
1.0
176
     1
 90
        0
176
     1
 62
    18
420
        0
176
     1
 90
       50
176
     1
 90
        3
176
     1
 62
     5
420
      255
176
     1
290
     0
176
     1
 90
       50
176
     1
 90
       50
176
     1
 90
       50
176
     1
290
     0
176
     1
 90
       50
176
     1
 62
   256
176
     0
 40
1.0
176
     0
 90
        2
176
     1
  1
strokes_ogs.tif
176
     1
290
     0
176
     1
 40
1.0
176
     1
 40
1.0
176
     1
  0
VISUALSTYLE
  5
2B
102
{ACAD_REACTORS
330
2A
102
}
330
2A
100
AcDbVisualStyle
  2
Flat
 70
     0
177
     3
291
     1
 70
    58
 90
        2
176
     1
 90
        1
176
     1
 90
        1
176
     1
 90
        2
176
     1
 40
0.6
176
     1
 40
30.0
176
     1
 62
     7
420
 16777215
176
     1
 90
        0
176
     1
 90
        0
176
     1
 62
     7
176
     1
 62
   257
176
     1
 90
        1
176
     1
 90
        1
176
     1
 40
1.0
176
     1
 90
        8
176
     1
 62
     7
176
     1
 40
1.0
176
     1
 90
        1
176
     1
 90
        6
176
     1
 90
        2
176
     1
 62
     7
176
     1
 90
        5
176
     1
 90
        0
176
     1
 90
        0
176
     1
290
     0
176
     1
 90
       13
176
     1
 40
0.0
176
     1
 90
        0
176
     1
290
     0
176
     1
290
     1
176
     1
290
     1
176
     1
290
     0
176
     1
290
     0
176
     1
290
     0
176
     1
290
     0
176
     1
290
     0
176
     1
290
     0
176
     1
 90
       50
176
     1
 40
0.0
176
     1
 40
1.0
176
     1
 90
        0
176
     1
 62
    18
420
        0
176
     1
 90
       50
176
     1
 90
        3
176
     1
 62
     5
420
      255
176
     1
290
     0
176
     1
 90
       50
176
     1
 90
       50
176
     1
 90
       50
176
     1
290
     0
176
     1
 90
       50
176
     1
 62
   256
176
     0
 40
1.0
176
     0
 90
        2
176
     1
  1
strokes_ogs.tif
176
     1
290
     0
176
     1
 40
1.0
176
     1
 40
1.0
176
     1
  0
VISUALSTYLE
  5
2C
102
{ACAD_REACTORS
330
2A
102
}
330
2A
100
AcDbVisualStyle
  2
FlatWithEdges
 70
     1
177
     3
291
     1
 70
    58
 90
        2
176
     1
 90
        1
176
     1
 90
        1
176
     1
 90
        2
176
     1
 40
0.6
176
     1
 40
30.0
176
     1
 62
     7
420
 16777215
176
     1
 90
        1
176
     1
 90
        0
176
     1
 62
     7
176
     1
 62
   257
176
     1
 90
        1
176
     1
 90
        1
176
     1
 40
1.0
176
     1
 90
        0
176
     1
 62
   257
176
     1
 40
1.0
176
     1
 90
        1
176
     1
 90
        6
176
     1
 90
        2
176
     1
 62
     7
176
     1
 90
        5
176
     1
 90
        0
176
     1
 90
        0
176
     1
290
     0
176
     1
 90
       13
176
     1
 40
0.0
176
     1
 90
        0
176
     1
290
     0
176
     1
290
     1
176
     1
290
     1
176
     1
290
     0
176
     1
290
     0
176
     1
290
     0
176
     1
290
     0
176
     1
290
     0
176
     1
290
     0
176
     1
 90
       50
176
     1
 40
0.0
176
     1
 40
1.0
176
     1
 90
        0
176
     1
 62
    18
420
        0
176
     1
 90
       50
176
     1
 90
        3
176
     1
 62
     5
420
      255
176
     1
290
     0
176
     1
 90
       50
176
     1
 90
       50
176
     1
 90
       50
176
     1
290
     0
176
     1
 90
       50
176
     1
 62
   256
176
     0
 40
1.0
176
     0
 90
        2
176
     1
  1
strokes_ogs.tif
176
     1
290
     0
176
     1
 40
1.0
176
     1
 40
1.0
176
     1
  0
VISUALSTYLE
  5
2D
102
{ACAD_REACTORS
330
2A
102
}
330
2A
100
AcDbVisualStyle
  2
Gouraud
 70
     2
177
     3
291
     1
 70
    58
 90
        2
176
     1
 90
        2
176
     1
 90
        1
176
     1
 90
        2
176
     1
 40
0.6
176
     1
 40
30.0
176
     1
 62
     7
420
 16777215
176
     1
 90
        0
176
     1
 90
        0
176
     1
 62
     7
176
     1
 62
   257
176
     1
 90
        1
176
     1
 90
        1
176
     1
 40
1.0
176
     1
 90
        0
176
     1
 62
     7
176
     1
 40
1.0
176
     1
 90
        1
176
     1
 90
        6
176
     1
 90
        2
176
     1
 62
     7
176
     1
 90
        5
176
     1
 90
        0
176
     1
 90
        0
176
     1
290
     0
176
     1
 90
       13
176
     1
 40
0.0
176
     1
 90
        0
176
     1
290
     0
176
     1
290
     1
176
     1
290
     1
176
     1
290
     0
176
     1
290
     0
176
     1
290
     0
176
     1
290
     0
176
     1
290
     0
176
     1
290
     0
176
     1
 90
       50
176
     1
 40
0.0
176
     1
 40
1.0
176
     1
 90
        0
176
     1
 62
    18
420
        0
176
     1
 90
       50
176
     1
 90
        3
176
     1
 62
     5
420
      255
176
     1
290
     0
176
     1
 90
       50
176
     1
 90
       50
176
     1
 90
       50
176
     1
290
     0
176
     1
 90
       50
176
     1
 62
   256
176
     0
 40
1.0
176
     0
 90
        2
176
     1
  1
strokes_ogs.tif
176
     1
290
     0
176
     1
 40
1.0
176
     1
 40
1.0
176
     1
  0
VISUALSTYLE
  5
2E
102
{ACAD_REACTORS
330
2A
102
}
330
2A
100
AcDbVisualStyle
  2
GouraudWithEdges
 70
     3
177
     3
291
     1
 70
    58
 90
        2
176
     1
 90
        2
176
     1
 90
        1
176
     1
 90
        2
176
     1
 40
0.6
176
     1
 40
30.0
176
     1
 62
     7
420
 16777215
176
     1
 90
        1
176
     1
 90
        0
176
     1
 62
     7
176
     1
 62
   257
176
     1
 90
        1
176
     1
 90
        1
176
     1
 40
1.0
176
     1
 90
        0
176
     1
 62
   257
176
     1
 40
1.0
176
     1
 90
        1
176
     1
 90
        6
176
     1
 90
        2
176
     1
 62
     7
176
     1
 90
        5
176
     1
 90
        0
176
     1
 90
        0
176
     1
290
     0
176
     1
 90
       13
176
     1
 40
0.0
176
     1
 90
        0
176
     1
290
     0
176
     1
290
     1
176
     1
290
     1
176
     1
290
     0
176
     1
290
     0
176
     1
290
     0
176
     1
290
     0
176
     1
290
     0
176
     1
290
     0
176
     1
 90
       50
176
     1
 40
0.0
176
     1
 40
1.0
176
     1
 90
        0
176
     1
 62
    18
420
        0
176
     1
 90
       50
176
     1
 90
        3
176
     1
 62
     5
420
      255
176
     1
290
     0
176
     1
 90
       50
176
     1
 90
       50
176
     1
 90
       50
176
     1
290
     0
176
     1
 90
       50
176
     1
 62
   256
176
     0
 40
1.0
176
     0
 90
        2
176
     1
  1
strokes_ogs.tif
176
     1
290
     0
176
     1
 40
1.0
176
     1
 40
1.0
176
     1
  0
VISUALSTYLE
  5
31
102
{ACAD_REACTORS
330
2A
102
}
330
2A
100
AcDbVisualStyle
  2
Hidden
 70
     6
177
     3
291
     0
 70
    58
 90
        1
176
     1
 90
        2
176
     1
 90
        2
176
     1
 90
        0
176
     1
 40
0.6
176
     1
 40
30.0
176
     1
 62
     7
420
 16777215
176
     1
 90
        2
176
     1
 90
        2
176
     1
 62
     7
176
     1
 62
   257
176
     1
 90
        2
176
     1
 90
        1
176
     1
 40
40.0
176
     1
 90
        0
176
     1
 62
   257
176
     1
 40
1.0
176
     1
 90
        1
176
     1
 90
        6
176
     1
 90
        2
176
     1
 62
     7
176
     1
 90
        3
176
     1
 90
        0
176
     1
 90
        0
176
     1
290
     0
176
     1
 90
        1
176
     1
 40
0.0
176
     1
 90
        0
176
     1
290
     0
176
     1
290
     1
176
     1
290
     1
176
     1
290
     0
176
     1
290
     0
176
     1
290
     0
176
     1
290
     0
176
     1
290
     0
176
     1
290
     0
176
     1
 90
       50
176
     1
 40
0.0
176
     1
 40
1.0
176
     1
 90
        0
176
     1
 62
    18
420
        0
176
     1
 90
       50
176
     1
 90
        3
176
     1
 62
     5
420
      255
176
     1
290
     0
176
     1
 90
       50
176
     1
 90
       50
176
     1
 90
       50
176
     1
290
     0
176
     1
 90
       50
176
     1
 62
   256
176
     0
 40
1.0
176
     0
 90
        2
176
     1
  1
strokes_ogs.tif
176
     1
290
     0
176
     1
 40
1.0
176
     1
 40
1.0
176
     1
  0
VISUALSTYLE
  5
3B
102
{ACAD_REACTORS
330
2A
102
}
330
2A
100
AcDbVisualStyle
  2
JitterOff
 70
    20
177
     3
291
     1
 70
    58
 90
        2
176
     0
 90
        2
176
     0
 90
        0
176
     0
 90
        0
176
     0
 40
0.6
176
     0
 40
30.0
176
     0
 62
     7
420
 16777215
176
     0
 90
        1
176
     0
 90
        4
176
     0
 62
     7
176
     0
 62
   257
176
     0
 90
        1
176
     0
 90
        1
176
     0
 40
1.0
176
     0
 90
       10
176
     2
 62
     7
176
     0
 40
1.0
176
     0
 90
        1
176
     0
 90
        6
176
     0
 90
        2
176
     0
 62
     7
176
     0
 90
        5
176
     0
 90
        0
176
     0
 90
        0
176
     0
290
     0
176
     0
 90
        1
176
     0
 40
0.0
176
     0
 90
        0
176
     0
290
     0
176
     0
290
     1
176
     0
290
     1
176
     0
290
     0
176
     0
290
     0
176
     0
290
     0
176
     0
290
     0
176
     0
290
     0
176
     0
290
     0
176
     0
 90
       50
176
     0
 40
0.0
176
     0
 40
1.0
176
     0
 90
        0
176
     0
 62
    18
420
        0
176
     0
 90
       50
176
     0
 90
        3
176
     0
 62
     5
420
      255
176
     0
290
     0
176
     0
 90
       50
176
     0
 90
       50
176
     0
 90
       50
176
     0
290
     0
176
     0
 90
       50
176
     0
 62
   256
176
     0
 40
1.0
176
     0
 90
        2
176
     0
  1
strokes_ogs.tif
176
     0
290
     0
176
     0
 40
1.0
176
     0
 40
1.0
176
     0
  0
VISUALSTYLE
  5
38
102
{ACAD_REACTORS
330
2A
102
}
330
2A
100
AcDbVisualStyle
  2
Linepattern
 70
    14
177
     3
291
     1
 70
    58
 90
        2
176
     1
 90
        2
176
     1
 90
        0
176
     1
 90
        0
176
     1
 40
0.6
176
     1
 40
30.0
176
     1
 62
     7
420
 16777215
176
     1
 90
        1
176
     1
 90
        4
176
     1
 62
     7
176
     1
 62
   257
176
     1
 90
        7
176
     1
 90
        7
176
     1
 40
1.0
176
     1
 90
        8
176
     1
 62
     7
176
     1
 40
1.0
176
     1
 90
        1
176
     1
 90
        6
176
     1
 90
        2
176
     1
 62
     7
176
     1
 90
        5
176
     1
 90
        0
176
     1
 90
        0
176
     1
290
     0
176
     1
 90
        1
176
     1
 40
0.0
176
     1
 90
        0
176
     1
290
     0
176
     1
290
     1
176
     1
290
     1
176
     1
290
     0
176
     1
290
     0
176
     1
290
     0
176
     1
290
     0
176
     1
290
     0
176
     1
290
     0
176
     1
 90
       50
176
     1
 40
0.0
176
     1
 40
1.0
176
     1
 90
        0
176
     1
 62
    18
420
        0
176
     1
 90
       50
176
     1
 90
        3
176
     1
 62
     5
420
      255
176
     1
290
     0
176
     1
 90
       50
176
     1
 90
       50
176
     1
 90
       50
176
     1
290
     0
176
     1
 90
       50
176
     1
 62
   256
176
     0
 40
1.0
176
     0
 90
        2
176
     1
  1
strokes_ogs.tif
176
     1
290
     0
176
     1
 40
1.0
176
     1
 40
1.0
176
     1
  0
VISUALSTYLE
  5
3C
102
{ACAD_REACTORS
330
2A
102
}
330
2A
100
AcDbVisualStyle
  2
OverhangOff
 70
    21
177
     3
291
     1
 70
    58
 90
        2
176
     0
 90
        2
176
     0
 90
        0
176
     0
 90
        0
176
     0
 40
0.6
176
     0
 40
30.0
176
     0
 62
     7
420
 16777215
176
     0
 90
        1
176
     0
 90
        4
176
     0
 62
     7
176
     0
 62
   257
176
     0
 90
        1
176
     0
 90
        1
176
     0
 40
1.0
176
     0
 90
        9
176
     2
 62
     7
176
     0
 40
1.0
176
     0
 90
        1
176
     0
 90
        6
176
     0
 90
        2
176
     0
 62
     7
176
     0
 90
        5
176
     0
 90
        0
176
     0
 90
        0
176
     0
290
     0
176
     0
 90
        1
176
     0
 40
0.0
176
     0
 90
        0
176
     0
290
     0
176
     0
290
     1
176
     0
290
     1
176
     0
290
     0
176
     0
290
     0
176
     0
290
     0
176
     0
290
     0
176
     0
290
     0
176
     0
290
     0
176
     0
 90
       50
176
     0
 40
0.0
176
     0
 40
1.0
176
     0
 90
        0
176
     0
 62
    18
420
        0
176
     0
 90
       50
176
     0
 90
        3
176
     0
 62
     5
420
      255
176
     0
290
     0
176
     0
 90
       50
176
     0
 90
       50
176
     0
 90
       50
176
     0
290
     0
176
     0
 90
       50
176
     0
 62
   256
176
     0
 40
1.0
176
     0
 90
        2
176
     0
  1
strokes_ogs.tif
176
     0
290
     0
176
     0
 40
1.0
176
     0
 40
1.0
176
     0
  0
VISUALSTYLE
  5
33
102
{ACAD_REACTORS
330
2A
102
}
330
2A
100
AcDbVisualStyle
  2
Realistic
 70
     8
177
     3
291
     0
 70
    58
 90
        2
176
     1
 90
        3
176
     1
 90
        0
176
     1
 90
        2
176
     1
 40
0.6
176
     1
 40
30.0
176
     1
 62
     7
420
 16777215
176
     1
 90
        0
176
     1
 90
        0
176
     1
 62
     7
176
     1
 62
   257
176
     1
 90
        1
176
     1
 90
        1
176
     1
 40
1.0
176
     1
 90
        8
176
     1
 62
   257
176
     1
 40
1.0
176
     1
 90
        1
176
     1
 90
        6
176
     1
 90
        2
176
     1
 62
     7
176
     1
 90
        3
176
     1
 90
        0
176
     1
 90
        0
176
     1
290
     0
176
     1
 90
       13
176
     1
 40
0.0
176
     1
 90
        0
176
     1
290
     0
176
     1
290
     1
176
     1
290
     1
176
     1
290
     0
176
     1
290
     0
176
     1
290
     0
176
     1
290
     0
176
     1
290
     0
176
     1
290
     0
176
     1
 90
       50
176
     1
 40
0.0
176
     1
 40
1.0
176
     1
 90
        0
176
     1
 62
    18
420
        0
176
     1
 90
       50
176
     1
 90
        3
176
     1
 62
     5
420
      255
176
     1
290
     0
176
     1
 90
       50
176
     1
 90
       50
176
     1
 90
       50
176
     1
290
     0
176
     1
 90
       50
176
     1
 62
   256
176
     0
 40
1.0
176
     0
 90
        2
176
     1
  1
strokes_ogs.tif
176
     1
290
     0
176
     1
 40
1.0
176
     1
 40
1.0
176
     1
  0
VISUALSTYLE
  5
42
102
{ACAD_REACTORS
330
2A
102
}
330
2A
100
AcDbVisualStyle
  2
Shaded
 70
    27
177
     3
291
     0
 70
    58
 90
        2
176
     1
 90
        2
176
     1
 90
        1
176
     1
 90
        2
176
     1
 40
0.6
176
     1
 40
30.0
176
     1
 62
     7
420
 16777215
176
     1
 90
        0
176
     1
 90
        4
176
     1
 62
     7
176
     1
 62
   257
176
     1
 90
        1
176
     1
 90
        1
176
     1
 40
1.0
176
     1
 90
        8
176
     1
 62
   257
176
     1
 40
1.0
176
     1
 90
        1
176
     1
 90
        6
176
     1
 90
        2
176
     1
 62
     8
420
  7895160
176
     1
 90
        3
176
     1
 90
        0
176
     1
 90
        0
176
     1
290
     0
176
     1
 90
        5
176
     1
 40
0.0
176
     1
 90
        0
176
     1
290
     0
176
     1
290
     1
176
     1
290
     1
176
     1
290
     0
176
     1
290
     0
176
     1
290
     0
176
     1
290
     0
176
     1
290
     0
176
     1
290
     0
176
     1
 90
       50
176
     1
 40
0.0
176
     1
 40
1.0
176
     1
 90
        0
176
     1
 62
    18
420
        0
176
     1
 90
       50
176
     1
 90
        3
176
     1
 62
     5
420
      255
176
     1
290
     0
176
     1
 90
       50
176
     1
 90
       50
176
     1
 90
       50
176
     1
290
     0
176
     1
 90
       50
176
     1
 62
   256
176
     0
 40
1.0
176
     0
 90
        2
176
     1
  1
strokes_ogs.tif
176
     1
290
     0
176
     1
 40
1.0
176
     1
 40
1.0
176
     1
  0
VISUALSTYLE
  5
41
102
{ACAD_REACTORS
330
2A
102
}
330
2A
100
AcDbVisualStyle
  2
Shaded with edges
 70
    26
177
     3
291
     0
 70
    58
 90
        2
176
     1
 90
        2
176
     1
 90
        1
176
     1
 90
        2
176
     1
 40
0.6
176
     1
 40
30.0
176
     1
 62
     7
420
 16777215
176
     1
 90
        1
176
     1
 90
       10
176
     1
 62
     7
176
     1
 62
   257
176
     1
 90
        2
176
     1
 90
        1
176
     1
 40
1.0
176
     1
 90
        8
176
     1
 62
   257
176
     1
 40
1.0
176
     1
 90
        1
176
     1
 90
        6
176
     1
 90
        2
176
     1
 62
     7
176
     1
 90
        3
176
     1
 90
        0
176
     1
 90
        0
176
     1
290
     0
176
     1
 90
        5
176
     1
 40
0.0
176
     1
 90
        0
176
     1
290
     0
176
     1
290
     1
176
     1
290
     1
176
     1
290
     0
176
     1
290
     0
176
     1
290
     0
176
     1
290
     0
176
     1
290
     0
176
     1
290
     0
176
     1
 90
       50
176
     1
 40
0.0
176
     1
 40
1.0
176
     1
 90
        0
176
     1
 62
    18
420
        0
176
     1
 90
       50
176
     1
 90
        3
176
     1
 62
     5
420
      255
176
     1
290
     0
176
     1
 90
       50
176
     1
 90
       50
176
     1
 90
       50
176
     1
290
     0
176
     1
 90
       50
176
     1
 62
   256
176
     0
 40
1.0
176
     0
 90
        2
176
     1
  1
strokes_ogs.tif
176
     1
290
     0
176
     1
 40
1.0
176
     1
 40
1.0
176
     1
  0
VISUALSTYLE
  5
3E
102
{ACAD_REACTORS
330
2A
102
}
330
2A
100
AcDbVisualStyle
  2
Shades of Gray
 70
    23
177
     3
291
     0
 70
    58
 90
        2
176
     1
 90
        2
176
     1
 90
        3
176
     1
 90
        0
176
     1
 40
0.6
176
     1
 40
30.0
176
     1
 62
     7
420
 16777215
176
     1
 90
        2
176
     1
 90
        2
176
     1
 62
     7
176
     1
 62
     7
176
     1
 90
        1
176
     1
 90
        1
176
     1
 40
40.0
176
     1
 90
        8
176
     1
 62
     7
176
     1
 40
1.0
176
     1
 90
        1
176
     1
 90
        6
176
     1
 90
        2
176
     1
 62
     7
176
     1
 90
        3
176
     1
 90
        0
176
     1
 90
        0
176
     1
290
     0
176
     1
 90
        1
176
     1
 40
0.0
176
     1
 90
        0
176
     1
290
     0
176
     1
290
     1
176
     1
290
     1
176
     1
290
     0
176
     1
290
     0
176
     1
290
     0
176
     1
290
     0
176
     1
290
     0
176
     1
290
     0
176
     1
 90
       50
176
     1
 40
0.0
176
     1
 40
1.0
176
     1
 90
        0
176
     1
 62
    18
420
        0
176
     1
 90
       50
176
     1
 90
        3
176
     1
 62
     5
420
      255
176
     1
290
     0
176
     1
 90
       50
176
     1
 90
       50
176
     1
 90
       50
176
     1
290
     0
176
     1
 90
       50
176
     1
 62
   256
176
     0
 40
1.0
176
     0
 90
        2
176
     1
  1
strokes_ogs.tif
176
     1
290
     0
176
     1
 40
1.0
176
     1
 40
1.0
176
     1
  0
VISUALSTYLE
  5
3F
102
{ACAD_REACTORS
330
2A
102
}
330
2A
100
AcDbVisualStyle
  2
Sketchy
 70
    24
177
     3
291
     0
 70
    58
 90
        1
176
     1
 90
        2
176
     1
 90
        2
176
     1
 90
        0
176
     1
 40
0.6
176
     1
 40
30.0
176
     1
 62
     7
420
 16777215
176
     1
 90
        2
176
     1
 90
        2
176
     1
 62
     7
176
     1
 62
     7
176
     1
 90
        1
176
     1
 90
        1
176
     1
 40
40.0
176
     1
 90
       11
176
     1
 62
     7
176
     1
 40
1.0
176
     1
 90
        1
176
     1
 90
        6
176
     1
 90
        2
176
     1
 62
     7
176
     1
 90
        6
176
     1
 90
        0
176
     1
 90
        0
176
     1
290
     0
176
     1
 90
        1
176
     1
 40
0.0
176
     1
 90
        0
176
     1
290
     0
176
     1
290
     1
176
     1
290
     1
176
     1
290
     0
176
     1
290
     0
176
     1
290
     0
176
     1
290
     0
176
     1
290
     0
176
     1
290
     0
176
     1
 90
       50
176
     1
 40
0.0
176
     1
 40
1.0
176
     1
 90
        0
176
     1
 62
    18
420
        0
176
     1
 90
       50
176
     1
 90
        3
176
     1
 62
     5
420
      255
176
     1
290
     0
176
     1
 90
       50
176
     1
 90
       50
176
     1
 90
       50
176
     1
290
     0
176
     1
 90
       50
176
     1
 62
   256
176
     0
 40
1.0
176
     0
 90
        2
176
     1
  1
strokes_ogs.tif
176
     1
290
     0
176
     1
 40
1.0
176
     1
 40
1.0
176
     1
  0
VISUALSTYLE
  5
37
102
{ACAD_REACTORS
330
2A
102
}
330
2A
100
AcDbVisualStyle
  2
Thicken
 70
    13
177
     3
291
     1
 70
    58
 90
        2
176
     1
 90
        2
176
     1
 90
        0
176
     1
 90
        0
176
     1
 40
0.6
176
     1
 40
30.0
176
     1
 62
     7
420
 16777215
176
     1
 90
        1
176
     1
 90
        4
176
     1
 62
     7
176
     1
 62
   257
176
     1
 90
        1
176
     1
 90
        1
176
     1
 40
1.0
176
     1
 90
       12
176
     1
 62
     7
176
     1
 40
1.0
176
     1
 90
        1
176
     1
 90
        6
176
     1
 90
        2
176
     1
 62
     7
176
     1
 90
        5
176
     1
 90
        0
176
     1
 90
        0
176
     1
290
     0
176
     1
 90
        1
176
     1
 40
0.0
176
     1
 90
        0
176
     1
290
     0
176
     1
290
     1
176
     1
290
     1
176
     1
290
     0
176
     1
290
     0
176
     1
290
     0
176
     1
290
     0
176
     1
290
     0
176
     1
290
     0
176
     1
 90
       50
176
     1
 40
0.0
176
     1
 40
1.0
176
     1
 90
        0
176
     1
 62
    18
420
        0
176
     1
 90
       50
176
     1
 90
        3
176
     1
 62
     5
420
      255
176
     1
290
     0
176
     1
 90
       50
176
     1
 90
       50
176
     1
 90
       50
176
     1
290
     0
176
     1
 90
       50
176
     1
 62
   256
176
     0
 40
1.0
176
     0
 90
        2
176
     1
  1
strokes_ogs.tif
176
     1
290
     0
176
     1
 40
1.0
176
     1
 40
1.0
176
     1
  0
VISUALSTYLE
  5
30
102
{ACAD_REACTORS
330
2A
102
}
330
2A
100
AcDbVisualStyle
  2
Wireframe
 70
     5
177
     3
291
     0
 70
    58
 90
        0
176
     1
 90
        2
176
     1
 90
        0
176
     1
 90
        0
176
     1
 40
0.6
176
     1
 40
30.0
176
     1
 62
     7
420
 16777215
176
     1
 90
        1
176
     1
 90
        4
176
     1
 62
     7
176
     1
 62
   257
176
     1
 90
        1
176
     1
 90
        1
176
     1
 40
1.0
176
     1
 90
        0
176
     1
 62
   257
176
     1
 40
1.0
176
     1
 90
        1
176
     1
 90
        6
176
     1
 90
        2
176
     1
 62
     7
176
     1
 90
        3
176
     1
 90
        0
176
     1
 90
        0
176
     1
290
     0
176
     1
 90
        1
176
     1
 40
0.0
176
     1
 90
        0
176
     1
290
     0
176
     1
290
     1
176
     1
290
     1
176
     1
290
     0
176
     1
290
     0
176
     1
290
     0
176
     1
290
     0
176
     1
290
     0
176
     1
290
     0
176
     1
 90
       50
176
     1
 40
0.0
176
     1
 40
1.0
176
     1
 90
        0
176
     1
 62
    18
420
        0
176
     1
 90
       50
176
     1
 90
        3
176
     1
 62
     5
420
      255
176
     1
290
     0
176
     1
 90
       50
176
     1
 90
       50
176
     1
 90
       50
176
     1
290
     0
176
     1
 90
       50
176
     1
 62
   256
176
     0
 40
1.0
176
     0
 90
        2
176
     1
  1
strokes_ogs.tif
176
     1
290
     0
176
     1
 40
1.0
176
     1
 40
1.0
176
     1
  0
VISUALSTYLE
  5
40
102
{ACAD_REACTORS
330
2A
102
}
330
2A
100
AcDbVisualStyle
  2
X-Ray
 70
    25
177
     3
291
     0
 70
    58
 90
        2
176
     1
 90
        2
176
     1
 90
        1
176
     1
 90
        1
176
     1
 40
0.5
176
     1
 40
30.0
176
     1
 62
     7
420
 16777215
176
     1
 90
        1
176
     1
 90
        0
176
     1
 62
     7
176
     1
 62
   257
176
     1
 90
        1
176
     1
 90
        1
176
     1
 40
1.0
176
     1
 90
        8
176
     1
 62
     7
176
     1
 40
1.0
176
     1
 90
        1
176
     1
 90
        6
176
     1
 90
        2
176
     1
 62
     7
176
     1
 90
        3
176
     1
 90
        0
176
     1
 90
        0
176
     1
290
     0
176
     1
 90
       13
176
     1
 40
0.0
176
     1
 90
        0
176
     1
290
     0
176
     1
290
     1
176
     1
290
     1
176
     1
290
     0
176
     1
290
     0
176
     1
290
     0
176
     1
290
     0
176
     1
290
     0
176
     1
290
     0
176
     1
 90
       50
176
     1
 40
0.0
176
     1
 40
1.0
176
     1
 90
        0
176
     1
 62
    18
420
        0
176
     1
 90
       50
176
     1
 90
        3
176
     1
 62
     5
420
      255
176
     1
290
     0
176
     1
 90
       50
176
     1
 90
       50
176
     1
 90
       50
176
     1
290
     0
176
     1
 90
       50
176
     1
 62
   256
176
     0
 40
1.0
176
     0
 90
        2
176
     1
  1
strokes_ogs.tif
176
     1
290
     0
176
     1
 40
1.0
176
     1
 40
1.0
176
     1
  0
DICTIONARYVAR
  5
178
102
{ACAD_REACTORS
330
177
102
}
330
177
100
DictionaryVariables
280
     0
  1
1:1
  0
DICTIONARYVAR
  5
17D
102
{ACAD_REACTORS
330
177
102
}
330
177
100
DictionaryVariables
280
     0
  1
Standard
  0
DICTIONARYVAR
  5
17C
102
{ACAD_REACTORS
330
177
102
}
330
177
100
DictionaryVariables
280
     0
  1
Standard
  0
DICTIONARY
  5
179
330
6A
100
AcDbDictionary
280
     1
281
     1
  3
ACAD_ROUNDTRIP_2008_TABLESTYLE_CELLSTYLEMAP
360
17A
  0
CELLSTYLEMAP
  5
17A
102
{ACAD_REACTORS
330
179
102
}
330
179
100
AcDbCellStyleMap
 90
        3
300
CELLSTYLE
  1
TABLEFORMAT_BEGIN
 90
        5
170
     1
 91
        0
 92
    32768
 62
   257
 93
        1
300
CONTENTFORMAT
  1
CONTENTFORMAT_BEGIN
 90
        0
 91
        0
 92
        4
 93
        0
300

 40
0.0
140
1.0
 94
        5
 62
     0
340
11
144
0.25
309
CONTENTFORMAT_END
171
     1
301
MARGIN
  1
CELLMARGIN_BEGIN
 40
0.06
 40
0.06
 40
0.06
 40
0.06
 40
0.06
 40
0.06
309
CELLMARGIN_END
 94
        6
 95
        1
302
GRIDFORMAT
  1
GRIDFORMAT_BEGIN
 90
        0
 91
        1
 62
     0
 92
       -2
340
14
 93
        0
 40
0.045
309
GRIDFORMAT_END
 95
        2
302
GRIDFORMAT
  1
GRIDFORMAT_BEGIN
 90
        0
 91
        1
 62
     0
 92
       -2
340
14
 93
        0
 40
0.045
309
GRIDFORMAT_END
 95
        4
302
GRIDFORMAT
  1
GRIDFORMAT_BEGIN
 90
        0
 91
        1
 62
     0
 92
       -2
340
14
 93
        0
 40
0.045
309
GRIDFORMAT_END
 95
        8
302
GRIDFORMAT
  1
GRIDFORMAT_BEGIN
 90
        0
 91
        1
 62
     0
 92
       -2
340
14
 93
        0
 40
0.045
309
GRIDFORMAT_END
 95
       16
302
GRIDFORMAT
  1
GRIDFORMAT_BEGIN
 90
        0
 91
        1
 62
     0
 92
       -2
340
14
 93
        0
 40
0.045
309
GRIDFORMAT_END
 95
       32
302
GRIDFORMAT
  1
GRIDFORMAT_BEGIN
 90
        0
 91
        1
 62
     0
 92
       -2
340
14
 93
        0
 40
0.045
309
GRIDFORMAT_END
309
TABLEFORMAT_END
  1
CELLSTYLE_BEGIN
 90
        1
 91
        1
300
_TITLE
309
CELLSTYLE_END
300
CELLSTYLE
  1
TABLEFORMAT_BEGIN
 90
        5
170
     1
 91
        0
 92
        0
 62
   257
 93
        1
300
CONTENTFORMAT
  1
CONTENTFORMAT_BEGIN
 90
        0
 91
        0
 92
        4
 93
        0
300

 40
0.0
140
1.0
 94
        5
 62
     0
340
11
144
0.18
309
CONTENTFORMAT_END
171
     1
301
MARGIN
  1
CELLMARGIN_BEGIN
 40
0.06
 40
0.06
 40
0.06
 40
0.06
 40
0.06
 40
0.06
309
CELLMARGIN_END
 94
        6
 95
        1
302
GRIDFORMAT
  1
GRIDFORMAT_BEGIN
 90
        0
 91
        1
 62
     0
 92
       -2
340
14
 93
        0
 40
0.045
309
GRIDFORMAT_END
 95
        2
302
GRIDFORMAT
  1
GRIDFORMAT_BEGIN
 90
        0
 91
        1
 62
     0
 92
       -2
340
14
 93
        0
 40
0.045
309
GRIDFORMAT_END
 95
        4
302
GRIDFORMAT
  1
GRIDFORMAT_BEGIN
 90
        0
 91
        1
 62
     0
 92
       -2
340
14
 93
        0
 40
0.045
309
GRIDFORMAT_END
 95
        8
302
GRIDFORMAT
  1
GRIDFORMAT_BEGIN
 90
        0
 91
        1
 62
     0
 92
       -2
340
14
 93
        0
 40
0.045
309
GRIDFORMAT_END
 95
       16
302
GRIDFORMAT
  1
GRIDFORMAT_BEGIN
 90
        0
 91
        1
 62
     0
 92
       -2
340
14
 93
        0
 40
0.045
309
GRIDFORMAT_END
 95
       32
302
GRIDFORMAT
  1
GRIDFORMAT_BEGIN
 90
        0
 91
        1
 62
     0
 92
       -2
340
14
 93
        0
 40
0.045
309
GRIDFORMAT_END
309
TABLEFORMAT_END
  1
CELLSTYLE_BEGIN
 90
        2
 91
        1
300
_HEADER
309
CELLSTYLE_END
300
CELLSTYLE
  1
TABLEFORMAT_BEGIN
 90
        5
170
     1
 91
        0
 92
        0
 62
   257
 93
        1
300
CONTENTFORMAT
  1
CONTENTFORMAT_BEGIN
 90
        0
 91
        0
 92
        4
 93
        0
300

 40
0.0
140
1.0
 94
        2
 62
     0
340
11
144
0.18
309
CONTENTFORMAT_END
171
     1
301
MARGIN
  1
CELLMARGIN_BEGIN
 40
0.06
 40
0.06
 40
0.06
 40
0.06
 40
0.06
 40
0.06
309
CELLMARGIN_END
 94
        6
 95
        1
302
GRIDFORMAT
  1
GRIDFORMAT_BEGIN
 90
        0
 91
        1
 62
     0
 92
       -2
340
14
 93
        0
 40
0.045
309
GRIDFORMAT_END
 95
        2
302
GRIDFORMAT
  1
GRIDFORMAT_BEGIN
 90
        0
 91
        1
 62
     0
 92
       -2
340
14
 93
        0
 40
0.045
309
GRIDFORMAT_END
 95
        4
302
GRIDFORMAT
  1
GRIDFORMAT_BEGIN
 90
        0
 91
        1
 62
     0
 92
       -2
340
14
 93
        0
 40
0.045
309
GRIDFORMAT_END
 95
        8
302
GRIDFORMAT
  1
GRIDFORMAT_BEGIN
 90
        0
 91
        1
 62
     0
 92
       -2
340
14
 93
        0
 40
0.045
309
GRIDFORMAT_END
 95
       16
302
GRIDFORMAT
  1
GRIDFORMAT_BEGIN
 90
        0
 91
        1
 62
     0
 92
       -2
340
14
 93
        0
 40
0.045
309
GRIDFORMAT_END
 95
       32
302
GRIDFORMAT
  1
GRIDFORMAT_BEGIN
 90
        0
 91
        1
 62
     0
 92
       -2
340
14
 93
        0
 40
0.045
309
GRIDFORMAT_END
309
TABLEFORMAT_END
  1
CELLSTYLE_BEGIN
 90
        3
 91
        2
300
_DATA
309
CELLSTYLE_END
  0
ENDSEC
  0
EOF