0
SECTION
  2
HEADER
  9
$ACADVER
  1
AC1027
  9
$ACADMAINTVER
 70
   105
  9
$DWGCODEPAGE
  3
ANSI_1252
  9
$REQUIREDVERSIONS
160
                 0
  9
$COMMENTS
  1
File was created by Cadenas
  9
$CUSTOMPROPERTYTAG
  1
NN
  9
$CUSTOMPROPERTY
  1
Set Screw Two-Bolt Flange Inch Bore - Polymer Housing, Stainless Steel Insert
  9
$CUSTOMPROPERTYTAG
  1
NT
  9
$CUSTOMPROPERTY
  1
SC 2 Bolt Flange Bearings -(Normal Duty) -Corrosion Resistant Insert -Polymer Housed -E-Z KLEEN
  9
$CUSTOMPROPERTYTAG
  1
NB
  9
$CUSTOMPROPERTY
  1
136714
  9
$CUSTOMPROPERTYTAG
  1
NBSYN
  9
$CUSTOMPROPERTY
  1
$PN.
  9
$CUSTOMPROPERTYTAG
  1
LINA
  9
$CUSTOMPROPERTY
  1
136714
  9
$CUSTOMPROPERTYTAG
  1
SERIES
  9
$CUSTOMPROPERTY
  1
207
  9
$CUSTOMPROPERTYTAG
  1
SS
  9
$CUSTOMPROPERTY
  1
1-1/4
  9
$CUSTOMPROPERTYTAG
  1
PN
  9
$CUSTOMPROPERTY
  1
136714
  9
$CUSTOMPROPERTYTAG
  1
DESCRIPTION
  9
$CUSTOMPROPERTY
  1
F2B-SCEZ-104-PSS
  9
$CUSTOMPROPERTYTAG
  1
W
  9
$CUSTOMPROPERTY
  1
1.36
  9
$CUSTOMPROPERTYTAG
  1
A
  9
$CUSTOMPROPERTY
  1
1.71
  9
$CUSTOMPROPERTYTAG
  1
B
  9
$CUSTOMPROPERTY
  1
6.31
  9
$CUSTOMPROPERTYTAG
  1
C
  9
$CUSTOMPROPERTY
  1
1.82
  9
$CUSTOMPROPERTYTAG
  1
D
  9
$CUSTOMPROPERTY
  1
5.12
  9
$CUSTOMPROPERTYTAG
  1
F
  9
$CUSTOMPROPERTY
  1
1/2
  9
$CUSTOMPROPERTYTAG
  1
H
  9
$CUSTOMPROPERTY
  1
0.62
  9
$CUSTOMPROPERTYTAG
  1
J
  9
$CUSTOMPROPERTY
  1
0.54
  9
$CUSTOMPROPERTYTAG
  1
L
  9
$CUSTOMPROPERTY
  1
1.84
  9
$CUSTOMPROPERTYTAG
  1
M
  9
$CUSTOMPROPERTY
  1
3.69
  9
$CUSTOMPROPERTYTAG
  1
COMPANY
  9
$CUSTOMPROPERTY
  1
baldor
  9
$INSBASE
 10
0.0
 20
0.0
 30
0.0
  9
$EXTMIN
 10
1.000000000000000E+20
 20
1.000000000000000E+20
 30
1.000000000000000E+20
  9
$EXTMAX
 10
-1.000000000000000E+20
 20
-1.000000000000000E+20
 30
-1.000000000000000E+20
  9
$LIMMIN
 10
0.0
 20
0.0
  9
$LIMMAX
 10
12.0
 20
9.0
  9
$ORTHOMODE
 70
     0
  9
$REGENMODE
 70
     1
  9
$FILLMODE
 70
     1
  9
$QTEXTMODE
 70
     0
  9
$MIRRTEXT
 70
     1
  9
$LTSCALE
 40
1.0
  9
$ATTMODE
 70
     1
  9
$TEXTSIZE
 40
0.2
  9
$TRACEWID
 40
0.05
  9
$TEXTSTYLE
  7
Standard
  9
$CLAYER
  8
0
  9
$CELTYPE
  6
ByLayer
  9
$CECOLOR
 62
   256
  9
$CELTSCALE
 40
1.0
  9
$DISPSILH
 70
     0
  9
$DIMSCALE
 40
1.0
  9
$DIMASZ
 40
0.18
  9
$DIMEXO
 40
0.0625
  9
$DIMDLI
 40
0.38
  9
$DIMRND
 40
0.0
  9
$DIMDLE
 40
0.0
  9
$DIMEXE
 40
0.18
  9
$DIMTP
 40
0.0
  9
$DIMTM
 40
0.0
  9
$DIMTXT
 40
0.18
  9
$DIMCEN
 40
0.09
  9
$DIMTSZ
 40
0.0
  9
$DIMTOL
 70
     0
  9
$DIMLIM
 70
     0
  9
$DIMTIH
 70
     1
  9
$DIMTOH
 70
     1
  9
$DIMSE1
 70
     0
  9
$DIMSE2
 70
     0
  9
$DIMTAD
 70
     0
  9
$DIMZIN
 70
     0
  9
$DIMBLK
  1

  9
$DIMASO
 70
     1
  9
$DIMSHO
 70
     1
  9
$DIMPOST
  1

  9
$DIMAPOST
  1

  9
$DIMALT
 70
     0
  9
$DIMALTD
 70
     2
  9
$DIMALTF
 40
25.4
  9
$DIMLFAC
 40
1.0
  9
$DIMTOFL
 70
     0
  9
$DIMTVP
 40
0.0
  9
$DIMTIX
 70
     0
  9
$DIMSOXD
 70
     0
  9
$DIMSAH
 70
     0
  9
$DIMBLK1
  1

  9
$DIMBLK2
  1

  9
$DIMSTYLE
  2
Standard
  9
$DIMCLRD
 70
     0
  9
$DIMCLRE
 70
     0
  9
$DIMCLRT
 70
     0
  9
$DIMTFAC
 40
1.0
  9
$DIMGAP
 40
0.09
  9
$DIMJUST
 70
     0
  9
$DIMSD1
 70
     0
  9
$DIMSD2
 70
     0
  9
$DIMTOLJ
 70
     1
  9
$DIMTZIN
 70
     0
  9
$DIMALTZ
 70
     0
  9
$DIMALTTZ
 70
     0
  9
$DIMUPT
 70
     0
  9
$DIMDEC
 70
     4
  9
$DIMTDEC
 70
     4
  9
$DIMALTU
 70
     2
  9
$DIMALTTD
 70
     2
  9
$DIMTXSTY
  7
Standard
  9
$DIMAUNIT
 70
     0
  9
$DIMADEC
 70
     0
  9
$DIMALTRND
 40
0.0
  9
$DIMAZIN
 70
     0
  9
$DIMDSEP
 70
    46
  9
$DIMATFIT
 70
     3
  9
$DIMFRAC
 70
     0
  9
$DIMLDRBLK
  1

  9
$DIMLUNIT
 70
     2
  9
$DIMLWD
 70
    -2
  9
$DIMLWE
 70
    -2
  9
$DIMTMOVE
 70
     0
  9
$DIMFXL
 40
1.0
  9
$DIMFXLON
 70
     0
  9
$DIMJOGANG
 40
0.7853981633974483
  9
$DIMTFILL
 70
     0
  9
$DIMTFILLCLR
 70
     0
  9
$DIMARCSYM
 70
     0
  9
$DIMLTYPE
  6

  9
$DIMLTEX1
  6

  9
$DIMLTEX2
  6

  9
$DIMTXTDIRECTION
 70
     0
  9
$LUNITS
 70
     2
  9
$LUPREC
 70
     4
  9
$SKETCHINC
 40
0.1
  9
$FILLETRAD
 40
0.5
  9
$AUNITS
 70
     0
  9
$AUPREC
 70
     0
  9
$MENU
  1
.
  9
$ELEVATION
 40
0.0
  9
$PELEVATION
 40
0.0
  9
$THICKNESS
 40
0.0
  9
$LIMCHECK
 70
     0
  9
$CHAMFERA
 40
0.0
  9
$CHAMFERB
 40
0.0
  9
$CHAMFERC
 40
0.0
  9
$CHAMFERD
 40
0.0
  9
$SKPOLY
 70
     0
  9
$TDCREATE
 40
2458168.893711285
  9
$TDUCREATE
 40
2458168.852044618
  9
$TDUPDATE
 40
2458168.89371147
  9
$TDUUPDATE
 40
2458168.852044803
  9
$TDINDWG
 40
0.0000000116
  9
$TDUSRTIMER
 40
0.0000000116
  9
$USRTIMER
 70
     1
  9
$ANGBASE
 50
0.0
  9
$ANGDIR
 70
     0
  9
$PDMODE
 70
     0
  9
$PDSIZE
 40
0.0
  9
$PLINEWID
 40
0.0
  9
$SPLFRAME
 70
     0
  9
$SPLINETYPE
 70
     6
  9
$SPLINESEGS
 70
     8
  9
$HANDSEED
  5
173
  9
$SURFTAB1
 70
     6
  9
$SURFTAB2
 70
     6
  9
$SURFTYPE
 70
     6
  9
$SURFU
 70
     6
  9
$SURFV
 70
     6
  9
$UCSBASE
  2

  9
$UCSNAME
  2

  9
$UCSORG
 10
0.0
 20
0.0
 30
0.0
  9
$UCSXDIR
 10
1.0
 20
0.0
 30
0.0
  9
$UCSYDIR
 10
0.0
 20
1.0
 30
0.0
  9
$UCSORTHOREF
  2

  9
$UCSORTHOVIEW
 70
     0
  9
$UCSORGTOP
 10
0.0
 20
0.0
 30
0.0
  9
$UCSORGBOTTOM
 10
0.0
 20
0.0
 30
0.0
  9
$UCSORGLEFT
 10
0.0
 20
0.0
 30
0.0
  9
$UCSORGRIGHT
 10
0.0
 20
0.0
 30
0.0
  9
$UCSORGFRONT
 10
0.0
 20
0.0
 30
0.0
  9
$UCSORGBACK
 10
0.0
 20
0.0
 30
0.0
  9
$PUCSBASE
  2

  9
$PUCSNAME
  2

  9
$PUCSORG
 10
0.0
 20
0.0
 30
0.0
  9
$PUCSXDIR
 10
1.0
 20
0.0
 30
0.0
  9
$PUCSYDIR
 10
0.0
 20
1.0
 30
0.0
  9
$PUCSORTHOREF
  2

  9
$PUCSORTHOVIEW
 70
     0
  9
$PUCSORGTOP
 10
0.0
 20
0.0
 30
0.0
  9
$PUCSORGBOTTOM
 10
0.0
 20
0.0
 30
0.0
  9
$PUCSORGLEFT
 10
0.0
 20
0.0
 30
0.0
  9
$PUCSORGRIGHT
 10
0.0
 20
0.0
 30
0.0
  9
$PUCSORGFRONT
 10
0.0
 20
0.0
 30
0.0
  9
$PUCSORGBACK
 10
0.0
 20
0.0
 30
0.0
  9
$USERI1
 70
     0
  9
$USERI2
 70
     0
  9
$USERI3
 70
     0
  9
$USERI4
 70
     0
  9
$USERI5
 70
     0
  9
$USERR1
 40
0.0
  9
$USERR2
 40
0.0
  9
$USERR3
 40
0.0
  9
$USERR4
 40
0.0
  9
$USERR5
 40
0.0
  9
$WORLDVIEW
 70
     1
  9
$SHADEDGE
 70
     3
  9
$SHADEDIF
 70
    70
  9
$TILEMODE
 70
     1
  9
$MAXACTVP
 70
    64
  9
$PINSBASE
 10
0.0
 20
0.0
 30
0.0
  9
$PLIMCHECK
 70
     0
  9
$PEXTMIN
 10
1.000000000000000E+20
 20
1.000000000000000E+20
 30
1.000000000000000E+20
  9
$PEXTMAX
 10
-1.000000000000000E+20
 20
-1.000000000000000E+20
 30
-1.000000000000000E+20
  9
$PLIMMIN
 10
0.0
 20
0.0
  9
$PLIMMAX
 10
12.0
 20
9.0
  9
$UNITMODE
 70
     0
  9
$VISRETAIN
 70
     1
  9
$PLINEGEN
 70
     0
  9
$PSLTSCALE
 70
     1
  9
$TREEDEPTH
 70
  3020
  9
$CMLSTYLE
  2
Standard
  9
$CMLJUST
 70
     0
  9
$CMLSCALE
 40
1.0
  9
$PROXYGRAPHICS
 70
     1
  9
$MEASUREMENT
 70
     0
  9
$CELWEIGHT
370
    -1
  9
$ENDCAPS
280
     0
  9
$JOINSTYLE
280
     0
  9
$LWDISPLAY
290
     0
  9
$INSUNITS
 70
     1
  9
$HYPERLINKBASE
  1

  9
$STYLESHEET
  1

  9
$XEDIT
290
     1
  9
$CEPSNTYPE
380
     0
  9
$PSTYLEMODE
290
     1
  9
$FINGERPRINTGUID
  2
{B585CF28-20A8-4E05-9A6E-4C9131A976BD}
  9
$VERSIONGUID
  2
{FAEB1C32-E019-11D5-929B-00C0DF256EC4}
  9
$EXTNAMES
290
     1
  9
$PSVPSCALE
 40
0.0
  9
$OLESTARTUP
290
     0
  9
$SORTENTS
280
   127
  9
$INDEXCTL
280
     0
  9
$HIDETEXT
280
     1
  9
$XCLIPFRAME
280
     2
  9
$HALOGAP
280
     0
  9
$OBSCOLOR
 70
   257
  9
$OBSLTYPE
280
     0
  9
$INTERSECTIONDISPLAY
280
     0
  9
$INTERSECTIONCOLOR
 70
   257
  9
$DIMASSOC
280
     2
  9
$PROJECTNAME
  1

  9
$CAMERADISPLAY
290
     0
  9
$LENSLENGTH
 40
50.0
  9
$CAMERAHEIGHT
 40
0.0
  9
$STEPSPERSEC
 40
2.0
  9
$STEPSIZE
 40
6.0
  9
$3DDWFPREC
 40
2.0
  9
$PSOLWIDTH
 40
0.25
  9
$PSOLHEIGHT
 40
4.0
  9
$LOFTANG1
 40
1.570796326794897
  9
$LOFTANG2
 40
1.570796326794897
  9
$LOFTMAG1
 40
0.0
  9
$LOFTMAG2
 40
0.0
  9
$LOFTPARAM
 70
     7
  9
$LOFTNORMALS
280
     1
  9
$LATITUDE
 40
37.795
  9
$LONGITUDE
 40
-122.394
  9
$NORTHDIRECTION
 40
0.0
  9
$TIMEZONE
 70
 -8000
  9
$LIGHTGLYPHDISPLAY
280
     1
  9
$TILEMODELIGHTSYNCH
280
     1
  9
$CMATERIAL
347
44
  9
$SOLIDHIST
280
     0
  9
$SHOWHIST
280
     1
  9
$DWFFRAME
280
     2
  9
$DGNFRAME
280
     2
  9
$REALWORLDSCALE
290
     1
  9
$INTERFERECOLOR
 62
   256
  9
$CSHADOW
280
     0
  9
$SHADOWPLANELOCATION
 40
0.0
  0
ENDSEC
  0
SECTION
  2
CLASSES
  0
CLASS
  1
ACDBDICTIONARYWDFLT
  2
AcDbDictionaryWithDefault
  3
ObjectDBX Classes
 90
        0
 91
        4
280
     0
281
     0
  0
CLASS
  1
VISUALSTYLE
  2
AcDbVisualStyle
  3
ObjectDBX Classes
 90
     4095
 91
        4
280
     0
281
     0
  0
CLASS
  1
MATERIAL
  2
AcDbMaterial
  3
ObjectDBX Classes
 90
     1153
 91
        4
280
     0
281
     0
  0
CLASS
  1
SCALE
  2
AcDbScale
  3
ObjectDBX Classes
 90
     1153
 91
        4
280
     0
281
     0
  0
CLASS
  1
TABLESTYLE
  2
AcDbTableStyle
  3
ObjectDBX Classes
 90
     4095
 91
        4
280
     0
281
     0
  0
CLASS
  1
MLEADERSTYLE
  2
AcDbMLeaderStyle
  3
ACDB_MLEADERSTYLE_CLASS
 90
     4095
 91
        4
280
     0
281
     0
  0
CLASS
  1
SUN
  2
AcDbSun
  3
SCENEOE
 90
     1153
 91
        4
280
     0
281
     0
  0
CLASS
  1
DICTIONARYVAR
  2
AcDbDictionaryVar
  3
ObjectDBX Classes
 90
        0
 91
        4
280
     0
281
     0
  0
CLASS
  1
CELLSTYLEMAP
  2
AcDbCellStyleMap
  3
ObjectDBX Classes
 90
     1152
 91
        4
280
     0
281
     0
  0
ENDSEC
  0
SECTION
  2
TABLES
  0
TABLE
  2
VPORT
  5
8
330
0
100
AcDbSymbolTable
 70
     1
  0
VPORT
  5
29
330
8
100
AcDbSymbolTableRecord
100
AcDbViewportTableRecord
  2
*Active
 70
     0
 10
0.0
 20
0.0
 11
1.0
 21
1.0
 12
3.902953571428571
 22
-1.345000000000001
 13
0.0
 23
0.0
 14
0.5
 24
0.5
 15
0.5
 25
0.5
 16
0.0
 26
0.0
 36
1.0
 17
0.0
 27
0.0
 37
0.0
 40
10.2
 41
1.161690714285714
 42
50.0
 43
0.0
 44
0.0
 50
0.0
 51
0.0
 71
     0
 72
   100
 73
     1
 74
     3
 75
     0
 76
     0
 77
     0
 78
     0
281
     0
 65
     1
110
0.0
120
0.0
130
0.0
111
1.0
121
0.0
131
0.0
112
0.0
122
1.0
132
0.0
 79
     0
146
0.0
348
2F
 60
     3
 61
     5
292
     1
282
     1
141
0.0
142
0.0
 63
   250
361
6D
  0
ENDTAB
  0
TABLE
  2
LTYPE
  5
5
330
0
100
AcDbSymbolTable
 70
     3
  0
LTYPE
  5
14
330
5
100
AcDbSymbolTableRecord
100
AcDbLinetypeTableRecord
  2
ByBlock
 70
     0
  3

 72
    65
 73
     0
 40
0.0
  0
LTYPE
  5
15
330
5
100
AcDbSymbolTableRecord
100
AcDbLinetypeTableRecord
  2
ByLayer
 70
     0
  3

 72
    65
 73
     0
 40
0.0
  0
LTYPE
  5
16
330
5
100
AcDbSymbolTableRecord
100
AcDbLinetypeTableRecord
  2
Continuous
 70
     0
  3
Solid line
 72
    65
 73
     0
 40
0.0
  0
LTYPE
  5
95
330
5
100
AcDbSymbolTableRecord
100
AcDbLinetypeTableRecord
  2
Dashed
 70
     0
  3

 72
    65
 73
     2
 40
2.0
 49
1.0
 74
     0
 49
-1.0
 74
     0
  0
LTYPE
  5
11B
330
5
100
AcDbSymbolTableRecord
100
AcDbLinetypeTableRecord
  2
Center
 70
     0
  3

 72
    65
 73
     4
 40
1.5
 49
0.45
 74
     0
 49
-0.5
 74
     0
 49
0.05
 74
     0
 49
-0.5
 74
     0
  0
ENDTAB
  0
TABLE
  2
LAYER
  5
2
330
0
100
AcDbSymbolTable
 70
     8
  0
LAYER
  5
10
330
2
100
AcDbSymbolTableRecord
100
AcDbLayerTableRecord
  2
0
 70
     0
 62
     7
  6
Continuous
370
    -3
390
F
347
46
348
0
  0
LAYER
  5
6E
330
2
100
AcDbSymbolTableRecord
100
AcDbLayerTableRecord
  2
AM_6
 70
     0
 62
    -2
  6
Continuous
370
    35
390
F
347
46
348
0
  0
LAYER
  5
96
330
2
100
AcDbSymbolTableRecord
100
AcDbLayerTableRecord
  2
AM_9
 70
     0
 62
     6
  6
Dashed
370
    25
390
F
347
46
348
0
  0
LAYER
  5
B3
330
2
100
AcDbSymbolTableRecord
100
AcDbLayerTableRecord
  2
AM_0
 70
     0
 62
     7
  6
Continuous
370
    50
390
F
347
46
348
0
  0
LAYER
  5
C2
330
2
100
AcDbSymbolTableRecord
100
AcDbLayerTableRecord
  2
AM_4
 70
     0
 62
     3
  6
Continuous
370
    25
390
F
347
46
348
0
  0
LAYER
  5
118
330
2
100
AcDbSymbolTableRecord
100
AcDbLayerTableRecord
  2
AM_5
 70
     0
 62
     3
  6
Continuous
370
    25
390
F
347
46
348
0
  0
LAYER
  5
11C
330
2
100
AcDbSymbolTableRecord
100
AcDbLayerTableRecord
  2
AM_7
 70
     0
 62
     7
  6
Center
370
    25
390
F
347
46
348
0
  0
LAYER
  5
165
330
2
100
AcDbSymbolTableRecord
100
AcDbLayerTableRecord
  2
ConnectionPoints
 70
     0
 62
     7
  6
Continuous
370
    50
390
F
347
46
348
0
  0
ENDTAB
  0
TABLE
  2
STYLE
  5
3
330
0
100
AcDbSymbolTable
 70
     1
  0
STYLE
  5
11
330
3
100
AcDbSymbolTableRecord
100
AcDbTextStyleTableRecord
  2
Standard
 70
     0
 40
0.0
 41
1.0
 50
0.0
 71
     0
 42
0.2
  3
txt
  4

  0
ENDTAB
  0
TABLE
  2
VIEW
  5
6
330
0
100
AcDbSymbolTable
 70
     0
  0
ENDTAB
  0
TABLE
  2
UCS
  5
7
330
0
100
AcDbSymbolTable
 70
     0
  0
ENDTAB
  0
TABLE
  2
APPID
  5
9
330
0
100
AcDbSymbolTable
 70
     1
  0
APPID
  5
12
330
9
100
AcDbSymbolTableRecord
100
AcDbRegAppTableRecord
  2
ACAD
 70
     0
  0
ENDTAB
  0
TABLE
  2
DIMSTYLE
  5
A
330
0
100
AcDbSymbolTable
 70
     1
100
AcDbDimStyleTable
  0
DIMSTYLE
105
27
330
A
100
AcDbSymbolTableRecord
100
AcDbDimStyleTableRecord
  2
Standard
 70
     0
178
     0
340
11
  0
ENDTAB
  0
TABLE
  2
BLOCK_RECORD
  5
1
330
0
100
AcDbSymbolTable
 70
     4
  0
BLOCK_RECORD
  5
1F
330
1
100
AcDbSymbolTableRecord
100
AcDbBlockTableRecord
  2
*Model_Space
340
22
 70
     0
280
     1
281
     0
  0
BLOCK_RECORD
  5
1B
330
1
100
AcDbSymbolTableRecord
100
AcDbBlockTableRecord
  2
*Paper_Space
340
1E
 70
     0
280
     1
281
     0
  0
BLOCK_RECORD
  5
23
330
1
100
AcDbSymbolTableRecord
100
AcDbBlockTableRecord
  2
*Paper_Space0
340
26
 70
     0
280
     1
281
     0
  0
BLOCK_RECORD
  5
83
330
1
100
AcDbSymbolTableRecord
100
AcDbBlockTableRecord
  2
1_405020c_Inch_0_in_136714_2
340
0
102
{BLKREFS
331
84
102
}
 70
     0
280
     1
281
     0
  0
BLOCK_RECORD
  5
D2
330
1
100
AcDbSymbolTableRecord
100
AcDbBlockTableRecord
  2
2_127822_0_in_136714_2
340
0
102
{BLKREFS
331
D3
102
}
 70
     0
280
     1
281
     0
  0
BLOCK_RECORD
  5
126
330
1
100
AcDbSymbolTableRecord
100
AcDbBlockTableRecord
  2
3_136714H_0_in_136714_2
340
0
102
{BLKREFS
331
127
102
}
 70
     0
280
     1
281
     0
  0
ENDTAB
  0
ENDSEC
  0
SECTION
  2
BLOCKS
  0
BLOCK
  5
20
330
1F
100
AcDbEntity
  8
0
100
AcDbBlockBegin
  2
*Model_Space
 70
     0
 10
0.0
 20
0.0
 30
0.0
  3
*Model_Space
  1

  0
ENDBLK
  5
21
330
1F
100
AcDbEntity
  8
0
100
AcDbBlockEnd
  0
BLOCK
  5
1C
330
1B
100
AcDbEntity
 67
     1
  8
0
100
AcDbBlockBegin
  2
*Paper_Space
 70
     0
 10
0.0
 20
0.0
 30
0.0
  3
*Paper_Space
  1

  0
ENDBLK
  5
1D
330
1B
100
AcDbEntity
 67
     1
  8
0
100
AcDbBlockEnd
  0
BLOCK
  5
24
330
23
100
AcDbEntity
  8
0
100
AcDbBlockBegin
  2
*Paper_Space0
 70
     0
 10
0.0
 20
0.0
 30
0.0
  3
*Paper_Space0
  1

  0
ENDBLK
  5
25
330
23
100
AcDbEntity
  8
0
100
AcDbBlockEnd
  0
BLOCK
  5
85
330
83
100
AcDbEntity
  8
0
100
AcDbBlockBegin
  2
1_405020c_Inch_0_in_136714_2
 70
     2
 10
0.0
 20
0.0
 30
0.0
  3
1_405020c_Inch_0_in_136714_2
  1

  0
ATTDEF
  5
87
330
83
100
AcDbEntity
  8
AM_6
100
AcDbText
 10
4.190650000000001
 20
1.613024955685048
 30
0.0
 40
0.5
  1
405020C -Inch
100
AcDbAttributeDefinition
  3

  2
NN
 70
     8
280
     0
  0
ATTDEF
  5
88
330
83
100
AcDbEntity
  8
AM_6
100
AcDbText
 10
4.190650000000001
 20
1.113024955685048
 30
0.0
 40
0.5
  1
Grease fitting
100
AcDbAttributeDefinition
  3

  2
NT
 70
     8
280
     0
  0
ATTDEF
  5
89
330
83
100
AcDbEntity
  8
AM_6
100
AcDbText
 10
4.190650000000001
 20
0.6130249556850482
 30
0.0
 40
0.5
  1
405020c-Inch
100
AcDbAttributeDefinition
  3

  2
NB
 70
     8
280
     0
  0
ATTDEF
  5
8A
330
83
100
AcDbEntity
  8
AM_6
100
AcDbText
 10
4.190650000000001
 20
0.1130249556850482
 30
0.0
 40
0.5
  1
$MN.-Inch
100
AcDbAttributeDefinition
  3

  2
NBSYN
 70
     8
280
     0
  0
ATTDEF
  5
8B
330
83
100
AcDbEntity
  8
AM_6
100
AcDbText
 10
4.190650000000001
 20
-0.3869750443149518
 30
0.0
 40
0.5
  1
405020c
100
AcDbAttributeDefinition
  3

  2
LINA
 70
     8
280
     0
  0
ATTDEF
  5
8C
330
83
100
AcDbEntity
  8
AM_6
100
AcDbText
 10
4.190650000000001
 20
-0.8869750443149518
 30
0.0
 40
0.5
  1
405020c
100
AcDbAttributeDefinition
  3

  2
MN
 70
     8
280
     0
  0
ATTDEF
  5
8D
330
83
100
AcDbEntity
  8
AM_6
100
AcDbText
 10
4.190650000000001
 20
-1.386975044314952
 30
0.0
 40
0.5
  1
0.230
100
AcDbAttributeDefinition
  3

  2
NDR
 70
     8
280
     0
  0
ATTDEF
  5
8E
330
83
100
AcDbEntity
  8
AM_6
100
AcDbText
 10
4.190650000000001
 20
-1.886975044314952
 30
0.0
 40
0.5
  1
0.210
100
AcDbAttributeDefinition
  3

  2
KDR
 70
     8
280
     0
  0
ATTDEF
  5
8F
330
83
100
AcDbEntity
  8
AM_6
100
AcDbText
 10
4.190650000000001
 20
-2.386975044314952
 30
0.0
 40
0.5
  1
0.157
100
AcDbAttributeDefinition
  3

  2
BZE
 70
     8
280
     0
  0
ATTDEF
  5
90
330
83
100
AcDbEntity
  8
AM_6
100
AcDbText
 10
4.190650000000001
 20
-2.886975044314952
 30
0.0
 40
0.5
  1
9/32
100
AcDbAttributeDefinition
  3

  2
WAF
 70
     8
280
     0
  0
ATTDEF
  5
91
330
83
100
AcDbEntity
  8
AM_6
100
AcDbText
 10
4.190650000000001
 20
-3.386975044314952
 30
0.0
 40
0.5
  1
0.2813
100
AcDbAttributeDefinition
  3

  2
WAF1
 70
     8
280
     0
  0
ATTDEF
  5
92
330
83
100
AcDbEntity
  8
AM_6
100
AcDbText
 10
4.190650000000001
 20
-3.886975044314952
 30
0.0
 40
0.5
  1
0.545
100
AcDbAttributeDefinition
  3

  2
BL
 70
     8
280
     0
  0
ATTDEF
  5
93
330
83
100
AcDbEntity
  8
AM_6
100
AcDbText
 10
4.190650000000001
 20
-4.386975044314951
 30
0.0
 40
0.5
  1
0.200
100
AcDbAttributeDefinition
  3

  2
TL
 70
     8
280
     0
  0
ATTDEF
  5
94
330
83
100
AcDbEntity
  8
AM_6
100
AcDbText
 10
4.190650000000001
 20
-4.886975044314951
 30
0.0
 40
0.5
  1
baldor
100
AcDbAttributeDefinition
  3

  2
COMPANY
 70
     8
280
     0
  0
LWPOLYLINE
  5
97
330
83
100
AcDbEntity
  8
AM_9
 48
0.0012115027316933
100
AcDbPolyline
 90
        3
 70
     0
 43
0.0
 10
-1.020325
 20
1.390742194369794
 10
-0.9851624999999998
 20
1.406185374158143
 10
-0.9499999999999998
 20
1.42357483467731
  0
LWPOLYLINE
  5
98
330
83
100
AcDbEntity
  8
AM_9
 48
0.0012115027316933
100
AcDbPolyline
 90
        3
 70
     0
 43
0.0
 10
-0.9499999999999998
 20
1.42357483467731
 10
-0.9149956000683008
 20
1.406259531423702
 10
-0.879675
 20
1.390742194369794
  0
ELLIPSE
  5
99
330
83
100
AcDbEntity
  8
AM_9
 48
0.0012115027316933
100
AcDbEllipse
 10
-0.9499999999999998
 20
1.163190655051871
 30
0.0
 11
0.1000886227036577
 21
0.0
 31
0.0
210
0.0
220
0.0
230
1.0
 40
0.7071067811865474
 41
0.0
 42
6.283185307179586
  0
LWPOLYLINE
  5
9A
330
83
100
AcDbEntity
  8
AM_9
 48
0.0012115027316933
100
AcDbPolyline
 90
        3
 70
     0
 43
0.0
 10
-0.9499999999999998
 20
1.462470128195124
 10
-0.9850043999316987
 20
1.451204458587072
 10
-1.020325
 20
1.437882646448897
  0
LWPOLYLINE
  5
9B
330
83
100
AcDbEntity
  8
AM_9
 48
0.0012115027316933
100
AcDbPolyline
 90
        3
 70
     0
 43
0.0
 10
-0.8796749999999998
 20
1.437882646448897
 10
-0.9148374999999999
 20
1.451149527687419
 10
-0.9499999999999998
 20
1.462470128195124
  0
LWPOLYLINE
  5
9C
330
83
100
AcDbEntity
  8
AM_9
 48
0.0012115027316933
100
AcDbPolyline
 90
        3
 70
     0
 43
0.0
 10
-0.879675
 20
1.390742194369794
 10
-0.8445124999999998
 20
1.377475313131272
 10
-0.8093499999999998
 20
1.366154712623567
  0
LINE
  5
9D
330
83
100
AcDbEntity
  8
AM_9
 48
0.0012115027316933
100
AcDbLine
 10
-0.9499999999999998
 20
1.462470128195124
 30
0.0
 11
-0.9499999999999998
 21
1.42357483467731
 31
0.0
  0
LWPOLYLINE
  5
9E
330
83
100
AcDbEntity
  8
AM_9
 48
0.0012115027316933
100
AcDbPolyline
 90
        3
 70
     0
 43
0.0
 10
-1.09065
 20
1.366154712623567
 10
-1.055645600068301
 20
1.377420382231618
 10
-1.020325
 20
1.390742194369794
  0
LWPOLYLINE
  5
9F
330
83
100
AcDbEntity
  8
AM_9
 48
0.0012115027316933
100
AcDbPolyline
 90
        3
 70
     0
 43
0.0
 10
-0.8346538465345218
 20
1.417740804580594
 10
-0.8443543999316988
 20
1.422365309394989
 10
-0.8796749999999998
 20
1.437882646448897
  0
LWPOLYLINE
  5
A0
330
83
100
AcDbEntity
  8
AM_9
 48
0.0012115027316933
100
AcDbPolyline
 90
        3
 70
     0
 43
0.0
 10
-1.020325
 20
1.437882646448897
 10
-1.0554875
 20
1.422439466660548
 10
-1.065708266385312
 20
1.41756540980921
  0
LINE
  5
A1
330
83
100
AcDbEntity
  8
AM_9
 48
0.0012115027316933
100
AcDbLine
 10
-0.8396376731557812
 20
1.168053397514156
 30
0.0
 11
-0.8337130109081056
 21
1.302041023372364
 31
0.0
  0
LINE
  5
A2
330
83
100
AcDbEntity
  8
AM_9
 48
0.0012115027316933
100
AcDbLine
 10
-1.066286989091894
 20
1.302041023372364
 30
0.0
 11
-1.060362326844218
 21
1.168053397514156
 31
0.0
  0
ELLIPSE
  5
A3
330
83
100
AcDbEntity
  8
AM_9
 48
0.0012115027316933
100
AcDbEllipse
 10
-0.9500000000000015
 20
1.351752463368277
 30
0.0
 11
-0.1406500000000022
 21
-7.727957616081113E-15
 31
0.0
210
0.0
220
0.0
230
1.0
 40
0.7071067811865793
 41
3.79890669679358
 42
4.544687665947231
  0
ELLIPSE
  5
A4
330
83
100
AcDbEntity
  8
AM_9
 48
0.0012115027316933
100
AcDbEllipse
 10
-0.9499999999999987
 20
1.351752463368254
 30
0.0
 11
-0.1406500000000422
 21
1.722465723001270E-17
 31
0.0
210
0.0
220
0.0
230
1.0
 40
0.7071067811865483
 41
4.642931468930097
 42
5.625871263975526
  0
ELLIPSE
  5
A5
330
83
100
AcDbEntity
  8
AM_9
 48
0.0012115027316933
100
AcDbEllipse
 10
-0.9499999999999983
 20
1.373899436253816
 30
0.0
 11
-0.1093294505797734
 21
-2.220004352609894E-15
 31
0.0
210
0.0
220
0.0
230
1.0
 40
0.7071067811865377
 41
5.382855324275599
 42
5.928986666165856
  0
ELLIPSE
  5
A6
330
83
100
AcDbEntity
  8
AM_9
 48
0.0012115027316933
100
AcDbEllipse
 10
-0.9500000000000004
 20
1.373899436253814
 30
0.0
 11
-0.1093294505797722
 21
-2.365660440573807E-15
 31
0.0
210
0.0
220
0.0
230
1.0
 40
0.7071067811865539
 41
3.495791294603494
 42
4.068043470056751
  0
LWPOLYLINE
  5
A7
330
83
100
AcDbEntity
  8
AM_9
 48
0.0012115027316933
100
AcDbPolyline
 90
        4
 70
     0
 43
0.0
 10
-0.8582764803553137
 20
1.387227282261114
 10
-0.8584490023767154
 20
1.386885031034707
 10
-0.8610853779156482
 20
1.382485919341535
 10
-0.8619322843786068
 20
1.381296636352627
  0
LWPOLYLINE
  5
A8
330
83
100
AcDbEntity
  8
AM_9
 48
0.0012115027316933
100
AcDbPolyline
 90
       19
 70
     0
 43
0.0
 10
-0.9499999999999998
 20
1.451207032142172
 10
-0.9445265678872432
 20
1.451110080801034
 10
-0.9335483161344978
 20
1.450325930013431
 10
-0.9228193358978733
 20
1.448773276664326
 10
-0.9125100469473018
 20
1.446494014261371
 10
-0.9027761200769797
 20
1.443550476971093
 10
-0.8937591770796277
 20
1.440024779482304
 10
-0.8855818923411912
 20
1.436017225934345
 10
-0.8783427554979566
 20
1.431643565585271
 10
-0.8721107266358575
 20
1.427030532139926
 10
-0.8669287244877332
 20
1.422317450899873
 10
-0.8627921841696372
 20
1.417634075170346
 10
-0.8596545865320626
 20
1.413087666425814
 10
-0.8574326426397655
 20
1.408737826648223
 10
-0.8560243223188119
 20
1.40455376940729
 10
-0.855361024710462
 20
1.40033069303489
 10
-0.855568731674241
 20
1.395527930084735
 10
-0.8566262669247928
 20
1.391186226428368
 10
-0.8582764803553137
 20
1.387227282261114
  0
LWPOLYLINE
  5
A9
330
83
100
AcDbEntity
  8
AM_9
 48
0.0012115027316933
100
AcDbPolyline
 90
       19
 70
     0
 43
0.0
 10
-1.042044948368285
 20
1.387891652823047
 10
-1.043594336057255
 20
1.391872953477709
 10
-1.044502768377728
 20
1.396043983182933
 10
-1.044622545621642
 20
1.400567890464914
 10
-1.04384389245146
 20
1.405061407033959
 10
-1.042301856380766
 20
1.409347624054808
 10
-1.039967350550012
 20
1.4137068041795
 10
-1.036779861524927
 20
1.41817278657582
 10
-1.032253997762207
 20
1.423130476822453
 10
-1.026706340905893
 20
1.427981179954229
 10
-1.020152459500417
 20
1.432628727081821
 10
-1.012632471917099
 20
1.43696789770166
 10
-1.004220325872206
 20
1.440889293731651
 10
-0.9950201257784534
 20
1.444290001211189
 10
-0.9851494341964794
 20
1.447083261805339
 10
-0.9747448411970894
 20
1.44919648616184
 10
-0.963957788251147
 20
1.450574003800654
 10
-0.9529503959378589
 20
1.451178876182745
 10
-0.9499999999999998
 20
1.451207032142172
  0
LWPOLYLINE
  5
AA
330
83
100
AcDbEntity
  8
AM_9
 48
0.0012115027316933
100
AcDbPolyline
 90
        4
 70
     0
 43
0.0
 10
-1.038056381176614
 20
1.381281251570735
 10
-1.039414465927839
 20
1.383228783056158
 10
-1.041928069785303
 20
1.387645785143304
 10
-1.042044948368285
 20
1.387891652823047
  0
ELLIPSE
  5
AB
330
83
100
AcDbEntity
  8
AM_9
 48
0.0012115027316933
100
AcDbEllipse
 10
-0.9499999999999996
 20
1.413841248190322
 30
0.0
 11
-0.09936940028726593
 21
2.769425125405783E-16
 31
0.0
210
0.0
220
0.0
230
1.0
 40
0.7071067811865475
 41
2.656480407116016
 42
4.712388980384691
  0
ELLIPSE
  5
AC
330
83
100
AcDbEntity
  8
AM_9
 48
0.0012115027316933
100
AcDbEllipse
 10
-0.9500000000000003
 20
1.462172576894797
 30
0.0
 11
-0.1312419113468909
 21
-2.170599681725159E-16
 31
0.0
210
0.0
220
0.0
230
1.0
 40
0.707106781186547
 41
2.656480407116015
 42
4.712388980384684
  0
ELLIPSE
  5
AD
330
83
100
AcDbEntity
  8
AM_9
 48
0.0012115027316933
100
AcDbEllipse
 10
-0.9499999999999992
 20
1.490928820360074
 30
0.0
 11
-0.1319517646676812
 21
4.263479149913558E-16
 31
0.0
210
0.0
220
0.0
230
1.0
 40
0.7071067811865474
 41
3.587647615149296
 42
5.835311832353418
  0
ELLIPSE
  5
AE
330
83
100
AcDbEntity
  8
AM_9
 48
0.0012115027316933
100
AcDbEllipse
 10
-0.9499999999999996
 20
1.537793397033261
 30
0.0
 11
-0.1038190510530393
 21
6.581830517496478E-16
 31
0.0
210
0.0
220
0.0
230
1.0
 40
0.7071067811865509
 41
3.579974428543812
 42
5.769556150345367
  0
ELLIPSE
  5
AF
330
83
100
AcDbEntity
  8
AM_9
 48
0.0012115027316933
100
AcDbEllipse
 10
-0.9500000000002079
 20
1.537793397033775
 30
0.0
 11
-0.1038190510528024
 21
-7.758408854732230E-13
 31
0.0
210
0.0
220
0.0
230
1.0
 40
0.7071067811846805
 41
-0.4873892221744942
 42
-0.4553918962467831
  0
ELLIPSE
  5
B0
330
83
100
AcDbEntity
  8
AM_9
 48
0.0012115027316933
100
AcDbEllipse
 10
-0.9499999999999995
 20
1.304612011289181
 30
0.0
 11
-0.1163438171532767
 21
-3.474212284860371E-16
 31
0.0
210
0.0
220
0.0
230
1.0
 40
0.707106781186548
 41
0.0
 42
6.283185307179586
  0
ELLIPSE
  5
B1
330
83
100
AcDbEntity
  8
AM_9
 48
0.0012115027316933
100
AcDbEllipse
 10
-0.9499999999999998
 20
1.170493397130657
 30
0.0
 11
-0.1104162595939889
 21
1.352209188856018E-17
 31
0.0
210
0.0
220
0.0
230
1.0
 40
0.7071067811865485
 41
0.0
 42
6.283185307179586
  0
ELLIPSE
  5
B2
330
83
100
AcDbEntity
  8
AM_9
 48
0.0012115027316933
100
AcDbEllipse
 10
-0.95
 20
1.304612011289181
 30
0.0
 11
-0.1406500000000006
 21
1.722465723000760E-17
 31
0.0
210
0.0
220
0.0
230
1.0
 40
0.7071067811865477
 41
0.0
 42
6.283185307179586
  0
LINE
  5
B4
330
83
100
AcDbEntity
  8
AM_0
 48
0.0012115027316933
100
AcDbLine
 10
-0.8093499999999998
 20
1.405050006141381
 30
0.0
 11
-0.8346538465345218
 21
1.417740804580594
 31
0.0
  0
LINE
  5
B5
330
83
100
AcDbEntity
  8
AM_0
 48
0.0012115027316933
100
AcDbLine
 10
-1.065708266385312
 20
1.41756540980921
 30
0.0
 11
-1.09065
 21
1.405050006141381
 31
0.0
  0
LWPOLYLINE
  5
B6
330
83
100
AcDbEntity
  8
AM_0
 48
0.0012115027316933
100
AcDbPolyline
 90
        3
 70
     0
 43
0.0
 10
-0.879675
 20
1.218481828208567
 10
-0.9148374999999999
 20
1.205214946970045
 10
-0.9499999999999998
 20
1.19389434646234
  0
LWPOLYLINE
  5
B7
330
83
100
AcDbEntity
  8
AM_0
 48
0.0012115027316933
100
AcDbPolyline
 90
        3
 70
     0
 43
0.0
 10
-0.8093499999999998
 20
1.251314468516083
 10
-0.8443543999316988
 20
1.233999165262475
 10
-0.879675
 20
1.218481828208567
  0
LINE
  5
B8
330
83
100
AcDbEntity
  8
AM_0
 48
0.0012115027316933
100
AcDbLine
 10
-0.8093499999999998
 20
1.405050006141381
 30
0.0
 11
-0.8093499999999998
 21
1.251314468516083
 31
0.0
  0
LWPOLYLINE
  5
B9
330
83
100
AcDbEntity
  8
AM_0
 48
0.0012115027316933
100
AcDbPolyline
 90
        3
 70
     0
 43
0.0
 10
-0.8796749999999998
 20
1.26562228028767
 10
-0.8445124999999998
 20
1.278889161526192
 10
-0.8093499999999998
 20
1.290209762033897
  0
LWPOLYLINE
  5
BA
330
83
100
AcDbEntity
  8
AM_0
 48
0.0012115027316933
100
AcDbPolyline
 90
        3
 70
     0
 43
0.0
 10
-0.9499999999999998
 20
1.232789639980154
 10
-0.9149956000683008
 20
1.250104943233762
 10
-0.8796749999999998
 20
1.26562228028767
  0
LINE
  5
BB
330
83
100
AcDbEntity
  8
AM_0
 48
0.0012115027316933
100
AcDbLine
 10
-1.09065
 20
1.405050006141381
 30
0.0
 11
-1.09065
 21
1.251314468516083
 31
0.0
  0
LWPOLYLINE
  5
BC
330
83
100
AcDbEntity
  8
AM_0
 48
0.0012115027316933
100
AcDbPolyline
 90
        3
 70
     0
 43
0.0
 10
-1.020325
 20
1.218481828208567
 10
-1.0554875
 20
1.233925007996916
 10
-1.09065
 20
1.251314468516083
  0
LWPOLYLINE
  5
BD
330
83
100
AcDbEntity
  8
AM_0
 48
0.0012115027316933
100
AcDbPolyline
 90
        3
 70
     0
 43
0.0
 10
-0.9499999999999998
 20
1.19389434646234
 10
-0.9850043999316987
 20
1.205160016070391
 10
-1.020325
 20
1.218481828208567
  0
LINE
  5
BE
330
83
100
AcDbEntity
  8
AM_0
 48
0.0012115027316933
100
AcDbLine
 10
-0.9499999999999998
 20
1.232789639980154
 30
0.0
 11
-0.9499999999999998
 21
1.19389434646234
 31
0.0
  0
LWPOLYLINE
  5
BF
330
83
100
AcDbEntity
  8
AM_0
 48
0.0012115027316933
100
AcDbPolyline
 90
        3
 70
     0
 43
0.0
 10
-1.020325
 20
1.26562228028767
 10
-0.9851624999999998
 20
1.250179100499321
 10
-0.9499999999999998
 20
1.232789639980154
  0
LWPOLYLINE
  5
C0
330
83
100
AcDbEntity
  8
AM_0
 48
0.0012115027316933
100
AcDbPolyline
 90
        3
 70
     0
 43
0.0
 10
-1.09065
 20
1.290209762033897
 10
-1.055645600068301
 20
1.278944092425846
 10
-1.020325
 20
1.26562228028767
  0
ELLIPSE
  5
C1
330
83
100
AcDbEntity
  8
AM_0
 48
0.0012115027316933
100
AcDbEllipse
 10
-0.9500000000000012
 20
1.351752463368285
 30
0.0
 11
-0.1406499999999987
 21
-1.794148616366904E-15
 31
0.0
210
0.0
220
0.0
230
1.0
 40
0.7071067811865446
 41
5.625871263975747
 42
10.08209200397318
  0
ELLIPSE
  5
C3
330
83
100
AcDbEntity
  8
AM_4
 48
0.0012115027316933
100
AcDbEllipse
 10
-0.9499999999999998
 20
1.373899436253815
 30
0.0
 11
-0.1093294505797712
 21
1.338899617050555E-17
 31
0.0
210
0.0
220
0.0
230
1.0
 40
0.7071067811865481
 41
5.928986666165874
 42
9.77897660178309
  0
LINE
  5
C4
330
83
100
AcDbEntity
  8
AM_0
 48
0.0012115027316933
100
AcDbLine
 10
-0.8620955814367076
 20
1.38107624467666
 30
0.0
 11
-0.8339004374109928
 21
1.418898272390702
 31
0.0
  0
LINE
  5
C5
330
83
100
AcDbEntity
  8
AM_0
 48
0.0012115027316933
100
AcDbLine
 10
-1.066099562589007
 20
1.418898272390702
 30
0.0
 11
-1.037904418563292
 21
1.38107624467666
 31
0.0
  0
ELLIPSE
  5
C6
330
83
100
AcDbEntity
  8
AM_4
 48
0.0012115027316933
100
AcDbEllipse
 10
-0.9499999999999998
 20
1.413841248190322
 30
0.0
 11
-0.09936940028726615
 21
1.216924179949926E-17
 31
0.0
210
0.0
220
0.0
230
1.0
 40
0.7071067811865481
 41
0.48511224647378
 42
2.656480407116014
  0
LWPOLYLINE
  5
C7
330
83
100
AcDbEntity
  8
AM_0
 48
0.0012115027316933
100
AcDbPolyline
 90
       13
 70
     0
 43
0.0
 10
-1.068796733222223
 20
1.531543401266261
 10
-1.069947517907735
 20
1.529813959765333
 10
-1.075879308373921
 20
1.519435659870429
 10
-1.080446521640175
 20
1.508672198562999
 10
-1.083633891789866
 20
1.497662556796993
 10
-1.085448106817338
 20
1.486536392396104
 10
-1.085910944030921
 20
1.475412575064392
 10
-1.085053732229006
 20
1.464398671281127
 10
-1.082915496485527
 20
1.453601065158862
 10
-1.079539261169583
 20
1.443109040433299
 10
-1.074965788971034
 20
1.432996610397519
 10
-1.069232582874525
 20
1.423331707027119
 10
-1.06600668060213
 20
1.418773864168316
  0
LWPOLYLINE
  5
C8
330
83
100
AcDbEntity
  8
AM_0
 48
0.0012115027316933
100
AcDbPolyline
 90
       13
 70
     0
 43
0.0
 10
-0.8344973231841124
 20
1.418105228066903
 10
-0.8329516141105437
 20
1.420191079194263
 10
-0.8264561688116178
 20
1.430363843839586
 10
-0.821310445446168
 20
1.440982364470756
 10
-0.8175412456928538
 20
1.451904646969894
 10
-0.8151502257093189
 20
1.462996835572019
 10
-0.8141212175216378
 20
1.474135414183888
 10
-0.8144263198900485
 20
1.485208026140558
 10
-0.8160300174406655
 20
1.496110022244486
 10
-0.8188896706975533
 20
1.506740328933913
 10
-0.8229633594586068
 20
1.517021273690998
 10
-0.8282122091202658
 20
1.526882835130806
 10
-0.8310801053807647
 20
1.531361804840028
  0
ELLIPSE
  5
C9
330
83
100
AcDbEntity
  8
AM_4
 48
0.0012115027316933
100
AcDbEllipse
 10
-0.9499999999999998
 20
1.462172576894798
 30
0.0
 11
-0.1312419113468907
 21
2.492049655015056E-16
 31
0.0
210
0.0
220
0.0
230
1.0
 40
0.7071067811865465
 41
0.486027089552298
 42
2.648783666238426
  0
ELLIPSE
  5
CA
330
83
100
AcDbEntity
  8
AM_4
 48
0.0012115027316933
100
AcDbEllipse
 10
-0.9499999999999998
 20
1.548563850798539
 30
0.0
 11
0.08080642971672802
 21
0.0
 31
0.0
210
0.0
220
0.0
230
1.0
 40
0.7071067811865462
 41
0.0
 42
6.283185307179586
  0
LWPOLYLINE
  5
CB
330
83
100
AcDbEntity
  8
AM_0
 48
0.0012115027316933
100
AcDbPolyline
 90
       11
 70
     0
 43
0.0
 10
-0.9499999999999998
 20
1.613024955685048
 10
-0.9565913798682866
 20
1.612868826207527
 10
-0.9684115818781351
 20
1.611798181513244
 10
-0.9800329056069962
 20
1.609715462193895
 10
-0.9913159466844103
 20
1.606630667610422
 10
-1.002124990215452
 20
1.60255966839365
 10
-1.0123215555955
 20
1.597526401563839
 10
-1.021757956984752
 20
1.591570375781226
 10
-1.030282783564885
 20
1.584752918032282
 10
-1.037748707415196
 20
1.577163174430425
 10
-1.043113545767625
 20
1.570265076115355
  0
LWPOLYLINE
  5
CC
330
83
100
AcDbEntity
  8
AM_0
 48
0.0012115027316933
100
AcDbPolyline
 90
       12
 70
     0
 43
0.0
 10
-0.8562724548313793
 20
1.569365517189152
 10
-0.8600301198190081
 20
1.574492419664221
 10
-0.8667270733663253
 20
1.581933494310143
 10
-0.8744901160398506
 20
1.58876686546539
 10
-0.8832365018686418
 20
1.594899581656025
 10
-0.8928559025171309
 20
1.60024244764288
 10
-0.9032159960358618
 20
1.604718784606144
 10
-0.9141722152636543
 20
1.608269392035451
 10
-0.9255728316838996
 20
1.610852060246857
 10
-0.9372733879361815
 20
1.61244127706829
 10
-0.9485201984939644
 20
1.613017093954875
 10
-0.9499999999999998
 20
1.613024955685048
  0
LINE
  5
CD
330
83
100
AcDbEntity
  8
AM_0
 48
0.0012115027316933
100
AcDbLine
 10
-1.04400189503009
 20
1.568954583566394
 30
0.0
 11
-1.0694743720494
 21
1.530534013342286
 31
0.0
  0
LINE
  5
CE
330
83
100
AcDbEntity
  8
AM_0
 48
0.0012115027316933
100
AcDbLine
 10
-0.8305256279505998
 20
1.530534013342286
 30
0.0
 11
-0.8559981049699094
 21
1.568954583566394
 31
0.0
  0
ELLIPSE
  5
CF
330
83
100
AcDbEntity
  8
AM_4
 48
0.0012115027316933
100
AcDbEllipse
 10
-0.9499999999999997
 20
1.490928820360075
 30
0.0
 11
-0.13195176466768
 21
1.615943062421191E-17
 31
0.0
210
0.0
220
0.0
230
1.0
 40
0.7071067811865489
 41
5.844803532225582
 42
9.863159735723384
  0
ELLIPSE
  5
D0
330
83
100
AcDbEntity
  8
AM_4
 48
0.0012115027316933
100
AcDbEllipse
 10
-0.9499999999999997
 20
1.537793397033262
 30
0.0
 11
-0.1038190510530388
 21
1.271416685626196E-17
 31
0.0
210
0.0
220
0.0
230
1.0
 40
0.7071067811865482
 41
5.844803532225583
 42
9.863159735723384
  0
ELLIPSE
  5
D1
330
83
100
AcDbEntity
  8
AM_0
 48
0.0012115027316933
100
AcDbEllipse
 10
-0.950000000002123
 20
1.537793397033982
 30
0.0
 11
-0.1038190510506843
 21
1.271416685597362E-17
 31
0.0
210
0.0
220
0.0
230
1.0
 40
0.7071067811865479
 41
-0.4553918962417756
 42
-0.4383817749538022
  0
ENDBLK
  5
86
330
83
100
AcDbEntity
  8
0
100
AcDbBlockEnd
  0
BLOCK
  5
D4
330
D2
100
AcDbEntity
  8
0
100
AcDbBlockBegin
  2
2_127822_0_in_136714_2
 70
     2
 10
0.0
 20
0.0
 30
0.0
  3
2_127822_0_in_136714_2
  1

  0
ATTDEF
  5
D6
330
D2
100
AcDbEntity
  8
AM_6
100
AcDbText
 10
4.89
 20
1.416456014385017
 30
0.0
 40
0.5
  1
Set Screw Insert Inch Bore - Stainless Steel
100
AcDbAttributeDefinition
  3

  2
NN
 70
     8
280
     0
  0
ATTDEF
  5
D7
330
D2
100
AcDbEntity
  8
AM_6
100
AcDbText
 10
4.89
 20
0.9164560143850171
 30
0.0
 40
0.5
  1
SC Medium Duty Bearing Inserts
100
AcDbAttributeDefinition
  3

  2
NT
 70
     8
280
     0
  0
ATTDEF
  5
D8
330
D2
100
AcDbEntity
  8
AM_6
100
AcDbText
 10
4.89
 20
0.4164560143850171
 30
0.0
 40
0.5
  1
127822
100
AcDbAttributeDefinition
  3

  2
NB
 70
     8
280
     0
  0
ATTDEF
  5
D9
330
D2
100
AcDbEntity
  8
AM_6
100
AcDbText
 10
4.89
 20
-0.0835439856149829
 30
0.0
 40
0.5
  1
$PN.
100
AcDbAttributeDefinition
  3

  2
NBSYN
 70
     8
280
     0
  0
ATTDEF
  5
DA
330
D2
100
AcDbEntity
  8
AM_6
100
AcDbText
 10
4.89
 20
-0.5835439856149829
 30
0.0
 40
0.5
  1
127822
100
AcDbAttributeDefinition
  3

  2
LINA
 70
     8
280
     0
  0
ATTDEF
  5
DB
330
D2
100
AcDbEntity
  8
AM_6
100
AcDbText
 10
4.89
 20
-1.083543985614983
 30
0.0
 40
0.5
  1
207
100
AcDbAttributeDefinition
  3

  2
SERIES
 70
     8
280
     0
  0
ATTDEF
  5
DC
330
D2
100
AcDbEntity
  8
AM_6
100
AcDbText
 10
4.89
 20
-1.583543985614983
 30
0.0
 40
0.5
  1
1-1/4
100
AcDbAttributeDefinition
  3

  2
SS
 70
     8
280
     0
  0
ATTDEF
  5
DD
330
D2
100
AcDbEntity
  8
AM_6
100
AcDbText
 10
4.89
 20
-2.083543985614983
 30
0.0
 40
0.5
  1
127822
100
AcDbAttributeDefinition
  3

  2
PN
 70
     8
280
     0
  0
ATTDEF
  5
DE
330
D2
100
AcDbEntity
  8
AM_6
100
AcDbText
 10
4.89
 20
-2.583543985614983
 30
0.0
 40
0.5
  1
INS-SC-104-SS
100
AcDbAttributeDefinition
  3

  2
DESCRIPTION
 70
     8
280
     0
  0
ATTDEF
  5
DF
330
D2
100
AcDbEntity
  8
AM_6
100
AcDbText
 10
4.89
 20
-3.083543985614983
 30
0.0
 40
0.5
  1
1.02
100
AcDbAttributeDefinition
  3

  2
WEIGHT
 70
     8
280
     0
  0
ATTDEF
  5
E0
330
D2
100
AcDbEntity
  8
AM_6
100
AcDbText
 10
4.89
 20
-3.583543985614983
 30
0.0
 40
0.5
  1
1.71
100
AcDbAttributeDefinition
  3

  2
A
 70
     8
280
     0
  0
ATTDEF
  5
E1
330
D2
100
AcDbEntity
  8
AM_6
100
AcDbText
 10
4.89
 20
-4.083543985614983
 30
0.0
 40
0.5
  1
0.75
100
AcDbAttributeDefinition
  3

  2
C
 70
     8
280
     0
  0
ATTDEF
  5
E2
330
D2
100
AcDbEntity
  8
AM_6
100
AcDbText
 10
4.89
 20
-4.583543985614983
 30
0.0
 40
0.5
  1
2.8346
100
AcDbAttributeDefinition
  3

  2
D
 70
     8
280
     0
  0
ATTDEF
  5
E3
330
D2
100
AcDbEntity
  8
AM_6
100
AcDbText
 10
4.89
 20
-5.083543985614983
 30
0.0
 40
0.5
  1
0.20
100
AcDbAttributeDefinition
  3

  2
J
 70
     8
280
     0
  0
ATTDEF
  5
E4
330
D2
100
AcDbEntity
  8
AM_6
100
AcDbText
 10
4.89
 20
-5.583543985614983
 30
0.0
 40
0.5
  1
1.84
100
AcDbAttributeDefinition
  3

  2
L
 70
     8
280
     0
  0
ATTDEF
  5
E5
330
D2
100
AcDbEntity
  8
AM_6
100
AcDbText
 10
4.89
 20
-6.083543985614983
 30
0.0
 40
0.5
  1
5/16 - 24
100
AcDbAttributeDefinition
  3

  2
N
 70
     8
280
     0
  0
ATTDEF
  5
E6
330
D2
100
AcDbEntity
  8
AM_6
100
AcDbText
 10
4.89
 20
-6.583543985614983
 30
0.0
 40
0.5
  1
0.67
100
AcDbAttributeDefinition
  3

  2
W
 70
     8
280
     0
  0
ATTDEF
  5
E7
330
D2
100
AcDbEntity
  8
AM_6
100
AcDbText
 10
4.89
 20
-7.083543985614983
 30
0.0
 40
0.5
  1
1.04
100
AcDbAttributeDefinition
  3

  2
Y
 70
     8
280
     0
  0
ATTDEF
  5
E8
330
D2
100
AcDbEntity
  8
AM_6
100
AcDbText
 10
4.89
 20
-7.583543985614983
 30
0.0
 40
0.5
  1
baldor
100
AcDbAttributeDefinition
  3

  2
COMPANY
 70
     8
280
     0
  0
ELLIPSE
  5
E9
330
D2
100
AcDbEntity
  8
AM_9
 48
0.0074943718478481
100
AcDbEllipse
 10
-1.4875
 20
0.3799906177205596
 30
0.0
 11
0.1262000000000001
 21
-3.091008521047922E-17
 31
0.0
210
0.0
220
0.0
230
1.0
 40
0.9063077870366504
 41
0.0000000000000017
 42
3.141592653589792
  0
LINE
  5
EA
330
D2
100
AcDbEntity
  8
AM_9
 48
0.0074943718478481
100
AcDbLine
 10
-1.3613
 20
0.2641067421219501
 30
0.0
 11
-1.3613
 21
0.3799906177205598
 31
0.0
  0
LINE
  5
EB
330
D2
100
AcDbEntity
  8
AM_9
 48
0.0074943718478481
100
AcDbLine
 10
-1.6137
 20
0.3799906177205598
 30
0.0
 11
-1.6137
 21
0.2641364135879372
 31
0.0
  0
ELLIPSE
  5
EC
330
D2
100
AcDbEntity
  8
AM_9
 48
0.0074943718478481
100
AcDbEllipse
 10
-1.487499999999998
 20
0.3799906177205618
 30
0.0
 11
0.1262000000000019
 21
6.050715484207103E-15
 31
0.0
210
0.0
220
0.0
230
1.0
 40
0.906307787036652
 41
3.141592653589757
 42
3.680792466808585
  0
ELLIPSE
  5
ED
330
D2
100
AcDbEntity
  8
AM_9
 48
0.0074943718478481
100
AcDbEllipse
 10
-1.4875
 20
0.3799906177205598
 30
0.0
 11
0.1261999999999999
 21
-1.429982017766348E-16
 31
0.0
210
0.0
220
0.0
230
1.0
 40
0.9063077870366506
 41
3.680792466808629
 42
5.742025960174352
  0
ELLIPSE
  5
EE
330
D2
100
AcDbEntity
  8
AM_9
 48
0.0074943718478481
100
AcDbEllipse
 10
-1.487499999999998
 20
0.379990617720559
 30
0.0
 11
0.1261999999999981
 21
2.109423746787798E-15
 31
0.0
210
0.0
220
0.0
230
1.0
 40
0.9063077870366493
 41
5.742025960174331
 42
6.283185307179574
  0
LWPOLYLINE
  5
EF
330
D2
100
AcDbEntity
  8
AM_9
 48
0.0074943718478481
100
AcDbPolyline
 90
       21
 70
     0
 43
0.0
 10
-1.361300000774899
 20
0.2641237386693667
 10
-1.361423890133397
 20
0.2593347293156412
 10
-1.364042759948035
 20
0.240188788047335
 10
-1.370038813405277
 20
0.221623254928936
 10
-1.37919574388894
 20
0.2040018492720408
 10
-1.391462541712105
 20
0.1876740487926326
 10
-1.406369321913566
 20
0.1733491936686946
 10
-1.423834827348191
 20
0.1613506506500532
 10
-1.443137623736203
 20
0.1522977993049567
 10
-1.463646966529022
 20
0.1465923963600967
 10
-1.484854879184833
 20
0.1443472352443727
 10
-1.505749202641362
 20
0.1456505727086473
 10
-1.52612743135114
 20
0.1503236819609881
 10
-1.54535961941259
 20
0.1582150853026324
 10
-1.563001212375836
 20
0.1690069117708378
 10
-1.578816381760705
 20
0.1826277789447785
 10
-1.592086971831957
 20
0.1984358542402071
 10
-1.602502084051342
 20
0.2161484358270774
 10
-1.609644104660321
 20
0.2350318620350999
 10
-1.612676949513361
 20
0.2495464700292467
 10
-1.6137
 20
0.2641364135879372
  0
LINE
  5
F0
330
D2
100
AcDbEntity
  8
AM_9
 48
0.0074943718478481
100
AcDbLine
 10
-1.3613
 20
0.8991344012334845
 30
0.0
 11
-1.340546867517165
 21
0.9198875337163193
 31
0.0
  0
LINE
  5
F1
330
D2
100
AcDbEntity
  8
AM_9
 48
0.0074943718478481
100
AcDbLine
 10
-1.634339692048593
 20
0.9197740932820773
 30
0.0
 11
-1.6137
 21
0.8991344012334845
 31
0.0
  0
LINE
  5
F2
330
D2
100
AcDbEntity
  8
AM_9
 48
0.0074943718478481
100
AcDbLine
 10
-1.3613
 20
0.625
 30
0.0
 11
-1.3613
 21
0.8991344012334845
 31
0.0
  0
LINE
  5
F3
330
D2
100
AcDbEntity
  8
AM_9
 48
0.0074943718478481
100
AcDbLine
 10
-1.6137
 20
0.8991344012334845
 30
0.0
 11
-1.6137
 21
0.625
 31
0.0
  0
LINE
  5
F4
330
D2
100
AcDbEntity
  8
AM_9
 48
0.0074943718478481
100
AcDbLine
 10
-1.6137
 20
0.8991344012334845
 30
0.0
 11
-1.3613
 21
0.8991344012334845
 31
0.0
  0
LWPOLYLINE
  5
F5
330
D2
100
AcDbEntity
  8
AM_9
 48
0.0074943718478481
100
AcDbPolyline
 90
       20
 70
     0
 43
0.0
 10
-1.6137
 20
0.2641364135879372
 10
-1.611936364974083
 20
0.2829704465139727
 10
-1.606751511704867
 20
0.3009877695915921
 10
-1.598264162503864
 20
0.3176871236193687
 10
-1.586762081820198
 20
0.3327058168264297
 10
-1.572334216504073
 20
0.3458329216315078
 10
-1.555531011773787
 20
0.3566227751883285
 10
-1.536592122995972
 20
0.3648825286299582
 10
-1.516218768812365
 20
0.3703554263887667
 10
-1.495269173667179
 20
0.3728656934309105
 10
-1.474094230838911
 20
0.3724866673859467
 10
-1.453629789164232
 20
0.3692616031840335
 10
-1.43410889330017
 20
0.3633138451975204
 10
-1.415959740175033
 20
0.3546679792892715
 10
-1.399778864916453
 20
0.3435654454668263
 10
-1.385791477593056
 20
0.329935436271461
 10
-1.37466785837606
 20
0.3142850950760344
 10
-1.366760787391489
 20
0.2969184603571371
 10
-1.362286469384892
 20
0.2783254362726036
 10
-1.361300000774899
 20
0.2641237386693667
  0
LINE
  5
F6
330
D2
100
AcDbEntity
  8
AM_9
 48
0.0074943718478481
100
AcDbLine
 10
-1.7832
 20
-0.625
 30
0.0
 11
-0.1467999999999999
 21
-0.625
 31
0.0
  0
LINE
  5
F7
330
D2
100
AcDbEntity
  8
AM_9
 48
0.0074943718478481
100
AcDbLine
 10
-0.1468000000000001
 20
0.625
 30
0.0
 11
-1.3613
 21
0.625
 31
0.0
  0
LINE
  5
F8
330
D2
100
AcDbEntity
  8
AM_9
 48
0.0074943718478481
100
AcDbLine
 10
-1.6137
 20
0.625
 30
0.0
 11
-1.7832
 21
0.625
 31
0.0
  0
LWPOLYLINE
  5
F9
330
D2
100
AcDbEntity
  8
AM_9
 48
0.0074943718478481
100
AcDbPolyline
 90
       21
 70
     0
 43
0.0
 10
-1.613699999999463
 20
0.6249999999998914
 10
-1.612987979044199
 20
0.6248566178609276
 10
-1.609148645269547
 20
0.6240969098592911
 10
-1.601844046921747
 20
0.622714317377112
 10
-1.591611529702755
 20
0.6209168789919047
 10
-1.578209265664726
 20
0.6188107391419722
 10
-1.562428303467721
 20
0.6166950710525835
 10
-1.544018447249434
 20
0.6147299365408253
 10
-1.524469981318022
 20
0.6132416648586875
 10
-1.503228654931976
 20
0.612328302943747
 10
-1.482504634624366
 20
0.6121466439303871
 10
-1.461318449976847
 20
0.6126859175479838
 10
-1.441656122218056
 20
0.6138405502490738
 10
-1.42273586588837
 20
0.6155428117257394
 10
-1.405874593025417
 20
0.6175445466229673
 10
-1.390846405595611
 20
0.6197099945226703
 10
-1.378703512232197
 20
0.6217195796744782
 10
-1.369356992819948
 20
0.6234230747618713
 10
-1.363638296759365
 20
0.6245320500420063
 10
-1.361328164412498
 20
0.6249943136505479
 10
-1.361300000000869
 20
0.6249999999998244
  0
LINE
  5
FA
330
D2
100
AcDbEntity
  8
AM_9
 48
0.0074943718478481
100
AcDbLine
 10
-0.1468000000000001
 20
-0.625
 30
0.0
 11
-0.1099999999999999
 21
-0.6617999999999999
 31
0.0
  0
LINE
  5
FB
330
D2
100
AcDbEntity
  8
AM_9
 48
0.0074943718478481
100
AcDbLine
 10
-0.1099999999999999
 20
0.6617999999999999
 30
0.0
 11
-0.1468000000000001
 21
0.625
 31
0.0
  0
LINE
  5
FC
330
D2
100
AcDbEntity
  8
AM_9
 48
0.0074943718478481
100
AcDbLine
 10
-1.7832
 20
0.625
 30
0.0
 11
-1.82
 21
0.6618
 31
0.0
  0
LINE
  5
FD
330
D2
100
AcDbEntity
  8
AM_9
 48
0.0074943718478481
100
AcDbLine
 10
-1.82
 20
-0.6618000000000002
 30
0.0
 11
-1.7832
 21
-0.6250000000000001
 31
0.0
  0
LWPOLYLINE
  5
FE
330
D2
100
AcDbEntity
  8
AM_9
 48
0.0074943718478481
100
AcDbPolyline
 90
       39
 70
     0
 43
0.0
 10
-1.38618143700423
 20
0.2967472097038736
 10
-1.371539407875082
 20
0.311019106673256
 10
-1.359313964111616
 20
0.3270836084467044
 10
-1.348968825655715
 20
0.3468172119457446
 10
-1.342556210024947
 20
0.3677376922996832
 10
-1.340457260721422
 20
0.387693723485971
 10
-1.342132856383575
 20
0.407466153477761
 10
-1.347313477596074
 20
0.4257961619899712
 10
-1.355737401136482
 20
0.4429545820683971
 10
-1.367474486884716
 20
0.458923239733075
 10
-1.381919379660177
 20
0.4729617297451914
 10
-1.39986869736776
 20
0.4855391630696865
 10
-1.419897328290216
 20
0.4954913117443381
 10
-1.443037373595675
 20
0.5030607877537759
 10
-1.467323160109408
 20
0.5074018627848895
 10
-1.493193088122592
 20
0.5084002579014144
 10
-1.518905759595552
 20
0.5058240921040014
 10
-1.54402593934274
 20
0.4995678129653401
 10
-1.567508596106985
 20
0.4897643922191197
 10
-1.58825085965994
 20
0.4767581434641825
 10
-1.605973913522221
 20
0.4606780422470516
 10
-1.619295245365965
 20
0.4428629597315378
 10
-1.628724767186288
 20
0.4230128504219831
 10
-1.633520911342747
 20
0.4033434202993897
 10
-1.63440379892908
 20
0.3829955329770173
 10
-1.631534327338086
 20
0.3636922436842051
 10
-1.625238399453746
 20
0.3448981615657957
 10
-1.615649118395715
 20
0.3270455979044418
 10
-1.603172799736616
 20
0.3106832296297524
 10
-1.587239467721208
 20
0.2954474830670484
 10
-1.568993253454556
 20
0.2826540936674547
 10
-1.5473860853324
 20
0.2719923849529572
 10
-1.524278107339604
 20
0.2647003924754722
 10
-1.498961601745503
 20
0.2608901106546209
 10
-1.473334843220143
 20
0.2610909663534927
 10
-1.447555882858254
 20
0.2654884592704318
 10
-1.422917525169868
 20
0.273953647716123
 10
-1.403663235789157
 20
0.284087031085386
 10
-1.386181436964265
 20
0.2967472095649252
  0
LINE
  5
FF
330
D2
100
AcDbEntity
  8
AM_9
 48
0.0074943718478481
100
AcDbLine
 10
-1.28
 20
-0.92
 30
0.0
 11
-1.155
 21
-0.92
 31
0.0
  0
LINE
  5
100
330
D2
100
AcDbEntity
  8
AM_9
 48
0.0074943718478481
100
AcDbLine
 10
-1.155
 20
0.92
 30
0.0
 11
-1.28
 21
0.92
 31
0.0
  0
LINE
  5
101
330
D2
100
AcDbEntity
  8
AM_9
 48
0.0074943718478481
100
AcDbLine
 10
-0.405
 20
-0.9199999999999997
 30
0.0
 11
-0.1468000000000001
 21
-0.9199999999999997
 31
0.0
  0
LINE
  5
102
330
D2
100
AcDbEntity
  8
AM_9
 48
0.0074943718478481
100
AcDbLine
 10
-0.1468000000000001
 20
0.9199999999999997
 30
0.0
 11
-0.405
 21
0.9199999999999997
 31
0.0
  0
LINE
  5
103
330
D2
100
AcDbEntity
  8
AM_9
 48
0.0074943718478481
100
AcDbLine
 10
-0.1099999999999999
 20
0.8832000000000002
 30
0.0
 11
-0.1468000000000001
 21
0.92
 31
0.0
  0
LINE
  5
104
330
D2
100
AcDbEntity
  8
AM_9
 48
0.0074943718478481
100
AcDbLine
 10
-0.1468000000000001
 20
-0.92
 30
0.0
 11
-0.1099999999999999
 21
-0.8832000000000002
 31
0.0
  0
LINE
  5
105
330
D2
100
AcDbEntity
  8
AM_9
 48
0.0074943718478481
100
AcDbLine
 10
-0.1468000000000001
 20
0.92
 30
0.0
 11
-0.1468000000000001
 21
-0.92
 31
0.0
  0
LINE
  5
106
330
D2
100
AcDbEntity
  8
AM_9
 48
0.0074943718478481
100
AcDbLine
 10
-0.1099999999999999
 20
0.8832000000000002
 30
0.0
 11
-0.1099999999999999
 21
-0.8832000000000002
 31
0.0
  0
LINE
  5
107
330
D2
100
AcDbEntity
  8
AM_9
 48
0.0074943718478481
100
AcDbLine
 10
-1.02
 20
-1.350633333333333
 30
0.0
 11
-0.94
 21
-1.350633333333333
 31
0.0
  0
LINE
  5
108
330
D2
100
AcDbEntity
  8
AM_9
 48
0.0074943718478481
100
AcDbLine
 10
-0.94
 20
1.350633333333333
 30
0.0
 11
-1.02
 21
1.350633333333333
 31
0.0
  0
LINE
  5
109
330
D2
100
AcDbEntity
  8
AM_9
 48
0.0074943718478481
100
AcDbLine
 10
-0.405
 20
1.335937981344943
 30
0.0
 11
-0.405
 21
-1.335937981344943
 31
0.0
  0
ARC
  5
10A
330
D2
100
AcDbEntity
  8
AM_9
 48
0.0074943718478481
100
AcDbCircle
 10
-0.4449999999999992
 20
-1.335937981344943
 30
0.0
 40
0.0399999999999991
100
AcDbArc
 50
284.0772302633393
 51
0.0000000000009542
  0
ARC
  5
10B
330
D2
100
AcDbEntity
  8
AM_9
 48
0.0074943718478481
100
AcDbCircle
 10
-0.4449999999999993
 20
1.335937981344943
 30
0.0
 40
0.0399999999999993
100
AcDbArc
 50
359.9999999999991
 51
75.92276973666058
  0
LINE
  5
10C
330
D2
100
AcDbEntity
  8
AM_9
 48
0.0074943718478481
100
AcDbLine
 10
-1.155
 20
1.335937981344943
 30
0.0
 11
-1.155
 21
-1.335937981344943
 31
0.0
  0
ARC
  5
10D
330
D2
100
AcDbEntity
  8
AM_9
 48
0.0074943718478481
100
AcDbCircle
 10
-1.115
 20
-1.335937981344942
 30
0.0
 40
0.0400000000000003
100
AcDbArc
 50
180.0000000000003
 51
255.9227727932864
  0
ARC
  5
10E
330
D2
100
AcDbEntity
  8
AM_9
 48
0.0074943718478481
100
AcDbCircle
 10
-1.115
 20
1.335937981344942
 30
0.0
 40
0.0400000000000003
100
AcDbArc
 50
104.0772272067137
 51
179.9999999999997
  0
ARC
  5
10F
330
D2
100
AcDbEntity
  8
AM_9
 48
0.0074943718478481
100
AcDbCircle
 10
-0.7800000000106564
 20
0.0000000000504445
 30
0.0
 40
1.417299999948461
100
AcDbArc
 50
99.7492185248349
 51
104.0772272067916
  0
ARC
  5
110
330
D2
100
AcDbEntity
  8
AM_9
 48
0.0074943718478481
100
AcDbCircle
 10
-0.7799999999875787
 20
0.0000000000589411
 30
0.0
 40
1.417300000060149
100
AcDbArc
 50
255.9227727933788
 51
260.2507814749943
  0
LINE
  5
111
330
D2
100
AcDbEntity
  8
AM_9
 48
0.0074943718478481
100
AcDbLine
 10
-1.124729180280259
 20
1.374736731982983
 30
0.0
 11
-1.124729180280259
 21
-1.374736731982956
 31
0.0
  0
LINE
  5
112
330
D2
100
AcDbEntity
  8
AM_9
 48
0.0074943718478481
100
AcDbLine
 10
-1.02
 20
1.396831876068107
 30
0.0
 11
-1.02
 21
-1.39683187606808
 31
0.0
  0
ARC
  5
113
330
D2
100
AcDbEntity
  8
AM_9
 48
0.0074943718478481
100
AcDbCircle
 10
-0.780000000000011
 20
0.0000000000000973
 30
0.0
 40
1.417299999999902
100
AcDbArc
 50
92.26098410693464
 51
96.48197920051803
  0
ARC
  5
114
330
D2
100
AcDbEntity
  8
AM_9
 48
0.0074943718478481
100
AcDbCircle
 10
-0.7799999999999971
 20
-0.0000000000000391
 30
0.0
 40
1.417299999999961
100
AcDbArc
 50
263.5180207994817
 51
284.0772272929798
  0
ARC
  5
115
330
D2
100
AcDbEntity
  8
AM_9
 48
0.0074943718478481
100
AcDbCircle
 10
-0.7799999999999918
 20
0.0000000000000662
 30
0.0
 40
1.417299999999934
100
AcDbArc
 50
75.92277270702024
 51
92.05586797598416
  0
LINE
  5
116
330
D2
100
AcDbEntity
  8
AM_9
 48
0.0074943718478481
100
AcDbLine
 10
-0.94
 20
1.40823978426971
 30
0.0
 11
-0.94
 21
-1.40823978426971
 31
0.0
  0
LINE
  5
117
330
D2
100
AcDbEntity
  8
AM_9
 48
0.0074943718478481
100
AcDbLine
 10
-0.4352708176498979
 20
1.374736731463966
 30
0.0
 11
-0.4352708176498979
 21
-1.374736731463966
 31
0.0
  0
LINE
  5
119
330
D2
100
AcDbEntity
  8
AM_5
 48
0.0074943718478481
100
AcDbLine
 10
-1.33125
 20
0.625
 30
0.0
 11
-1.33125
 21
0.9199999999999999
 31
0.0
  0
LINE
  5
11A
330
D2
100
AcDbEntity
  8
AM_5
 48
0.0074943718478481
100
AcDbLine
 10
-1.64375
 20
0.6250000000000001
 30
0.0
 11
-1.64375
 21
0.9200000000000003
 31
0.0
  0
LINE
  5
11D
330
D2
100
AcDbEntity
  8
AM_7
 48
0.0074943718478481
100
AcDbLine
 10
-1.4875
 20
0.5115279744906983
 30
0.0
 11
-1.4875
 21
1.011769892345558
 31
0.0
  0
LINE
  5
11E
330
D2
100
AcDbEntity
  8
AM_0
 48
0.0074943718478481
100
AcDbLine
 10
-1.82
 20
-0.8832000000000002
 30
0.0
 11
-1.7832
 21
-0.92
 31
0.0
  0
LINE
  5
11F
330
D2
100
AcDbEntity
  8
AM_0
 48
0.0074943718478481
100
AcDbLine
 10
-1.7832
 20
0.92
 30
0.0
 11
-1.82
 21
0.8832000000000002
 31
0.0
  0
LINE
  5
120
330
D2
100
AcDbEntity
  8
AM_0
 48
0.0074943718478481
100
AcDbLine
 10
-1.82
 20
0.8832000000000002
 30
0.0
 11
-1.82
 21
-0.8832000000000002
 31
0.0
  0
LWPOLYLINE
  5
121
330
D2
100
AcDbEntity
  8
AM_0
 48
0.0074943718478481
100
AcDbPolyline
 90
       20
 70
     0
 43
0.0
 10
-1.340587895833631
 20
0.9199788556185367
 10
-1.343480879348765
 20
0.919584313833
 10
-1.35017294150792
 20
0.9187006675694531
 10
-1.359771796378336
 20
0.9175042519113455
 10
-1.372545338161938
 20
0.9160428703624454
 10
-1.388413702072807
 20
0.9144370388328252
 10
-1.407020047003139
 20
0.9128526242985224
 10
-1.428456855881007
 20
0.9114301986282086
 10
-1.451959314178339
 20
0.9103705056471606
 10
-1.476978311731361
 20
0.9098202896584235
 10
-1.50297882914705
 20
0.9098818545225538
 10
-1.52835738692642
 20
0.9105642964689193
 10
-1.55328707486616
 20
0.9118309531322556
 10
-1.575427014957256
 20
0.9134479240090743
 10
-1.595592100612283
 20
0.915319783058056
 10
-1.611214242966276
 20
0.9170288933573868
 10
-1.623571312991382
 20
0.9185393798904362
 10
-1.630891083370668
 20
0.9194996613942876
 10
-1.634364995150952
 20
0.9199723704584257
 10
-1.634565598766357
 20
0.9199999999999782
  0
LINE
  5
122
330
D2
100
AcDbEntity
  8
AM_0
 48
0.0074943718478481
100
AcDbLine
 10
-1.7832
 20
-0.92
 30
0.0
 11
-1.28
 21
-0.92
 31
0.0
  0
LINE
  5
123
330
D2
100
AcDbEntity
  8
AM_0
 48
0.0074943718478481
100
AcDbLine
 10
-1.28
 20
0.92
 30
0.0
 11
-1.340632108098585
 21
0.92
 31
0.0
  0
LINE
  5
124
330
D2
100
AcDbEntity
  8
AM_0
 48
0.0074943718478481
100
AcDbLine
 10
-1.634168313171032
 20
0.92
 30
0.0
 11
-1.7832
 21
0.92
 31
0.0
  0
LINE
  5
125
330
D2
100
AcDbEntity
  8
AM_0
 48
0.0074943718478481
100
AcDbLine
 10
-1.7832
 20
0.92
 30
0.0
 11
-1.7832
 21
-0.92
 31
0.0
  0
ENDBLK
  5
D5
330
D2
100
AcDbEntity
  8
0
100
AcDbBlockEnd
  0
BLOCK
  5
128
330
126
100
AcDbEntity
  8
0
100
AcDbBlockBegin
  2
3_136714H_0_in_136714_2
 70
     2
 10
0.0
 20
0.0
 30
0.0
  3
3_136714H_0_in_136714_2
  1

  0
ATTDEF
  5
12A
330
126
100
AcDbEntity
  8
AM_6
100
AcDbText
 10
5.06855
 20
3.154999999999999
 30
0.0
 40
0.5
  1
F2B-SCEZ-PSS -Inch - Housing
100
AcDbAttributeDefinition
  3

  2
NN
 70
     8
280
     0
  0
ATTDEF
  5
12B
330
126
100
AcDbEntity
  8
AM_6
100
AcDbText
 10
5.06855
 20
2.654999999999999
 30
0.0
 40
0.5
  1
SC 2 Bolt Flange Bearings -(Normal Duty) -Corrosion Resistant Insert -Polymer Housed -E-Z KLEEN
100
AcDbAttributeDefinition
  3

  2
NT
 70
     8
280
     0
  0
ATTDEF
  5
12C
330
126
100
AcDbEntity
  8
AM_6
100
AcDbText
 10
5.06855
 20
2.154999999999999
 30
0.0
 40
0.5
  1
136714H
100
AcDbAttributeDefinition
  3

  2
NB
 70
     8
280
     0
  0
ATTDEF
  5
12D
330
126
100
AcDbEntity
  8
AM_6
100
AcDbText
 10
5.06855
 20
1.654999999999999
 30
0.0
 40
0.5
  1
$PN.H
100
AcDbAttributeDefinition
  3

  2
NBSYN
 70
     8
280
     0
  0
ATTDEF
  5
12E
330
126
100
AcDbEntity
  8
AM_6
100
AcDbText
 10
5.06855
 20
1.154999999999999
 30
0.0
 40
0.5
  1
136714
100
AcDbAttributeDefinition
  3

  2
LINA
 70
     8
280
     0
  0
ATTDEF
  5
12F
330
126
100
AcDbEntity
  8
AM_6
100
AcDbText
 10
5.06855
 20
0.6549999999999994
 30
0.0
 40
0.5
  1
207
100
AcDbAttributeDefinition
  3

  2
SERIES
 70
     8
280
     0
  0
ATTDEF
  5
130
330
126
100
AcDbEntity
  8
AM_6
100
AcDbText
 10
5.06855
 20
0.1549999999999994
 30
0.0
 40
0.5
  1
1-1/4
100
AcDbAttributeDefinition
  3

  2
SS
 70
     8
280
     0
  0
ATTDEF
  5
131
330
126
100
AcDbEntity
  8
AM_6
100
AcDbText
 10
5.06855
 20
-0.3450000000000006
 30
0.0
 40
0.5
  1
136714
100
AcDbAttributeDefinition
  3

  2
PN
 70
     8
280
     0
  0
ATTDEF
  5
132
330
126
100
AcDbEntity
  8
AM_6
100
AcDbText
 10
5.06855
 20
-0.8450000000000006
 30
0.0
 40
0.5
  1
F2B-SCEZ-104-PSS
100
AcDbAttributeDefinition
  3

  2
DESCRIPTION
 70
     8
280
     0
  0
ATTDEF
  5
133
330
126
100
AcDbEntity
  8
AM_6
100
AcDbText
 10
5.06855
 20
-1.345000000000001
 30
0.0
 40
0.5
  1
1.36
100
AcDbAttributeDefinition
  3

  2
W
 70
     8
280
     0
  0
ATTDEF
  5
134
330
126
100
AcDbEntity
  8
AM_6
100
AcDbText
 10
5.06855
 20
-1.845000000000001
 30
0.0
 40
0.5
  1
1.71
100
AcDbAttributeDefinition
  3

  2
A
 70
     8
280
     0
  0
ATTDEF
  5
135
330
126
100
AcDbEntity
  8
AM_6
100
AcDbText
 10
5.06855
 20
-2.345000000000001
 30
0.0
 40
0.5
  1
6.31
100
AcDbAttributeDefinition
  3

  2
B
 70
     8
280
     0
  0
ATTDEF
  5
136
330
126
100
AcDbEntity
  8
AM_6
100
AcDbText
 10
5.06855
 20
-2.845000000000001
 30
0.0
 40
0.5
  1
1.82
100
AcDbAttributeDefinition
  3

  2
C
 70
     8
280
     0
  0
ATTDEF
  5
137
330
126
100
AcDbEntity
  8
AM_6
100
AcDbText
 10
5.06855
 20
-3.345000000000001
 30
0.0
 40
0.5
  1
5.12
100
AcDbAttributeDefinition
  3

  2
D
 70
     8
280
     0
  0
ATTDEF
  5
138
330
126
100
AcDbEntity
  8
AM_6
100
AcDbText
 10
5.06855
 20
-3.845000000000001
 30
0.0
 40
0.5
  1
1/2
100
AcDbAttributeDefinition
  3

  2
F
 70
     8
280
     0
  0
ATTDEF
  5
139
330
126
100
AcDbEntity
  8
AM_6
100
AcDbText
 10
5.06855
 20
-4.345000000000001
 30
0.0
 40
0.5
  1
0.62
100
AcDbAttributeDefinition
  3

  2
H
 70
     8
280
     0
  0
ATTDEF
  5
13A
330
126
100
AcDbEntity
  8
AM_6
100
AcDbText
 10
5.06855
 20
-4.845000000000001
 30
0.0
 40
0.5
  1
0.54
100
AcDbAttributeDefinition
  3

  2
J
 70
     8
280
     0
  0
ATTDEF
  5
13B
330
126
100
AcDbEntity
  8
AM_6
100
AcDbText
 10
5.06855
 20
-5.345000000000001
 30
0.0
 40
0.5
  1
1.84
100
AcDbAttributeDefinition
  3

  2
L
 70
     8
280
     0
  0
ATTDEF
  5
13C
330
126
100
AcDbEntity
  8
AM_6
100
AcDbText
 10
5.06855
 20
-5.845000000000001
 30
0.0
 40
0.5
  1
3.69
100
AcDbAttributeDefinition
  3

  2
M
 70
     8
280
     0
  0
ATTDEF
  5
13D
330
126
100
AcDbEntity
  8
AM_6
100
AcDbText
 10
5.06855
 20
-6.345000000000001
 30
0.0
 40
0.5
  1
3065
100
AcDbAttributeDefinition
  3

  2
CAPS
 70
     8
280
     0
  0
ATTDEF
  5
13E
330
126
100
AcDbEntity
  8
AM_6
100
AcDbText
 10
5.06855
 20
-6.845000000000001
 30
0.0
 40
0.5
  1
5759
100
AcDbAttributeDefinition
  3

  2
CAPD
 70
     8
280
     0
  0
ATTDEF
  5
13F
330
126
100
AcDbEntity
  8
AM_6
100
AcDbText
 10
5.06855
 20
-7.345000000000001
 30
0.0
 40
0.5
  1
baldor
100
AcDbAttributeDefinition
  3

  2
COMPANY
 70
     8
280
     0
  0
LINE
  5
140
330
126
100
AcDbEntity
  8
AM_9
 48
0.0167201953472511
100
AcDbLine
 10
-0.62
 20
-2.81
 30
0.0
 11
0.0
 21
-2.81
 31
0.0
  0
LINE
  5
141
330
126
100
AcDbEntity
  8
AM_9
 48
0.0167201953472511
100
AcDbLine
 10
0.0
 20
-2.31
 30
0.0
 11
-0.62
 21
-2.31
 31
0.0
  0
LINE
  5
142
330
126
100
AcDbEntity
  8
AM_9
 48
0.0167201953472511
100
AcDbLine
 10
-0.62
 20
2.31
 30
0.0
 11
0.0
 21
2.31
 31
0.0
  0
LINE
  5
143
330
126
100
AcDbEntity
  8
AM_9
 48
0.0167201953472511
100
AcDbLine
 10
0.0
 20
2.81
 30
0.0
 11
-0.62
 21
2.81
 31
0.0
  0
LINE
  5
144
330
126
100
AcDbEntity
  8
AM_9
 48
0.0167201953472511
100
AcDbLine
 10
-0.8320000000000001
 20
1.286356983888998
 30
0.0
 11
-0.8320000000000001
 21
1.4798
 31
0.0
  0
LINE
  5
145
330
126
100
AcDbEntity
  8
AM_9
 48
0.0167201953472511
100
AcDbLine
 10
-0.8320000000000001
 20
1.354910712925394
 30
0.0
 11
0.0
 21
1.354910712925394
 31
0.0
  0
LINE
  5
146
330
126
100
AcDbEntity
  8
AM_9
 48
0.0167201953472511
100
AcDbLine
 10
0.0
 20
1.4798
 30
0.0
 11
-0.8320000000000001
 21
1.4798
 31
0.0
  0
LINE
  5
147
330
126
100
AcDbEntity
  8
AM_9
 48
0.0167201953472511
100
AcDbLine
 10
-0.8320000000000001
 20
-1.354910712925394
 30
0.0
 11
0.0
 21
-1.354910712925394
 31
0.0
  0
LINE
  5
148
330
126
100
AcDbEntity
  8
AM_9
 48
0.0167201953472511
100
AcDbLine
 10
-0.8320000000000001
 20
-1.4798
 30
0.0
 11
0.0
 21
-1.4798
 31
0.0
  0
LINE
  5
149
330
126
100
AcDbEntity
  8
AM_9
 48
0.0167201953472511
100
AcDbLine
 10
-0.8320000000000001
 20
-1.4798
 30
0.0
 11
-0.8320000000000001
 21
-1.286356983888998
 31
0.0
  0
LINE
  5
14A
330
126
100
AcDbEntity
  8
AM_9
 48
0.0167201953472511
100
AcDbLine
 10
-0.8320000000000001
 20
1.286356983888998
 30
0.0
 11
0.0
 21
1.286356983888998
 31
0.0
  0
LINE
  5
14B
330
126
100
AcDbEntity
  8
AM_9
 48
0.0167201953472511
100
AcDbLine
 10
0.0
 20
-1.286356983888998
 30
0.0
 11
-0.8320000000000001
 21
-1.286356983888998
 31
0.0
  0
LINE
  5
14C
330
126
100
AcDbEntity
  8
AM_9
 48
0.0167201953472511
100
AcDbLine
 10
-1.28
 20
-1.4173
 30
0.0
 11
-0.8320000000000001
 21
-1.4173
 31
0.0
  0
LINE
  5
14D
330
126
100
AcDbEntity
  8
AM_9
 48
0.0167201953472511
100
AcDbLine
 10
-0.8320000000000001
 20
1.4173
 30
0.0
 11
-1.28
 21
1.4173
 31
0.0
  0
LINE
  5
14E
330
126
100
AcDbEntity
  8
AM_7
 48
0.0167201953472511
100
AcDbLine
 10
0.031
 20
2.56
 30
0.0
 11
-0.651
 21
2.56
 31
0.0
  0
LINE
  5
14F
330
126
100
AcDbEntity
  8
AM_7
 48
0.0167201953472511
100
AcDbLine
 10
0.031
 20
-2.56
 30
0.0
 11
-0.651
 21
-2.56
 31
0.0
  0
LINE
  5
150
330
126
100
AcDbEntity
  8
AM_7
 48
0.0167201953472511
100
AcDbLine
 10
0.06855
 20
0.0
 30
0.0
 11
-1.9055
 21
0.0
 31
0.0
  0
LINE
  5
151
330
126
100
AcDbEntity
  8
AM_0
 48
0.0167201953472511
100
AcDbLine
 10
-0.62
 20
1.845
 30
0.0
 11
-0.62
 21
3.154999999999999
 31
0.0
  0
LINE
  5
152
330
126
100
AcDbEntity
  8
AM_0
 48
0.0167201953472511
100
AcDbLine
 10
-0.62
 20
-3.154999999999999
 30
0.0
 11
-0.62
 21
-1.845
 31
0.0
  0
LINE
  5
153
330
126
100
AcDbEntity
  8
AM_0
 48
0.0167201953472511
100
AcDbLine
 10
-1.28
 20
-1.845
 30
0.0
 11
-0.5579999999999998
 21
-1.845
 31
0.0
  0
LINE
  5
154
330
126
100
AcDbEntity
  8
AM_0
 48
0.0167201953472511
100
AcDbLine
 10
-1.28
 20
-1.845
 30
0.0
 11
-1.28
 21
1.845
 31
0.0
  0
LINE
  5
155
330
126
100
AcDbEntity
  8
AM_0
 48
0.0167201953472511
100
AcDbLine
 10
-1.28
 20
1.845
 30
0.0
 11
-0.5579999999999998
 21
1.845
 31
0.0
  0
LINE
  5
156
330
126
100
AcDbEntity
  8
AM_0
 48
0.0167201953472511
100
AcDbLine
 10
0.0
 20
-3.154999999999999
 30
0.0
 11
0.0
 21
3.154999999999999
 31
0.0
  0
LINE
  5
157
330
126
100
AcDbEntity
  8
AM_0
 48
0.0167201953472511
100
AcDbLine
 10
-0.5579999999999999
 20
2.900917894166627
 30
0.0
 11
-0.62
 21
2.900917894166632
 31
0.0
  0
LINE
  5
158
330
126
100
AcDbEntity
  8
AM_0
 48
0.0167201953472511
100
AcDbLine
 10
-0.62
 20
3.154999999999999
 30
0.0
 11
0.0
 21
3.154999999999999
 31
0.0
  0
LINE
  5
159
330
126
100
AcDbEntity
  8
AM_0
 48
0.0167201953472511
100
AcDbLine
 10
-0.62
 20
-2.90091789416663
 30
0.0
 11
-0.5579999999999999
 21
-2.900917894166628
 31
0.0
  0
LINE
  5
15A
330
126
100
AcDbEntity
  8
AM_0
 48
0.0167201953472511
100
AcDbLine
 10
-0.62
 20
-3.154999999999999
 30
0.0
 11
0.0
 21
-3.154999999999999
 31
0.0
  0
LINE
  5
15B
330
126
100
AcDbEntity
  8
AM_4
 48
0.0167201953472511
100
AcDbLine
 10
-1.28
 20
-0.8550209204105318
 30
0.0
 11
-0.5579999999999997
 21
-0.8550209204105318
 31
0.0
  0
LINE
  5
15C
330
126
100
AcDbEntity
  8
AM_4
 48
0.0167201953472511
100
AcDbLine
 10
-0.5579999999999998
 20
-0.8361597729247133
 30
0.0
 11
0.0000000000000001
 21
-0.8361597729247133
 31
0.0
  0
LINE
  5
15D
330
126
100
AcDbEntity
  8
AM_4
 48
0.0167201953472511
100
AcDbLine
 10
-0.5579999999999998
 20
0.8361597729247127
 30
0.0
 11
0.0000000000000001
 21
0.8361597729247127
 31
0.0
  0
LINE
  5
15E
330
126
100
AcDbEntity
  8
AM_4
 48
0.0167201953472511
100
AcDbLine
 10
-1.28
 20
0.8550209204105308
 30
0.0
 11
-0.5579999999999997
 21
0.8550209204105308
 31
0.0
  0
LINE
  5
15F
330
126
100
AcDbEntity
  8
AM_0
 48
0.0167201953472511
100
AcDbLine
 10
-0.5579999999999997
 20
0.635817818242701
 30
0.0
 11
-0.5579999999999999
 21
2.900917894166627
 31
0.0
  0
LINE
  5
160
330
126
100
AcDbEntity
  8
AM_4
 48
0.0167201953472511
100
AcDbLine
 10
-0.5579999999999998
 20
0.6811597729247154
 30
0.0
 11
0.0000000000000001
 21
0.6811597729247125
 31
0.0
  0
LINE
  5
161
330
126
100
AcDbEntity
  8
AM_4
 48
0.0167201953472511
100
AcDbLine
 10
-1.28
 20
0.635817818242701
 30
0.0
 11
-0.5579999999999997
 21
0.635817818242701
 31
0.0
  0
LINE
  5
162
330
126
100
AcDbEntity
  8
AM_4
 48
0.0167201953472511
100
AcDbLine
 10
-1.28
 20
-0.6358178182427021
 30
0.0
 11
-0.5579999999999997
 21
-0.6358178182427021
 31
0.0
  0
LINE
  5
163
330
126
100
AcDbEntity
  8
AM_0
 48
0.0167201953472511
100
AcDbLine
 10
-0.5579999999999999
 20
-2.900917894166628
 30
0.0
 11
-0.5579999999999997
 21
-0.6358178182427021
 31
0.0
  0
LINE
  5
164
330
126
100
AcDbEntity
  8
AM_4
 48
0.0167201953472511
100
AcDbLine
 10
-0.5579999999999998
 20
-0.6811597729247122
 30
0.0
 11
0.0000000000000001
 21
-0.6811597729247122
 31
0.0
  0
ENDBLK
  5
129
330
126
100
AcDbEntity
  8
0
100
AcDbBlockEnd
  0
ENDSEC
  0
SECTION
  2
ENTITIES
  0
ATTDEF
  5
6F
330
1F
100
AcDbEntity
  8
AM_6
100
AcDbText
 10
5.06855
 20
3.154999999999999
 30
0.0
 40
0.5
  1
Set Screw Two-Bolt Flange Inch Bore - Polymer Housing, Stainless Steel Insert
100
AcDbAttributeDefinition
  3

  2
NN
 70
     8
280
     0
  0
ATTDEF
  5
70
330
1F
100
AcDbEntity
  8
AM_6
100
AcDbText
 10
5.06855
 20
2.654999999999999
 30
0.0
 40
0.5
  1
SC 2 Bolt Flange Bearings -(Normal Duty) -Corrosion Resistant Insert -Polymer Housed -E-Z KLEEN
100
AcDbAttributeDefinition
  3

  2
NT
 70
     8
280
     0
  0
ATTDEF
  5
71
330
1F
100
AcDbEntity
  8
AM_6
100
AcDbText
 10
5.06855
 20
2.154999999999999
 30
0.0
 40
0.5
  1
136714
100
AcDbAttributeDefinition
  3

  2
NB
 70
     8
280
     0
  0
ATTDEF
  5
72
330
1F
100
AcDbEntity
  8
AM_6
100
AcDbText
 10
5.06855
 20
1.654999999999999
 30
0.0
 40
0.5
  1
$PN.
100
AcDbAttributeDefinition
  3

  2
NBSYN
 70
     8
280
     0
  0
ATTDEF
  5
73
330
1F
100
AcDbEntity
  8
AM_6
100
AcDbText
 10
5.06855
 20
1.154999999999999
 30
0.0
 40
0.5
  1
136714
100
AcDbAttributeDefinition
  3

  2
LINA
 70
     8
280
     0
  0
ATTDEF
  5
74
330
1F
100
AcDbEntity
  8
AM_6
100
AcDbText
 10
5.06855
 20
0.6549999999999994
 30
0.0
 40
0.5
  1
207
100
AcDbAttributeDefinition
  3

  2
SERIES
 70
     8
280
     0
  0
ATTDEF
  5
75
330
1F
100
AcDbEntity
  8
AM_6
100
AcDbText
 10
5.06855
 20
0.1549999999999994
 30
0.0
 40
0.5
  1
1-1/4
100
AcDbAttributeDefinition
  3

  2
SS
 70
     8
280
     0
  0
ATTDEF
  5
76
330
1F
100
AcDbEntity
  8
AM_6
100
AcDbText
 10
5.06855
 20
-0.3450000000000006
 30
0.0
 40
0.5
  1
136714
100
AcDbAttributeDefinition
  3

  2
PN
 70
     8
280
     0
  0
ATTDEF
  5
77
330
1F
100
AcDbEntity
  8
AM_6
100
AcDbText
 10
5.06855
 20
-0.8450000000000006
 30
0.0
 40
0.5
  1
F2B-SCEZ-104-PSS
100
AcDbAttributeDefinition
  3

  2
DESCRIPTION
 70
     8
280
     0
  0
ATTDEF
  5
78
330
1F
100
AcDbEntity
  8
AM_6
100
AcDbText
 10
5.06855
 20
-1.345000000000001
 30
0.0
 40
0.5
  1
1.36
100
AcDbAttributeDefinition
  3

  2
W
 70
     8
280
     0
  0
ATTDEF
  5
79
330
1F
100
AcDbEntity
  8
AM_6
100
AcDbText
 10
5.06855
 20
-1.845000000000001
 30
0.0
 40
0.5
  1
1.71
100
AcDbAttributeDefinition
  3

  2
A
 70
     8
280
     0
  0
ATTDEF
  5
7A
330
1F
100
AcDbEntity
  8
AM_6
100
AcDbText
 10
5.06855
 20
-2.345000000000001
 30
0.0
 40
0.5
  1
6.31
100
AcDbAttributeDefinition
  3

  2
B
 70
     8
280
     0
  0
ATTDEF
  5
7B
330
1F
100
AcDbEntity
  8
AM_6
100
AcDbText
 10
5.06855
 20
-2.845000000000001
 30
0.0
 40
0.5
  1
1.82
100
AcDbAttributeDefinition
  3

  2
C
 70
     8
280
     0
  0
ATTDEF
  5
7C
330
1F
100
AcDbEntity
  8
AM_6
100
AcDbText
 10
5.06855
 20
-3.345000000000001
 30
0.0
 40
0.5
  1
5.12
100
AcDbAttributeDefinition
  3

  2
D
 70
     8
280
     0
  0
ATTDEF
  5
7D
330
1F
100
AcDbEntity
  8
AM_6
100
AcDbText
 10
5.06855
 20
-3.845000000000001
 30
0.0
 40
0.5
  1
1/2
100
AcDbAttributeDefinition
  3

  2
F
 70
     8
280
     0
  0
ATTDEF
  5
7E
330
1F
100
AcDbEntity
  8
AM_6
100
AcDbText
 10
5.06855
 20
-4.345000000000001
 30
0.0
 40
0.5
  1
0.62
100
AcDbAttributeDefinition
  3

  2
H
 70
     8
280
     0
  0
ATTDEF
  5
7F
330
1F
100
AcDbEntity
  8
AM_6
100
AcDbText
 10
5.06855
 20
-4.845000000000001
 30
0.0
 40
0.5
  1
0.54
100
AcDbAttributeDefinition
  3

  2
J
 70
     8
280
     0
  0
ATTDEF
  5
80
330
1F
100
AcDbEntity
  8
AM_6
100
AcDbText
 10
5.06855
 20
-5.345000000000001
 30
0.0
 40
0.5
  1
1.84
100
AcDbAttributeDefinition
  3

  2
L
 70
     8
280
     0
  0
ATTDEF
  5
81
330
1F
100
AcDbEntity
  8
AM_6
100
AcDbText
 10
5.06855
 20
-5.845000000000001
 30
0.0
 40
0.5
  1
3.69
100
AcDbAttributeDefinition
  3

  2
M
 70
     8
280
     0
  0
ATTDEF
  5
82
330
1F
100
AcDbEntity
  8
AM_6
100
AcDbText
 10
5.06855
 20
-6.345000000000001
 30
0.0
 40
0.5
  1
baldor
100
AcDbAttributeDefinition
  3

  2
COMPANY
 70
     8
280
     0
  0
INSERT
  5
84
330
1F
100
AcDbEntity
  8
0
100
AcDbBlockReference
  2
1_405020c_Inch_0_in_136714_2
 10
0.0
 20
0.0
 30
0.0
  0
INSERT
  5
D3
330
1F
100
AcDbEntity
  8
0
100
AcDbBlockReference
  2
2_127822_0_in_136714_2
 10
0.0
 20
0.0
 30
0.0
  0
INSERT
  5
127
330
1F
100
AcDbEntity
  8
0
100
AcDbBlockReference
  2
3_136714H_0_in_136714_2
 10
0.0
 20
0.0
 30
0.0
  0
POINT
  5
166
330
1F
100
AcDbEntity
  8
ConnectionPoints
100
AcDbPoint
 10
-0.11
 20
0.0
 30
0.0
  0
POINT
  5
167
330
1F
100
AcDbEntity
  8
ConnectionPoints
100
AcDbPoint
 10
-1.82
 20
0.0
 30
0.0000000000000001
  0
POINT
  5
168
330
1F
100
AcDbEntity
  8
ConnectionPoints
100
AcDbPoint
 10
-0.9499999999999998
 20
1.30461201128918
 30
1.30461201128918
  0
POINT
  5
169
330
1F
100
AcDbEntity
  8
ConnectionPoints
100
AcDbPoint
 10
-1.82
 20
0.0
 30
0.0000000000000001
  0
ENDSEC
  0
SECTION
  2
OBJECTS
  0
DICTIONARY
  5
C
330
0
100
AcDbDictionary
281
     1
  3
ACAD_DETAILVIEWSTYLE
350
171
  3
ACAD_GROUP
350
D
  3
ACAD_LAYOUT
350
1A
  3
ACAD_MATERIAL
350
43
  3
ACAD_MLEADERSTYLE
350
6B
  3
ACAD_MLINESTYLE
350
17
  3
ACAD_PLOTSETTINGS
350
19
  3
ACAD_PLOTSTYLENAME
350
E
  3
ACAD_SCALELIST
350
47
  3
ACAD_SECTIONVIEWSTYLE
350
172
  3
ACAD_TABLESTYLE
350
69
  3
ACAD_VISUALSTYLE
350
2A
  3
ACDB_RECOMPOSE_DATA
350
16E
  3
AcDbVariableDictionary
350
16A
  0
SUN
  5
6D
330
29
100
AcDbSun
 90
        1
290
     0
 63
     7
421
 16777215
 40
1.0
291
     1
 91
  2455826
 92
 54000000
292
     0
 70
     2
 71
   256
280
     1
  0
DICTIONARY
  5
171
102
{ACAD_REACTORS
330
C
102
}
330
C
100
AcDbDictionary
281
     1
  0
DICTIONARY
  5
D
102
{ACAD_REACTORS
330
C
102
}
330
C
100
AcDbDictionary
281
     1
  0
DICTIONARY
  5
1A
102
{ACAD_REACTORS
330
C
102
}
330
C
100
AcDbDictionary
281
     1
  3
Layout1
350
1E
  3
Layout2
350
26
  3
Model
350
22
  0
DICTIONARY
  5
43
102
{ACAD_REACTORS
330
C
102
}
330
C
100
AcDbDictionary
281
     1
  3
ByBlock
350
45
  3
ByLayer
350
44
  3
Global
350
46
  0
DICTIONARY
  5
6B
102
{ACAD_REACTORS
330
C
102
}
330
C
100
AcDbDictionary
281
     1
  3
Standard
350
6C
  0
DICTIONARY
  5
17
102
{ACAD_REACTORS
330
C
102
}
330
C
100
AcDbDictionary
281
     1
  3
Standard
350
18
  0
DICTIONARY
  5
19
102
{ACAD_REACTORS
330
C
102
}
330
C
100
AcDbDictionary
281
     1
  0
ACDBDICTIONARYWDFLT
  5
E
102
{ACAD_REACTORS
330
C
102
}
330
C
100
AcDbDictionary
281
     1
  3
Normal
350
F
100
AcDbDictionaryWithDefault
340
F
  0
DICTIONARY
  5
47
102
{ACAD_REACTORS
330
C
102
}
330
C
100
AcDbDictionary
281
     1
  3
A0
350
48
  3
A1
350
49
  3
A2
350
4A
  3
A3
350
4B
  3
A4
350
4C
  3
A5
350
4D
  3
A6
350
4E
  3
A7
350
4F
  3
A8
350
50
  3
A9
350
51
  3
B0
350
52
  3
B1
350
53
  3
B2
350
54
  3
B3
350
55
  3
B4
350
56
  3
B5
350
57
  3
B6
350
58
  3
B7
350
59
  3
B8
350
5A
  3
B9
350
5B
  3
C0
350
5C
  3
C1
350
5D
  3
C2
350
5E
  3
C3
350
5F
  3
C4
350
60
  3
C5
350
61
  3
C6
350
62
  3
C7
350
63
  3
C8
350
64
  3
C9
350
65
  3
D0
350
66
  3
D1
350
67
  3
D2
350
68
  0
DICTIONARY
  5
172
102
{ACAD_REACTORS
330
C
102
}
330
C
100
AcDbDictionary
281
     1
  0
DICTIONARY
  5
69
102
{ACAD_REACTORS
330
C
102
}
330
C
100
AcDbDictionary
281
     1
  3
Standard
350
6A
  0
DICTIONARY
  5
2A
102
{ACAD_REACTORS
330
C
102
}
330
C
100
AcDbDictionary
281
     1
  3
2dWireframe
350
2F
  3
Basic
350
32
  3
Brighten
350
36
  3
ColorChange
350
3A
  3
Conceptual
350
34
  3
Dim
350
35
  3
EdgeColorOff
350
3D
  3
Facepattern
350
39
  3
Flat
350
2B
  3
FlatWithEdges
350
2C
  3
Gouraud
350
2D
  3
GouraudWithEdges
350
2E
  3
Hidden
350
31
  3
JitterOff
350
3B
  3
Linepattern
350
38
  3
OverhangOff
350
3C
  3
Realistic
350
33
  3
Shaded
350
42
  3
Shaded with edges
350
41
  3
Shades of Gray
350
3E
  3
Sketchy
350
3F
  3
Thicken
350
37
  3
Wireframe
350
30
  3
X-Ray
350
40
  0
XRECORD
  5
16E
102
{ACAD_REACTORS
330
C
102
}
330
C
100
AcDbXrecord
280
     1
 90
        1
330
6A
  0
DICTIONARY
  5
16A
102
{ACAD_REACTORS
330
C
102
}
330
C
100
AcDbDictionary
281
     1
  3
CANNOSCALE
350
16B
  3
CMLEADERSTYLE
350
170
  3
CTABLESTYLE
350
16F
  0
LAYOUT
  5
1E
102
{ACAD_REACTORS
330
1A
102
}
330
1A
100
AcDbPlotSettings
  1

  2
none_device
  4

  6

 40
0.0
 41
0.0
 42
0.0
 43
0.0
 44
0.0
 45
0.0
 46
0.0
 47
0.0
 48
0.0
 49
0.0
140
0.0
141
0.0
142
1.0
143
1.0
 70
   688
 72
     0
 73
     0
 74
     5
  7

 75
    16
 76
     0
 77
     2
 78
   300
147
1.0
148
0.0
149
0.0
100
AcDbLayout
  1
Layout1
 70
     1
 71
     1
 10
0.0
 20
0.0
 11
12.0
 21
9.0
 12
0.0
 22
0.0
 32
0.0
 14
1.000000000000000E+20
 24
1.000000000000000E+20
 34
1.000000000000000E+20
 15
-1.000000000000000E+20
 25
-1.000000000000000E+20
 35
-1.000000000000000E+20
146
0.0
 13
0.0
 23
0.0
 33
0.0
 16
1.0
 26
0.0
 36
0.0
 17
0.0
 27
1.0
 37
0.0
 76
     0
330
1B
  0
LAYOUT
  5
26
102
{ACAD_REACTORS
330
1A
102
}
330
1A
100
AcDbPlotSettings
  1

  2
none_device
  4

  6

 40
0.0
 41
0.0
 42
0.0
 43
0.0
 44
0.0
 45
0.0
 46
0.0
 47
0.0
 48
0.0
 49
0.0
140
0.0
141
0.0
142
1.0
143
1.0
 70
   688
 72
     0
 73
     0
 74
     5
  7

 75
    16
 76
     0
 77
     2
 78
   300
147
1.0
148
0.0
149
0.0
100
AcDbLayout
  1
Layout2
 70
     1
 71
     2
 10
0.0
 20
0.0
 11
0.0
 21
0.0
 12
0.0
 22
0.0
 32
0.0
 14
0.0
 24
0.0
 34
0.0
 15
0.0
 25
0.0
 35
0.0
146
0.0
 13
0.0
 23
0.0
 33
0.0
 16
1.0
 26
0.0
 36
0.0
 17
0.0
 27
1.0
 37
0.0
 76
     0
330
23
  0
LAYOUT
  5
22
102
{ACAD_REACTORS
330
1A
102
}
330
1A
100
AcDbPlotSettings
  1

  2
none_device
  4
Letter_(8.50_x_11.00_Inches)
  6

 40
6.35
 41
6.35
 42
6.35000508
 43
6.35000508
 44
215.9
 45
279.4
 46
0.0
 47
0.0
 48
0.0
 49
0.0
140
0.0
141
0.0
142
1.0
143
1.0
 70
  1712
 72
     0
 73
     0
 74
     0
  7

 75
     0
 76
     0
 77
     2
 78
   300
147
1.0
148
0.0
149
0.0
100
AcDbLayout
  1
Model
 70
     1
 71
     0
 10
0.0
 20
0.0
 11
12.0
 21
9.0
 12
0.0
 22
0.0
 32
0.0
 14
1.000000000000000E+20
 24
1.000000000000000E+20
 34
1.000000000000000E+20
 15
-1.000000000000000E+20
 25
-1.000000000000000E+20
 35
-1.000000000000000E+20
146
0.0
 13
0.0
 23
0.0
 33
0.0
 16
1.0
 26
0.0
 36
0.0
 17
0.0
 27
1.0
 37
0.0
 76
     0
330
1F
331
29
  0
MATERIAL
  5
45
102
{ACAD_REACTORS
330
43
102
}
330
43
100
AcDbMaterial
  1
ByBlock
 72
     1
 94
      127
  0
MATERIAL
  5
44
102
{ACAD_REACTORS
330
43
102
}
330
43
100
AcDbMaterial
  1
ByLayer
 72
     1
 94
      127
  0
MATERIAL
  5
46
102
{ACAD_REACTORS
330
43
102
}
330
43
100
AcDbMaterial
  1
Global
 72
     1
 94
      127
  0
MLEADERSTYLE
  5
6C
102
{ACAD_REACTORS
330
6B
102
}
330
6B
100
AcDbMLeaderStyle
179
     2
170
     2
171
     1
172
     0
 90
        2
 40
0.0
 41
0.0
173
     1
 91
-1056964608
340
14
 92
       -2
290
     1
 42
0.09
291
     1
 43
0.36
  3
Standard
341
0
 44
0.18
300

342
11
174
     1
178
     6
175
     1
176
     0
 93
-1056964608
 45
0.18
292
     0
297
     0
 46
0.18
343
0
 94
-1056964608
 47
1.0
 49
1.0
140
1.0
293
     1
141
0.0
294
     1
177
     0
142
1.0
295
     0
296
     0
143
0.125
271
     0
272
     9
273
     9
298
     0
  0
MLINESTYLE
  5
18
102
{ACAD_REACTORS
330
17
102
}
330
17
100
AcDbMlineStyle
  2
Standard
 70
     0
  3

 62
   256
 51
90.0
 52
90.0
 71
     2
 49
0.5
 62
   256
  6
BYLAYER
 49
-0.5
 62
   256
  6
BYLAYER
  0
ACDBPLACEHOLDER
  5
F
102
{ACAD_REACTORS
330
E
102
}
330
E
  0
SCALE
  5
48
102
{ACAD_REACTORS
330
47
102
}
330
47
100
AcDbScale
 70
     0
300
1:1
140
1.0
141
1.0
290
     1
  0
SCALE
  5
49
102
{ACAD_REACTORS
330
47
102
}
330
47
100
AcDbScale
 70
     0
300
1:2
140
1.0
141
2.0
290
     0
  0
SCALE
  5
4A
102
{ACAD_REACTORS
330
47
102
}
330
47
100
AcDbScale
 70
     0
300
1:4
140
1.0
141
4.0
290
     0
  0
SCALE
  5
4B
102
{ACAD_REACTORS
330
47
102
}
330
47
100
AcDbScale
 70
     0
300
1:5
140
1.0
141
5.0
290
     0
  0
SCALE
  5
4C
102
{ACAD_REACTORS
330
47
102
}
330
47
100
AcDbScale
 70
     0
300
1:8
140
1.0
141
8.0
290
     0
  0
SCALE
  5
4D
102
{ACAD_REACTORS
330
47
102
}
330
47
100
AcDbScale
 70
     0
300
1:10
140
1.0
141
10.0
290
     0
  0
SCALE
  5
4E
102
{ACAD_REACTORS
330
47
102
}
330
47
100
AcDbScale
 70
     0
300
1:16
140
1.0
141
16.0
290
     0
  0
SCALE
  5
4F
102
{ACAD_REACTORS
330
47
102
}
330
47
100
AcDbScale
 70
     0
300
1:20
140
1.0
141
20.0
290
     0
  0
SCALE
  5
50
102
{ACAD_REACTORS
330
47
102
}
330
47
100
AcDbScale
 70
     0
300
1:30
140
1.0
141
30.0
290
     0
  0
SCALE
  5
51
102
{ACAD_REACTORS
330
47
102
}
330
47
100
AcDbScale
 70
     0
300
1:40
140
1.0
141
40.0
290
     0
  0
SCALE
  5
52
102
{ACAD_REACTORS
330
47
102
}
330
47
100
AcDbScale
 70
     0
300
1:50
140
1.0
141
50.0
290
     0
  0
SCALE
  5
53
102
{ACAD_REACTORS
330
47
102
}
330
47
100
AcDbScale
 70
     0
300
1:100
140
1.0
141
100.0
290
     0
  0
SCALE
  5
54
102
{ACAD_REACTORS
330
47
102
}
330
47
100
AcDbScale
 70
     0
300
2:1
140
2.0
141
1.0
290
     0
  0
SCALE
  5
55
102
{ACAD_REACTORS
330
47
102
}
330
47
100
AcDbScale
 70
     0
300
4:1
140
4.0
141
1.0
290
     0
  0
SCALE
  5
56
102
{ACAD_REACTORS
330
47
102
}
330
47
100
AcDbScale
 70
     0
300
8:1
140
8.0
141
1.0
290
     0
  0
SCALE
  5
57
102
{ACAD_REACTORS
330
47
102
}
330
47
100
AcDbScale
 70
     0
300
10:1
140
10.0
141
1.0
290
     0
  0
SCALE
  5
58
102
{ACAD_REACTORS
330
47
102
}
330
47
100
AcDbScale
 70
     0
300
100:1
140
100.0
141
1.0
290
     0
  0
SCALE
  5
59
102
{ACAD_REACTORS
330
47
102
}
330
47
100
AcDbScale
 70
     0
300
1/128" = 1'-0"
140
0.0078125
141
12.0
290
     0
  0
SCALE
  5
5A
102
{ACAD_REACTORS
330
47
102
}
330
47
100
AcDbScale
 70
     0
300
1/64" = 1'-0"
140
0.015625
141
12.0
290
     0
  0
SCALE
  5
5B
102
{ACAD_REACTORS
330
47
102
}
330
47
100
AcDbScale
 70
     0
300
1/32" = 1'-0"
140
0.03125
141
12.0
290
     0
  0
SCALE
  5
5C
102
{ACAD_REACTORS
330
47
102
}
330
47
100
AcDbScale
 70
     0
300
1/16" = 1'-0"
140
0.0625
141
12.0
290
     0
  0
SCALE
  5
5D
102
{ACAD_REACTORS
330
47
102
}
330
47
100
AcDbScale
 70
     0
300
3/32" = 1'-0"
140
0.09375
141
12.0
290
     0
  0
SCALE
  5
5E
102
{ACAD_REACTORS
330
47
102
}
330
47
100
AcDbScale
 70
     0
300
1/8" = 1'-0"
140
0.125
141
12.0
290
     0
  0
SCALE
  5
5F
102
{ACAD_REACTORS
330
47
102
}
330
47
100
AcDbScale
 70
     0
300
3/16" = 1'-0"
140
0.1875
141
12.0
290
     0
  0
SCALE
  5
60
102
{ACAD_REACTORS
330
47
102
}
330
47
100
AcDbScale
 70
     0
300
1/4" = 1'-0"
140
0.25
141
12.0
290
     0
  0
SCALE
  5
61
102
{ACAD_REACTORS
330
47
102
}
330
47
100
AcDbScale
 70
     0
300
3/8" = 1'-0"
140
0.375
141
12.0
290
     0
  0
SCALE
  5
62
102
{ACAD_REACTORS
330
47
102
}
330
47
100
AcDbScale
 70
     0
300
1/2" = 1'-0"
140
0.5
141
12.0
290
     0
  0
SCALE
  5
63
102
{ACAD_REACTORS
330
47
102
}
330
47
100
AcDbScale
 70
     0
300
3/4" = 1'-0"
140
0.75
141
12.0
290
     0
  0
SCALE
  5
64
102
{ACAD_REACTORS
330
47
102
}
330
47
100
AcDbScale
 70
     0
300
1" = 1'-0"
140
1.0
141
12.0
290
     0
  0
SCALE
  5
65
102
{ACAD_REACTORS
330
47
102
}
330
47
100
AcDbScale
 70
     0
300
1-1/2" = 1'-0"
140
1.5
141
12.0
290
     0
  0
SCALE
  5
66
102
{ACAD_REACTORS
330
47
102
}
330
47
100
AcDbScale
 70
     0
300
3" = 1'-0"
140
3.0
141
12.0
290
     0
  0
SCALE
  5
67
102
{ACAD_REACTORS
330
47
102
}
330
47
100
AcDbScale
 70
     0
300
6" = 1'-0"
140
6.0
141
12.0
290
     0
  0
SCALE
  5
68
102
{ACAD_REACTORS
330
47
102
}
330
47
100
AcDbScale
 70
     0
300
1'-0" = 1'-0"
140
12.0
141
12.0
290
     0
  0
TABLESTYLE
  5
6A
102
{ACAD_REACTORS
330
69
102
}
102
{ACAD_XDICTIONARY
360
16C
102
}
330
69
100
AcDbTableStyle
  3
Standard
 70
     0
 71
     0
 40
0.06
 41
0.06
280
     0
281
     0
  7
Standard
140
0.18
170
     2
 62
     0
 63
   257
283
     0
 90
        4
 91
        0
  1

274
    -2
284
     1
 64
     0
275
    -2
285
     1
 65
     0
276
    -2
286
     1
 66
     0
277
    -2
287
     1
 67
     0
278
    -2
288
     1
 68
     0
279
    -2
289
     1
 69
     0
  7
Standard
140
0.25
170
     5
 62
     0
 63
   257
283
     0
 90
        4
 91
        0
  1

274
    -2
284
     1
 64
     0
275
    -2
285
     1
 65
     0
276
    -2
286
     1
 66
     0
277
    -2
287
     1
 67
     0
278
    -2
288
     1
 68
     0
279
    -2
289
     1
 69
     0
  7
Standard
140
0.18
170
     5
 62
     0
 63
   257
283
     0
 90
        4
 91
        0
  1

274
    -2
284
     1
 64
     0
275
    -2
285
     1
 65
     0
276
    -2
286
     1
 66
     0
277
    -2
287
     1
 67
     0
278
    -2
288
     1
 68
     0
279
    -2
289
     1
 69
     0
  0
VISUALSTYLE
  5
2F
102
{ACAD_REACTORS
330
2A
102
}
330
2A
100
AcDbVisualStyle
  2
2dWireframe
 70
     4
177
     3
291
     0
 70
    58
 90
        0
176
     1
 90
        2
176
     1
 90
        0
176
     1
 90
        0
176
     1
 40
0.6
176
     1
 40
30.0
176
     1
 62
     7
420
 16777215
176
     1
 90
        1
176
     1
 90
        4
176
     1
 62
     7
176
     1
 62
   257
176
     1
 90
        1
176
     1
 90
        1
176
     1
 40
1.0
176
     1
 90
        0
176
     1
 62
   257
176
     1
 40
1.0
176
     1
 90
        1
176
     1
 90
        6
176
     1
 90
        2
176
     1
 62
     7
176
     1
 90
        5
176
     1
 90
        0
176
     1
 90
        0
176
     1
290
     0
176
     1
 90
        1
176
     1
 40
0.0
176
     1
 90
        0
176
     1
290
     1
176
     1
290
     1
176
     1
290
     0
176
     1
290
     0
176
     1
290
     0
176
     1
290
     0
176
     1
290
     0
176
     1
290
     0
176
     1
290
     0
176
     1
 90
       50
176
     1
 40
0.0
176
     1
 40
1.0
176
     1
 90
        0
176
     1
 62
    18
420
        0
176
     1
 90
       50
176
     1
 90
        3
176
     1
 62
     5
420
      255
176
     1
290
     0
176
     1
 90
       50
176
     1
 90
       50
176
     1
 90
       50
176
     1
290
     0
176
     1
 90
       50
176
     1
 62
   256
176
     0
 40
1.0
176
     0
 90
        2
176
     1
  1
strokes_ogs.tif
176
     1
290
     0
176
     1
 40
1.0
176
     1
 40
1.0
176
     1
  0
VISUALSTYLE
  5
32
102
{ACAD_REACTORS
330
2A
102
}
330
2A
100
AcDbVisualStyle
  2
Basic
 70
     7
177
     3
291
     1
 70
    58
 90
        1
176
     1
 90
        0
176
     1
 90
        1
176
     1
 90
        0
176
     1
 40
0.6
176
     1
 40
30.0
176
     1
 62
     7
420
 16777215
176
     1
 90
        0
176
     1
 90
        4
176
     1
 62
     7
176
     1
 62
   257
176
     1
 90
        1
176
     1
 90
        1
176
     1
 40
1.0
176
     1
 90
        8
176
     1
 62
     7
176
     1
 40
1.0
176
     1
 90
        1
176
     1
 90
        6
176
     1
 90
        2
176
     1
 62
     7
176
     1
 90
        5
176
     1
 90
        0
176
     1
 90
        0
176
     1
290
     0
176
     1
 90
        1
176
     1
 40
0.0
176
     1
 90
        0
176
     1
290
     0
176
     1
290
     1
176
     1
290
     1
176
     1
290
     0
176
     1
290
     0
176
     1
290
     0
176
     1
290
     0
176
     1
290
     0
176
     1
290
     0
176
     1
 90
       50
176
     1
 40
0.0
176
     1
 40
1.0
176
     1
 90
        0
176
     1
 62
    18
420
        0
176
     1
 90
       50
176
     1
 90
        3
176
     1
 62
     5
420
      255
176
     1
290
     0
176
     1
 90
       50
176
     1
 90
       50
176
     1
 90
       50
176
     1
290
     0
176
     1
 90
       50
176
     1
 62
   256
176
     0
 40
1.0
176
     0
 90
        2
176
     1
  1
strokes_ogs.tif
176
     1
290
     0
176
     1
 40
1.0
176
     1
 40
1.0
176
     1
  0
VISUALSTYLE
  5
36
102
{ACAD_REACTORS
330
2A
102
}
330
2A
100
AcDbVisualStyle
  2
Brighten
 70
    12
177
     3
291
     1
 70
    58
 90
        2
176
     1
 90
        2
176
     1
 90
        0
176
     1
 90
        0
176
     1
 40
0.6
176
     1
 40
30.0
176
     1
 62
     7
420
 16777215
176
     1
 90
        1
176
     1
 90
        4
176
     1
 62
     7
176
     1
 62
   257
176
     1
 90
        1
176
     1
 90
        1
176
     1
 40
1.0
176
     1
 90
        8
176
     1
 62
     7
176
     1
 40
1.0
176
     1
 90
        1
176
     1
 90
        6
176
     1
 90
        2
176
     1
 62
     7
176
     1
 90
        5
176
     1
 90
        0
176
     1
 90
        0
176
     1
290
     0
176
     1
 90
        1
176
     1
 40
50.0
176
     1
 90
        0
176
     1
290
     0
176
     1
290
     1
176
     1
290
     1
176
     1
290
     0
176
     1
290
     0
176
     1
290
     0
176
     1
290
     0
176
     1
290
     0
176
     1
290
     0
176
     1
 90
       50
176
     1
 40
0.0
176
     1
 40
1.0
176
     1
 90
        0
176
     1
 62
    18
420
        0
176
     1
 90
       50
176
     1
 90
        3
176
     1
 62
     5
420
      255
176
     1
290
     0
176
     1
 90
       50
176
     1
 90
       50
176
     1
 90
       50
176
     1
290
     0
176
     1
 90
       50
176
     1
 62
   256
176
     0
 40
1.0
176
     0
 90
        2
176
     1
  1
strokes_ogs.tif
176
     1
290
     0
176
     1
 40
1.0
176
     1
 40
1.0
176
     1
  0
VISUALSTYLE
  5
3A
102
{ACAD_REACTORS
330
2A
102
}
330
2A
100
AcDbVisualStyle
  2
ColorChange
 70
    16
177
     3
291
     1
 70
    58
 90
        2
176
     1
 90
        2
176
     1
 90
        3
176
     1
 90
        0
176
     1
 40
0.6
176
     1
 40
30.0
176
     1
 62
     8
420
  8421504
176
     1
 90
        1
176
     1
 90
        4
176
     1
 62
     7
176
     1
 62
   257
176
     1
 90
        1
176
     1
 90
        1
176
     1
 40
1.0
176
     1
 90
        8
176
     1
 62
     8
420
  8421504
176
     1
 40
1.0
176
     1
 90
        1
176
     1
 90
        6
176
     1
 90
        2
176
     1
 62
     7
176
     1
 90
        5
176
     1
 90
        0
176
     1
 90
        0
176
     1
290
     0
176
     1
 90
        1
176
     1
 40
0.0
176
     1
 90
        0
176
     1
290
     0
176
     1
290
     1
176
     1
290
     1
176
     1
290
     0
176
     1
290
     0
176
     1
290
     0
176
     1
290
     0
176
     1
290
     0
176
     1
290
     0
176
     1
 90
       50
176
     1
 40
0.0
176
     1
 40
1.0
176
     1
 90
        0
176
     1
 62
    18
420
        0
176
     1
 90
       50
176
     1
 90
        3
176
     1
 62
     5
420
      255
176
     1
290
     0
176
     1
 90
       50
176
     1
 90
       50
176
     1
 90
       50
176
     1
290
     0
176
     1
 90
       50
176
     1
 62
   256
176
     0
 40
1.0
176
     0
 90
        2
176
     1
  1
strokes_ogs.tif
176
     1
290
     0
176
     1
 40
1.0
176
     1
 40
1.0
176
     1
  0
VISUALSTYLE
  5
34
102
{ACAD_REACTORS
330
2A
102
}
330
2A
100
AcDbVisualStyle
  2
Conceptual
 70
     9
177
     3
291
     0
 70
    58
 90
        3
176
     1
 90
        2
176
     1
 90
        0
176
     1
 90
        0
176
     1
 40
0.6
176
     1
 40
30.0
176
     1
 62
     7
420
 16777215
176
     1
 90
        2
176
     1
 90
        2
176
     1
 62
     7
176
     1
 62
   257
176
     1
 90
        1
176
     1
 90
        1
176
     1
 40
179.0
176
     1
 90
        8
176
     1
 62
     7
176
     1
 40
1.0
176
     1
 90
        1
176
     1
 90
        6
176
     1
 90
        2
176
     1
 62
     7
176
     1
 90
        3
176
     1
 90
        0
176
     1
 90
        0
176
     1
290
     0
176
     1
 90
        1
176
     1
 40
0.0
176
     1
 90
        0
176
     1
290
     0
176
     1
290
     1
176
     1
290
     1
176
     1
290
     0
176
     1
290
     0
176
     1
290
     0
176
     1
290
     0
176
     1
290
     0
176
     1
290
     0
176
     1
 90
       50
176
     1
 40
0.0
176
     1
 40
1.0
176
     1
 90
        0
176
     1
 62
    18
420
        0
176
     1
 90
       50
176
     1
 90
        3
176
     1
 62
     5
420
      255
176
     1
290
     0
176
     1
 90
       50
176
     1
 90
       50
176
     1
 90
       50
176
     1
290
     0
176
     1
 90
       50
176
     1
 62
   256
176
     0
 40
1.0
176
     0
 90
        2
176
     1
  1
strokes_ogs.tif
176
     1
290
     0
176
     1
 40
1.0
176
     1
 40
1.0
176
     1
  0
VISUALSTYLE
  5
35
102
{ACAD_REACTORS
330
2A
102
}
330
2A
100
AcDbVisualStyle
  2
Dim
 70
    11
177
     3
291
     1
 70
    58
 90
        2
176
     1
 90
        2
176
     1
 90
        0
176
     1
 90
        0
176
     1
 40
0.6
176
     1
 40
30.0
176
     1
 62
     7
420
 16777215
176
     1
 90
        1
176
     1
 90
        4
176
     1
 62
     7
176
     1
 62
   257
176
     1
 90
        1
176
     1
 90
        1
176
     1
 40
1.0
176
     1
 90
        8
176
     1
 62
     7
176
     1
 40
1.0
176
     1
 90
        1
176
     1
 90
        6
176
     1
 90
        2
176
     1
 62
     7
176
     1
 90
        5
176
     1
 90
        0
176
     1
 90
        0
176
     1
290
     0
176
     1
 90
        1
176
     1
 40
-50.0
176
     1
 90
        0
176
     1
290
     0
176
     1
290
     1
176
     1
290
     1
176
     1
290
     0
176
     1
290
     0
176
     1
290
     0
176
     1
290
     0
176
     1
290
     0
176
     1
290
     0
176
     1
 90
       50
176
     1
 40
0.0
176
     1
 40
1.0
176
     1
 90
        0
176
     1
 62
    18
420
        0
176
     1
 90
       50
176
     1
 90
        3
176
     1
 62
     5
420
      255
176
     1
290
     0
176
     1
 90
       50
176
     1
 90
       50
176
     1
 90
       50
176
     1
290
     0
176
     1
 90
       50
176
     1
 62
   256
176
     0
 40
1.0
176
     0
 90
        2
176
     1
  1
strokes_ogs.tif
176
     1
290
     0
176
     1
 40
1.0
176
     1
 40
1.0
176
     1
  0
VISUALSTYLE
  5
3D
102
{ACAD_REACTORS
330
2A
102
}
330
2A
100
AcDbVisualStyle
  2
EdgeColorOff
 70
    22
177
     3
291
     1
 70
    58
 90
        2
176
     0
 90
        2
176
     0
 90
        0
176
     0
 90
        0
176
     0
 40
0.6
176
     0
 40
30.0
176
     0
 62
     7
420
 16777215
176
     0
 90
        1
176
     0
 90
        4
176
     0
 62
     7
176
     0
 62
   257
176
     0
 90
        1
176
     0
 90
        1
176
     0
 40
1.0
176
     0
 90
        8
176
     2
 62
     7
176
     0
 40
1.0
176
     0
 90
        1
176
     0
 90
        6
176
     0
 90
        2
176
     0
 62
     7
176
     0
 90
        5
176
     0
 90
        0
176
     0
 90
        0
176
     0
290
     0
176
     0
 90
        1
176
     0
 40
0.0
176
     0
 90
        0
176
     0
290
     0
176
     0
290
     1
176
     0
290
     1
176
     0
290
     0
176
     0
290
     0
176
     0
290
     0
176
     0
290
     0
176
     0
290
     0
176
     0
290
     0
176
     0
 90
       50
176
     0
 40
0.0
176
     0
 40
1.0
176
     0
 90
        0
176
     0
 62
    18
420
        0
176
     0
 90
       50
176
     0
 90
        3
176
     0
 62
     5
420
      255
176
     0
290
     0
176
     0
 90
       50
176
     0
 90
       50
176
     0
 90
       50
176
     0
290
     0
176
     0
 90
       50
176
     0
 62
   256
176
     0
 40
1.0
176
     0
 90
        2
176
     0
  1
strokes_ogs.tif
176
     0
290
     0
176
     0
 40
1.0
176
     0
 40
1.0
176
     0
  0
VISUALSTYLE
  5
39
102
{ACAD_REACTORS
330
2A
102
}
330
2A
100
AcDbVisualStyle
  2
Facepattern
 70
    15
177
     3
291
     1
 70
    58
 90
        2
176
     1
 90
        2
176
     1
 90
        0
176
     1
 90
        0
176
     1
 40
0.6
176
     1
 40
30.0
176
     1
 62
     7
420
 16777215
176
     1
 90
        1
176
     1
 90
        4
176
     1
 62
     7
176
     1
 62
   257
176
     1
 90
        1
176
     1
 90
        1
176
     1
 40
1.0
176
     1
 90
        8
176
     1
 62
     7
176
     1
 40
1.0
176
     1
 90
        1
176
     1
 90
        6
176
     1
 90
        2
176
     1
 62
     7
176
     1
 90
        5
176
     1
 90
        0
176
     1
 90
        0
176
     1
290
     0
176
     1
 90
        1
176
     1
 40
0.0
176
     1
 90
        0
176
     1
290
     0
176
     1
290
     1
176
     1
290
     1
176
     1
290
     0
176
     1
290
     0
176
     1
290
     0
176
     1
290
     0
176
     1
290
     0
176
     1
290
     0
176
     1
 90
       50
176
     1
 40
0.0
176
     1
 40
1.0
176
     1
 90
        0
176
     1
 62
    18
420
        0
176
     1
 90
       50
176
     1
 90
        3
176
     1
 62
     5
420
      255
176
     1
290
     0
176
     1
 90
       50
176
     1
 90
       50
176
     1
 90
       50
176
     1
290
     0
176
     1
 90
       50
176
     1
 62
   256
176
     0
 40
1.0
176
     0
 90
        2
176
     1
  1
strokes_ogs.tif
176
     1
290
     0
176
     1
 40
1.0
176
     1
 40
1.0
176
     1
  0
VISUALSTYLE
  5
2B
102
{ACAD_REACTORS
330
2A
102
}
330
2A
100
AcDbVisualStyle
  2
Flat
 70
     0
177
     3
291
     1
 70
    58
 90
        2
176
     1
 90
        1
176
     1
 90
        1
176
     1
 90
        2
176
     1
 40
0.6
176
     1
 40
30.0
176
     1
 62
     7
420
 16777215
176
     1
 90
        0
176
     1
 90
        0
176
     1
 62
     7
176
     1
 62
   257
176
     1
 90
        1
176
     1
 90
        1
176
     1
 40
1.0
176
     1
 90
        8
176
     1
 62
     7
176
     1
 40
1.0
176
     1
 90
        1
176
     1
 90
        6
176
     1
 90
        2
176
     1
 62
     7
176
     1
 90
        5
176
     1
 90
        0
176
     1
 90
        0
176
     1
290
     0
176
     1
 90
       13
176
     1
 40
0.0
176
     1
 90
        0
176
     1
290
     0
176
     1
290
     1
176
     1
290
     1
176
     1
290
     0
176
     1
290
     0
176
     1
290
     0
176
     1
290
     0
176
     1
290
     0
176
     1
290
     0
176
     1
 90
       50
176
     1
 40
0.0
176
     1
 40
1.0
176
     1
 90
        0
176
     1
 62
    18
420
        0
176
     1
 90
       50
176
     1
 90
        3
176
     1
 62
     5
420
      255
176
     1
290
     0
176
     1
 90
       50
176
     1
 90
       50
176
     1
 90
       50
176
     1
290
     0
176
     1
 90
       50
176
     1
 62
   256
176
     0
 40
1.0
176
     0
 90
        2
176
     1
  1
strokes_ogs.tif
176
     1
290
     0
176
     1
 40
1.0
176
     1
 40
1.0
176
     1
  0
VISUALSTYLE
  5
2C
102
{ACAD_REACTORS
330
2A
102
}
330
2A
100
AcDbVisualStyle
  2
FlatWithEdges
 70
     1
177
     3
291
     1
 70
    58
 90
        2
176
     1
 90
        1
176
     1
 90
        1
176
     1
 90
        2
176
     1
 40
0.6
176
     1
 40
30.0
176
     1
 62
     7
420
 16777215
176
     1
 90
        1
176
     1
 90
        0
176
     1
 62
     7
176
     1
 62
   257
176
     1
 90
        1
176
     1
 90
        1
176
     1
 40
1.0
176
     1
 90
        0
176
     1
 62
   257
176
     1
 40
1.0
176
     1
 90
        1
176
     1
 90
        6
176
     1
 90
        2
176
     1
 62
     7
176
     1
 90
        5
176
     1
 90
        0
176
     1
 90
        0
176
     1
290
     0
176
     1
 90
       13
176
     1
 40
0.0
176
     1
 90
        0
176
     1
290
     0
176
     1
290
     1
176
     1
290
     1
176
     1
290
     0
176
     1
290
     0
176
     1
290
     0
176
     1
290
     0
176
     1
290
     0
176
     1
290
     0
176
     1
 90
       50
176
     1
 40
0.0
176
     1
 40
1.0
176
     1
 90
        0
176
     1
 62
    18
420
        0
176
     1
 90
       50
176
     1
 90
        3
176
     1
 62
     5
420
      255
176
     1
290
     0
176
     1
 90
       50
176
     1
 90
       50
176
     1
 90
       50
176
     1
290
     0
176
     1
 90
       50
176
     1
 62
   256
176
     0
 40
1.0
176
     0
 90
        2
176
     1
  1
strokes_ogs.tif
176
     1
290
     0
176
     1
 40
1.0
176
     1
 40
1.0
176
     1
  0
VISUALSTYLE
  5
2D
102
{ACAD_REACTORS
330
2A
102
}
330
2A
100
AcDbVisualStyle
  2
Gouraud
 70
     2
177
     3
291
     1
 70
    58
 90
        2
176
     1
 90
        2
176
     1
 90
        1
176
     1
 90
        2
176
     1
 40
0.6
176
     1
 40
30.0
176
     1
 62
     7
420
 16777215
176
     1
 90
        0
176
     1
 90
        0
176
     1
 62
     7
176
     1
 62
   257
176
     1
 90
        1
176
     1
 90
        1
176
     1
 40
1.0
176
     1
 90
        0
176
     1
 62
     7
176
     1
 40
1.0
176
     1
 90
        1
176
     1
 90
        6
176
     1
 90
        2
176
     1
 62
     7
176
     1
 90
        5
176
     1
 90
        0
176
     1
 90
        0
176
     1
290
     0
176
     1
 90
       13
176
     1
 40
0.0
176
     1
 90
        0
176
     1
290
     0
176
     1
290
     1
176
     1
290
     1
176
     1
290
     0
176
     1
290
     0
176
     1
290
     0
176
     1
290
     0
176
     1
290
     0
176
     1
290
     0
176
     1
 90
       50
176
     1
 40
0.0
176
     1
 40
1.0
176
     1
 90
        0
176
     1
 62
    18
420
        0
176
     1
 90
       50
176
     1
 90
        3
176
     1
 62
     5
420
      255
176
     1
290
     0
176
     1
 90
       50
176
     1
 90
       50
176
     1
 90
       50
176
     1
290
     0
176
     1
 90
       50
176
     1
 62
   256
176
     0
 40
1.0
176
     0
 90
        2
176
     1
  1
strokes_ogs.tif
176
     1
290
     0
176
     1
 40
1.0
176
     1
 40
1.0
176
     1
  0
VISUALSTYLE
  5
2E
102
{ACAD_REACTORS
330
2A
102
}
330
2A
100
AcDbVisualStyle
  2
GouraudWithEdges
 70
     3
177
     3
291
     1
 70
    58
 90
        2
176
     1
 90
        2
176
     1
 90
        1
176
     1
 90
        2
176
     1
 40
0.6
176
     1
 40
30.0
176
     1
 62
     7
420
 16777215
176
     1
 90
        1
176
     1
 90
        0
176
     1
 62
     7
176
     1
 62
   257
176
     1
 90
        1
176
     1
 90
        1
176
     1
 40
1.0
176
     1
 90
        0
176
     1
 62
   257
176
     1
 40
1.0
176
     1
 90
        1
176
     1
 90
        6
176
     1
 90
        2
176
     1
 62
     7
176
     1
 90
        5
176
     1
 90
        0
176
     1
 90
        0
176
     1
290
     0
176
     1
 90
       13
176
     1
 40
0.0
176
     1
 90
        0
176
     1
290
     0
176
     1
290
     1
176
     1
290
     1
176
     1
290
     0
176
     1
290
     0
176
     1
290
     0
176
     1
290
     0
176
     1
290
     0
176
     1
290
     0
176
     1
 90
       50
176
     1
 40
0.0
176
     1
 40
1.0
176
     1
 90
        0
176
     1
 62
    18
420
        0
176
     1
 90
       50
176
     1
 90
        3
176
     1
 62
     5
420
      255
176
     1
290
     0
176
     1
 90
       50
176
     1
 90
       50
176
     1
 90
       50
176
     1
290
     0
176
     1
 90
       50
176
     1
 62
   256
176
     0
 40
1.0
176
     0
 90
        2
176
     1
  1
strokes_ogs.tif
176
     1
290
     0
176
     1
 40
1.0
176
     1
 40
1.0
176
     1
  0
VISUALSTYLE
  5
31
102
{ACAD_REACTORS
330
2A
102
}
330
2A
100
AcDbVisualStyle
  2
Hidden
 70
     6
177
     3
291
     0
 70
    58
 90
        1
176
     1
 90
        2
176
     1
 90
        2
176
     1
 90
        0
176
     1
 40
0.6
176
     1
 40
30.0
176
     1
 62
     7
420
 16777215
176
     1
 90
        2
176
     1
 90
        2
176
     1
 62
     7
176
     1
 62
   257
176
     1
 90
        2
176
     1
 90
        1
176
     1
 40
40.0
176
     1
 90
        0
176
     1
 62
   257
176
     1
 40
1.0
176
     1
 90
        1
176
     1
 90
        6
176
     1
 90
        2
176
     1
 62
     7
176
     1
 90
        3
176
     1
 90
        0
176
     1
 90
        0
176
     1
290
     0
176
     1
 90
        1
176
     1
 40
0.0
176
     1
 90
        0
176
     1
290
     0
176
     1
290
     1
176
     1
290
     1
176
     1
290
     0
176
     1
290
     0
176
     1
290
     0
176
     1
290
     0
176
     1
290
     0
176
     1
290
     0
176
     1
 90
       50
176
     1
 40
0.0
176
     1
 40
1.0
176
     1
 90
        0
176
     1
 62
    18
420
        0
176
     1
 90
       50
176
     1
 90
        3
176
     1
 62
     5
420
      255
176
     1
290
     0
176
     1
 90
       50
176
     1
 90
       50
176
     1
 90
       50
176
     1
290
     0
176
     1
 90
       50
176
     1
 62
   256
176
     0
 40
1.0
176
     0
 90
        2
176
     1
  1
strokes_ogs.tif
176
     1
290
     0
176
     1
 40
1.0
176
     1
 40
1.0
176
     1
  0
VISUALSTYLE
  5
3B
102
{ACAD_REACTORS
330
2A
102
}
330
2A
100
AcDbVisualStyle
  2
JitterOff
 70
    20
177
     3
291
     1
 70
    58
 90
        2
176
     0
 90
        2
176
     0
 90
        0
176
     0
 90
        0
176
     0
 40
0.6
176
     0
 40
30.0
176
     0
 62
     7
420
 16777215
176
     0
 90
        1
176
     0
 90
        4
176
     0
 62
     7
176
     0
 62
   257
176
     0
 90
        1
176
     0
 90
        1
176
     0
 40
1.0
176
     0
 90
       10
176
     2
 62
     7
176
     0
 40
1.0
176
     0
 90
        1
176
     0
 90
        6
176
     0
 90
        2
176
     0
 62
     7
176
     0
 90
        5
176
     0
 90
        0
176
     0
 90
        0
176
     0
290
     0
176
     0
 90
        1
176
     0
 40
0.0
176
     0
 90
        0
176
     0
290
     0
176
     0
290
     1
176
     0
290
     1
176
     0
290
     0
176
     0
290
     0
176
     0
290
     0
176
     0
290
     0
176
     0
290
     0
176
     0
290
     0
176
     0
 90
       50
176
     0
 40
0.0
176
     0
 40
1.0
176
     0
 90
        0
176
     0
 62
    18
420
        0
176
     0
 90
       50
176
     0
 90
        3
176
     0
 62
     5
420
      255
176
     0
290
     0
176
     0
 90
       50
176
     0
 90
       50
176
     0
 90
       50
176
     0
290
     0
176
     0
 90
       50
176
     0
 62
   256
176
     0
 40
1.0
176
     0
 90
        2
176
     0
  1
strokes_ogs.tif
176
     0
290
     0
176
     0
 40
1.0
176
     0
 40
1.0
176
     0
  0
VISUALSTYLE
  5
38
102
{ACAD_REACTORS
330
2A
102
}
330
2A
100
AcDbVisualStyle
  2
Linepattern
 70
    14
177
     3
291
     1
 70
    58
 90
        2
176
     1
 90
        2
176
     1
 90
        0
176
     1
 90
        0
176
     1
 40
0.6
176
     1
 40
30.0
176
     1
 62
     7
420
 16777215
176
     1
 90
        1
176
     1
 90
        4
176
     1
 62
     7
176
     1
 62
   257
176
     1
 90
        7
176
     1
 90
        7
176
     1
 40
1.0
176
     1
 90
        8
176
     1
 62
     7
176
     1
 40
1.0
176
     1
 90
        1
176
     1
 90
        6
176
     1
 90
        2
176
     1
 62
     7
176
     1
 90
        5
176
     1
 90
        0
176
     1
 90
        0
176
     1
290
     0
176
     1
 90
        1
176
     1
 40
0.0
176
     1
 90
        0
176
     1
290
     0
176
     1
290
     1
176
     1
290
     1
176
     1
290
     0
176
     1
290
     0
176
     1
290
     0
176
     1
290
     0
176
     1
290
     0
176
     1
290
     0
176
     1
 90
       50
176
     1
 40
0.0
176
     1
 40
1.0
176
     1
 90
        0
176
     1
 62
    18
420
        0
176
     1
 90
       50
176
     1
 90
        3
176
     1
 62
     5
420
      255
176
     1
290
     0
176
     1
 90
       50
176
     1
 90
       50
176
     1
 90
       50
176
     1
290
     0
176
     1
 90
       50
176
     1
 62
   256
176
     0
 40
1.0
176
     0
 90
        2
176
     1
  1
strokes_ogs.tif
176
     1
290
     0
176
     1
 40
1.0
176
     1
 40
1.0
176
     1
  0
VISUALSTYLE
  5
3C
102
{ACAD_REACTORS
330
2A
102
}
330
2A
100
AcDbVisualStyle
  2
OverhangOff
 70
    21
177
     3
291
     1
 70
    58
 90
        2
176
     0
 90
        2
176
     0
 90
        0
176
     0
 90
        0
176
     0
 40
0.6
176
     0
 40
30.0
176
     0
 62
     7
420
 16777215
176
     0
 90
        1
176
     0
 90
        4
176
     0
 62
     7
176
     0
 62
   257
176
     0
 90
        1
176
     0
 90
        1
176
     0
 40
1.0
176
     0
 90
        9
176
     2
 62
     7
176
     0
 40
1.0
176
     0
 90
        1
176
     0
 90
        6
176
     0
 90
        2
176
     0
 62
     7
176
     0
 90
        5
176
     0
 90
        0
176
     0
 90
        0
176
     0
290
     0
176
     0
 90
        1
176
     0
 40
0.0
176
     0
 90
        0
176
     0
290
     0
176
     0
290
     1
176
     0
290
     1
176
     0
290
     0
176
     0
290
     0
176
     0
290
     0
176
     0
290
     0
176
     0
290
     0
176
     0
290
     0
176
     0
 90
       50
176
     0
 40
0.0
176
     0
 40
1.0
176
     0
 90
        0
176
     0
 62
    18
420
        0
176
     0
 90
       50
176
     0
 90
        3
176
     0
 62
     5
420
      255
176
     0
290
     0
176
     0
 90
       50
176
     0
 90
       50
176
     0
 90
       50
176
     0
290
     0
176
     0
 90
       50
176
     0
 62
   256
176
     0
 40
1.0
176
     0
 90
        2
176
     0
  1
strokes_ogs.tif
176
     0
290
     0
176
     0
 40
1.0
176
     0
 40
1.0
176
     0
  0
VISUALSTYLE
  5
33
102
{ACAD_REACTORS
330
2A
102
}
330
2A
100
AcDbVisualStyle
  2
Realistic
 70
     8
177
     3
291
     0
 70
    58
 90
        2
176
     1
 90
        3
176
     1
 90
        0
176
     1
 90
        2
176
     1
 40
0.6
176
     1
 40
30.0
176
     1
 62
     7
420
 16777215
176
     1
 90
        0
176
     1
 90
        0
176
     1
 62
     7
176
     1
 62
   257
176
     1
 90
        1
176
     1
 90
        1
176
     1
 40
1.0
176
     1
 90
        8
176
     1
 62
   257
176
     1
 40
1.0
176
     1
 90
        1
176
     1
 90
        6
176
     1
 90
        2
176
     1
 62
     7
176
     1
 90
        3
176
     1
 90
        0
176
     1
 90
        0
176
     1
290
     0
176
     1
 90
       13
176
     1
 40
0.0
176
     1
 90
        0
176
     1
290
     0
176
     1
290
     1
176
     1
290
     1
176
     1
290
     0
176
     1
290
     0
176
     1
290
     0
176
     1
290
     0
176
     1
290
     0
176
     1
290
     0
176
     1
 90
       50
176
     1
 40
0.0
176
     1
 40
1.0
176
     1
 90
        0
176
     1
 62
    18
420
        0
176
     1
 90
       50
176
     1
 90
        3
176
     1
 62
     5
420
      255
176
     1
290
     0
176
     1
 90
       50
176
     1
 90
       50
176
     1
 90
       50
176
     1
290
     0
176
     1
 90
       50
176
     1
 62
   256
176
     0
 40
1.0
176
     0
 90
        2
176
     1
  1
strokes_ogs.tif
176
     1
290
     0
176
     1
 40
1.0
176
     1
 40
1.0
176
     1
  0
VISUALSTYLE
  5
42
102
{ACAD_REACTORS
330
2A
102
}
330
2A
100
AcDbVisualStyle
  2
Shaded
 70
    27
177
     3
291
     0
 70
    58
 90
        2
176
     1
 90
        2
176
     1
 90
        1
176
     1
 90
        2
176
     1
 40
0.6
176
     1
 40
30.0
176
     1
 62
     7
420
 16777215
176
     1
 90
        0
176
     1
 90
        4
176
     1
 62
     7
176
     1
 62
   257
176
     1
 90
        1
176
     1
 90
        1
176
     1
 40
1.0
176
     1
 90
        8
176
     1
 62
   257
176
     1
 40
1.0
176
     1
 90
        1
176
     1
 90
        6
176
     1
 90
        2
176
     1
 62
     8
420
  7895160
176
     1
 90
        3
176
     1
 90
        0
176
     1
 90
        0
176
     1
290
     0
176
     1
 90
        5
176
     1
 40
0.0
176
     1
 90
        0
176
     1
290
     0
176
     1
290
     1
176
     1
290
     1
176
     1
290
     0
176
     1
290
     0
176
     1
290
     0
176
     1
290
     0
176
     1
290
     0
176
     1
290
     0
176
     1
 90
       50
176
     1
 40
0.0
176
     1
 40
1.0
176
     1
 90
        0
176
     1
 62
    18
420
        0
176
     1
 90
       50
176
     1
 90
        3
176
     1
 62
     5
420
      255
176
     1
290
     0
176
     1
 90
       50
176
     1
 90
       50
176
     1
 90
       50
176
     1
290
     0
176
     1
 90
       50
176
     1
 62
   256
176
     0
 40
1.0
176
     0
 90
        2
176
     1
  1
strokes_ogs.tif
176
     1
290
     0
176
     1
 40
1.0
176
     1
 40
1.0
176
     1
  0
VISUALSTYLE
  5
41
102
{ACAD_REACTORS
330
2A
102
}
330
2A
100
AcDbVisualStyle
  2
Shaded with edges
 70
    26
177
     3
291
     0
 70
    58
 90
        2
176
     1
 90
        2
176
     1
 90
        1
176
     1
 90
        2
176
     1
 40
0.6
176
     1
 40
30.0
176
     1
 62
     7
420
 16777215
176
     1
 90
        1
176
     1
 90
       10
176
     1
 62
     7
176
     1
 62
   257
176
     1
 90
        2
176
     1
 90
        1
176
     1
 40
1.0
176
     1
 90
        8
176
     1
 62
   257
176
     1
 40
1.0
176
     1
 90
        1
176
     1
 90
        6
176
     1
 90
        2
176
     1
 62
     7
176
     1
 90
        3
176
     1
 90
        0
176
     1
 90
        0
176
     1
290
     0
176
     1
 90
        5
176
     1
 40
0.0
176
     1
 90
        0
176
     1
290
     0
176
     1
290
     1
176
     1
290
     1
176
     1
290
     0
176
     1
290
     0
176
     1
290
     0
176
     1
290
     0
176
     1
290
     0
176
     1
290
     0
176
     1
 90
       50
176
     1
 40
0.0
176
     1
 40
1.0
176
     1
 90
        0
176
     1
 62
    18
420
        0
176
     1
 90
       50
176
     1
 90
        3
176
     1
 62
     5
420
      255
176
     1
290
     0
176
     1
 90
       50
176
     1
 90
       50
176
     1
 90
       50
176
     1
290
     0
176
     1
 90
       50
176
     1
 62
   256
176
     0
 40
1.0
176
     0
 90
        2
176
     1
  1
strokes_ogs.tif
176
     1
290
     0
176
     1
 40
1.0
176
     1
 40
1.0
176
     1
  0
VISUALSTYLE
  5
3E
102
{ACAD_REACTORS
330
2A
102
}
330
2A
100
AcDbVisualStyle
  2
Shades of Gray
 70
    23
177
     3
291
     0
 70
    58
 90
        2
176
     1
 90
        2
176
     1
 90
        3
176
     1
 90
        0
176
     1
 40
0.6
176
     1
 40
30.0
176
     1
 62
     7
420
 16777215
176
     1
 90
        2
176
     1
 90
        2
176
     1
 62
     7
176
     1
 62
     7
176
     1
 90
        1
176
     1
 90
        1
176
     1
 40
40.0
176
     1
 90
        8
176
     1
 62
     7
176
     1
 40
1.0
176
     1
 90
        1
176
     1
 90
        6
176
     1
 90
        2
176
     1
 62
     7
176
     1
 90
        3
176
     1
 90
        0
176
     1
 90
        0
176
     1
290
     0
176
     1
 90
        1
176
     1
 40
0.0
176
     1
 90
        0
176
     1
290
     0
176
     1
290
     1
176
     1
290
     1
176
     1
290
     0
176
     1
290
     0
176
     1
290
     0
176
     1
290
     0
176
     1
290
     0
176
     1
290
     0
176
     1
 90
       50
176
     1
 40
0.0
176
     1
 40
1.0
176
     1
 90
        0
176
     1
 62
    18
420
        0
176
     1
 90
       50
176
     1
 90
        3
176
     1
 62
     5
420
      255
176
     1
290
     0
176
     1
 90
       50
176
     1
 90
       50
176
     1
 90
       50
176
     1
290
     0
176
     1
 90
       50
176
     1
 62
   256
176
     0
 40
1.0
176
     0
 90
        2
176
     1
  1
strokes_ogs.tif
176
     1
290
     0
176
     1
 40
1.0
176
     1
 40
1.0
176
     1
  0
VISUALSTYLE
  5
3F
102
{ACAD_REACTORS
330
2A
102
}
330
2A
100
AcDbVisualStyle
  2
Sketchy
 70
    24
177
     3
291
     0
 70
    58
 90
        1
176
     1
 90
        2
176
     1
 90
        2
176
     1
 90
        0
176
     1
 40
0.6
176
     1
 40
30.0
176
     1
 62
     7
420
 16777215
176
     1
 90
        2
176
     1
 90
        2
176
     1
 62
     7
176
     1
 62
     7
176
     1
 90
        1
176
     1
 90
        1
176
     1
 40
40.0
176
     1
 90
       11
176
     1
 62
     7
176
     1
 40
1.0
176
     1
 90
        1
176
     1
 90
        6
176
     1
 90
        2
176
     1
 62
     7
176
     1
 90
        6
176
     1
 90
        0
176
     1
 90
        0
176
     1
290
     0
176
     1
 90
        1
176
     1
 40
0.0
176
     1
 90
        0
176
     1
290
     0
176
     1
290
     1
176
     1
290
     1
176
     1
290
     0
176
     1
290
     0
176
     1
290
     0
176
     1
290
     0
176
     1
290
     0
176
     1
290
     0
176
     1
 90
       50
176
     1
 40
0.0
176
     1
 40
1.0
176
     1
 90
        0
176
     1
 62
    18
420
        0
176
     1
 90
       50
176
     1
 90
        3
176
     1
 62
     5
420
      255
176
     1
290
     0
176
     1
 90
       50
176
     1
 90
       50
176
     1
 90
       50
176
     1
290
     0
176
     1
 90
       50
176
     1
 62
   256
176
     0
 40
1.0
176
     0
 90
        2
176
     1
  1
strokes_ogs.tif
176
     1
290
     0
176
     1
 40
1.0
176
     1
 40
1.0
176
     1
  0
VISUALSTYLE
  5
37
102
{ACAD_REACTORS
330
2A
102
}
330
2A
100
AcDbVisualStyle
  2
Thicken
 70
    13
177
     3
291
     1
 70
    58
 90
        2
176
     1
 90
        2
176
     1
 90
        0
176
     1
 90
        0
176
     1
 40
0.6
176
     1
 40
30.0
176
     1
 62
     7
420
 16777215
176
     1
 90
        1
176
     1
 90
        4
176
     1
 62
     7
176
     1
 62
   257
176
     1
 90
        1
176
     1
 90
        1
176
     1
 40
1.0
176
     1
 90
       12
176
     1
 62
     7
176
     1
 40
1.0
176
     1
 90
        1
176
     1
 90
        6
176
     1
 90
        2
176
     1
 62
     7
176
     1
 90
        5
176
     1
 90
        0
176
     1
 90
        0
176
     1
290
     0
176
     1
 90
        1
176
     1
 40
0.0
176
     1
 90
        0
176
     1
290
     0
176
     1
290
     1
176
     1
290
     1
176
     1
290
     0
176
     1
290
     0
176
     1
290
     0
176
     1
290
     0
176
     1
290
     0
176
     1
290
     0
176
     1
 90
       50
176
     1
 40
0.0
176
     1
 40
1.0
176
     1
 90
        0
176
     1
 62
    18
420
        0
176
     1
 90
       50
176
     1
 90
        3
176
     1
 62
     5
420
      255
176
     1
290
     0
176
     1
 90
       50
176
     1
 90
       50
176
     1
 90
       50
176
     1
290
     0
176
     1
 90
       50
176
     1
 62
   256
176
     0
 40
1.0
176
     0
 90
        2
176
     1
  1
strokes_ogs.tif
176
     1
290
     0
176
     1
 40
1.0
176
     1
 40
1.0
176
     1
  0
VISUALSTYLE
  5
30
102
{ACAD_REACTORS
330
2A
102
}
330
2A
100
AcDbVisualStyle
  2
Wireframe
 70
     5
177
     3
291
     0
 70
    58
 90
        0
176
     1
 90
        2
176
     1
 90
        0
176
     1
 90
        0
176
     1
 40
0.6
176
     1
 40
30.0
176
     1
 62
     7
420
 16777215
176
     1
 90
        1
176
     1
 90
        4
176
     1
 62
     7
176
     1
 62
   257
176
     1
 90
        1
176
     1
 90
        1
176
     1
 40
1.0
176
     1
 90
        0
176
     1
 62
   257
176
     1
 40
1.0
176
     1
 90
        1
176
     1
 90
        6
176
     1
 90
        2
176
     1
 62
     7
176
     1
 90
        3
176
     1
 90
        0
176
     1
 90
        0
176
     1
290
     0
176
     1
 90
        1
176
     1
 40
0.0
176
     1
 90
        0
176
     1
290
     0
176
     1
290
     1
176
     1
290
     1
176
     1
290
     0
176
     1
290
     0
176
     1
290
     0
176
     1
290
     0
176
     1
290
     0
176
     1
290
     0
176
     1
 90
       50
176
     1
 40
0.0
176
     1
 40
1.0
176
     1
 90
        0
176
     1
 62
    18
420
        0
176
     1
 90
       50
176
     1
 90
        3
176
     1
 62
     5
420
      255
176
     1
290
     0
176
     1
 90
       50
176
     1
 90
       50
176
     1
 90
       50
176
     1
290
     0
176
     1
 90
       50
176
     1
 62
   256
176
     0
 40
1.0
176
     0
 90
        2
176
     1
  1
strokes_ogs.tif
176
     1
290
     0
176
     1
 40
1.0
176
     1
 40
1.0
176
     1
  0
VISUALSTYLE
  5
40
102
{ACAD_REACTORS
330
2A
102
}
330
2A
100
AcDbVisualStyle
  2
X-Ray
 70
    25
177
     3
291
     0
 70
    58
 90
        2
176
     1
 90
        2
176
     1
 90
        1
176
     1
 90
        1
176
     1
 40
0.5
176
     1
 40
30.0
176
     1
 62
     7
420
 16777215
176
     1
 90
        1
176
     1
 90
        0
176
     1
 62
     7
176
     1
 62
   257
176
     1
 90
        1
176
     1
 90
        1
176
     1
 40
1.0
176
     1
 90
        8
176
     1
 62
     7
176
     1
 40
1.0
176
     1
 90
        1
176
     1
 90
        6
176
     1
 90
        2
176
     1
 62
     7
176
     1
 90
        3
176
     1
 90
        0
176
     1
 90
        0
176
     1
290
     0
176
     1
 90
       13
176
     1
 40
0.0
176
     1
 90
        0
176
     1
290
     0
176
     1
290
     1
176
     1
290
     1
176
     1
290
     0
176
     1
290
     0
176
     1
290
     0
176
     1
290
     0
176
     1
290
     0
176
     1
290
     0
176
     1
 90
       50
176
     1
 40
0.0
176
     1
 40
1.0
176
     1
 90
        0
176
     1
 62
    18
420
        0
176
     1
 90
       50
176
     1
 90
        3
176
     1
 62
     5
420
      255
176
     1
290
     0
176
     1
 90
       50
176
     1
 90
       50
176
     1
 90
       50
176
     1
290
     0
176
     1
 90
       50
176
     1
 62
   256
176
     0
 40
1.0
176
     0
 90
        2
176
     1
  1
strokes_ogs.tif
176
     1
290
     0
176
     1
 40
1.0
176
     1
 40
1.0
176
     1
  0
DICTIONARYVAR
  5
16B
102
{ACAD_REACTORS
330
16A
102
}
330
16A
100
DictionaryVariables
280
     0
  1
1:1
  0
DICTIONARYVAR
  5
170
102
{ACAD_REACTORS
330
16A
102
}
330
16A
100
DictionaryVariables
280
     0
  1
Standard
  0
DICTIONARYVAR
  5
16F
102
{ACAD_REACTORS
330
16A
102
}
330
16A
100
DictionaryVariables
280
     0
  1
Standard
  0
DICTIONARY
  5
16C
330
6A
100
AcDbDictionary
280
     1
281
     1
  3
ACAD_ROUNDTRIP_2008_TABLESTYLE_CELLSTYLEMAP
360
16D
  0
CELLSTYLEMAP
  5
16D
102
{ACAD_REACTORS
330
16C
102
}
330
16C
100
AcDbCellStyleMap
 90
        3
300
CELLSTYLE
  1
TABLEFORMAT_BEGIN
 90
        5
170
     1
 91
        0
 92
    32768
 62
   257
 93
        1
300
CONTENTFORMAT
  1
CONTENTFORMAT_BEGIN
 90
        0
 91
        0
 92
        4
 93
        0
300

 40
0.0
140
1.0
 94
        5
 62
     0
340
11
144
0.25
309
CONTENTFORMAT_END
171
     1
301
MARGIN
  1
CELLMARGIN_BEGIN
 40
0.06
 40
0.06
 40
0.06
 40
0.06
 40
0.06
 40
0.06
309
CELLMARGIN_END
 94
        6
 95
        1
302
GRIDFORMAT
  1
GRIDFORMAT_BEGIN
 90
        0
 91
        1
 62
     0
 92
       -2
340
14
 93
        0
 40
0.045
309
GRIDFORMAT_END
 95
        2
302
GRIDFORMAT
  1
GRIDFORMAT_BEGIN
 90
        0
 91
        1
 62
     0
 92
       -2
340
14
 93
        0
 40
0.045
309
GRIDFORMAT_END
 95
        4
302
GRIDFORMAT
  1
GRIDFORMAT_BEGIN
 90
        0
 91
        1
 62
     0
 92
       -2
340
14
 93
        0
 40
0.045
309
GRIDFORMAT_END
 95
        8
302
GRIDFORMAT
  1
GRIDFORMAT_BEGIN
 90
        0
 91
        1
 62
     0
 92
       -2
340
14
 93
        0
 40
0.045
309
GRIDFORMAT_END
 95
       16
302
GRIDFORMAT
  1
GRIDFORMAT_BEGIN
 90
        0
 91
        1
 62
     0
 92
       -2
340
14
 93
        0
 40
0.045
309
GRIDFORMAT_END
 95
       32
302
GRIDFORMAT
  1
GRIDFORMAT_BEGIN
 90
        0
 91
        1
 62
     0
 92
       -2
340
14
 93
        0
 40
0.045
309
GRIDFORMAT_END
309
TABLEFORMAT_END
  1
CELLSTYLE_BEGIN
 90
        1
 91
        1
300
_TITLE
309
CELLSTYLE_END
300
CELLSTYLE
  1
TABLEFORMAT_BEGIN
 90
        5
170
     1
 91
        0
 92
        0
 62
   257
 93
        1
300
CONTENTFORMAT
  1
CONTENTFORMAT_BEGIN
 90
        0
 91
        0
 92
        4
 93
        0
300

 40
0.0
140
1.0
 94
        5
 62
     0
340
11
144
0.18
309
CONTENTFORMAT_END
171
     1
301
MARGIN
  1
CELLMARGIN_BEGIN
 40
0.06
 40
0.06
 40
0.06
 40
0.06
 40
0.06
 40
0.06
309
CELLMARGIN_END
 94
        6
 95
        1
302
GRIDFORMAT
  1
GRIDFORMAT_BEGIN
 90
        0
 91
        1
 62
     0
 92
       -2
340
14
 93
        0
 40
0.045
309
GRIDFORMAT_END
 95
        2
302
GRIDFORMAT
  1
GRIDFORMAT_BEGIN
 90
        0
 91
        1
 62
     0
 92
       -2
340
14
 93
        0
 40
0.045
309
GRIDFORMAT_END
 95
        4
302
GRIDFORMAT
  1
GRIDFORMAT_BEGIN
 90
        0
 91
        1
 62
     0
 92
       -2
340
14
 93
        0
 40
0.045
309
GRIDFORMAT_END
 95
        8
302
GRIDFORMAT
  1
GRIDFORMAT_BEGIN
 90
        0
 91
        1
 62
     0
 92
       -2
340
14
 93
        0
 40
0.045
309
GRIDFORMAT_END
 95
       16
302
GRIDFORMAT
  1
GRIDFORMAT_BEGIN
 90
        0
 91
        1
 62
     0
 92
       -2
340
14
 93
        0
 40
0.045
309
GRIDFORMAT_END
 95
       32
302
GRIDFORMAT
  1
GRIDFORMAT_BEGIN
 90
        0
 91
        1
 62
     0
 92
       -2
340
14
 93
        0
 40
0.045
309
GRIDFORMAT_END
309
TABLEFORMAT_END
  1
CELLSTYLE_BEGIN
 90
        2
 91
        1
300
_HEADER
309
CELLSTYLE_END
300
CELLSTYLE
  1
TABLEFORMAT_BEGIN
 90
        5
170
     1
 91
        0
 92
        0
 62
   257
 93
        1
300
CONTENTFORMAT
  1
CONTENTFORMAT_BEGIN
 90
        0
 91
        0
 92
        4
 93
        0
300

 40
0.0
140
1.0
 94
        2
 62
     0
340
11
144
0.18
309
CONTENTFORMAT_END
171
     1
301
MARGIN
  1
CELLMARGIN_BEGIN
 40
0.06
 40
0.06
 40
0.06
 40
0.06
 40
0.06
 40
0.06
309
CELLMARGIN_END
 94
        6
 95
        1
302
GRIDFORMAT
  1
GRIDFORMAT_BEGIN
 90
        0
 91
        1
 62
     0
 92
       -2
340
14
 93
        0
 40
0.045
309
GRIDFORMAT_END
 95
        2
302
GRIDFORMAT
  1
GRIDFORMAT_BEGIN
 90
        0
 91
        1
 62
     0
 92
       -2
340
14
 93
        0
 40
0.045
309
GRIDFORMAT_END
 95
        4
302
GRIDFORMAT
  1
GRIDFORMAT_BEGIN
 90
        0
 91
        1
 62
     0
 92
       -2
340
14
 93
        0
 40
0.045
309
GRIDFORMAT_END
 95
        8
302
GRIDFORMAT
  1
GRIDFORMAT_BEGIN
 90
        0
 91
        1
 62
     0
 92
       -2
340
14
 93
        0
 40
0.045
309
GRIDFORMAT_END
 95
       16
302
GRIDFORMAT
  1
GRIDFORMAT_BEGIN
 90
        0
 91
        1
 62
     0
 92
       -2
340
14
 93
        0
 40
0.045
309
GRIDFORMAT_END
 95
       32
302
GRIDFORMAT
  1
GRIDFORMAT_BEGIN
 90
        0
 91
        1
 62
     0
 92
       -2
340
14
 93
        0
 40
0.045
309
GRIDFORMAT_END
309
TABLEFORMAT_END
  1
CELLSTYLE_BEGIN
 90
        3
 91
        2
300
_DATA
309
CELLSTYLE_END
  0
ENDSEC
  0
EOF