0
SECTION
  2
HEADER
  9
$ACADVER
  1
AC1027
  9
$ACADMAINTVER
 70
     8
  9
$DWGCODEPAGE
  3
ANSI_1252
  9
$REQUIREDVERSIONS
160
                 0
  9
$COMMENTS
  1
File was created by Cadenas
  9
$CUSTOMPROPERTYTAG
  1
NN
  9
$CUSTOMPROPERTY
  1
Grip Tight Tapped Base Metric Bore
  9
$CUSTOMPROPERTYTAG
  1
NT
  9
$CUSTOMPROPERTY
  1
GT Normal Duty Tapped Base Pillow Blocks
  9
$CUSTOMPROPERTYTAG
  1
NB
  9
$CUSTOMPROPERTY
  1
136365
  9
$CUSTOMPROPERTYTAG
  1
NBSYN
  9
$CUSTOMPROPERTY
  1
$PN.$LUBE.
  9
$CUSTOMPROPERTYTAG
  1
LINA
  9
$CUSTOMPROPERTY
  1
136365
  9
$CUSTOMPROPERTYTAG
  1
SERIES
  9
$CUSTOMPROPERTY
  1
204
  9
$CUSTOMPROPERTYTAG
  1
SS
  9
$CUSTOMPROPERTY
  1
20
  9
$CUSTOMPROPERTYTAG
  1
PN
  9
$CUSTOMPROPERTY
  1
136365
  9
$CUSTOMPROPERTYTAG
  1
DESCRIPTION
  9
$CUSTOMPROPERTY
  1
TB-GT-20M
  9
$CUSTOMPROPERTYTAG
  1
A
  9
$CUSTOMPROPERTY
  1
37.3
  9
$CUSTOMPROPERTYTAG
  1
B
  9
$CUSTOMPROPERTY
  1
73.0
  9
$CUSTOMPROPERTYTAG
  1
C
  9
$CUSTOMPROPERTY
  1
38.1
  9
$CUSTOMPROPERTYTAG
  1
D
  9
$CUSTOMPROPERTY
  1
50.8
  9
$CUSTOMPROPERTYTAG
  1
J
  9
$CUSTOMPROPERTY
  1
65.1
  9
$CUSTOMPROPERTYTAG
  1
L
  9
$CUSTOMPROPERTY
  1
38.1
  9
$CUSTOMPROPERTYTAG
  1
M
  9
$CUSTOMPROPERTY
  1
33.3
  9
$CUSTOMPROPERTYTAG
  1
N
  9
$CUSTOMPROPERTY
  1
12.7
  9
$CUSTOMPROPERTYTAG
  1
R
  9
$CUSTOMPROPERTY
  1
M8 
  9
$CUSTOMPROPERTYTAG
  1
S
  9
$CUSTOMPROPERTY
  1
25.0
  9
$CUSTOMPROPERTYTAG
  1
Z
  9
$CUSTOMPROPERTY
  1
25.0
  9
$CUSTOMPROPERTYTAG
  1
COMPANY
  9
$CUSTOMPROPERTY
  1
baldor
  9
$INSBASE
 10
0.0
 20
0.0
 30
0.0
  9
$EXTMIN
 10
1.000000000000000E+20
 20
1.000000000000000E+20
 30
1.000000000000000E+20
  9
$EXTMAX
 10
-1.000000000000000E+20
 20
-1.000000000000000E+20
 30
-1.000000000000000E+20
  9
$LIMMIN
 10
0.0
 20
0.0
  9
$LIMMAX
 10
420.0
 20
297.0
  9
$ORTHOMODE
 70
     0
  9
$REGENMODE
 70
     1
  9
$FILLMODE
 70
     1
  9
$QTEXTMODE
 70
     0
  9
$MIRRTEXT
 70
     1
  9
$LTSCALE
 40
1.0
  9
$ATTMODE
 70
     1
  9
$TEXTSIZE
 40
2.5
  9
$TRACEWID
 40
1.0
  9
$TEXTSTYLE
  7
Standard
  9
$CLAYER
  8
0
  9
$CELTYPE
  6
ByLayer
  9
$CECOLOR
 62
   256
  9
$CELTSCALE
 40
1.0
  9
$DISPSILH
 70
     0
  9
$DIMSCALE
 40
1.0
  9
$DIMASZ
 40
2.5
  9
$DIMEXO
 40
0.625
  9
$DIMDLI
 40
3.75
  9
$DIMRND
 40
0.0
  9
$DIMDLE
 40
0.0
  9
$DIMEXE
 40
1.25
  9
$DIMTP
 40
0.0
  9
$DIMTM
 40
0.0
  9
$DIMTXT
 40
2.5
  9
$DIMCEN
 40
2.5
  9
$DIMTSZ
 40
0.0
  9
$DIMTOL
 70
     0
  9
$DIMLIM
 70
     0
  9
$DIMTIH
 70
     0
  9
$DIMTOH
 70
     0
  9
$DIMSE1
 70
     0
  9
$DIMSE2
 70
     0
  9
$DIMTAD
 70
     1
  9
$DIMZIN
 70
     8
  9
$DIMBLK
  1

  9
$DIMASO
 70
     1
  9
$DIMSHO
 70
     1
  9
$DIMPOST
  1

  9
$DIMAPOST
  1

  9
$DIMALT
 70
     0
  9
$DIMALTD
 70
     3
  9
$DIMALTF
 40
0.03937007874016
  9
$DIMLFAC
 40
1.0
  9
$DIMTOFL
 70
     1
  9
$DIMTVP
 40
0.0
  9
$DIMTIX
 70
     0
  9
$DIMSOXD
 70
     0
  9
$DIMSAH
 70
     0
  9
$DIMBLK1
  1

  9
$DIMBLK2
  1

  9
$DIMSTYLE
  2
ISO-25
  9
$DIMCLRD
 70
     0
  9
$DIMCLRE
 70
     0
  9
$DIMCLRT
 70
     0
  9
$DIMTFAC
 40
1.0
  9
$DIMGAP
 40
0.625
  9
$DIMJUST
 70
     0
  9
$DIMSD1
 70
     0
  9
$DIMSD2
 70
     0
  9
$DIMTOLJ
 70
     0
  9
$DIMTZIN
 70
     8
  9
$DIMALTZ
 70
     0
  9
$DIMALTTZ
 70
     0
  9
$DIMUPT
 70
     0
  9
$DIMDEC
 70
     2
  9
$DIMTDEC
 70
     2
  9
$DIMALTU
 70
     2
  9
$DIMALTTD
 70
     3
  9
$DIMTXSTY
  7
Standard
  9
$DIMAUNIT
 70
     0
  9
$DIMADEC
 70
     0
  9
$DIMALTRND
 40
0.0
  9
$DIMAZIN
 70
     0
  9
$DIMDSEP
 70
    44
  9
$DIMATFIT
 70
     3
  9
$DIMFRAC
 70
     0
  9
$DIMLDRBLK
  1

  9
$DIMLUNIT
 70
     2
  9
$DIMLWD
 70
    -2
  9
$DIMLWE
 70
    -2
  9
$DIMTMOVE
 70
     0
  9
$DIMFXL
 40
1.0
  9
$DIMFXLON
 70
     0
  9
$DIMJOGANG
 40
0.7853981633974483
  9
$DIMTFILL
 70
     0
  9
$DIMTFILLCLR
 70
     0
  9
$DIMARCSYM
 70
     0
  9
$DIMLTYPE
  6

  9
$DIMLTEX1
  6

  9
$DIMLTEX2
  6

  9
$DIMTXTDIRECTION
 70
     0
  9
$LUNITS
 70
     2
  9
$LUPREC
 70
     4
  9
$SKETCHINC
 40
1.0
  9
$FILLETRAD
 40
10.0
  9
$AUNITS
 70
     0
  9
$AUPREC
 70
     0
  9
$MENU
  1
.
  9
$ELEVATION
 40
0.0
  9
$PELEVATION
 40
0.0
  9
$THICKNESS
 40
0.0
  9
$LIMCHECK
 70
     0
  9
$CHAMFERA
 40
0.0
  9
$CHAMFERB
 40
0.0
  9
$CHAMFERC
 40
0.0
  9
$CHAMFERD
 40
0.0
  9
$SKPOLY
 70
     0
  9
$TDCREATE
 40
2458168.964381771
  9
$TDUCREATE
 40
2458168.922715104
  9
$TDUPDATE
 40
2458168.964381771
  9
$TDUUPDATE
 40
2458168.922715104
  9
$TDINDWG
 40
0.0000000116
  9
$TDUSRTIMER
 40
0.0000000116
  9
$USRTIMER
 70
     1
  9
$ANGBASE
 50
0.0
  9
$ANGDIR
 70
     0
  9
$PDMODE
 70
     0
  9
$PDSIZE
 40
0.0
  9
$PLINEWID
 40
0.0
  9
$SPLFRAME
 70
     0
  9
$SPLINETYPE
 70
     6
  9
$SPLINESEGS
 70
     8
  9
$HANDSEED
  5
1F8
  9
$SURFTAB1
 70
     6
  9
$SURFTAB2
 70
     6
  9
$SURFTYPE
 70
     6
  9
$SURFU
 70
     6
  9
$SURFV
 70
     6
  9
$UCSBASE
  2

  9
$UCSNAME
  2

  9
$UCSORG
 10
0.0
 20
0.0
 30
0.0
  9
$UCSXDIR
 10
1.0
 20
0.0
 30
0.0
  9
$UCSYDIR
 10
0.0
 20
1.0
 30
0.0
  9
$UCSORTHOREF
  2

  9
$UCSORTHOVIEW
 70
     0
  9
$UCSORGTOP
 10
0.0
 20
0.0
 30
0.0
  9
$UCSORGBOTTOM
 10
0.0
 20
0.0
 30
0.0
  9
$UCSORGLEFT
 10
0.0
 20
0.0
 30
0.0
  9
$UCSORGRIGHT
 10
0.0
 20
0.0
 30
0.0
  9
$UCSORGFRONT
 10
0.0
 20
0.0
 30
0.0
  9
$UCSORGBACK
 10
0.0
 20
0.0
 30
0.0
  9
$PUCSBASE
  2

  9
$PUCSNAME
  2

  9
$PUCSORG
 10
0.0
 20
0.0
 30
0.0
  9
$PUCSXDIR
 10
1.0
 20
0.0
 30
0.0
  9
$PUCSYDIR
 10
0.0
 20
1.0
 30
0.0
  9
$PUCSORTHOREF
  2

  9
$PUCSORTHOVIEW
 70
     0
  9
$PUCSORGTOP
 10
0.0
 20
0.0
 30
0.0
  9
$PUCSORGBOTTOM
 10
0.0
 20
0.0
 30
0.0
  9
$PUCSORGLEFT
 10
0.0
 20
0.0
 30
0.0
  9
$PUCSORGRIGHT
 10
0.0
 20
0.0
 30
0.0
  9
$PUCSORGFRONT
 10
0.0
 20
0.0
 30
0.0
  9
$PUCSORGBACK
 10
0.0
 20
0.0
 30
0.0
  9
$USERI1
 70
     0
  9
$USERI2
 70
     0
  9
$USERI3
 70
     0
  9
$USERI4
 70
     0
  9
$USERI5
 70
     0
  9
$USERR1
 40
0.0
  9
$USERR2
 40
0.0
  9
$USERR3
 40
0.0
  9
$USERR4
 40
0.0
  9
$USERR5
 40
0.0
  9
$WORLDVIEW
 70
     1
  9
$SHADEDGE
 70
     3
  9
$SHADEDIF
 70
    70
  9
$TILEMODE
 70
     1
  9
$MAXACTVP
 70
    64
  9
$PINSBASE
 10
0.0
 20
0.0
 30
0.0
  9
$PLIMCHECK
 70
     0
  9
$PEXTMIN
 10
1.000000000000000E+20
 20
1.000000000000000E+20
 30
1.000000000000000E+20
  9
$PEXTMAX
 10
-1.000000000000000E+20
 20
-1.000000000000000E+20
 30
-1.000000000000000E+20
  9
$PLIMMIN
 10
0.0
 20
0.0
  9
$PLIMMAX
 10
420.0
 20
297.0
  9
$UNITMODE
 70
     0
  9
$VISRETAIN
 70
     1
  9
$PLINEGEN
 70
     0
  9
$PSLTSCALE
 70
     1
  9
$TREEDEPTH
 70
  3020
  9
$CMLSTYLE
  2
Standard
  9
$CMLJUST
 70
     0
  9
$CMLSCALE
 40
20.0
  9
$PROXYGRAPHICS
 70
     1
  9
$MEASUREMENT
 70
     1
  9
$CELWEIGHT
370
    -1
  9
$ENDCAPS
280
     0
  9
$JOINSTYLE
280
     0
  9
$LWDISPLAY
290
     0
  9
$INSUNITS
 70
     4
  9
$HYPERLINKBASE
  1

  9
$STYLESHEET
  1

  9
$XEDIT
290
     1
  9
$CEPSNTYPE
380
     0
  9
$PSTYLEMODE
290
     1
  9
$FINGERPRINTGUID
  2
{B22AAB13-C172-4B0B-A903-565ECAB6DA2D}
  9
$VERSIONGUID
  2
{FAEB1C32-E019-11D5-929B-00C0DF256EC4}
  9
$EXTNAMES
290
     1
  9
$PSVPSCALE
 40
0.0
  9
$OLESTARTUP
290
     0
  9
$SORTENTS
280
   127
  9
$INDEXCTL
280
     0
  9
$HIDETEXT
280
     1
  9
$XCLIPFRAME
280
     2
  9
$HALOGAP
280
     0
  9
$OBSCOLOR
 70
   257
  9
$OBSLTYPE
280
     0
  9
$INTERSECTIONDISPLAY
280
     0
  9
$INTERSECTIONCOLOR
 70
   257
  9
$DIMASSOC
280
     2
  9
$PROJECTNAME
  1

  9
$CAMERADISPLAY
290
     0
  9
$LENSLENGTH
 40
50.0
  9
$CAMERAHEIGHT
 40
0.0
  9
$STEPSPERSEC
 40
2.0
  9
$STEPSIZE
 40
6.0
  9
$3DDWFPREC
 40
2.0
  9
$PSOLWIDTH
 40
5.0
  9
$PSOLHEIGHT
 40
80.0
  9
$LOFTANG1
 40
1.570796326794897
  9
$LOFTANG2
 40
1.570796326794897
  9
$LOFTMAG1
 40
0.0
  9
$LOFTMAG2
 40
0.0
  9
$LOFTPARAM
 70
     7
  9
$LOFTNORMALS
280
     1
  9
$LATITUDE
 40
37.795
  9
$LONGITUDE
 40
-122.394
  9
$NORTHDIRECTION
 40
0.0
  9
$TIMEZONE
 70
 -8000
  9
$LIGHTGLYPHDISPLAY
280
     1
  9
$TILEMODELIGHTSYNCH
280
     1
  9
$CMATERIAL
347
44
  9
$SOLIDHIST
280
     0
  9
$SHOWHIST
280
     1
  9
$DWFFRAME
280
     2
  9
$DGNFRAME
280
     2
  9
$REALWORLDSCALE
290
     1
  9
$INTERFERECOLOR
 62
   256
  9
$CSHADOW
280
     0
  9
$SHADOWPLANELOCATION
 40
0.0
  0
ENDSEC
  0
SECTION
  2
CLASSES
  0
CLASS
  1
ACDBDICTIONARYWDFLT
  2
AcDbDictionaryWithDefault
  3
ObjectDBX Classes
 90
        0
 91
        4
280
     0
281
     0
  0
CLASS
  1
VISUALSTYLE
  2
AcDbVisualStyle
  3
ObjectDBX Classes
 90
     4095
 91
        4
280
     0
281
     0
  0
CLASS
  1
MATERIAL
  2
AcDbMaterial
  3
ObjectDBX Classes
 90
     1153
 91
        4
280
     0
281
     0
  0
CLASS
  1
SCALE
  2
AcDbScale
  3
ObjectDBX Classes
 90
     1153
 91
        4
280
     0
281
     0
  0
CLASS
  1
TABLESTYLE
  2
AcDbTableStyle
  3
ObjectDBX Classes
 90
     4095
 91
        4
280
     0
281
     0
  0
CLASS
  1
MLEADERSTYLE
  2
AcDbMLeaderStyle
  3
ACDB_MLEADERSTYLE_CLASS
 90
     4095
 91
        4
280
     0
281
     0
  0
CLASS
  1
SUN
  2
AcDbSun
  3
SCENEOE
 90
     1153
 91
        4
280
     0
281
     0
  0
CLASS
  1
DICTIONARYVAR
  2
AcDbDictionaryVar
  3
ObjectDBX Classes
 90
        0
 91
        4
280
     0
281
     0
  0
CLASS
  1
CELLSTYLEMAP
  2
AcDbCellStyleMap
  3
ObjectDBX Classes
 90
     1152
 91
        4
280
     0
281
     0
  0
ENDSEC
  0
SECTION
  2
TABLES
  0
TABLE
  2
VPORT
  5
8
330
0
100
AcDbSymbolTable
 70
     1
  0
VPORT
  5
29
330
8
100
AcDbSymbolTableRecord
100
AcDbViewportTableRecord
  2
*Active
 70
     0
 10
0.0
 20
0.0
 11
1.0
 21
1.0
 12
0.0
 22
-1.178970590491303
 13
0.0
 23
0.0
 14
10.0
 24
10.0
 15
10.0
 25
10.0
 16
0.0
 26
0.0
 36
1.0
 17
0.0
 27
0.0
 37
0.0
 40
67.27710000460227
 41
1.106765897978753
 42
50.0
 43
0.0
 44
0.0
 50
0.0
 51
0.0
 71
     0
 72
   100
 73
     1
 74
     3
 75
     0
 76
     0
 77
     0
 78
     0
281
     0
 65
     1
110
0.0
120
0.0
130
0.0
111
1.0
121
0.0
131
0.0
112
0.0
122
1.0
132
0.0
 79
     0
146
0.0
348
2F
 60
     3
 61
     5
292
     1
282
     1
141
0.0
142
0.0
 63
   250
361
6D
  0
ENDTAB
  0
TABLE
  2
LTYPE
  5
5
330
0
100
AcDbSymbolTable
 70
     3
  0
LTYPE
  5
14
330
5
100
AcDbSymbolTableRecord
100
AcDbLinetypeTableRecord
  2
ByBlock
 70
     0
  3

 72
    65
 73
     0
 40
0.0
  0
LTYPE
  5
15
330
5
100
AcDbSymbolTableRecord
100
AcDbLinetypeTableRecord
  2
ByLayer
 70
     0
  3

 72
    65
 73
     0
 40
0.0
  0
LTYPE
  5
16
330
5
100
AcDbSymbolTableRecord
100
AcDbLinetypeTableRecord
  2
Continuous
 70
     0
  3
Solid line
 72
    65
 73
     0
 40
0.0
  0
LTYPE
  5
9E
330
5
100
AcDbSymbolTableRecord
100
AcDbLinetypeTableRecord
  2
Dashed
 70
     0
  3

 72
    65
 73
     2
 40
2.0
 49
1.0
 74
     0
 49
-1.0
 74
     0
  0
LTYPE
  5
A7
330
5
100
AcDbSymbolTableRecord
100
AcDbLinetypeTableRecord
  2
Center
 70
     0
  3

 72
    65
 73
     4
 40
1.5
 49
0.45
 74
     0
 49
-0.5
 74
     0
 49
0.05
 74
     0
 49
-0.5
 74
     0
  0
ENDTAB
  0
TABLE
  2
LAYER
  5
2
330
0
100
AcDbSymbolTable
 70
     7
  0
LAYER
  5
10
330
2
100
AcDbSymbolTableRecord
100
AcDbLayerTableRecord
  2
0
 70
     0
 62
     7
  6
Continuous
370
    -3
390
F
347
46
348
0
  0
LAYER
  5
72
330
2
100
AcDbSymbolTableRecord
100
AcDbLayerTableRecord
  2
AM_6
 70
     0
 62
    -2
  6
Continuous
370
    35
390
F
347
46
348
0
  0
LAYER
  5
9F
330
2
100
AcDbSymbolTableRecord
100
AcDbLayerTableRecord
  2
AM_9
 70
     0
 62
     6
  6
Dashed
370
    25
390
F
347
46
348
0
  0
LAYER
  5
A8
330
2
100
AcDbSymbolTableRecord
100
AcDbLayerTableRecord
  2
AM_7
 70
     0
 62
     7
  6
Center
370
    25
390
F
347
46
348
0
  0
LAYER
  5
AB
330
2
100
AcDbSymbolTableRecord
100
AcDbLayerTableRecord
  2
AM_4
 70
     0
 62
     3
  6
Continuous
370
    25
390
F
347
46
348
0
  0
LAYER
  5
D7
330
2
100
AcDbSymbolTableRecord
100
AcDbLayerTableRecord
  2
AM_5
 70
     0
 62
     3
  6
Continuous
370
    25
390
F
347
46
348
0
  0
LAYER
  5
1EA
330
2
100
AcDbSymbolTableRecord
100
AcDbLayerTableRecord
  2
ConnectionPoints
 70
     0
 62
     7
  6
Continuous
370
    50
390
F
347
46
348
0
  0
ENDTAB
  0
TABLE
  2
STYLE
  5
3
330
0
100
AcDbSymbolTable
 70
     1
  0
STYLE
  5
11
330
3
100
AcDbSymbolTableRecord
100
AcDbTextStyleTableRecord
  2
Standard
 70
     0
 40
0.0
 41
1.0
 50
0.0
 71
     0
 42
2.5
  3
txt
  4

  0
ENDTAB
  0
TABLE
  2
VIEW
  5
6
330
0
100
AcDbSymbolTable
 70
     0
  0
ENDTAB
  0
TABLE
  2
UCS
  5
7
330
0
100
AcDbSymbolTable
 70
     0
  0
ENDTAB
  0
TABLE
  2
APPID
  5
9
330
0
100
AcDbSymbolTable
 70
     1
  0
APPID
  5
12
330
9
100
AcDbSymbolTableRecord
100
AcDbRegAppTableRecord
  2
ACAD
 70
     0
  0
ENDTAB
  0
TABLE
  2
DIMSTYLE
  5
A
330
0
100
AcDbSymbolTable
 70
     1
100
AcDbDimStyleTable
  0
DIMSTYLE
105
27
330
A
100
AcDbSymbolTableRecord
100
AcDbDimStyleTableRecord
  2
ISO-25
 70
     0
 41
2.5
 42
0.625
 43
3.75
 44
1.25
 73
     0
 74
     0
 77
     1
 78
     8
140
2.5
141
2.5
143
0.03937007874016
147
0.625
171
     3
172
     1
178
     0
271
     2
272
     2
274
     3
278
    44
283
     0
284
     8
340
11
  0
ENDTAB
  0
TABLE
  2
BLOCK_RECORD
  5
1
330
0
100
AcDbSymbolTable
 70
     5
  0
BLOCK_RECORD
  5
1F
330
1
100
AcDbSymbolTableRecord
100
AcDbBlockTableRecord
  2
*Model_Space
340
22
 70
     0
280
     1
281
     0
  0
BLOCK_RECORD
  5
1B
330
1
100
AcDbSymbolTableRecord
100
AcDbBlockTableRecord
  2
*Paper_Space
340
1E
 70
     0
280
     1
281
     0
  0
BLOCK_RECORD
  5
23
330
1
100
AcDbSymbolTableRecord
100
AcDbBlockTableRecord
  2
*Paper_Space0
340
26
 70
     0
280
     1
281
     0
  0
BLOCK_RECORD
  5
6E
330
1
100
AcDbSymbolTableRecord
100
AcDbBlockTableRecord
  2
1_136365_0
340
0
102
{BLKREFS
331
6F
102
}
 70
     0
280
     1
281
     0
  0
BLOCK_RECORD
  5
88
330
1
100
AcDbSymbolTableRecord
100
AcDbBlockTableRecord
  2
2_129517_0_in_136365_0
340
0
102
{BLKREFS
331
89
102
}
 70
     0
280
     1
281
     0
  0
BLOCK_RECORD
  5
B3
330
1
100
AcDbSymbolTableRecord
100
AcDbBlockTableRecord
  2
3_129943_0_in_136365_0
340
0
102
{BLKREFS
331
B4
102
}
 70
     0
280
     1
281
     0
  0
BLOCK_RECORD
  5
ED
330
1
100
AcDbSymbolTableRecord
100
AcDbBlockTableRecord
  2
4_129457_0_in_136365_0
340
0
102
{BLKREFS
331
EE
102
}
 70
     0
280
     1
281
     0
  0
ENDTAB
  0
ENDSEC
  0
SECTION
  2
BLOCKS
  0
BLOCK
  5
20
330
1F
100
AcDbEntity
  8
0
100
AcDbBlockBegin
  2
*Model_Space
 70
     0
 10
0.0
 20
0.0
 30
0.0
  3
*Model_Space
  1

  0
ENDBLK
  5
21
330
1F
100
AcDbEntity
  8
0
100
AcDbBlockEnd
  0
BLOCK
  5
1C
330
1B
100
AcDbEntity
 67
     1
  8
0
100
AcDbBlockBegin
  2
*Paper_Space
 70
     0
 10
0.0
 20
0.0
 30
0.0
  3
*Paper_Space
  1

  0
ENDBLK
  5
1D
330
1B
100
AcDbEntity
 67
     1
  8
0
100
AcDbBlockEnd
  0
BLOCK
  5
24
330
23
100
AcDbEntity
  8
0
100
AcDbBlockBegin
  2
*Paper_Space0
 70
     0
 10
0.0
 20
0.0
 30
0.0
  3
*Paper_Space0
  1

  0
ENDBLK
  5
25
330
23
100
AcDbEntity
  8
0
100
AcDbBlockEnd
  0
BLOCK
  5
70
330
6E
100
AcDbEntity
  8
0
100
AcDbBlockBegin
  2
1_136365_0
 70
     2
 10
0.0
 20
0.0
 30
0.0
  3
1_136365_0
  1

  0
ATTDEF
  5
73
330
6E
100
AcDbEntity
  8
AM_6
100
AcDbText
 10
41.50000000000001
 20
31.80000000000001
 30
0.0
 40
0.5
  1
Grip Tight Tapped Base Metric Bore
100
AcDbAttributeDefinition
  3

  2
NN
 70
     8
280
     0
  0
ATTDEF
  5
74
330
6E
100
AcDbEntity
  8
AM_6
100
AcDbText
 10
41.50000000000001
 20
31.30000000000001
 30
0.0
 40
0.5
  1
GT Normal Duty Tapped Base Pillow Blocks
100
AcDbAttributeDefinition
  3

  2
NT
 70
     8
280
     0
  0
ATTDEF
  5
75
330
6E
100
AcDbEntity
  8
AM_6
100
AcDbText
 10
41.50000000000001
 20
30.80000000000001
 30
0.0
 40
0.5
  1
136365
100
AcDbAttributeDefinition
  3

  2
NB
 70
     8
280
     0
  0
ATTDEF
  5
76
330
6E
100
AcDbEntity
  8
AM_6
100
AcDbText
 10
41.50000000000001
 20
30.30000000000001
 30
0.0
 40
0.5
  1
$PN.$LUBE.
100
AcDbAttributeDefinition
  3

  2
NBSYN
 70
     8
280
     0
  0
ATTDEF
  5
77
330
6E
100
AcDbEntity
  8
AM_6
100
AcDbText
 10
41.50000000000001
 20
29.80000000000001
 30
0.0
 40
0.5
  1
136365
100
AcDbAttributeDefinition
  3

  2
LINA
 70
     8
280
     0
  0
ATTDEF
  5
78
330
6E
100
AcDbEntity
  8
AM_6
100
AcDbText
 10
41.50000000000001
 20
29.30000000000001
 30
0.0
 40
0.5
  1
204
100
AcDbAttributeDefinition
  3

  2
SERIES
 70
     8
280
     0
  0
ATTDEF
  5
79
330
6E
100
AcDbEntity
  8
AM_6
100
AcDbText
 10
41.50000000000001
 20
28.80000000000001
 30
0.0
 40
0.5
  1
20
100
AcDbAttributeDefinition
  3

  2
SS
 70
     8
280
     0
  0
ATTDEF
  5
7A
330
6E
100
AcDbEntity
  8
AM_6
100
AcDbText
 10
41.50000000000001
 20
28.30000000000001
 30
0.0
 40
0.5
  1
136365
100
AcDbAttributeDefinition
  3

  2
PN
 70
     8
280
     0
  0
ATTDEF
  5
7B
330
6E
100
AcDbEntity
  8
AM_6
100
AcDbText
 10
41.50000000000001
 20
27.80000000000001
 30
0.0
 40
0.5
  1
TB-GT-20M
100
AcDbAttributeDefinition
  3

  2
DESCRIPTION
 70
     8
280
     0
  0
ATTDEF
  5
7C
330
6E
100
AcDbEntity
  8
AM_6
100
AcDbText
 10
41.50000000000001
 20
27.30000000000001
 30
0.0
 40
0.5
  1
37.3
100
AcDbAttributeDefinition
  3

  2
A
 70
     8
280
     0
  0
ATTDEF
  5
7D
330
6E
100
AcDbEntity
  8
AM_6
100
AcDbText
 10
41.50000000000001
 20
26.80000000000001
 30
0.0
 40
0.5
  1
73.0
100
AcDbAttributeDefinition
  3

  2
B
 70
     8
280
     0
  0
ATTDEF
  5
7E
330
6E
100
AcDbEntity
  8
AM_6
100
AcDbText
 10
41.50000000000001
 20
26.30000000000001
 30
0.0
 40
0.5
  1
38.1
100
AcDbAttributeDefinition
  3

  2
C
 70
     8
280
     0
  0
ATTDEF
  5
7F
330
6E
100
AcDbEntity
  8
AM_6
100
AcDbText
 10
41.50000000000001
 20
25.80000000000001
 30
0.0
 40
0.5
  1
50.8
100
AcDbAttributeDefinition
  3

  2
D
 70
     8
280
     0
  0
ATTDEF
  5
80
330
6E
100
AcDbEntity
  8
AM_6
100
AcDbText
 10
41.50000000000001
 20
25.30000000000001
 30
0.0
 40
0.5
  1
65.1
100
AcDbAttributeDefinition
  3

  2
J
 70
     8
280
     0
  0
ATTDEF
  5
81
330
6E
100
AcDbEntity
  8
AM_6
100
AcDbText
 10
41.50000000000001
 20
24.80000000000001
 30
0.0
 40
0.5
  1
38.1
100
AcDbAttributeDefinition
  3

  2
L
 70
     8
280
     0
  0
ATTDEF
  5
82
330
6E
100
AcDbEntity
  8
AM_6
100
AcDbText
 10
41.50000000000001
 20
24.30000000000001
 30
0.0
 40
0.5
  1
33.3
100
AcDbAttributeDefinition
  3

  2
M
 70
     8
280
     0
  0
ATTDEF
  5
83
330
6E
100
AcDbEntity
  8
AM_6
100
AcDbText
 10
41.50000000000001
 20
23.80000000000001
 30
0.0
 40
0.5
  1
12.7
100
AcDbAttributeDefinition
  3

  2
N
 70
     8
280
     0
  0
ATTDEF
  5
84
330
6E
100
AcDbEntity
  8
AM_6
100
AcDbText
 10
41.50000000000001
 20
23.30000000000001
 30
0.0
 40
0.5
  1
M8 
100
AcDbAttributeDefinition
  3

  2
R
 70
     8
280
     0
  0
ATTDEF
  5
85
330
6E
100
AcDbEntity
  8
AM_6
100
AcDbText
 10
41.50000000000001
 20
22.80000000000001
 30
0.0
 40
0.5
  1
25.0
100
AcDbAttributeDefinition
  3

  2
S
 70
     8
280
     0
  0
ATTDEF
  5
86
330
6E
100
AcDbEntity
  8
AM_6
100
AcDbText
 10
41.50000000000001
 20
22.30000000000001
 30
0.0
 40
0.5
  1
25.0
100
AcDbAttributeDefinition
  3

  2
Z
 70
     8
280
     0
  0
ATTDEF
  5
87
330
6E
100
AcDbEntity
  8
AM_6
100
AcDbText
 10
41.50000000000001
 20
21.80000000000001
 30
0.0
 40
0.5
  1
baldor
100
AcDbAttributeDefinition
  3

  2
COMPANY
 70
     8
280
     0
  0
INSERT
  5
89
330
6E
100
AcDbEntity
  8
0
100
AcDbBlockReference
  2
2_129517_0_in_136365_0
 10
0.0
 20
0.0
 30
0.0
  0
INSERT
  5
B4
330
6E
100
AcDbEntity
  8
0
100
AcDbBlockReference
  2
3_129943_0_in_136365_0
 10
0.0
 20
0.0
 30
0.0
  0
INSERT
  5
EE
330
6E
100
AcDbEntity
  8
0
100
AcDbBlockReference
  2
4_129457_0_in_136365_0
 10
0.0
 20
0.0
 30
0.0
  0
ENDBLK
  5
71
330
6E
100
AcDbEntity
  8
0
100
AcDbBlockEnd
  0
BLOCK
  5
8A
330
88
100
AcDbEntity
  8
0
100
AcDbBlockBegin
  2
2_129517_0_in_136365_0
 70
     2
 10
0.0
 20
0.0
 30
0.0
  3
2_129517_0_in_136365_0
  1

  0
ATTDEF
  5
8C
330
88
100
AcDbEntity
  8
AM_6
100
AcDbText
 10
29.44011670871923
 20
24.44011670871923
 30
0.0
 40
0.5
  1
INS-GT-M B
100
AcDbAttributeDefinition
  3

  2
NN
 70
     8
280
     0
  0
ATTDEF
  5
8D
330
88
100
AcDbEntity
  8
AM_6
100
AcDbText
 10
29.44011670871923
 20
23.94011670871923
 30
0.0
 40
0.5
  1
GT Normal Duty Bearing Inserts
100
AcDbAttributeDefinition
  3

  2
NT
 70
     8
280
     0
  0
ATTDEF
  5
8E
330
88
100
AcDbEntity
  8
AM_6
100
AcDbText
 10
29.44011670871923
 20
23.44011670871923
 30
0.0
 40
0.5
  1
129517
100
AcDbAttributeDefinition
  3

  2
NB
 70
     8
280
     0
  0
ATTDEF
  5
8F
330
88
100
AcDbEntity
  8
AM_6
100
AcDbText
 10
29.44011670871923
 20
22.94011670871923
 30
0.0
 40
0.5
  1
$PN.
100
AcDbAttributeDefinition
  3

  2
NBSYN
 70
     8
280
     0
  0
ATTDEF
  5
90
330
88
100
AcDbEntity
  8
AM_6
100
AcDbText
 10
29.44011670871923
 20
22.44011670871923
 30
0.0
 40
0.5
  1
129517
100
AcDbAttributeDefinition
  3

  2
LINA
 70
     8
280
     0
  0
ATTDEF
  5
91
330
88
100
AcDbEntity
  8
AM_6
100
AcDbText
 10
29.44011670871923
 20
21.94011670871923
 30
0.0
 40
0.5
  1
204
100
AcDbAttributeDefinition
  3

  2
SERIES
 70
     8
280
     0
  0
ATTDEF
  5
92
330
88
100
AcDbEntity
  8
AM_6
100
AcDbText
 10
29.44011670871923
 20
21.44011670871923
 30
0.0
 40
0.5
  1
129517
100
AcDbAttributeDefinition
  3

  2
PN
 70
     8
280
     0
  0
ATTDEF
  5
93
330
88
100
AcDbEntity
  8
AM_6
100
AcDbText
 10
29.44011670871923
 20
20.94011670871923
 30
0.0
 40
0.5
  1
INS-GT-04
100
AcDbAttributeDefinition
  3

  2
DESCRIPTION
 70
     8
280
     0
  0
ATTDEF
  5
94
330
88
100
AcDbEntity
  8
AM_6
100
AcDbText
 10
29.44011670871923
 20
20.44011670871923
 30
0.0
 40
0.5
  1
37.6
100
AcDbAttributeDefinition
  3

  2
A
 70
     8
280
     0
  0
ATTDEF
  5
95
330
88
100
AcDbEntity
  8
AM_6
100
AcDbText
 10
29.44011670871923
 20
19.94011670871923
 30
0.0
 40
0.5
  1
14.7
100
AcDbAttributeDefinition
  3

  2
C
 70
     8
280
     0
  0
ATTDEF
  5
96
330
88
100
AcDbEntity
  8
AM_6
100
AcDbText
 10
29.44011670871923
 20
19.44011670871923
 30
0.0
 40
0.5
  1
47.0
100
AcDbAttributeDefinition
  3

  2
D
 70
     8
280
     0
  0
ATTDEF
  5
97
330
88
100
AcDbEntity
  8
AM_6
100
AcDbText
 10
29.44011670871923
 20
18.94011670871923
 30
0.0
 40
0.5
  1
3.8
100
AcDbAttributeDefinition
  3

  2
J
 70
     8
280
     0
  0
ATTDEF
  5
98
330
88
100
AcDbEntity
  8
AM_6
100
AcDbText
 10
29.44011670871923
 20
18.44011670871923
 30
0.0
 40
0.5
  1
38.1
100
AcDbAttributeDefinition
  3

  2
L
 70
     8
280
     0
  0
ATTDEF
  5
99
330
88
100
AcDbEntity
  8
AM_6
100
AcDbText
 10
29.44011670871923
 20
17.94011670871923
 30
0.0
 40
0.5
  1
#10 - 32 x 1/4
100
AcDbAttributeDefinition
  3

  2
N
 70
     8
280
     0
  0
ATTDEF
  5
9A
330
88
100
AcDbEntity
  8
AM_6
100
AcDbText
 10
29.44011670871923
 20
17.44011670871923
 30
0.0
 40
0.5
  1
11.7
100
AcDbAttributeDefinition
  3

  2
W
 70
     8
280
     0
  0
ATTDEF
  5
9B
330
88
100
AcDbEntity
  8
AM_6
100
AcDbText
 10
29.44011670871923
 20
16.94011670871923
 30
0.0
 40
0.5
  1
26.2
100
AcDbAttributeDefinition
  3

  2
X
 70
     8
280
     0
  0
ATTDEF
  5
9C
330
88
100
AcDbEntity
  8
AM_6
100
AcDbText
 10
29.44011670871923
 20
16.44011670871923
 30
0.0
 40
0.5
  1
25.9
100
AcDbAttributeDefinition
  3

  2
Y
 70
     8
280
     0
  0
ATTDEF
  5
9D
330
88
100
AcDbEntity
  8
AM_6
100
AcDbText
 10
29.44011670871923
 20
15.94011670871923
 30
0.0
 40
0.5
  1
baldor
100
AcDbAttributeDefinition
  3

  2
COMPANY
 70
     8
280
     0
  0
CIRCLE
  5
A0
330
88
100
AcDbEntity
  8
AM_9
100
AcDbCircle
 10
0.0
 20
0.0
 30
0.0
 40
14.92271702490929
  0
CIRCLE
  5
A1
330
88
100
AcDbEntity
  8
AM_9
100
AcDbCircle
 10
0.0
 20
0.0
 30
0.0
 40
22.03
  0
CIRCLE
  5
A2
330
88
100
AcDbEntity
  8
AM_9
100
AcDbCircle
 10
0.0
 20
0.0
 30
0.0
 40
22.75952694001672
  0
CIRCLE
  5
A3
330
88
100
AcDbEntity
  8
AM_9
100
AcDbCircle
 10
0.0
 20
0.0
 30
0.0
 40
15.57261904761905
  0
ARC
  5
A4
330
88
100
AcDbEntity
  8
AM_9
100
AcDbCircle
 10
-0.0000000000000094
 20
0.0000000000000021
 30
0.0
 40
14.21190476190476
100
AcDbArc
 50
95.02436480762469
 51
84.99008687375763
  0
CIRCLE
  5
A5
330
88
100
AcDbEntity
  8
AM_9
100
AcDbCircle
 10
0.0
 20
0.0
 30
0.0
 40
16.34533333333333
  0
CIRCLE
  5
A6
330
88
100
AcDbEntity
  8
AM_9
100
AcDbCircle
 10
0.0
 20
0.0
 30
0.0
 40
16.93333333333333
  0
LINE
  5
A9
330
88
100
AcDbEntity
  8
AM_7
100
AcDbLine
 10
-24.44011670871923
 20
0.0
 30
0.0
 11
24.44011670871923
 21
0.0
 31
0.0
  0
LINE
  5
AA
330
88
100
AcDbEntity
  8
AM_7
100
AcDbLine
 10
0.0
 20
-24.44011670871923
 30
0.0
 11
0.0
 21
24.44011670871923
 31
0.0
  0
CIRCLE
  5
AC
330
88
100
AcDbEntity
  8
AM_4
100
AcDbCircle
 10
0.0
 20
0.0
 30
0.0
 40
23.13102238406432
  0
CIRCLE
  5
AD
330
88
100
AcDbEntity
  8
AM_4
100
AcDbCircle
 10
0.0
 20
0.0
 30
0.0
 40
23.27630162735165
  0
CIRCLE
  5
AE
330
88
100
AcDbEntity
  8
AM_4
100
AcDbCircle
 10
0.0
 20
0.0
 30
0.0
 40
22.90652694001673
  0
CIRCLE
  5
AF
330
88
100
AcDbEntity
  8
AM_4
100
AcDbCircle
 10
0.0
 20
0.0
 30
0.0
 40
22.90192636365818
  0
CIRCLE
  5
B0
330
88
100
AcDbEntity
  8
AM_4
100
AcDbCircle
 10
0.0
 20
0.0
 30
0.0
 40
22.18095900231976
  0
CIRCLE
  5
B1
330
88
100
AcDbEntity
  8
AM_4
100
AcDbCircle
 10
0.0
 20
0.0
 30
0.0
 40
21.63354487917145
  0
ARC
  5
B2
330
88
100
AcDbEntity
  8
AM_4
100
AcDbCircle
 10
0.0000000000000007
 20
0.0000000000000835
 30
0.0
 40
14.21190476190468
100
AcDbArc
 50
84.99008687375765
 51
95.02436480762476
  0
ENDBLK
  5
8B
330
88
100
AcDbEntity
  8
0
100
AcDbBlockEnd
  0
BLOCK
  5
B5
330
B3
100
AcDbEntity
  8
0
100
AcDbBlockBegin
  2
3_129943_0_in_136365_0
 70
     2
 10
0.0
 20
0.0
 30
0.0
  3
3_129943_0_in_136365_0
  1

  0
ATTDEF
  5
B7
330
B3
100
AcDbEntity
  8
AM_6
100
AcDbText
 10
23.94993403682451
 20
19.04933875577034
 30
0.0
 40
0.5
  1
Grip Tight Normal Duty Adapter and Nut Metric Bore
100
AcDbAttributeDefinition
  3

  2
NN
 70
     8
280
     0
  0
ATTDEF
  5
B8
330
B3
100
AcDbEntity
  8
AM_6
100
AcDbText
 10
23.94993403682451
 20
18.54933875577034
 30
0.0
 40
0.5
  1
GT and GTM Adapter & Lock Nut Assemblies
100
AcDbAttributeDefinition
  3

  2
NT
 70
     8
280
     0
  0
ATTDEF
  5
B9
330
B3
100
AcDbEntity
  8
AM_6
100
AcDbText
 10
23.94993403682451
 20
18.04933875577034
 30
0.0
 40
0.5
  1
129943
100
AcDbAttributeDefinition
  3

  2
NB
 70
     8
280
     0
  0
ATTDEF
  5
BA
330
B3
100
AcDbEntity
  8
AM_6
100
AcDbText
 10
23.94993403682451
 20
17.54933875577034
 30
0.0
 40
0.5
  1
$PN.
100
AcDbAttributeDefinition
  3

  2
NBSYN
 70
     8
280
     0
  0
ATTDEF
  5
BB
330
B3
100
AcDbEntity
  8
AM_6
100
AcDbText
 10
23.94993403682451
 20
17.04933875577034
 30
0.0
 40
0.5
  1
129943
100
AcDbAttributeDefinition
  3

  2
LINA
 70
     8
280
     0
  0
ATTDEF
  5
BC
330
B3
100
AcDbEntity
  8
AM_6
100
AcDbText
 10
23.94993403682451
 20
16.54933875577034
 30
0.0
 40
0.5
  1
204
100
AcDbAttributeDefinition
  3

  2
SERIES
 70
     8
280
     0
  0
ATTDEF
  5
BD
330
B3
100
AcDbEntity
  8
AM_6
100
AcDbText
 10
23.94993403682451
 20
16.04933875577034
 30
0.0
 40
0.5
  1
20
100
AcDbAttributeDefinition
  3

  2
SS
 70
     8
280
     0
  0
ATTDEF
  5
BE
330
B3
100
AcDbEntity
  8
AM_6
100
AcDbText
 10
23.94993403682451
 20
15.54933875577034
 30
0.0
 40
0.5
  1
129943
100
AcDbAttributeDefinition
  3

  2
PN
 70
     8
280
     0
  0
ATTDEF
  5
BF
330
B3
100
AcDbEntity
  8
AM_6
100
AcDbText
 10
23.94993403682451
 20
15.04933875577034
 30
0.0
 40
0.5
  1
AN-GT-04-20M
100
AcDbAttributeDefinition
  3

  2
DESCRIPTION
 70
     8
280
     0
  0
ATTDEF
  5
C0
330
B3
100
AcDbEntity
  8
AM_6
100
AcDbText
 10
23.94993403682451
 20
14.54933875577034
 30
0.0
 40
0.5
  1
37.3
100
AcDbAttributeDefinition
  3

  2
A
 70
     8
280
     0
  0
ATTDEF
  5
C1
330
B3
100
AcDbEntity
  8
AM_6
100
AcDbText
 10
23.94993403682451
 20
14.04933875577034
 30
0.0
 40
0.5
  1
15.0
100
AcDbAttributeDefinition
  3

  2
C
 70
     8
280
     0
  0
ATTDEF
  5
C2
330
B3
100
AcDbEntity
  8
AM_6
100
AcDbText
 10
23.94993403682451
 20
13.54933875577034
 30
0.0
 40
0.5
  1
47.0
100
AcDbAttributeDefinition
  3

  2
D
 70
     8
280
     0
  0
ATTDEF
  5
C3
330
B3
100
AcDbEntity
  8
AM_6
100
AcDbText
 10
23.94993403682451
 20
13.04933875577034
 30
0.0
 40
0.5
  1
3.9
100
AcDbAttributeDefinition
  3

  2
J
 70
     8
280
     0
  0
ATTDEF
  5
C4
330
B3
100
AcDbEntity
  8
AM_6
100
AcDbText
 10
23.94993403682451
 20
12.54933875577034
 30
0.0
 40
0.5
  1
38.1
100
AcDbAttributeDefinition
  3

  2
L
 70
     8
280
     0
  0
ATTDEF
  5
C5
330
B3
100
AcDbEntity
  8
AM_6
100
AcDbText
 10
23.94993403682451
 20
12.04933875577034
 30
0.0
 40
0.5
  1
10 - 32 x 1/4
100
AcDbAttributeDefinition
  3

  2
N
 70
     8
280
     0
  0
ATTDEF
  5
C6
330
B3
100
AcDbEntity
  8
AM_6
100
AcDbText
 10
23.94993403682451
 20
11.54933875577034
 30
0.0
 40
0.5
  1
12.3
100
AcDbAttributeDefinition
  3

  2
W
 70
     8
280
     0
  0
ATTDEF
  5
C7
330
B3
100
AcDbEntity
  8
AM_6
100
AcDbText
 10
23.94993403682451
 20
11.04933875577034
 30
0.0
 40
0.5
  1
25.0
100
AcDbAttributeDefinition
  3

  2
X
 70
     8
280
     0
  0
ATTDEF
  5
C8
330
B3
100
AcDbEntity
  8
AM_6
100
AcDbText
 10
23.94993403682451
 20
10.54933875577034
 30
0.0
 40
0.5
  1
25.0
100
AcDbAttributeDefinition
  3

  2
Y
 70
     8
280
     0
  0
ATTDEF
  5
C9
330
B3
100
AcDbEntity
  8
AM_6
100
AcDbText
 10
23.94993403682451
 20
10.04933875577034
 30
0.0
 40
0.5
  1
baldor
100
AcDbAttributeDefinition
  3

  2
COMPANY
 70
     8
280
     0
  0
LINE
  5
CA
330
B3
100
AcDbEntity
  8
AM_9
100
AcDbLine
 10
1.25
 20
14.21253562576836
 30
0.0
 11
1.25
 21
14.91652928408652
 31
0.0
  0
LINE
  5
CB
330
B3
100
AcDbEntity
  8
AM_9
100
AcDbLine
 10
-1.25
 20
14.21253562576836
 30
0.0
 11
-1.25
 21
14.91652928408652
 31
0.0
  0
ARC
  5
CC
330
B3
100
AcDbEntity
  8
AM_9
100
AcDbCircle
 10
0.0
 20
0.0000000000000016
 30
0.0
 40
14.96881244063839
100
AcDbArc
 50
94.79017463460902
 51
85.209825365391
  0
CIRCLE
  5
CD
330
B3
100
AcDbEntity
  8
AM_9
100
AcDbCircle
 10
0.0
 20
0.0
 30
0.0
 40
17.12383333333334
  0
LINE
  5
CE
330
B3
100
AcDbEntity
  8
AM_9
100
AcDbLine
 10
-18.6182
 20
-1.981199999999999
 30
0.0
 11
-14.7193
 21
-1.981199999999999
 31
0.0
  0
LINE
  5
CF
330
B3
100
AcDbEntity
  8
AM_9
100
AcDbLine
 10
-14.7193
 20
1.981199999999999
 30
0.0
 11
-18.6182
 21
1.981199999999999
 31
0.0
  0
LINE
  5
D0
330
B3
100
AcDbEntity
  8
AM_9
100
AcDbLine
 10
-14.7193
 20
-1.981199999999999
 30
0.0
 11
-14.2875
 21
-2.412999999999998
 31
0.0
  0
LINE
  5
D1
330
B3
100
AcDbEntity
  8
AM_9
100
AcDbLine
 10
-14.2875
 20
2.412999999999998
 30
0.0
 11
-14.7193
 21
1.981199999999999
 31
0.0
  0
LINE
  5
D2
330
B3
100
AcDbEntity
  8
AM_9
100
AcDbLine
 10
-14.2875
 20
2.412999999999998
 30
0.0
 11
-14.2875
 21
-2.412999999999998
 31
0.0
  0
LINE
  5
D3
330
B3
100
AcDbEntity
  8
AM_9
100
AcDbLine
 10
-14.7193
 20
1.981199999999999
 30
0.0
 11
-14.7193
 21
-1.981199999999999
 31
0.0
  0
LINE
  5
D4
330
B3
100
AcDbEntity
  8
AM_9
100
AcDbLine
 10
-18.6182
 20
1.981199999999999
 30
0.0
 11
-18.90985989624251
 21
2.272859896242507
 31
0.0
  0
LINE
  5
D5
330
B3
100
AcDbEntity
  8
AM_9
100
AcDbLine
 10
-18.91048163257259
 20
-2.273481632572589
 30
0.0
 11
-18.6182
 21
-1.981199999999999
 31
0.0
  0
LINE
  5
D6
330
B3
100
AcDbEntity
  8
AM_9
100
AcDbLine
 10
-18.6182
 20
1.981199999999999
 30
0.0
 11
-18.6182
 21
-1.981199999999999
 31
0.0
  0
LINE
  5
D8
330
B3
100
AcDbEntity
  8
AM_5
100
AcDbLine
 10
-18.89655870787059
 20
-2.412999999999998
 30
0.0
 11
-14.2875
 21
-2.412999999999998
 31
0.0
  0
LINE
  5
D9
330
B3
100
AcDbEntity
  8
AM_5
100
AcDbLine
 10
-18.89655870787059
 20
2.413000000000002
 30
0.0
 11
-14.2875
 21
2.413000000000002
 31
0.0
  0
LINE
  5
DA
330
B3
100
AcDbEntity
  8
AM_4
100
AcDbLine
 10
17.77999576665255
 20
-1.95
 30
0.0
 11
18.94993403682451
 21
-1.95
 31
0.0
  0
LINE
  5
DB
330
B3
100
AcDbEntity
  8
AM_4
100
AcDbLine
 10
18.94993403682451
 20
1.95
 30
0.0
 11
17.77999576665255
 21
1.95
 31
0.0
  0
LINE
  5
DC
330
B3
100
AcDbEntity
  8
AM_4
100
AcDbLine
 10
17.77999576665255
 20
1.95
 30
0.0
 11
17.77999576665255
 21
-1.95
 31
0.0
  0
LINE
  5
DD
330
B3
100
AcDbEntity
  8
AM_4
100
AcDbLine
 10
-10.57874742070593
 20
-14.42292801310089
 30
0.0
 11
-11.16371655579191
 21
-15.43612427592943
 31
0.0
  0
LINE
  5
DE
330
B3
100
AcDbEntity
  8
AM_4
100
AcDbLine
 10
-7.20124834594662
 20
-16.37292801310089
 30
0.0
 11
-10.57874742070593
 21
-14.42292801310089
 31
0.0
  0
LINE
  5
DF
330
B3
100
AcDbEntity
  8
AM_4
100
AcDbLine
 10
-7.786217481032596
 20
-17.38612427592942
 30
0.0
 11
-7.20124834594662
 21
-16.37292801310089
 31
0.0
  0
LINE
  5
E0
330
B3
100
AcDbEntity
  8
AM_4
100
AcDbLine
 10
-10.57874742070594
 20
14.42292801310088
 30
0.0
 11
-7.201248345946629
 21
16.37292801310088
 31
0.0
  0
LINE
  5
E1
330
B3
100
AcDbEntity
  8
AM_4
100
AcDbLine
 10
-7.201248345946629
 20
16.37292801310088
 30
0.0
 11
-7.786217481032606
 21
17.38612427592942
 31
0.0
  0
LINE
  5
E2
330
B3
100
AcDbEntity
  8
AM_4
100
AcDbLine
 10
1.25
 20
14.21190476190476
 30
0.0
 11
1.25
 21
9.921567416492216
 31
0.0
  0
ARC
  5
E3
330
B3
100
AcDbEntity
  8
AM_4
100
AcDbCircle
 10
0.0
 20
0.0000000000000008
 30
0.0
 40
10.0
100
AcDbArc
 50
97.18075578145829
 51
82.81924421854173
  0
LINE
  5
E4
330
B3
100
AcDbEntity
  8
AM_4
100
AcDbLine
 10
-1.25
 20
14.21190476190476
 30
0.0
 11
-1.25
 21
9.921567416492216
 31
0.0
  0
LINE
  5
E5
330
B3
100
AcDbEntity
  8
AM_4
100
AcDbLine
 10
1.25
 20
14.21190476190476
 30
0.0
 11
-1.25
 21
14.21190476190476
 31
0.0
  0
LINE
  5
E6
330
B3
100
AcDbEntity
  8
AM_4
100
AcDbLine
 10
-11.16371655579191
 20
15.43612427592942
 30
0.0
 11
-10.57874742070594
 21
14.42292801310088
 31
0.0
  0
ARC
  5
E7
330
B3
100
AcDbEntity
  8
AM_4
100
AcDbCircle
 10
0.0000000000000063
 20
-0.0000000000000071
 30
0.0
 40
19.04999999999999
100
AcDbArc
 50
245.8752130383039
 51
354.1247869616961
  0
ARC
  5
E8
330
B3
100
AcDbEntity
  8
AM_4
100
AcDbCircle
 10
0.0000000000000026
 20
-0.0000000000000071
 30
0.0
 40
18.45
100
AcDbArc
 50
246.0669827554258
 51
353.9330172445742
  0
ARC
  5
E9
330
B3
100
AcDbEntity
  8
AM_4
100
AcDbCircle
 10
0.0
 20
0.0000000000000009
 30
0.0
 40
18.45
100
AcDbArc
 50
126.0669827554259
 51
233.9330172445741
  0
ARC
  5
EA
330
B3
100
AcDbEntity
  8
AM_4
100
AcDbCircle
 10
-0.0000000000000018
 20
-0.0000000000000027
 30
0.0
 40
19.05
100
AcDbArc
 50
125.8752130383039
 51
234.1247869616961
  0
ARC
  5
EB
330
B3
100
AcDbEntity
  8
AM_4
100
AcDbCircle
 10
0.0000000000000036
 20
0.0000000000000053
 30
0.0
 40
19.05
100
AcDbArc
 50
5.87521303830387
 51
114.1247869616962
  0
ARC
  5
EC
330
B3
100
AcDbEntity
  8
AM_4
100
AcDbCircle
 10
-0.0000000000000018
 20
-0.0000000000000018
 30
0.0
 40
18.45000000000001
100
AcDbArc
 50
6.066982755425895
 51
113.9330172445741
  0
ENDBLK
  5
B6
330
B3
100
AcDbEntity
  8
0
100
AcDbBlockEnd
  0
BLOCK
  5
EF
330
ED
100
AcDbEntity
  8
0
100
AcDbBlockBegin
  2
4_129457_0_in_136365_0
 70
     2
 10
0.0
 20
0.0
 30
0.0
  3
4_129457_0_in_136365_0
  1

  0
ATTDEF
  5
F1
330
ED
100
AcDbEntity
  8
AM_6
100
AcDbText
 10
41.50000000000001
 20
31.80000000000001
 30
0.0
 40
0.5
  1
TB-GT-M-Body
100
AcDbAttributeDefinition
  3

  2
NN
 70
     8
280
     0
  0
ATTDEF
  5
F2
330
ED
100
AcDbEntity
  8
AM_6
100
AcDbText
 10
41.50000000000001
 20
31.30000000000001
 30
0.0
 40
0.5
  1
GT Normal Duty Tapped Base Pillow Blocks
100
AcDbAttributeDefinition
  3

  2
NT
 70
     8
280
     0
  0
ATTDEF
  5
F3
330
ED
100
AcDbEntity
  8
AM_6
100
AcDbText
 10
41.50000000000001
 20
30.80000000000001
 30
0.0
 40
0.5
  1
129457
100
AcDbAttributeDefinition
  3

  2
NB
 70
     8
280
     0
  0
ATTDEF
  5
F4
330
ED
100
AcDbEntity
  8
AM_6
100
AcDbText
 10
41.50000000000001
 20
30.30000000000001
 30
0.0
 40
0.5
  1
$PN.$LUBE.
100
AcDbAttributeDefinition
  3

  2
NBSYN
 70
     8
280
     0
  0
ATTDEF
  5
F5
330
ED
100
AcDbEntity
  8
AM_6
100
AcDbText
 10
41.50000000000001
 20
29.80000000000001
 30
0.0
 40
0.5
  1
129457
100
AcDbAttributeDefinition
  3

  2
LINA
 70
     8
280
     0
  0
ATTDEF
  5
F6
330
ED
100
AcDbEntity
  8
AM_6
100
AcDbText
 10
41.50000000000001
 20
29.30000000000001
 30
0.0
 40
0.5
  1
204
100
AcDbAttributeDefinition
  3

  2
SERIES
 70
     8
280
     0
  0
ATTDEF
  5
F7
330
ED
100
AcDbEntity
  8
AM_6
100
AcDbText
 10
41.50000000000001
 20
28.80000000000001
 30
0.0
 40
0.5
  1
20
100
AcDbAttributeDefinition
  3

  2
SS
 70
     8
280
     0
  0
ATTDEF
  5
F8
330
ED
100
AcDbEntity
  8
AM_6
100
AcDbText
 10
41.50000000000001
 20
28.30000000000001
 30
0.0
 40
0.5
  1
129457
100
AcDbAttributeDefinition
  3

  2
PN
 70
     8
280
     0
  0
ATTDEF
  5
F9
330
ED
100
AcDbEntity
  8
AM_6
100
AcDbText
 10
41.50000000000001
 20
27.80000000000001
 30
0.0
 40
0.5
  1
TB-GT-04
100
AcDbAttributeDefinition
  3

  2
DESCRIPTION
 70
     8
280
     0
  0
ATTDEF
  5
FA
330
ED
100
AcDbEntity
  8
AM_6
100
AcDbText
 10
41.50000000000001
 20
27.30000000000001
 30
0.0
 40
0.5
  1
37.3
100
AcDbAttributeDefinition
  3

  2
A
 70
     8
280
     0
  0
ATTDEF
  5
FB
330
ED
100
AcDbEntity
  8
AM_6
100
AcDbText
 10
41.50000000000001
 20
26.80000000000001
 30
0.0
 40
0.5
  1
73.0
100
AcDbAttributeDefinition
  3

  2
B
 70
     8
280
     0
  0
ATTDEF
  5
FC
330
ED
100
AcDbEntity
  8
AM_6
100
AcDbText
 10
41.50000000000001
 20
26.30000000000001
 30
0.0
 40
0.5
  1
38.1
100
AcDbAttributeDefinition
  3

  2
C
 70
     8
280
     0
  0
ATTDEF
  5
FD
330
ED
100
AcDbEntity
  8
AM_6
100
AcDbText
 10
41.50000000000001
 20
25.80000000000001
 30
0.0
 40
0.5
  1
50.8
100
AcDbAttributeDefinition
  3

  2
D
 70
     8
280
     0
  0
ATTDEF
  5
FE
330
ED
100
AcDbEntity
  8
AM_6
100
AcDbText
 10
41.50000000000001
 20
25.30000000000001
 30
0.0
 40
0.5
  1
65.1
100
AcDbAttributeDefinition
  3

  2
J
 70
     8
280
     0
  0
ATTDEF
  5
FF
330
ED
100
AcDbEntity
  8
AM_6
100
AcDbText
 10
41.50000000000001
 20
24.80000000000001
 30
0.0
 40
0.5
  1
38.1
100
AcDbAttributeDefinition
  3

  2
L
 70
     8
280
     0
  0
ATTDEF
  5
100
330
ED
100
AcDbEntity
  8
AM_6
100
AcDbText
 10
41.50000000000001
 20
24.30000000000001
 30
0.0
 40
0.5
  1
33.3
100
AcDbAttributeDefinition
  3

  2
M
 70
     8
280
     0
  0
ATTDEF
  5
101
330
ED
100
AcDbEntity
  8
AM_6
100
AcDbText
 10
41.50000000000001
 20
23.80000000000001
 30
0.0
 40
0.5
  1
12.7
100
AcDbAttributeDefinition
  3

  2
N
 70
     8
280
     0
  0
ATTDEF
  5
102
330
ED
100
AcDbEntity
  8
AM_6
100
AcDbText
 10
41.50000000000001
 20
23.30000000000001
 30
0.0
 40
0.5
  1
M8 
100
AcDbAttributeDefinition
  3

  2
R
 70
     8
280
     0
  0
ATTDEF
  5
103
330
ED
100
AcDbEntity
  8
AM_6
100
AcDbText
 10
41.50000000000001
 20
22.80000000000001
 30
0.0
 40
0.5
  1
25.0
100
AcDbAttributeDefinition
  3

  2
S
 70
     8
280
     0
  0
ATTDEF
  5
104
330
ED
100
AcDbEntity
  8
AM_6
100
AcDbText
 10
41.50000000000001
 20
22.30000000000001
 30
0.0
 40
0.5
  1
25.0
100
AcDbAttributeDefinition
  3

  2
Z
 70
     8
280
     0
  0
ATTDEF
  5
105
330
ED
100
AcDbEntity
  8
AM_6
100
AcDbText
 10
41.50000000000001
 20
21.80000000000001
 30
0.0
 40
0.5
  1
baldor
100
AcDbAttributeDefinition
  3

  2
COMPANY
 70
     8
280
     0
  0
LINE
  5
106
330
ED
100
AcDbEntity
  8
AM_9
100
AcDbLine
 10
-28.7235
 20
-18.06
 30
0.0
 11
-28.7235
 21
-32.62349999999999
 31
0.0
  0
LINE
  5
107
330
ED
100
AcDbEntity
  8
AM_9
100
AcDbLine
 10
-22.0765
 20
-32.62349999999999
 30
0.0
 11
-22.0765
 21
-18.06
 31
0.0
  0
LINE
  5
108
330
ED
100
AcDbEntity
  8
AM_9
100
AcDbLine
 10
22.0765
 20
-18.06
 30
0.0
 11
22.0765
 21
-32.62349999999999
 31
0.0
  0
LINE
  5
109
330
ED
100
AcDbEntity
  8
AM_9
100
AcDbLine
 10
28.7235
 20
-32.62349999999999
 30
0.0
 11
28.7235
 21
-18.06
 31
0.0
  0
LINE
  5
10A
330
ED
100
AcDbEntity
  8
AM_9
100
AcDbLine
 10
-25.4
 20
-16.14117638034828
 30
0.0
 11
-28.7235
 21
-18.06
 31
0.0
  0
LINE
  5
10B
330
ED
100
AcDbEntity
  8
AM_9
100
AcDbLine
 10
-22.0765
 20
-18.06
 30
0.0
 11
-25.4
 21
-16.14117638034828
 31
0.0
  0
LINE
  5
10C
330
ED
100
AcDbEntity
  8
AM_9
100
AcDbLine
 10
-22.0765
 20
-18.06
 30
0.0
 11
-28.7235
 21
-18.06
 31
0.0
  0
LINE
  5
10D
330
ED
100
AcDbEntity
  8
AM_9
100
AcDbLine
 10
25.4
 20
-16.14117638034828
 30
0.0
 11
22.0765
 21
-18.06
 31
0.0
  0
LINE
  5
10E
330
ED
100
AcDbEntity
  8
AM_9
100
AcDbLine
 10
28.7235
 20
-18.06
 30
0.0
 11
25.4
 21
-16.14117638034828
 31
0.0
  0
LINE
  5
10F
330
ED
100
AcDbEntity
  8
AM_9
100
AcDbLine
 10
28.7235
 20
-18.06
 30
0.0
 11
22.0765
 21
-18.06
 31
0.0
  0
LINE
  5
110
330
ED
100
AcDbEntity
  8
AM_9
100
AcDbLine
 10
22.0765
 20
-32.62349999999999
 30
0.0
 11
21.4
 21
-33.3
 31
0.0
  0
LINE
  5
111
330
ED
100
AcDbEntity
  8
AM_9
100
AcDbLine
 10
29.4
 20
-33.3
 30
0.0
 11
28.7235
 21
-32.62349999999999
 31
0.0
  0
LINE
  5
112
330
ED
100
AcDbEntity
  8
AM_9
100
AcDbLine
 10
28.7235
 20
-32.62349999999999
 30
0.0
 11
22.0765
 21
-32.62349999999999
 31
0.0
  0
LINE
  5
113
330
ED
100
AcDbEntity
  8
AM_9
100
AcDbLine
 10
-28.7235
 20
-32.62349999999999
 30
0.0
 11
-29.4
 21
-33.3
 31
0.0
  0
LINE
  5
114
330
ED
100
AcDbEntity
  8
AM_9
100
AcDbLine
 10
-21.4
 20
-33.3
 30
0.0
 11
-22.0765
 21
-32.62349999999999
 31
0.0
  0
LINE
  5
115
330
ED
100
AcDbEntity
  8
AM_9
100
AcDbLine
 10
-22.0765
 20
-32.62349999999999
 30
0.0
 11
-28.7235
 21
-32.62349999999999
 31
0.0
  0
LINE
  5
116
330
ED
100
AcDbEntity
  8
AM_5
100
AcDbLine
 10
29.4
 20
-33.3
 30
0.0
 11
29.4
 21
-20.6
 31
0.0
  0
LINE
  5
117
330
ED
100
AcDbEntity
  8
AM_5
100
AcDbLine
 10
29.4
 20
-20.6
 30
0.0
 11
21.4
 21
-20.6
 31
0.0
  0
LINE
  5
118
330
ED
100
AcDbEntity
  8
AM_5
100
AcDbLine
 10
28.7235
 20
-19.42826762867963
 30
0.0
 11
29.40000000000001
 21
-20.6
 31
0.0
  0
LINE
  5
119
330
ED
100
AcDbEntity
  8
AM_5
100
AcDbLine
 10
21.4
 20
-33.3
 30
0.0
 11
21.4
 21
-20.6
 31
0.0
  0
LINE
  5
11A
330
ED
100
AcDbEntity
  8
AM_5
100
AcDbLine
 10
22.0765
 20
-19.42826762867963
 30
0.0
 11
21.39999999999999
 21
-20.6
 31
0.0
  0
LINE
  5
11B
330
ED
100
AcDbEntity
  8
AM_5
100
AcDbLine
 10
-21.4
 20
-33.3
 30
0.0
 11
-21.4
 21
-20.6
 31
0.0
  0
LINE
  5
11C
330
ED
100
AcDbEntity
  8
AM_5
100
AcDbLine
 10
-21.4
 20
-20.6
 30
0.0
 11
-29.4
 21
-20.6
 31
0.0
  0
LINE
  5
11D
330
ED
100
AcDbEntity
  8
AM_5
100
AcDbLine
 10
-22.0765
 20
-19.42826762867966
 30
0.0
 11
-21.4
 21
-20.6
 31
0.0
  0
LINE
  5
11E
330
ED
100
AcDbEntity
  8
AM_5
100
AcDbLine
 10
-29.4
 20
-33.3
 30
0.0
 11
-29.4
 21
-20.6
 31
0.0
  0
LINE
  5
11F
330
ED
100
AcDbEntity
  8
AM_5
100
AcDbLine
 10
-28.7235
 20
-19.42826762867966
 30
0.0
 11
-29.4
 21
-20.6
 31
0.0
  0
LINE
  5
120
330
ED
100
AcDbEntity
  8
AM_7
100
AcDbLine
 10
25.4
 20
-15.28323519936569
 30
0.0
 11
25.4
 21
-34.15794118098258
 31
0.0
  0
LINE
  5
121
330
ED
100
AcDbEntity
  8
AM_7
100
AcDbLine
 10
20.55287772503075
 20
20.55287772503074
 30
0.0
 11
30.91232073068662
 21
30.91232073068662
 31
0.0
  0
LINE
  5
122
330
ED
100
AcDbEntity
  8
AM_7
100
AcDbLine
 10
-25.4
 20
-15.28323519936569
 30
0.0
 11
-25.4
 21
-34.15794118098258
 31
0.0
  0
LINE
  5
123
330
ED
100
AcDbEntity
  8
AM_4
100
AcDbLine
 10
30.87401559110194
 20
28.85117693459195
 30
0.0
 11
28.85117703647534
 21
30.87401548921855
 31
0.0
  0
ARC
  5
124
330
ED
100
AcDbEntity
  8
AM_4
100
AcDbCircle
 10
28.49762354399867
 20
30.52046220050867
 30
0.0
 40
0.4999999999999939
100
AcDbArc
 50
44.99999999999998
 51
110.179458664513
  0
ARC
  5
125
330
ED
100
AcDbEntity
  8
AM_4
100
AcDbCircle
 10
30.52046220050867
 20
28.49762354399868
 30
0.0
 40
0.4999999999999948
100
AcDbArc
 50
339.820541335487
 51
45.00000000000056
  0
LINE
  5
126
330
ED
100
AcDbEntity
  8
AM_4
100
AcDbLine
 10
22.4379750603882
 20
25.26640218513439
 30
0.0
 11
21.76991612344538
 21
24.59834324819156
 31
0.0
  0
LINE
  5
127
330
ED
100
AcDbEntity
  8
AM_4
100
AcDbLine
 10
24.85664081812305
 20
22.02821369337686
 30
0.0
 11
25.26640218513439
 21
22.4379750603882
 31
0.0
  0
LINE
  5
128
330
ED
100
AcDbEntity
  8
AM_4
100
AcDbLine
 10
30.98977057883885
 20
28.32514268700552
 30
0.0
 11
28.32514268700552
 21
30.98977057883885
 31
0.0
  0
LINE
  5
129
330
ED
100
AcDbEntity
  8
AM_4
100
AcDbLine
 10
28.32514268700552
 20
30.98977057883885
 30
0.0
 11
26.92175494921362
 21
30.47399559828285
 31
0.0
  0
LINE
  5
12A
330
ED
100
AcDbEntity
  8
AM_4
100
AcDbLine
 10
30.47399559828284
 20
26.92175494921363
 30
0.0
 11
30.98977057883885
 21
28.32514268700552
 31
0.0
  0
LINE
  5
12B
330
ED
100
AcDbEntity
  8
AM_4
100
AcDbLine
 10
30.47399559828285
 20
26.92175494921363
 30
0.0
 11
26.92175494921362
 21
30.47399559828285
 31
0.0
  0
ARC
  5
12C
330
ED
100
AcDbEntity
  8
AM_4
100
AcDbCircle
 10
27.09423580620674
 20
30.00468721995269
 30
0.0
 40
0.4999999999999701
100
AcDbArc
 50
110.1794586645089
 51
179.69716952977
  0
ARC
  5
12D
330
ED
100
AcDbEntity
  8
AM_4
100
AcDbCircle
 10
30.00468721995266
 20
27.09423580620676
 30
0.0
 40
0.4999999999999906
100
AcDbArc
 50
270.3028304702334
 51
339.8205413354902
  0
LINE
  5
12E
330
ED
100
AcDbEntity
  8
AM_4
100
AcDbLine
 10
30.00732990203906
 20
26.59424279002415
 30
0.0
 11
26.59424279002415
 21
30.00732990203905
 31
0.0
  0
ARC
  5
12F
330
ED
100
AcDbEntity
  8
AM_4
100
AcDbCircle
 10
25.1631226480687
 20
30.01489388016775
 30
0.0
 40
1.431140130971004
100
AcDbArc
 50
251.1493054094163
 51
359.6971742798229
  0
ARC
  5
130
330
ED
100
AcDbEntity
  8
AM_4
100
AcDbCircle
 10
30.01489388016775
 20
25.16312264806871
 30
0.0
 40
1.431140130971003
100
AcDbArc
 50
90.30282572017612
 51
198.8506945905833
  0
LINE
  5
131
330
ED
100
AcDbEntity
  8
AM_4
100
AcDbLine
 10
28.66051473482982
 20
24.70071676018514
 30
0.0
 11
24.70071676018514
 21
28.66051473482982
 31
0.0
  0
LINE
  5
132
330
ED
100
AcDbEntity
  8
AM_4
100
AcDbLine
 10
24.70071676018514
 20
28.66051473482982
 30
0.0
 11
24.34716336959186
 21
28.30696134423654
 31
0.0
  0
LINE
  5
133
330
ED
100
AcDbEntity
  8
AM_4
100
AcDbLine
 10
28.30696134423654
 20
24.34716336959186
 30
0.0
 11
28.66051473482982
 21
24.70071676018514
 31
0.0
  0
LINE
  5
134
330
ED
100
AcDbEntity
  8
AM_4
100
AcDbLine
 10
26.68061574750748
 20
21.0237614980151
 30
0.0
 11
21.02376149801511
 21
26.68061574750749
 31
0.0
  0
LINE
  5
135
330
ED
100
AcDbEntity
  8
AM_4
100
AcDbLine
 10
21.02376149801511
 20
26.68061574750749
 30
0.0
 11
23.49863523216803
 21
29.15548948166039
 31
0.0
  0
LINE
  5
136
330
ED
100
AcDbEntity
  8
AM_4
100
AcDbLine
 10
29.1554894816604
 20
23.498635232168
 30
0.0
 11
23.49863523216803
 21
29.15548948166039
 31
0.0
  0
LINE
  5
137
330
ED
100
AcDbEntity
  8
AM_4
100
AcDbLine
 10
29.1554894816604
 20
23.498635232168
 30
0.0
 11
26.68061574750748
 21
21.0237614980151
 31
0.0
  0
LWPOLYLINE
  5
138
330
ED
100
AcDbEntity
  8
AM_4
100
AcDbPolyline
 90
        4
 70
     0
 43
0.0
 10
24.91284879454112
 20
27.7412759192873
 10
24.81105106697521
 20
27.84032991378164
 10
24.07802325514804
 20
28.42315962461818
 10
23.24601031085936
 20
28.90286456035172
  0
LWPOLYLINE
  5
139
330
ED
100
AcDbEntity
  8
AM_4
100
AcDbPolyline
 90
        3
 70
     0
 43
0.0
 10
21.27638641932376
 20
26.93324066881614
 10
21.78596278542163
 20
26.05709065431465
 10
22.4379750603882
 20
25.26640218513439
  0
LWPOLYLINE
  5
13A
330
ED
100
AcDbEntity
  8
AM_4
100
AcDbPolyline
 90
        4
 70
     0
 43
0.0
 10
22.4379750603882
 20
25.26640218513439
 10
22.5397727879541
 20
25.16734819064003
 10
23.27280059978128
 20
24.5845184798035
 10
24.10481354406996
 20
24.10481354406996
  0
LWPOLYLINE
  5
13B
330
ED
100
AcDbEntity
  8
AM_4
100
AcDbPolyline
 90
        3
 70
     0
 43
0.0
 10
26.07443743560555
 20
26.07443743560552
 10
25.56486106950768
 20
26.95058745010702
 10
24.91284879454112
 20
27.7412759192873
  0
LWPOLYLINE
  5
13C
330
ED
100
AcDbEntity
  8
AM_4
100
AcDbPolyline
 90
        3
 70
     0
 43
0.0
 10
28.90286456035173
 20
23.24601031085933
 10
28.39328819425387
 20
24.12216032536083
 10
27.7412759192873
 20
24.91284879454111
  0
LWPOLYLINE
  5
13D
330
ED
100
AcDbEntity
  8
AM_4
100
AcDbPolyline
 90
        4
 70
     0
 43
0.0
 10
27.7412759192873
 20
24.91284879454111
 10
27.63947819172139
 20
25.01190278903545
 10
26.90645037989422
 20
25.59473249987199
 10
26.07443743560555
 20
26.07443743560552
  0
LINE
  5
13E
330
ED
100
AcDbEntity
  8
AM_4
100
AcDbLine
 10
26.07443743560555
 20
26.07443743560552
 30
0.0
 11
24.10481354406996
 21
24.10481354406996
 31
0.0
  0
LWPOLYLINE
  5
13F
330
ED
100
AcDbEntity
  8
AM_4
100
AcDbPolyline
 90
        3
 70
     0
 43
0.0
 10
24.10481354406996
 20
24.10481354406996
 10
24.61438991016782
 20
23.22866352956846
 10
25.26640218513439
 20
22.43797506038819
  0
LWPOLYLINE
  5
140
330
ED
100
AcDbEntity
  8
AM_4
100
AcDbPolyline
 90
        4
 70
     0
 43
0.0
 10
25.26640218513439
 20
22.43797506038819
 10
25.36819991270029
 20
22.33892106589385
 10
26.10122772452747
 20
21.75609135505731
 10
26.93324066881615
 20
21.27638641932377
  0
LINE
  5
141
330
ED
100
AcDbEntity
  8
AM_4
100
AcDbLine
 10
-8.35773
 20
24.50497
 30
0.0
 11
-8.35773
 21
27.09502999999999
 31
0.0
  0
LINE
  5
142
330
ED
100
AcDbEntity
  8
AM_4
100
AcDbLine
 10
-6.958289999999999
 20
24.50497
 30
0.0
 11
-8.35773
 21
24.50497
 31
0.0
  0
LINE
  5
143
330
ED
100
AcDbEntity
  8
AM_4
100
AcDbLine
 10
-6.647310000000002
 20
24.57897
 30
0.0
 11
-6.958289999999999
 21
24.50497
 31
0.0
  0
LINE
  5
144
330
ED
100
AcDbEntity
  8
AM_4
100
AcDbLine
 10
-6.414070000000001
 20
24.72698
 30
0.0
 11
-6.647310000000002
 21
24.57897
 31
0.0
  0
LINE
  5
145
330
ED
100
AcDbEntity
  8
AM_4
100
AcDbLine
 10
-6.258579999999998
 20
24.948981
 30
0.0
 11
-6.414070000000001
 21
24.72698
 31
0.0
  0
LINE
  5
146
330
ED
100
AcDbEntity
  8
AM_4
100
AcDbLine
 10
-6.18083
 20
25.244988
 30
0.0
 11
-6.258579999999998
 21
24.948981
 31
0.0
  0
LINE
  5
147
330
ED
100
AcDbEntity
  8
AM_4
100
AcDbLine
 10
-6.180829999999999
 20
26.355012
 30
0.0
 11
-6.18083
 21
25.244988
 31
0.0
  0
LINE
  5
148
330
ED
100
AcDbEntity
  8
AM_4
100
AcDbLine
 10
-6.258579999999999
 20
26.651019
 30
0.0
 11
-6.180829999999999
 21
26.355012
 31
0.0
  0
LINE
  5
149
330
ED
100
AcDbEntity
  8
AM_4
100
AcDbLine
 10
-6.414070000000001
 20
26.87302
 30
0.0
 11
-6.258579999999999
 21
26.651019
 31
0.0
  0
LINE
  5
14A
330
ED
100
AcDbEntity
  8
AM_4
100
AcDbLine
 10
-6.647310000000002
 20
27.02103
 30
0.0
 11
-6.414070000000001
 21
26.87302
 31
0.0
  0
LINE
  5
14B
330
ED
100
AcDbEntity
  8
AM_4
100
AcDbLine
 10
-6.958289999999999
 20
27.09502999999999
 30
0.0
 11
-6.647310000000002
 21
27.02103
 31
0.0
  0
LINE
  5
14C
330
ED
100
AcDbEntity
  8
AM_4
100
AcDbLine
 10
-8.35773
 20
27.09502999999999
 30
0.0
 11
-6.958289999999999
 21
27.09502999999999
 31
0.0
  0
LINE
  5
14D
330
ED
100
AcDbEntity
  8
AM_4
100
AcDbLine
 10
-0.894082
 20
24.50497
 30
0.0
 11
-0.8940820000000003
 21
27.09502999999999
 31
0.0
  0
LINE
  5
14E
330
ED
100
AcDbEntity
  8
AM_4
100
AcDbLine
 10
0.5053510000000011
 20
24.50497
 30
0.0
 11
-0.894082
 21
24.50497
 31
0.0
  0
LINE
  5
14F
330
ED
100
AcDbEntity
  8
AM_4
100
AcDbLine
 10
0.8163360000000038
 20
24.57897
 30
0.0
 11
0.5053510000000011
 21
24.50497
 31
0.0
  0
LINE
  5
150
330
ED
100
AcDbEntity
  8
AM_4
100
AcDbLine
 10
1.049569999999995
 20
24.72697999999999
 30
0.0
 11
0.8163360000000038
 21
24.57897
 31
0.0
  0
LINE
  5
151
330
ED
100
AcDbEntity
  8
AM_4
100
AcDbLine
 10
1.205070000000004
 20
24.948981
 30
0.0
 11
1.049569999999995
 21
24.72697999999999
 31
0.0
  0
LINE
  5
152
330
ED
100
AcDbEntity
  8
AM_4
100
AcDbLine
 10
1.282810000000002
 20
25.244988
 30
0.0
 11
1.205070000000004
 21
24.948981
 31
0.0
  0
LINE
  5
153
330
ED
100
AcDbEntity
  8
AM_4
100
AcDbLine
 10
1.282810000000001
 20
26.355012
 30
0.0
 11
1.282810000000002
 21
25.244988
 31
0.0
  0
LINE
  5
154
330
ED
100
AcDbEntity
  8
AM_4
100
AcDbLine
 10
1.205069999999999
 20
26.651019
 30
0.0
 11
1.282810000000001
 21
26.355012
 31
0.0
  0
LINE
  5
155
330
ED
100
AcDbEntity
  8
AM_4
100
AcDbLine
 10
1.049570000000003
 20
26.87302
 30
0.0
 11
1.205069999999999
 21
26.651019
 31
0.0
  0
LINE
  5
156
330
ED
100
AcDbEntity
  8
AM_4
100
AcDbLine
 10
0.816335999999997
 20
27.02103
 30
0.0
 11
1.049570000000003
 21
26.87302
 31
0.0
  0
LINE
  5
157
330
ED
100
AcDbEntity
  8
AM_4
100
AcDbLine
 10
0.5053509999999971
 20
27.09503
 30
0.0
 11
0.816335999999997
 21
27.02103
 31
0.0
  0
LINE
  5
158
330
ED
100
AcDbEntity
  8
AM_4
100
AcDbLine
 10
-0.8940820000000003
 20
27.09502999999999
 30
0.0
 11
0.5053509999999971
 21
27.09503
 31
0.0
  0
LINE
  5
159
330
ED
100
AcDbEntity
  8
AM_4
100
AcDbLine
 10
-3.22647
 20
24.50497
 30
0.0
 11
-3.848439999999994
 21
24.50497
 31
0.0
  0
LINE
  5
15A
330
ED
100
AcDbEntity
  8
AM_4
100
AcDbLine
 10
-3.848439999999994
 20
24.50497
 30
0.0
 11
-4.159430000000001
 21
24.57897
 31
0.0
  0
LINE
  5
15B
330
ED
100
AcDbEntity
  8
AM_4
100
AcDbLine
 10
-4.625900000000001
 20
26.355012
 30
0.0
 11
-4.548160000000001
 21
26.651019
 31
0.0
  0
LINE
  5
15C
330
ED
100
AcDbEntity
  8
AM_4
100
AcDbLine
 10
-4.625900000000002
 20
25.244988
 30
0.0
 11
-4.625900000000001
 21
26.355012
 31
0.0
  0
LINE
  5
15D
330
ED
100
AcDbEntity
  8
AM_4
100
AcDbLine
 10
-4.548160000000001
 20
24.948981
 30
0.0
 11
-4.625900000000002
 21
25.244988
 31
0.0
  0
LINE
  5
15E
330
ED
100
AcDbEntity
  8
AM_4
100
AcDbLine
 10
-4.392659999999999
 20
24.72698
 30
0.0
 11
-4.548160000000001
 21
24.948981
 31
0.0
  0
LINE
  5
15F
330
ED
100
AcDbEntity
  8
AM_4
100
AcDbLine
 10
-4.159430000000001
 20
24.57897
 30
0.0
 11
-4.392659999999999
 21
24.72698
 31
0.0
  0
LINE
  5
160
330
ED
100
AcDbEntity
  8
AM_4
100
AcDbLine
 10
-2.91549
 20
24.57897
 30
0.0
 11
-3.22647
 21
24.50497
 31
0.0
  0
LINE
  5
161
330
ED
100
AcDbEntity
  8
AM_4
100
AcDbLine
 10
-2.682250000000002
 20
24.72698
 30
0.0
 11
-2.91549
 21
24.57897
 31
0.0
  0
LINE
  5
162
330
ED
100
AcDbEntity
  8
AM_4
100
AcDbLine
 10
-2.526749999999998
 20
24.948981
 30
0.0
 11
-2.682250000000002
 21
24.72698
 31
0.0
  0
LINE
  5
163
330
ED
100
AcDbEntity
  8
AM_4
100
AcDbLine
 10
-2.449010000000001
 20
25.244988
 30
0.0
 11
-2.526749999999998
 21
24.948981
 31
0.0
  0
LINE
  5
164
330
ED
100
AcDbEntity
  8
AM_4
100
AcDbLine
 10
-2.449010000000001
 20
26.355012
 30
0.0
 11
-2.449010000000001
 21
25.244988
 31
0.0
  0
LINE
  5
165
330
ED
100
AcDbEntity
  8
AM_4
100
AcDbLine
 10
-2.52675
 20
26.651019
 30
0.0
 11
-2.449010000000001
 21
26.355012
 31
0.0
  0
LINE
  5
166
330
ED
100
AcDbEntity
  8
AM_4
100
AcDbLine
 10
-2.682249999999999
 20
26.87302
 30
0.0
 11
-2.52675
 21
26.651019
 31
0.0
  0
LINE
  5
167
330
ED
100
AcDbEntity
  8
AM_4
100
AcDbLine
 10
-2.915490000000005
 20
27.02103
 30
0.0
 11
-2.682249999999999
 21
26.87302
 31
0.0
  0
LINE
  5
168
330
ED
100
AcDbEntity
  8
AM_4
100
AcDbLine
 10
-3.226470000000001
 20
27.09502999999999
 30
0.0
 11
-2.915490000000005
 21
27.02103
 31
0.0
  0
LINE
  5
169
330
ED
100
AcDbEntity
  8
AM_4
100
AcDbLine
 10
-3.84844
 20
27.09502999999999
 30
0.0
 11
-3.226470000000001
 21
27.09502999999999
 31
0.0
  0
LINE
  5
16A
330
ED
100
AcDbEntity
  8
AM_4
100
AcDbLine
 10
-4.159429999999992
 20
27.02103
 30
0.0
 11
-3.84844
 21
27.09502999999999
 31
0.0
  0
LINE
  5
16B
330
ED
100
AcDbEntity
  8
AM_4
100
AcDbLine
 10
-4.392659999999999
 20
26.87301999999999
 30
0.0
 11
-4.159429999999992
 21
27.02103
 31
0.0
  0
LINE
  5
16C
330
ED
100
AcDbEntity
  8
AM_4
100
AcDbLine
 10
-4.548160000000001
 20
26.651019
 30
0.0
 11
-4.392659999999999
 21
26.87301999999999
 31
0.0
  0
LINE
  5
16D
330
ED
100
AcDbEntity
  8
AM_4
100
AcDbLine
 10
18.25
 20
-33.3
 30
0.0
 11
16.98
 21
-32.02999999999999
 31
0.0
  0
LINE
  5
16E
330
ED
100
AcDbEntity
  8
AM_4
100
AcDbLine
 10
-16.98
 20
-32.02999999999999
 30
0.0
 11
-18.25
 21
-33.3
 31
0.0
  0
LINE
  5
16F
330
ED
100
AcDbEntity
  8
AM_4
100
AcDbLine
 10
8.824199999999998
 20
24.06095999999999
 30
0.0
 11
6.02534
 21
24.06095999999999
 31
0.0
  0
LINE
  5
170
330
ED
100
AcDbEntity
  8
AM_4
100
AcDbLine
 10
6.02534
 20
24.06095999999999
 30
0.0
 11
6.02534
 21
27.53904
 31
0.0
  0
LINE
  5
171
330
ED
100
AcDbEntity
  8
AM_4
100
AcDbLine
 10
6.02534
 20
27.53904
 30
0.0
 11
8.824199999999998
 21
27.53904
 31
0.0
  0
LINE
  5
172
330
ED
100
AcDbEntity
  8
AM_4
100
AcDbLine
 10
8.824199999999998
 20
27.53904
 30
0.0
 11
8.824199999999998
 21
27.09502999999999
 31
0.0
  0
LINE
  5
173
330
ED
100
AcDbEntity
  8
AM_4
100
AcDbLine
 10
8.824199999999998
 20
27.09502999999999
 30
0.0
 11
6.491810000000001
 21
27.09502999999999
 31
0.0
  0
LINE
  5
174
330
ED
100
AcDbEntity
  8
AM_4
100
AcDbLine
 10
6.491810000000001
 20
27.09502999999999
 30
0.0
 11
6.491810000000001
 21
26.133007
 31
0.0
  0
LINE
  5
175
330
ED
100
AcDbEntity
  8
AM_4
100
AcDbLine
 10
6.491810000000001
 20
26.133007
 30
0.0
 11
8.51322
 21
26.133007
 31
0.0
  0
LINE
  5
176
330
ED
100
AcDbEntity
  8
AM_4
100
AcDbLine
 10
8.51322
 20
26.133007
 30
0.0
 11
8.513220000000002
 21
25.688998
 31
0.0
  0
LINE
  5
177
330
ED
100
AcDbEntity
  8
AM_4
100
AcDbLine
 10
8.513220000000002
 20
25.688998
 30
0.0
 11
6.491810000000001
 21
25.688998
 31
0.0
  0
LINE
  5
178
330
ED
100
AcDbEntity
  8
AM_4
100
AcDbLine
 10
6.491810000000001
 20
25.688998
 30
0.0
 11
6.491810000000001
 21
24.50497
 31
0.0
  0
LINE
  5
179
330
ED
100
AcDbEntity
  8
AM_4
100
AcDbLine
 10
6.491810000000001
 20
24.50497
 30
0.0
 11
8.8242
 21
24.50497
 31
0.0
  0
LINE
  5
17A
330
ED
100
AcDbEntity
  8
AM_4
100
AcDbLine
 10
8.8242
 20
24.50497
 30
0.0
 11
8.824199999999998
 21
24.06095999999999
 31
0.0
  0
LINE
  5
17B
330
ED
100
AcDbEntity
  8
AM_4
100
AcDbLine
 10
2.371259999999999
 20
25.244988
 30
0.0
 11
2.37126
 21
26.355012
 31
0.0
  0
LINE
  5
17C
330
ED
100
AcDbEntity
  8
AM_4
100
AcDbLine
 10
2.37126
 20
26.355012
 30
0.0
 11
2.44901
 21
26.72502
 31
0.0
  0
LINE
  5
17D
330
ED
100
AcDbEntity
  8
AM_4
100
AcDbLine
 10
2.44901
 20
26.72502
 30
0.0
 11
2.6045
 21
27.02103
 31
0.0
  0
LINE
  5
17E
330
ED
100
AcDbEntity
  8
AM_4
100
AcDbLine
 10
2.6045
 20
27.02103
 30
0.0
 11
2.915489999999998
 21
27.31703
 31
0.0
  0
LINE
  5
17F
330
ED
100
AcDbEntity
  8
AM_4
100
AcDbLine
 10
2.915489999999998
 20
27.31703
 30
0.0
 11
3.226470000000001
 21
27.46503999999999
 31
0.0
  0
LINE
  5
180
330
ED
100
AcDbEntity
  8
AM_4
100
AcDbLine
 10
3.226470000000001
 20
27.46503999999999
 30
0.0
 11
3.6152
 21
27.53904
 31
0.0
  0
LINE
  5
181
330
ED
100
AcDbEntity
  8
AM_4
100
AcDbLine
 10
3.6152
 20
27.53904
 30
0.0
 11
4.31492
 21
27.53904
 31
0.0
  0
LINE
  5
182
330
ED
100
AcDbEntity
  8
AM_4
100
AcDbLine
 10
4.31492
 20
27.53904
 30
0.0
 11
4.703649999999999
 21
27.46503999999999
 31
0.0
  0
LINE
  5
183
330
ED
100
AcDbEntity
  8
AM_4
100
AcDbLine
 10
4.703649999999999
 20
27.46503999999999
 30
0.0
 11
5.014640000000003
 21
27.31702999999999
 31
0.0
  0
LINE
  5
184
330
ED
100
AcDbEntity
  8
AM_4
100
AcDbLine
 10
5.014640000000003
 20
27.31702999999999
 30
0.0
 11
5.325619999999998
 21
27.02103
 31
0.0
  0
LINE
  5
185
330
ED
100
AcDbEntity
  8
AM_4
100
AcDbLine
 10
5.325619999999998
 20
27.02103
 30
0.0
 11
5.403370000000001
 21
26.651019
 31
0.0
  0
LINE
  5
186
330
ED
100
AcDbEntity
  8
AM_4
100
AcDbLine
 10
5.403370000000001
 20
26.651019
 30
0.0
 11
4.93689
 21
26.651019
 31
0.0
  0
LINE
  5
187
330
ED
100
AcDbEntity
  8
AM_4
100
AcDbLine
 10
4.93689
 20
26.651019
 30
0.0
 11
4.859140000000002
 21
26.87302
 31
0.0
  0
LINE
  5
188
330
ED
100
AcDbEntity
  8
AM_4
100
AcDbLine
 10
4.859140000000002
 20
26.87302
 30
0.0
 11
4.625899999999997
 21
27.02103
 31
0.0
  0
LINE
  5
189
330
ED
100
AcDbEntity
  8
AM_4
100
AcDbLine
 10
4.625899999999997
 20
27.02103
 30
0.0
 11
4.314920000000002
 21
27.09502999999999
 31
0.0
  0
LINE
  5
18A
330
ED
100
AcDbEntity
  8
AM_4
100
AcDbLine
 10
4.314920000000002
 20
27.09502999999999
 30
0.0
 11
3.6152
 21
27.09502999999999
 31
0.0
  0
LINE
  5
18B
330
ED
100
AcDbEntity
  8
AM_4
100
AcDbLine
 10
3.6152
 20
27.09502999999999
 30
0.0
 11
3.304220000000002
 21
27.02103
 31
0.0
  0
LINE
  5
18C
330
ED
100
AcDbEntity
  8
AM_4
100
AcDbLine
 10
3.304220000000002
 20
27.02103
 30
0.0
 11
3.07098
 21
26.87302
 31
0.0
  0
LINE
  5
18D
330
ED
100
AcDbEntity
  8
AM_4
100
AcDbLine
 10
3.07098
 20
26.87302
 30
0.0
 11
2.915489999999999
 21
26.651019
 31
0.0
  0
LINE
  5
18E
330
ED
100
AcDbEntity
  8
AM_4
100
AcDbLine
 10
2.915489999999999
 20
26.651019
 30
0.0
 11
2.837739999999997
 21
26.355012
 31
0.0
  0
LINE
  5
18F
330
ED
100
AcDbEntity
  8
AM_4
100
AcDbLine
 10
2.837739999999997
 20
26.355012
 30
0.0
 11
2.837739999999999
 21
25.244988
 31
0.0
  0
LINE
  5
190
330
ED
100
AcDbEntity
  8
AM_4
100
AcDbLine
 10
2.837739999999999
 20
25.244988
 30
0.0
 11
2.915490000000001
 21
24.948981
 31
0.0
  0
LINE
  5
191
330
ED
100
AcDbEntity
  8
AM_4
100
AcDbLine
 10
2.915490000000001
 20
24.948981
 30
0.0
 11
3.070979999999997
 21
24.72697999999999
 31
0.0
  0
LINE
  5
192
330
ED
100
AcDbEntity
  8
AM_4
100
AcDbLine
 10
3.070979999999997
 20
24.72697999999999
 30
0.0
 11
3.304220000000002
 21
24.57897
 31
0.0
  0
LINE
  5
193
330
ED
100
AcDbEntity
  8
AM_4
100
AcDbLine
 10
3.304220000000002
 20
24.57897
 30
0.0
 11
3.615200000000003
 21
24.50497
 31
0.0
  0
LINE
  5
194
330
ED
100
AcDbEntity
  8
AM_4
100
AcDbLine
 10
3.615200000000003
 20
24.50497
 30
0.0
 11
4.31492
 21
24.50497
 31
0.0
  0
LINE
  5
195
330
ED
100
AcDbEntity
  8
AM_4
100
AcDbLine
 10
4.31492
 20
24.50497
 30
0.0
 11
4.625900000000001
 21
24.57897
 31
0.0
  0
LINE
  5
196
330
ED
100
AcDbEntity
  8
AM_4
100
AcDbLine
 10
4.625900000000001
 20
24.57897
 30
0.0
 11
4.859139999999998
 21
24.72698
 31
0.0
  0
LINE
  5
197
330
ED
100
AcDbEntity
  8
AM_4
100
AcDbLine
 10
4.859139999999998
 20
24.72698
 30
0.0
 11
4.936889999999999
 21
24.948981
 31
0.0
  0
LINE
  5
198
330
ED
100
AcDbEntity
  8
AM_4
100
AcDbLine
 10
4.936889999999999
 20
24.948981
 30
0.0
 11
4.936889999999999
 21
25.540994
 31
0.0
  0
LINE
  5
199
330
ED
100
AcDbEntity
  8
AM_4
100
AcDbLine
 10
4.936889999999999
 20
25.540994
 30
0.0
 11
4.23717
 21
25.540994
 31
0.0
  0
LINE
  5
19A
330
ED
100
AcDbEntity
  8
AM_4
100
AcDbLine
 10
4.23717
 20
25.540994
 30
0.0
 11
4.237169999999999
 21
25.98500399999999
 31
0.0
  0
LINE
  5
19B
330
ED
100
AcDbEntity
  8
AM_4
100
AcDbLine
 10
4.237169999999999
 20
25.98500399999999
 30
0.0
 11
5.40337
 21
25.985004
 31
0.0
  0
LINE
  5
19C
330
ED
100
AcDbEntity
  8
AM_4
100
AcDbLine
 10
5.40337
 20
25.985004
 30
0.0
 11
5.403370000000001
 21
24.87497999999999
 31
0.0
  0
LINE
  5
19D
330
ED
100
AcDbEntity
  8
AM_4
100
AcDbLine
 10
5.403370000000001
 20
24.87497999999999
 30
0.0
 11
5.325620000000001
 21
24.57897
 31
0.0
  0
LINE
  5
19E
330
ED
100
AcDbEntity
  8
AM_4
100
AcDbLine
 10
5.325620000000001
 20
24.57897
 30
0.0
 11
5.014639999999999
 21
24.28297
 31
0.0
  0
LINE
  5
19F
330
ED
100
AcDbEntity
  8
AM_4
100
AcDbLine
 10
5.014639999999999
 20
24.28297
 30
0.0
 11
4.703650000000002
 21
24.13496
 31
0.0
  0
LINE
  5
1A0
330
ED
100
AcDbEntity
  8
AM_4
100
AcDbLine
 10
4.703650000000002
 20
24.13496
 30
0.0
 11
4.314919999999996
 21
24.06095999999999
 31
0.0
  0
LINE
  5
1A1
330
ED
100
AcDbEntity
  8
AM_4
100
AcDbLine
 10
4.314919999999996
 20
24.06095999999999
 30
0.0
 11
3.6152
 21
24.06095999999999
 31
0.0
  0
LINE
  5
1A2
330
ED
100
AcDbEntity
  8
AM_4
100
AcDbLine
 10
3.6152
 20
24.06095999999999
 30
0.0
 11
3.226469999999998
 21
24.13496
 31
0.0
  0
LINE
  5
1A3
330
ED
100
AcDbEntity
  8
AM_4
100
AcDbLine
 10
3.226469999999998
 20
24.13496
 30
0.0
 11
2.91549
 21
24.28297
 31
0.0
  0
LINE
  5
1A4
330
ED
100
AcDbEntity
  8
AM_4
100
AcDbLine
 10
2.91549
 20
24.28297
 30
0.0
 11
2.6045
 21
24.57897
 31
0.0
  0
LINE
  5
1A5
330
ED
100
AcDbEntity
  8
AM_4
100
AcDbLine
 10
2.6045
 20
24.57897
 30
0.0
 11
2.449009999999996
 21
24.87497999999999
 31
0.0
  0
LINE
  5
1A6
330
ED
100
AcDbEntity
  8
AM_4
100
AcDbLine
 10
2.449009999999996
 20
24.87497999999999
 30
0.0
 11
2.371259999999999
 21
25.244988
 31
0.0
  0
LINE
  5
1A7
330
ED
100
AcDbEntity
  8
AM_4
100
AcDbLine
 10
0.5053509999999971
 20
24.06095999999999
 30
0.0
 11
-1.36056
 21
24.06095999999999
 31
0.0
  0
LINE
  5
1A8
330
ED
100
AcDbEntity
  8
AM_4
100
AcDbLine
 10
-1.36056
 20
24.06095999999999
 30
0.0
 11
-1.36056
 21
27.53904
 31
0.0
  0
LINE
  5
1A9
330
ED
100
AcDbEntity
  8
AM_4
100
AcDbLine
 10
-1.36056
 20
27.53904
 30
0.0
 11
0.5053510000000011
 21
27.53904
 31
0.0
  0
LINE
  5
1AA
330
ED
100
AcDbEntity
  8
AM_4
100
AcDbLine
 10
0.5053510000000011
 20
27.53904
 30
0.0
 11
0.8940819999999987
 21
27.46503999999999
 31
0.0
  0
LINE
  5
1AB
330
ED
100
AcDbEntity
  8
AM_4
100
AcDbLine
 10
0.8940819999999987
 20
27.46503999999999
 30
0.0
 11
1.205069999999996
 21
27.31703
 31
0.0
  0
LINE
  5
1AC
330
ED
100
AcDbEntity
  8
AM_4
100
AcDbLine
 10
1.205069999999996
 20
27.31703
 30
0.0
 11
1.516049999999997
 21
27.02103
 31
0.0
  0
LINE
  5
1AD
330
ED
100
AcDbEntity
  8
AM_4
100
AcDbLine
 10
1.516049999999997
 20
27.02103
 30
0.0
 11
1.671549999999999
 21
26.72502
 31
0.0
  0
LINE
  5
1AE
330
ED
100
AcDbEntity
  8
AM_4
100
AcDbLine
 10
1.671549999999999
 20
26.72502
 30
0.0
 11
1.749290000000003
 21
26.355012
 31
0.0
  0
LINE
  5
1AF
330
ED
100
AcDbEntity
  8
AM_4
100
AcDbLine
 10
1.749290000000003
 20
26.355012
 30
0.0
 11
1.74929
 21
25.244988
 31
0.0
  0
LINE
  5
1B0
330
ED
100
AcDbEntity
  8
AM_4
100
AcDbLine
 10
1.74929
 20
25.244988
 30
0.0
 11
1.671549999999999
 21
24.87497999999999
 31
0.0
  0
LINE
  5
1B1
330
ED
100
AcDbEntity
  8
AM_4
100
AcDbLine
 10
1.671549999999999
 20
24.87497999999999
 30
0.0
 11
1.51605
 21
24.57897
 31
0.0
  0
LINE
  5
1B2
330
ED
100
AcDbEntity
  8
AM_4
100
AcDbLine
 10
1.51605
 20
24.57897
 30
0.0
 11
1.205069999999998
 21
24.28297
 31
0.0
  0
LINE
  5
1B3
330
ED
100
AcDbEntity
  8
AM_4
100
AcDbLine
 10
1.205069999999998
 20
24.28297
 30
0.0
 11
0.8940819999999953
 21
24.13496
 31
0.0
  0
LINE
  5
1B4
330
ED
100
AcDbEntity
  8
AM_4
100
AcDbLine
 10
0.8940819999999953
 20
24.13496
 30
0.0
 11
0.5053509999999971
 21
24.06095999999999
 31
0.0
  0
LINE
  5
1B5
330
ED
100
AcDbEntity
  8
AM_4
100
AcDbLine
 10
-5.092379999999998
 20
25.244988
 30
0.0
 11
-5.09238
 21
26.355012
 31
0.0
  0
LINE
  5
1B6
330
ED
100
AcDbEntity
  8
AM_4
100
AcDbLine
 10
-5.09238
 20
26.355012
 30
0.0
 11
-5.014640000000001
 21
26.72502
 31
0.0
  0
LINE
  5
1B7
330
ED
100
AcDbEntity
  8
AM_4
100
AcDbLine
 10
-5.014640000000001
 20
26.72502
 30
0.0
 11
-4.85914
 21
27.02103
 31
0.0
  0
LINE
  5
1B8
330
ED
100
AcDbEntity
  8
AM_4
100
AcDbLine
 10
-4.85914
 20
27.02103
 30
0.0
 11
-4.548160000000007
 21
27.31703
 31
0.0
  0
LINE
  5
1B9
330
ED
100
AcDbEntity
  8
AM_4
100
AcDbLine
 10
-4.548160000000007
 20
27.31703
 30
0.0
 11
-4.237170000000001
 21
27.46503999999999
 31
0.0
  0
LINE
  5
1BA
330
ED
100
AcDbEntity
  8
AM_4
100
AcDbLine
 10
-4.237170000000001
 20
27.46503999999999
 30
0.0
 11
-3.848439999999997
 21
27.53904
 31
0.0
  0
LINE
  5
1BB
330
ED
100
AcDbEntity
  8
AM_4
100
AcDbLine
 10
-3.848439999999997
 20
27.53904
 30
0.0
 11
-3.22647
 21
27.53904
 31
0.0
  0
LINE
  5
1BC
330
ED
100
AcDbEntity
  8
AM_4
100
AcDbLine
 10
-3.22647
 20
27.53904
 30
0.0
 11
-2.837739999999996
 21
27.46503999999999
 31
0.0
  0
LINE
  5
1BD
330
ED
100
AcDbEntity
  8
AM_4
100
AcDbLine
 10
-2.837739999999996
 20
27.46503999999999
 30
0.0
 11
-2.526750000000006
 21
27.31703
 31
0.0
  0
LINE
  5
1BE
330
ED
100
AcDbEntity
  8
AM_4
100
AcDbLine
 10
-2.526750000000006
 20
27.31703
 30
0.0
 11
-2.21577
 21
27.02103
 31
0.0
  0
LINE
  5
1BF
330
ED
100
AcDbEntity
  8
AM_4
100
AcDbLine
 10
-2.21577
 20
27.02103
 30
0.0
 11
-2.060280000000001
 21
26.72502
 31
0.0
  0
LINE
  5
1C0
330
ED
100
AcDbEntity
  8
AM_4
100
AcDbLine
 10
-2.060280000000001
 20
26.72502
 30
0.0
 11
-1.982530000000002
 21
26.355012
 31
0.0
  0
LINE
  5
1C1
330
ED
100
AcDbEntity
  8
AM_4
100
AcDbLine
 10
-1.982530000000002
 20
26.355012
 30
0.0
 11
-1.982530000000001
 21
25.244988
 31
0.0
  0
LINE
  5
1C2
330
ED
100
AcDbEntity
  8
AM_4
100
AcDbLine
 10
-1.982530000000001
 20
25.244988
 30
0.0
 11
-2.060279999999997
 21
24.87498
 31
0.0
  0
LINE
  5
1C3
330
ED
100
AcDbEntity
  8
AM_4
100
AcDbLine
 10
-2.060279999999997
 20
24.87498
 30
0.0
 11
-2.215769999999999
 21
24.57897
 31
0.0
  0
LINE
  5
1C4
330
ED
100
AcDbEntity
  8
AM_4
100
AcDbLine
 10
-2.215769999999999
 20
24.57897
 30
0.0
 11
-2.526750000000002
 21
24.28297
 31
0.0
  0
LINE
  5
1C5
330
ED
100
AcDbEntity
  8
AM_4
100
AcDbLine
 10
-2.526750000000002
 20
24.28297
 30
0.0
 11
-2.837740000000003
 21
24.13496
 31
0.0
  0
LINE
  5
1C6
330
ED
100
AcDbEntity
  8
AM_4
100
AcDbLine
 10
-2.837740000000003
 20
24.13496
 30
0.0
 11
-3.226470000000001
 21
24.06095999999999
 31
0.0
  0
LINE
  5
1C7
330
ED
100
AcDbEntity
  8
AM_4
100
AcDbLine
 10
-3.226470000000001
 20
24.06095999999999
 30
0.0
 11
-3.84844
 21
24.06095999999999
 31
0.0
  0
LINE
  5
1C8
330
ED
100
AcDbEntity
  8
AM_4
100
AcDbLine
 10
-3.84844
 20
24.06095999999999
 30
0.0
 11
-4.237169999999999
 21
24.13496
 31
0.0
  0
LINE
  5
1C9
330
ED
100
AcDbEntity
  8
AM_4
100
AcDbLine
 10
-4.237169999999999
 20
24.13496
 30
0.0
 11
-4.548159999999999
 21
24.28297
 31
0.0
  0
LINE
  5
1CA
330
ED
100
AcDbEntity
  8
AM_4
100
AcDbLine
 10
-4.548159999999999
 20
24.28297
 30
0.0
 11
-4.859140000000003
 21
24.57897
 31
0.0
  0
LINE
  5
1CB
330
ED
100
AcDbEntity
  8
AM_4
100
AcDbLine
 10
-4.859140000000003
 20
24.57897
 30
0.0
 11
-5.014640000000001
 21
24.87497999999999
 31
0.0
  0
LINE
  5
1CC
330
ED
100
AcDbEntity
  8
AM_4
100
AcDbLine
 10
-5.014640000000001
 20
24.87497999999999
 30
0.0
 11
-5.092379999999998
 21
25.244988
 31
0.0
  0
LINE
  5
1CD
330
ED
100
AcDbEntity
  8
AM_4
100
AcDbLine
 10
-8.8242
 20
24.06095999999999
 30
0.0
 11
-8.824199999999998
 21
27.53904
 31
0.0
  0
LINE
  5
1CE
330
ED
100
AcDbEntity
  8
AM_4
100
AcDbLine
 10
-8.824199999999998
 20
27.53904
 30
0.0
 11
-6.958290000000006
 21
27.53904
 31
0.0
  0
LINE
  5
1CF
330
ED
100
AcDbEntity
  8
AM_4
100
AcDbLine
 10
-6.958290000000006
 20
27.53904
 30
0.0
 11
-6.569560000000002
 21
27.46503999999999
 31
0.0
  0
LINE
  5
1D0
330
ED
100
AcDbEntity
  8
AM_4
100
AcDbLine
 10
-6.569560000000002
 20
27.46503999999999
 30
0.0
 11
-6.258580000000003
 21
27.31702999999999
 31
0.0
  0
LINE
  5
1D1
330
ED
100
AcDbEntity
  8
AM_4
100
AcDbLine
 10
-6.258580000000003
 20
27.31702999999999
 30
0.0
 11
-5.947590000000003
 21
27.02103
 31
0.0
  0
LINE
  5
1D2
330
ED
100
AcDbEntity
  8
AM_4
100
AcDbLine
 10
-5.947590000000003
 20
27.02103
 30
0.0
 11
-5.792100000000001
 21
26.72502
 31
0.0
  0
LINE
  5
1D3
330
ED
100
AcDbEntity
  8
AM_4
100
AcDbLine
 10
-5.792100000000001
 20
26.72502
 30
0.0
 11
-5.714349999999997
 21
26.355012
 31
0.0
  0
LINE
  5
1D4
330
ED
100
AcDbEntity
  8
AM_4
100
AcDbLine
 10
-5.714349999999997
 20
26.355012
 30
0.0
 11
-5.71435
 21
25.244988
 31
0.0
  0
LINE
  5
1D5
330
ED
100
AcDbEntity
  8
AM_4
100
AcDbLine
 10
-5.71435
 20
25.244988
 30
0.0
 11
-5.792099999999995
 21
24.87497999999999
 31
0.0
  0
LINE
  5
1D6
330
ED
100
AcDbEntity
  8
AM_4
100
AcDbLine
 10
-5.792099999999995
 20
24.87497999999999
 30
0.0
 11
-5.947590000000004
 21
24.57897
 31
0.0
  0
LINE
  5
1D7
330
ED
100
AcDbEntity
  8
AM_4
100
AcDbLine
 10
-5.947590000000004
 20
24.57897
 30
0.0
 11
-6.258579999999999
 21
24.28297
 31
0.0
  0
LINE
  5
1D8
330
ED
100
AcDbEntity
  8
AM_4
100
AcDbLine
 10
-6.258579999999999
 20
24.28297
 30
0.0
 11
-6.569560000000001
 21
24.13496
 31
0.0
  0
LINE
  5
1D9
330
ED
100
AcDbEntity
  8
AM_4
100
AcDbLine
 10
-6.569560000000001
 20
24.13496
 30
0.0
 11
-6.958290000000006
 21
24.06096
 31
0.0
  0
LINE
  5
1DA
330
ED
100
AcDbEntity
  8
AM_4
100
AcDbLine
 10
-6.958290000000006
 20
24.06096
 30
0.0
 11
-8.8242
 21
24.06095999999999
 31
0.0
  0
LWPOLYLINE
  5
1DB
330
ED
100
AcDbEntity
  8
AM_4
100
AcDbPolyline
 90
       73
 70
     0
 43
0.0
 10
0.0
 20
23.50000000000001
 10
2.048159954569967
 20
23.41057540515603
 10
4.080732175172863
 20
23.1429821957869
 10
6.08224755990924
 20
22.69925691779311
 10
8.037473368153217
 20
22.08277658846886
 10
9.931529150906439
 20
21.29823299536128
 10
11.75
 20
20.35159698893431
 10
13.47904625424959
 20
19.25007304079131
 10
15.10550882763368
 20
18.00204441329599
 10
16.61700935788387
 20
16.61700935788387
 10
18.00204441329599
 20
15.10550882763368
 10
19.25007304079131
 20
13.47904625424959
 10
20.35159698893431
 20
11.75000000000001
 10
21.29823299536127
 20
9.931529150906444
 10
22.08277658846885
 20
8.037473368153226
 10
22.69925691779311
 20
6.08224755990925
 10
23.14298219578689
 20
4.080732175172876
 10
23.41057540515602
 20
2.048159954569982
 10
23.50000000000001
 20
0.0000000000000171
 10
23.41057540515603
 20
-2.048159954569948
 10
23.1429821957869
 20
-4.080732175172844
 10
22.69925691779311
 20
-6.082247559909216
 10
22.08277658846886
 20
-8.037473368153192
 10
21.29823299536129
 20
-9.931529150906417
 10
20.35159698893432
 20
-11.74999999999998
 10
19.25007304079133
 20
-13.47904625424956
 10
18.00204441329601
 20
-15.10550882763366
 10
16.61700935788389
 20
-16.61700935788385
 10
15.1055088276337
 20
-18.00204441329597
 10
13.47904625424962
 20
-19.25007304079129
 10
11.75000000000004
 20
-20.3515969889343
 10
9.931529150906478
 20
-21.29823299536126
 10
8.03747336815326
 20
-22.08277658846884
 10
6.082247559909287
 20
-22.6992569177931
 10
4.080732175172914
 20
-23.14298219578689
 10
2.04815995457002
 20
-23.41057540515602
 10
0.0000000000000551
 20
-23.50000000000001
 10
-2.04815995456991
 20
-23.41057540515603
 10
-4.080732175172805
 20
-23.14298219578691
 10
-6.082247559909178
 20
-22.69925691779313
 10
-8.037473368153156
 20
-22.08277658846887
 10
-9.931529150906377
 20
-21.29823299536131
 10
-11.74999999999994
 20
-20.35159698893435
 10
-13.47904625424953
 20
-19.25007304079136
 10
-15.10550882763362
 20
-18.00204441329603
 10
-16.61700935788382
 20
-16.61700935788393
 10
-18.00204441329594
 20
-15.10550882763373
 10
-19.25007304079127
 20
-13.47904625424965
 10
-20.35159698893428
 20
-11.75000000000007
 10
-21.29823299536125
 20
-9.93152915090651
 10
-22.08277658846882
 20
-8.037473368153293
 10
-22.69925691779309
 20
-6.082247559909318
 10
-23.14298219578688
 20
-4.080732175172946
 10
-23.41057540515602
 20
-2.048159954570053
 10
-23.50000000000001
 20
-0.0000000000000878
 10
-23.41057540515603
 20
2.048159954569878
 10
-23.14298219578691
 20
4.080732175172774
 10
-22.69925691779313
 20
6.082247559909147
 10
-22.08277658846888
 20
8.037473368153126
 10
-21.29823299536132
 20
9.93152915090635
 10
-20.35159698893436
 20
11.74999999999991
 10
-19.25007304079137
 20
13.4790462542495
 10
-18.00204441329606
 20
15.1055088276336
 10
-16.61700935788395
 20
16.6170093578838
 10
-15.10550882763377
 20
18.00204441329592
 10
-13.47904625424968
 20
19.25007304079125
 10
-11.75000000000011
 20
20.35159698893425
 10
-9.931529150906547
 20
21.29823299536123
 10
-8.03747336815333
 20
22.08277658846881
 10
-6.08224755990936
 20
22.69925691779308
 10
-4.080732175172988
 20
23.14298219578687
 10
-2.048159954570095
 20
23.41057540515602
 10
-0.000000000000131
 20
23.50000000000001
  0
LWPOLYLINE
  5
1DC
330
ED
100
AcDbEntity
  8
AM_4
100
AcDbPolyline
 90
       37
 70
     0
 43
0.0
 10
-36.49999999999999
 20
-4.700000000000006
 10
-36.3611064803487
 20
-1.518815389710486
 10
-35.94548298494559
 20
1.638158484842945
 10
-35.25629265955099
 20
4.746895146241991
 10
-34.29878065868566
 20
7.78373523138689
 10
-33.08023422683773
 20
10.72556655353551
 10
-31.60992723813202
 20
13.54999999999998
 10
-29.89904961654821
 20
16.23553992681316
 10
-27.96062217384272
 20
18.76174775355866
 10
-25.80939751330901
 20
21.10939751330896
 10
-23.46174775355871
 20
23.26062217384267
 10
-20.93553992681321
 20
25.19904961654817
 10
-18.25000000000004
 20
26.90992723813199
 10
-15.42556655353557
 20
28.3802342268377
 10
-12.48373523138696
 20
29.59878065868564
 10
-9.44689514624206
 20
30.55629265955098
 10
-6.338158484843016
 20
31.24548298494559
 10
-3.181184610289586
 20
31.6611064803487
 10
-0.0000000000000668
 20
31.80000000000001
 10
3.181184610289453
 20
31.66110648034873
 10
6.338158484842886
 20
31.24548298494561
 10
9.446895146241932
 20
30.55629265955102
 10
12.48373523138683
 20
29.59878065868569
 10
15.42556655353545
 20
28.38023422683777
 10
18.24999999999992
 20
26.90992723813206
 10
20.93553992681311
 20
25.19904961654826
 10
23.46174775355861
 20
23.26062217384277
 10
25.80939751330892
 20
21.10939751330906
 10
27.96062217384264
 20
18.76174775355877
 10
29.89904961654814
 20
16.23553992681328
 10
31.60992723813196
 20
13.5500000000001
 10
33.08023422683768
 20
10.72556655353564
 10
34.29878065868562
 20
7.78373523138703
 10
35.25629265955097
 20
4.746895146242134
 10
35.94548298494558
 20
1.63815848484309
 10
36.3611064803487
 20
-1.518815389710339
 10
36.50000000000001
 20
-4.699999999999859
  0
LINE
  5
1DD
330
ED
100
AcDbEntity
  8
AM_4
100
AcDbLine
 10
16.98
 20
-32.02999999999999
 30
0.0
 11
-16.98
 21
-32.02999999999999
 31
0.0
  0
LINE
  5
1DE
330
ED
100
AcDbEntity
  8
AM_4
100
AcDbLine
 10
-18.25
 20
-19.20463471061618
 30
0.0
 11
-36.5
 21
-19.20463471061618
 31
0.0
  0
LINE
  5
1DF
330
ED
100
AcDbEntity
  8
AM_4
100
AcDbLine
 10
36.5
 20
-19.20463471061618
 30
0.0
 11
18.25
 21
-19.20463471061618
 31
0.0
  0
LINE
  5
1E0
330
ED
100
AcDbEntity
  8
AM_4
100
AcDbLine
 10
-18.25
 20
-33.3
 30
0.0
 11
-18.25
 21
-19.20463471061618
 31
0.0
  0
LINE
  5
1E1
330
ED
100
AcDbEntity
  8
AM_4
100
AcDbLine
 10
-36.5
 20
-33.3
 30
0.0
 11
-18.25
 21
-33.3
 31
0.0
  0
LINE
  5
1E2
330
ED
100
AcDbEntity
  8
AM_4
100
AcDbLine
 10
-36.5
 20
-4.70000000000001
 30
0.0
 11
-36.5
 21
-33.3
 31
0.0
  0
LINE
  5
1E3
330
ED
100
AcDbEntity
  8
AM_4
100
AcDbLine
 10
18.25
 20
-33.3
 30
0.0
 11
18.25
 21
-19.20463471061618
 31
0.0
  0
LINE
  5
1E4
330
ED
100
AcDbEntity
  8
AM_4
100
AcDbLine
 10
18.25
 20
-33.3
 30
0.0
 11
36.5
 21
-33.3
 31
0.0
  0
LINE
  5
1E5
330
ED
100
AcDbEntity
  8
AM_4
100
AcDbLine
 10
36.5
 20
-33.3
 30
0.0
 11
36.5
 21
-4.70000000000001
 31
0.0
  0
LINE
  5
1E6
330
ED
100
AcDbEntity
  8
AM_4
100
AcDbLine
 10
36.5
 20
-20.59999999999999
 30
0.0
 11
18.25
 21
-20.59999999999999
 31
0.0
  0
LINE
  5
1E7
330
ED
100
AcDbEntity
  8
AM_4
100
AcDbLine
 10
36.5
 20
-22.09999999999999
 30
0.0
 11
18.25
 21
-22.09999999999999
 31
0.0
  0
LINE
  5
1E8
330
ED
100
AcDbEntity
  8
AM_4
100
AcDbLine
 10
-18.25
 20
-20.59999999999999
 30
0.0
 11
-36.5
 21
-20.59999999999999
 31
0.0
  0
LINE
  5
1E9
330
ED
100
AcDbEntity
  8
AM_4
100
AcDbLine
 10
-36.5
 20
-22.09999999999999
 30
0.0
 11
-18.25
 21
-22.09999999999999
 31
0.0
  0
ENDBLK
  5
F0
330
ED
100
AcDbEntity
  8
0
100
AcDbBlockEnd
  0
ENDSEC
  0
SECTION
  2
ENTITIES
  0
INSERT
  5
6F
330
1F
100
AcDbEntity
  8
0
100
AcDbBlockReference
  2
1_136365_0
 10
0.0
 20
0.0
 30
0.0
  0
POINT
  5
1EB
330
1F
100
AcDbEntity
  8
ConnectionPoints
100
AcDbPoint
 10
0.0
 20
0.0
 30
0.0
  0
POINT
  5
1EC
330
1F
100
AcDbEntity
  8
ConnectionPoints
100
AcDbPoint
 10
0.0
 20
0.0
 30
-12.3
  0
POINT
  5
1ED
330
1F
100
AcDbEntity
  8
ConnectionPoints
100
AcDbPoint
 10
0.0
 20
0.0
 30
0.0
  0
POINT
  5
1EE
330
1F
100
AcDbEntity
  8
ConnectionPoints
100
AcDbPoint
 10
0.0
 20
0.0
 30
0.0
  0
ENDSEC
  0
SECTION
  2
OBJECTS
  0
DICTIONARY
  5
C
330
0
100
AcDbDictionary
281
     1
  3
ACAD_DETAILVIEWSTYLE
350
1F6
  3
ACAD_GROUP
350
D
  3
ACAD_LAYOUT
350
1A
  3
ACAD_MATERIAL
350
43
  3
ACAD_MLEADERSTYLE
350
6B
  3
ACAD_MLINESTYLE
350
17
  3
ACAD_PLOTSETTINGS
350
19
  3
ACAD_PLOTSTYLENAME
350
E
  3
ACAD_SCALELIST
350
47
  3
ACAD_SECTIONVIEWSTYLE
350
1F7
  3
ACAD_TABLESTYLE
350
69
  3
ACAD_VISUALSTYLE
350
2A
  3
ACDB_RECOMPOSE_DATA
350
1F3
  3
AcDbVariableDictionary
350
1EF
  0
SUN
  5
6D
330
29
100
AcDbSun
 90
        1
290
     0
 63
     7
421
 16777215
 40
1.0
291
     1
 91
  2455826
 92
 54000000
292
     0
 70
     2
 71
   256
280
     1
  0
DICTIONARY
  5
1F6
102
{ACAD_REACTORS
330
C
102
}
330
C
100
AcDbDictionary
281
     1
  0
DICTIONARY
  5
D
102
{ACAD_REACTORS
330
C
102
}
330
C
100
AcDbDictionary
281
     1
  0
DICTIONARY
  5
1A
102
{ACAD_REACTORS
330
C
102
}
330
C
100
AcDbDictionary
281
     1
  3
Layout1
350
1E
  3
Layout2
350
26
  3
Model
350
22
  0
DICTIONARY
  5
43
102
{ACAD_REACTORS
330
C
102
}
330
C
100
AcDbDictionary
281
     1
  3
ByBlock
350
45
  3
ByLayer
350
44
  3
Global
350
46
  0
DICTIONARY
  5
6B
102
{ACAD_REACTORS
330
C
102
}
330
C
100
AcDbDictionary
281
     1
  3
Standard
350
6C
  0
DICTIONARY
  5
17
102
{ACAD_REACTORS
330
C
102
}
330
C
100
AcDbDictionary
281
     1
  3
Standard
350
18
  0
DICTIONARY
  5
19
102
{ACAD_REACTORS
330
C
102
}
330
C
100
AcDbDictionary
281
     1
  0
ACDBDICTIONARYWDFLT
  5
E
102
{ACAD_REACTORS
330
C
102
}
330
C
100
AcDbDictionary
281
     1
  3
Normal
350
F
100
AcDbDictionaryWithDefault
340
F
  0
DICTIONARY
  5
47
102
{ACAD_REACTORS
330
C
102
}
330
C
100
AcDbDictionary
281
     1
  3
A0
350
48
  3
A1
350
49
  3
A2
350
4A
  3
A3
350
4B
  3
A4
350
4C
  3
A5
350
4D
  3
A6
350
4E
  3
A7
350
4F
  3
A8
350
50
  3
A9
350
51
  3
B0
350
52
  3
B1
350
53
  3
B2
350
54
  3
B3
350
55
  3
B4
350
56
  3
B5
350
57
  3
B6
350
58
  3
B7
350
59
  3
B8
350
5A
  3
B9
350
5B
  3
C0
350
5C
  3
C1
350
5D
  3
C2
350
5E
  3
C3
350
5F
  3
C4
350
60
  3
C5
350
61
  3
C6
350
62
  3
C7
350
63
  3
C8
350
64
  3
C9
350
65
  3
D0
350
66
  3
D1
350
67
  3
D2
350
68
  0
DICTIONARY
  5
1F7
102
{ACAD_REACTORS
330
C
102
}
330
C
100
AcDbDictionary
281
     1
  0
DICTIONARY
  5
69
102
{ACAD_REACTORS
330
C
102
}
330
C
100
AcDbDictionary
281
     1
  3
Standard
350
6A
  0
DICTIONARY
  5
2A
102
{ACAD_REACTORS
330
C
102
}
330
C
100
AcDbDictionary
281
     1
  3
2dWireframe
350
2F
  3
Basic
350
32
  3
Brighten
350
36
  3
ColorChange
350
3A
  3
Conceptual
350
34
  3
Dim
350
35
  3
EdgeColorOff
350
3D
  3
Facepattern
350
39
  3
Flat
350
2B
  3
FlatWithEdges
350
2C
  3
Gouraud
350
2D
  3
GouraudWithEdges
350
2E
  3
Hidden
350
31
  3
JitterOff
350
3B
  3
Linepattern
350
38
  3
OverhangOff
350
3C
  3
Realistic
350
33
  3
Shaded
350
42
  3
Shaded with edges
350
41
  3
Shades of Gray
350
3E
  3
Sketchy
350
3F
  3
Thicken
350
37
  3
Wireframe
350
30
  3
X-Ray
350
40
  0
XRECORD
  5
1F3
102
{ACAD_REACTORS
330
C
102
}
330
C
100
AcDbXrecord
280
     1
 90
        1
330
6A
  0
DICTIONARY
  5
1EF
102
{ACAD_REACTORS
330
C
102
}
330
C
100
AcDbDictionary
281
     1
  3
CANNOSCALE
350
1F0
  3
CMLEADERSTYLE
350
1F5
  3
CTABLESTYLE
350
1F4
  0
LAYOUT
  5
1E
102
{ACAD_REACTORS
330
1A
102
}
330
1A
100
AcDbPlotSettings
  1

  2
none_device
  4

  6

 40
0.0
 41
0.0
 42
0.0
 43
0.0
 44
0.0
 45
0.0
 46
0.0
 47
0.0
 48
0.0
 49
0.0
140
0.0
141
0.0
142
1.0
143
1.0
 70
   688
 72
     1
 73
     0
 74
     5
  7

 75
    16
 76
     0
 77
     2
 78
   300
147
1.0
148
0.0
149
0.0
100
AcDbLayout
  1
Layout1
 70
     1
 71
     1
 10
0.0
 20
0.0
 11
420.0
 21
297.0
 12
0.0
 22
0.0
 32
0.0
 14
1.000000000000000E+20
 24
1.000000000000000E+20
 34
1.000000000000000E+20
 15
-1.000000000000000E+20
 25
-1.000000000000000E+20
 35
-1.000000000000000E+20
146
0.0
 13
0.0
 23
0.0
 33
0.0
 16
1.0
 26
0.0
 36
0.0
 17
0.0
 27
1.0
 37
0.0
 76
     0
330
1B
  0
LAYOUT
  5
26
102
{ACAD_REACTORS
330
1A
102
}
330
1A
100
AcDbPlotSettings
  1

  2
none_device
  4

  6

 40
0.0
 41
0.0
 42
0.0
 43
0.0
 44
0.0
 45
0.0
 46
0.0
 47
0.0
 48
0.0
 49
0.0
140
0.0
141
0.0
142
1.0
143
1.0
 70
   688
 72
     1
 73
     0
 74
     5
  7

 75
    16
 76
     0
 77
     2
 78
   300
147
1.0
148
0.0
149
0.0
100
AcDbLayout
  1
Layout2
 70
     1
 71
     2
 10
0.0
 20
0.0
 11
0.0
 21
0.0
 12
0.0
 22
0.0
 32
0.0
 14
0.0
 24
0.0
 34
0.0
 15
0.0
 25
0.0
 35
0.0
146
0.0
 13
0.0
 23
0.0
 33
0.0
 16
1.0
 26
0.0
 36
0.0
 17
0.0
 27
1.0
 37
0.0
 76
     0
330
23
  0
LAYOUT
  5
22
102
{ACAD_REACTORS
330
1A
102
}
330
1A
100
AcDbPlotSettings
  1

  2
none_device
  4
Letter_(8.50_x_11.00_Inches)
  6

 40
6.35
 41
6.35
 42
6.35000508
 43
6.35000508
 44
215.9
 45
279.4
 46
0.0
 47
0.0
 48
0.0
 49
0.0
140
0.0
141
0.0
142
1.0
143
1.0
 70
  1712
 72
     1
 73
     0
 74
     0
  7

 75
     0
 76
     0
 77
     2
 78
   300
147
1.0
148
0.0
149
0.0
100
AcDbLayout
  1
Model
 70
     1
 71
     0
 10
0.0
 20
0.0
 11
420.0
 21
297.0
 12
0.0
 22
0.0
 32
0.0
 14
1.000000000000000E+20
 24
1.000000000000000E+20
 34
1.000000000000000E+20
 15
-1.000000000000000E+20
 25
-1.000000000000000E+20
 35
-1.000000000000000E+20
146
0.0
 13
0.0
 23
0.0
 33
0.0
 16
1.0
 26
0.0
 36
0.0
 17
0.0
 27
1.0
 37
0.0
 76
     0
330
1F
331
29
  0
MATERIAL
  5
45
102
{ACAD_REACTORS
330
43
102
}
330
43
100
AcDbMaterial
  1
ByBlock
 72
     1
 94
      127
  0
MATERIAL
  5
44
102
{ACAD_REACTORS
330
43
102
}
330
43
100
AcDbMaterial
  1
ByLayer
 72
     1
 94
      127
  0
MATERIAL
  5
46
102
{ACAD_REACTORS
330
43
102
}
330
43
100
AcDbMaterial
  1
Global
 72
     1
 94
      127
  0
MLEADERSTYLE
  5
6C
102
{ACAD_REACTORS
330
6B
102
}
330
6B
100
AcDbMLeaderStyle
179
     2
170
     2
171
     1
172
     0
 90
        2
 40
0.0
 41
0.0
173
     1
 91
-1056964608
340
14
 92
       -2
290
     1
 42
2.0
291
     1
 43
8.0
  3
Standard
341
0
 44
4.0
300

342
11
174
     1
178
     6
175
     1
176
     0
 93
-1056964608
 45
4.0
292
     0
297
     0
 46
4.0
343
0
 94
-1056964608
 47
1.0
 49
1.0
140
1.0
293
     1
141
0.0
294
     1
177
     0
142
1.0
295
     0
296
     0
143
3.75
271
     0
272
     9
273
     9
298
     0
  0
MLINESTYLE
  5
18
102
{ACAD_REACTORS
330
17
102
}
330
17
100
AcDbMlineStyle
  2
Standard
 70
     0
  3

 62
   256
 51
90.0
 52
90.0
 71
     2
 49
0.5
 62
   256
  6
BYLAYER
 49
-0.5
 62
   256
  6
BYLAYER
  0
ACDBPLACEHOLDER
  5
F
102
{ACAD_REACTORS
330
E
102
}
330
E
  0
SCALE
  5
48
102
{ACAD_REACTORS
330
47
102
}
330
47
100
AcDbScale
 70
     0
300
1:1
140
1.0
141
1.0
290
     1
  0
SCALE
  5
49
102
{ACAD_REACTORS
330
47
102
}
330
47
100
AcDbScale
 70
     0
300
1:2
140
1.0
141
2.0
290
     0
  0
SCALE
  5
4A
102
{ACAD_REACTORS
330
47
102
}
330
47
100
AcDbScale
 70
     0
300
1:4
140
1.0
141
4.0
290
     0
  0
SCALE
  5
4B
102
{ACAD_REACTORS
330
47
102
}
330
47
100
AcDbScale
 70
     0
300
1:5
140
1.0
141
5.0
290
     0
  0
SCALE
  5
4C
102
{ACAD_REACTORS
330
47
102
}
330
47
100
AcDbScale
 70
     0
300
1:8
140
1.0
141
8.0
290
     0
  0
SCALE
  5
4D
102
{ACAD_REACTORS
330
47
102
}
330
47
100
AcDbScale
 70
     0
300
1:10
140
1.0
141
10.0
290
     0
  0
SCALE
  5
4E
102
{ACAD_REACTORS
330
47
102
}
330
47
100
AcDbScale
 70
     0
300
1:16
140
1.0
141
16.0
290
     0
  0
SCALE
  5
4F
102
{ACAD_REACTORS
330
47
102
}
330
47
100
AcDbScale
 70
     0
300
1:20
140
1.0
141
20.0
290
     0
  0
SCALE
  5
50
102
{ACAD_REACTORS
330
47
102
}
330
47
100
AcDbScale
 70
     0
300
1:30
140
1.0
141
30.0
290
     0
  0
SCALE
  5
51
102
{ACAD_REACTORS
330
47
102
}
330
47
100
AcDbScale
 70
     0
300
1:40
140
1.0
141
40.0
290
     0
  0
SCALE
  5
52
102
{ACAD_REACTORS
330
47
102
}
330
47
100
AcDbScale
 70
     0
300
1:50
140
1.0
141
50.0
290
     0
  0
SCALE
  5
53
102
{ACAD_REACTORS
330
47
102
}
330
47
100
AcDbScale
 70
     0
300
1:100
140
1.0
141
100.0
290
     0
  0
SCALE
  5
54
102
{ACAD_REACTORS
330
47
102
}
330
47
100
AcDbScale
 70
     0
300
2:1
140
2.0
141
1.0
290
     0
  0
SCALE
  5
55
102
{ACAD_REACTORS
330
47
102
}
330
47
100
AcDbScale
 70
     0
300
4:1
140
4.0
141
1.0
290
     0
  0
SCALE
  5
56
102
{ACAD_REACTORS
330
47
102
}
330
47
100
AcDbScale
 70
     0
300
8:1
140
8.0
141
1.0
290
     0
  0
SCALE
  5
57
102
{ACAD_REACTORS
330
47
102
}
330
47
100
AcDbScale
 70
     0
300
10:1
140
10.0
141
1.0
290
     0
  0
SCALE
  5
58
102
{ACAD_REACTORS
330
47
102
}
330
47
100
AcDbScale
 70
     0
300
100:1
140
100.0
141
1.0
290
     0
  0
SCALE
  5
59
102
{ACAD_REACTORS
330
47
102
}
330
47
100
AcDbScale
 70
     0
300
1/128" = 1'-0"
140
0.0078125
141
12.0
290
     0
  0
SCALE
  5
5A
102
{ACAD_REACTORS
330
47
102
}
330
47
100
AcDbScale
 70
     0
300
1/64" = 1'-0"
140
0.015625
141
12.0
290
     0
  0
SCALE
  5
5B
102
{ACAD_REACTORS
330
47
102
}
330
47
100
AcDbScale
 70
     0
300
1/32" = 1'-0"
140
0.03125
141
12.0
290
     0
  0
SCALE
  5
5C
102
{ACAD_REACTORS
330
47
102
}
330
47
100
AcDbScale
 70
     0
300
1/16" = 1'-0"
140
0.0625
141
12.0
290
     0
  0
SCALE
  5
5D
102
{ACAD_REACTORS
330
47
102
}
330
47
100
AcDbScale
 70
     0
300
3/32" = 1'-0"
140
0.09375
141
12.0
290
     0
  0
SCALE
  5
5E
102
{ACAD_REACTORS
330
47
102
}
330
47
100
AcDbScale
 70
     0
300
1/8" = 1'-0"
140
0.125
141
12.0
290
     0
  0
SCALE
  5
5F
102
{ACAD_REACTORS
330
47
102
}
330
47
100
AcDbScale
 70
     0
300
3/16" = 1'-0"
140
0.1875
141
12.0
290
     0
  0
SCALE
  5
60
102
{ACAD_REACTORS
330
47
102
}
330
47
100
AcDbScale
 70
     0
300
1/4" = 1'-0"
140
0.25
141
12.0
290
     0
  0
SCALE
  5
61
102
{ACAD_REACTORS
330
47
102
}
330
47
100
AcDbScale
 70
     0
300
3/8" = 1'-0"
140
0.375
141
12.0
290
     0
  0
SCALE
  5
62
102
{ACAD_REACTORS
330
47
102
}
330
47
100
AcDbScale
 70
     0
300
1/2" = 1'-0"
140
0.5
141
12.0
290
     0
  0
SCALE
  5
63
102
{ACAD_REACTORS
330
47
102
}
330
47
100
AcDbScale
 70
     0
300
3/4" = 1'-0"
140
0.75
141
12.0
290
     0
  0
SCALE
  5
64
102
{ACAD_REACTORS
330
47
102
}
330
47
100
AcDbScale
 70
     0
300
1" = 1'-0"
140
1.0
141
12.0
290
     0
  0
SCALE
  5
65
102
{ACAD_REACTORS
330
47
102
}
330
47
100
AcDbScale
 70
     0
300
1-1/2" = 1'-0"
140
1.5
141
12.0
290
     0
  0
SCALE
  5
66
102
{ACAD_REACTORS
330
47
102
}
330
47
100
AcDbScale
 70
     0
300
3" = 1'-0"
140
3.0
141
12.0
290
     0
  0
SCALE
  5
67
102
{ACAD_REACTORS
330
47
102
}
330
47
100
AcDbScale
 70
     0
300
6" = 1'-0"
140
6.0
141
12.0
290
     0
  0
SCALE
  5
68
102
{ACAD_REACTORS
330
47
102
}
330
47
100
AcDbScale
 70
     0
300
1'-0" = 1'-0"
140
12.0
141
12.0
290
     0
  0
TABLESTYLE
  5
6A
102
{ACAD_REACTORS
330
69
102
}
102
{ACAD_XDICTIONARY
360
1F1
102
}
330
69
100
AcDbTableStyle
  3
Standard
 70
     0
 71
     0
 40
0.06
 41
0.06
280
     0
281
     0
  7
Standard
140
4.5
170
     2
 62
     0
 63
   257
283
     0
 90
        4
 91
        0
  1

274
    -2
284
     1
 64
     0
275
    -2
285
     1
 65
     0
276
    -2
286
     1
 66
     0
277
    -2
287
     1
 67
     0
278
    -2
288
     1
 68
     0
279
    -2
289
     1
 69
     0
  7
Standard
140
6.0
170
     5
 62
     0
 63
   257
283
     0
 90
        4
 91
        0
  1

274
    -2
284
     1
 64
     0
275
    -2
285
     1
 65
     0
276
    -2
286
     1
 66
     0
277
    -2
287
     1
 67
     0
278
    -2
288
     1
 68
     0
279
    -2
289
     1
 69
     0
  7
Standard
140
4.5
170
     5
 62
     0
 63
   257
283
     0
 90
        4
 91
        0
  1

274
    -2
284
     1
 64
     0
275
    -2
285
     1
 65
     0
276
    -2
286
     1
 66
     0
277
    -2
287
     1
 67
     0
278
    -2
288
     1
 68
     0
279
    -2
289
     1
 69
     0
  0
VISUALSTYLE
  5
2F
102
{ACAD_REACTORS
330
2A
102
}
330
2A
100
AcDbVisualStyle
  2
2dWireframe
 70
     4
177
     3
291
     0
 70
    58
 90
        0
176
     1
 90
        2
176
     1
 90
        0
176
     1
 90
        0
176
     1
 40
0.6
176
     1
 40
30.0
176
     1
 62
     7
420
 16777215
176
     1
 90
        1
176
     1
 90
        4
176
     1
 62
     7
176
     1
 62
   257
176
     1
 90
        1
176
     1
 90
        1
176
     1
 40
1.0
176
     1
 90
        0
176
     1
 62
   257
176
     1
 40
1.0
176
     1
 90
        1
176
     1
 90
        6
176
     1
 90
        2
176
     1
 62
     7
176
     1
 90
        5
176
     1
 90
        0
176
     1
 90
        0
176
     1
290
     0
176
     1
 90
        1
176
     1
 40
0.0
176
     1
 90
        0
176
     1
290
     1
176
     1
290
     1
176
     1
290
     0
176
     1
290
     0
176
     1
290
     0
176
     1
290
     0
176
     1
290
     0
176
     1
290
     0
176
     1
290
     0
176
     1
 90
       50
176
     1
 40
0.0
176
     1
 40
1.0
176
     1
 90
        0
176
     1
 62
    18
420
        0
176
     1
 90
       50
176
     1
 90
        3
176
     1
 62
     5
420
      255
176
     1
290
     0
176
     1
 90
       50
176
     1
 90
       50
176
     1
 90
       50
176
     1
290
     0
176
     1
 90
       50
176
     1
 62
   256
176
     0
 40
1.0
176
     0
 90
        2
176
     1
  1
strokes_ogs.tif
176
     1
290
     0
176
     1
 40
1.0
176
     1
 40
1.0
176
     1
  0
VISUALSTYLE
  5
32
102
{ACAD_REACTORS
330
2A
102
}
330
2A
100
AcDbVisualStyle
  2
Basic
 70
     7
177
     3
291
     1
 70
    58
 90
        1
176
     1
 90
        0
176
     1
 90
        1
176
     1
 90
        0
176
     1
 40
0.6
176
     1
 40
30.0
176
     1
 62
     7
420
 16777215
176
     1
 90
        0
176
     1
 90
        4
176
     1
 62
     7
176
     1
 62
   257
176
     1
 90
        1
176
     1
 90
        1
176
     1
 40
1.0
176
     1
 90
        8
176
     1
 62
     7
176
     1
 40
1.0
176
     1
 90
        1
176
     1
 90
        6
176
     1
 90
        2
176
     1
 62
     7
176
     1
 90
        5
176
     1
 90
        0
176
     1
 90
        0
176
     1
290
     0
176
     1
 90
        1
176
     1
 40
0.0
176
     1
 90
        0
176
     1
290
     0
176
     1
290
     1
176
     1
290
     1
176
     1
290
     0
176
     1
290
     0
176
     1
290
     0
176
     1
290
     0
176
     1
290
     0
176
     1
290
     0
176
     1
 90
       50
176
     1
 40
0.0
176
     1
 40
1.0
176
     1
 90
        0
176
     1
 62
    18
420
        0
176
     1
 90
       50
176
     1
 90
        3
176
     1
 62
     5
420
      255
176
     1
290
     0
176
     1
 90
       50
176
     1
 90
       50
176
     1
 90
       50
176
     1
290
     0
176
     1
 90
       50
176
     1
 62
   256
176
     0
 40
1.0
176
     0
 90
        2
176
     1
  1
strokes_ogs.tif
176
     1
290
     0
176
     1
 40
1.0
176
     1
 40
1.0
176
     1
  0
VISUALSTYLE
  5
36
102
{ACAD_REACTORS
330
2A
102
}
330
2A
100
AcDbVisualStyle
  2
Brighten
 70
    12
177
     3
291
     1
 70
    58
 90
        2
176
     1
 90
        2
176
     1
 90
        0
176
     1
 90
        0
176
     1
 40
0.6
176
     1
 40
30.0
176
     1
 62
     7
420
 16777215
176
     1
 90
        1
176
     1
 90
        4
176
     1
 62
     7
176
     1
 62
   257
176
     1
 90
        1
176
     1
 90
        1
176
     1
 40
1.0
176
     1
 90
        8
176
     1
 62
     7
176
     1
 40
1.0
176
     1
 90
        1
176
     1
 90
        6
176
     1
 90
        2
176
     1
 62
     7
176
     1
 90
        5
176
     1
 90
        0
176
     1
 90
        0
176
     1
290
     0
176
     1
 90
        1
176
     1
 40
50.0
176
     1
 90
        0
176
     1
290
     0
176
     1
290
     1
176
     1
290
     1
176
     1
290
     0
176
     1
290
     0
176
     1
290
     0
176
     1
290
     0
176
     1
290
     0
176
     1
290
     0
176
     1
 90
       50
176
     1
 40
0.0
176
     1
 40
1.0
176
     1
 90
        0
176
     1
 62
    18
420
        0
176
     1
 90
       50
176
     1
 90
        3
176
     1
 62
     5
420
      255
176
     1
290
     0
176
     1
 90
       50
176
     1
 90
       50
176
     1
 90
       50
176
     1
290
     0
176
     1
 90
       50
176
     1
 62
   256
176
     0
 40
1.0
176
     0
 90
        2
176
     1
  1
strokes_ogs.tif
176
     1
290
     0
176
     1
 40
1.0
176
     1
 40
1.0
176
     1
  0
VISUALSTYLE
  5
3A
102
{ACAD_REACTORS
330
2A
102
}
330
2A
100
AcDbVisualStyle
  2
ColorChange
 70
    16
177
     3
291
     1
 70
    58
 90
        2
176
     1
 90
        2
176
     1
 90
        3
176
     1
 90
        0
176
     1
 40
0.6
176
     1
 40
30.0
176
     1
 62
     8
420
  8421504
176
     1
 90
        1
176
     1
 90
        4
176
     1
 62
     7
176
     1
 62
   257
176
     1
 90
        1
176
     1
 90
        1
176
     1
 40
1.0
176
     1
 90
        8
176
     1
 62
     8
420
  8421504
176
     1
 40
1.0
176
     1
 90
        1
176
     1
 90
        6
176
     1
 90
        2
176
     1
 62
     7
176
     1
 90
        5
176
     1
 90
        0
176
     1
 90
        0
176
     1
290
     0
176
     1
 90
        1
176
     1
 40
0.0
176
     1
 90
        0
176
     1
290
     0
176
     1
290
     1
176
     1
290
     1
176
     1
290
     0
176
     1
290
     0
176
     1
290
     0
176
     1
290
     0
176
     1
290
     0
176
     1
290
     0
176
     1
 90
       50
176
     1
 40
0.0
176
     1
 40
1.0
176
     1
 90
        0
176
     1
 62
    18
420
        0
176
     1
 90
       50
176
     1
 90
        3
176
     1
 62
     5
420
      255
176
     1
290
     0
176
     1
 90
       50
176
     1
 90
       50
176
     1
 90
       50
176
     1
290
     0
176
     1
 90
       50
176
     1
 62
   256
176
     0
 40
1.0
176
     0
 90
        2
176
     1
  1
strokes_ogs.tif
176
     1
290
     0
176
     1
 40
1.0
176
     1
 40
1.0
176
     1
  0
VISUALSTYLE
  5
34
102
{ACAD_REACTORS
330
2A
102
}
330
2A
100
AcDbVisualStyle
  2
Conceptual
 70
     9
177
     3
291
     0
 70
    58
 90
        3
176
     1
 90
        2
176
     1
 90
        0
176
     1
 90
        0
176
     1
 40
0.6
176
     1
 40
30.0
176
     1
 62
     7
420
 16777215
176
     1
 90
        2
176
     1
 90
        2
176
     1
 62
     7
176
     1
 62
   257
176
     1
 90
        1
176
     1
 90
        1
176
     1
 40
179.0
176
     1
 90
        8
176
     1
 62
     7
176
     1
 40
1.0
176
     1
 90
        1
176
     1
 90
        6
176
     1
 90
        2
176
     1
 62
     7
176
     1
 90
        3
176
     1
 90
        0
176
     1
 90
        0
176
     1
290
     0
176
     1
 90
        1
176
     1
 40
0.0
176
     1
 90
        0
176
     1
290
     0
176
     1
290
     1
176
     1
290
     1
176
     1
290
     0
176
     1
290
     0
176
     1
290
     0
176
     1
290
     0
176
     1
290
     0
176
     1
290
     0
176
     1
 90
       50
176
     1
 40
0.0
176
     1
 40
1.0
176
     1
 90
        0
176
     1
 62
    18
420
        0
176
     1
 90
       50
176
     1
 90
        3
176
     1
 62
     5
420
      255
176
     1
290
     0
176
     1
 90
       50
176
     1
 90
       50
176
     1
 90
       50
176
     1
290
     0
176
     1
 90
       50
176
     1
 62
   256
176
     0
 40
1.0
176
     0
 90
        2
176
     1
  1
strokes_ogs.tif
176
     1
290
     0
176
     1
 40
1.0
176
     1
 40
1.0
176
     1
  0
VISUALSTYLE
  5
35
102
{ACAD_REACTORS
330
2A
102
}
330
2A
100
AcDbVisualStyle
  2
Dim
 70
    11
177
     3
291
     1
 70
    58
 90
        2
176
     1
 90
        2
176
     1
 90
        0
176
     1
 90
        0
176
     1
 40
0.6
176
     1
 40
30.0
176
     1
 62
     7
420
 16777215
176
     1
 90
        1
176
     1
 90
        4
176
     1
 62
     7
176
     1
 62
   257
176
     1
 90
        1
176
     1
 90
        1
176
     1
 40
1.0
176
     1
 90
        8
176
     1
 62
     7
176
     1
 40
1.0
176
     1
 90
        1
176
     1
 90
        6
176
     1
 90
        2
176
     1
 62
     7
176
     1
 90
        5
176
     1
 90
        0
176
     1
 90
        0
176
     1
290
     0
176
     1
 90
        1
176
     1
 40
-50.0
176
     1
 90
        0
176
     1
290
     0
176
     1
290
     1
176
     1
290
     1
176
     1
290
     0
176
     1
290
     0
176
     1
290
     0
176
     1
290
     0
176
     1
290
     0
176
     1
290
     0
176
     1
 90
       50
176
     1
 40
0.0
176
     1
 40
1.0
176
     1
 90
        0
176
     1
 62
    18
420
        0
176
     1
 90
       50
176
     1
 90
        3
176
     1
 62
     5
420
      255
176
     1
290
     0
176
     1
 90
       50
176
     1
 90
       50
176
     1
 90
       50
176
     1
290
     0
176
     1
 90
       50
176
     1
 62
   256
176
     0
 40
1.0
176
     0
 90
        2
176
     1
  1
strokes_ogs.tif
176
     1
290
     0
176
     1
 40
1.0
176
     1
 40
1.0
176
     1
  0
VISUALSTYLE
  5
3D
102
{ACAD_REACTORS
330
2A
102
}
330
2A
100
AcDbVisualStyle
  2
EdgeColorOff
 70
    22
177
     3
291
     1
 70
    58
 90
        2
176
     0
 90
        2
176
     0
 90
        0
176
     0
 90
        0
176
     0
 40
0.6
176
     0
 40
30.0
176
     0
 62
     7
420
 16777215
176
     0
 90
        1
176
     0
 90
        4
176
     0
 62
     7
176
     0
 62
   257
176
     0
 90
        1
176
     0
 90
        1
176
     0
 40
1.0
176
     0
 90
        8
176
     2
 62
     7
176
     0
 40
1.0
176
     0
 90
        1
176
     0
 90
        6
176
     0
 90
        2
176
     0
 62
     7
176
     0
 90
        5
176
     0
 90
        0
176
     0
 90
        0
176
     0
290
     0
176
     0
 90
        1
176
     0
 40
0.0
176
     0
 90
        0
176
     0
290
     0
176
     0
290
     1
176
     0
290
     1
176
     0
290
     0
176
     0
290
     0
176
     0
290
     0
176
     0
290
     0
176
     0
290
     0
176
     0
290
     0
176
     0
 90
       50
176
     0
 40
0.0
176
     0
 40
1.0
176
     0
 90
        0
176
     0
 62
    18
420
        0
176
     0
 90
       50
176
     0
 90
        3
176
     0
 62
     5
420
      255
176
     0
290
     0
176
     0
 90
       50
176
     0
 90
       50
176
     0
 90
       50
176
     0
290
     0
176
     0
 90
       50
176
     0
 62
   256
176
     0
 40
1.0
176
     0
 90
        2
176
     0
  1
strokes_ogs.tif
176
     0
290
     0
176
     0
 40
1.0
176
     0
 40
1.0
176
     0
  0
VISUALSTYLE
  5
39
102
{ACAD_REACTORS
330
2A
102
}
330
2A
100
AcDbVisualStyle
  2
Facepattern
 70
    15
177
     3
291
     1
 70
    58
 90
        2
176
     1
 90
        2
176
     1
 90
        0
176
     1
 90
        0
176
     1
 40
0.6
176
     1
 40
30.0
176
     1
 62
     7
420
 16777215
176
     1
 90
        1
176
     1
 90
        4
176
     1
 62
     7
176
     1
 62
   257
176
     1
 90
        1
176
     1
 90
        1
176
     1
 40
1.0
176
     1
 90
        8
176
     1
 62
     7
176
     1
 40
1.0
176
     1
 90
        1
176
     1
 90
        6
176
     1
 90
        2
176
     1
 62
     7
176
     1
 90
        5
176
     1
 90
        0
176
     1
 90
        0
176
     1
290
     0
176
     1
 90
        1
176
     1
 40
0.0
176
     1
 90
        0
176
     1
290
     0
176
     1
290
     1
176
     1
290
     1
176
     1
290
     0
176
     1
290
     0
176
     1
290
     0
176
     1
290
     0
176
     1
290
     0
176
     1
290
     0
176
     1
 90
       50
176
     1
 40
0.0
176
     1
 40
1.0
176
     1
 90
        0
176
     1
 62
    18
420
        0
176
     1
 90
       50
176
     1
 90
        3
176
     1
 62
     5
420
      255
176
     1
290
     0
176
     1
 90
       50
176
     1
 90
       50
176
     1
 90
       50
176
     1
290
     0
176
     1
 90
       50
176
     1
 62
   256
176
     0
 40
1.0
176
     0
 90
        2
176
     1
  1
strokes_ogs.tif
176
     1
290
     0
176
     1
 40
1.0
176
     1
 40
1.0
176
     1
  0
VISUALSTYLE
  5
2B
102
{ACAD_REACTORS
330
2A
102
}
330
2A
100
AcDbVisualStyle
  2
Flat
 70
     0
177
     3
291
     1
 70
    58
 90
        2
176
     1
 90
        1
176
     1
 90
        1
176
     1
 90
        2
176
     1
 40
0.6
176
     1
 40
30.0
176
     1
 62
     7
420
 16777215
176
     1
 90
        0
176
     1
 90
        0
176
     1
 62
     7
176
     1
 62
   257
176
     1
 90
        1
176
     1
 90
        1
176
     1
 40
1.0
176
     1
 90
        8
176
     1
 62
     7
176
     1
 40
1.0
176
     1
 90
        1
176
     1
 90
        6
176
     1
 90
        2
176
     1
 62
     7
176
     1
 90
        5
176
     1
 90
        0
176
     1
 90
        0
176
     1
290
     0
176
     1
 90
       13
176
     1
 40
0.0
176
     1
 90
        0
176
     1
290
     0
176
     1
290
     1
176
     1
290
     1
176
     1
290
     0
176
     1
290
     0
176
     1
290
     0
176
     1
290
     0
176
     1
290
     0
176
     1
290
     0
176
     1
 90
       50
176
     1
 40
0.0
176
     1
 40
1.0
176
     1
 90
        0
176
     1
 62
    18
420
        0
176
     1
 90
       50
176
     1
 90
        3
176
     1
 62
     5
420
      255
176
     1
290
     0
176
     1
 90
       50
176
     1
 90
       50
176
     1
 90
       50
176
     1
290
     0
176
     1
 90
       50
176
     1
 62
   256
176
     0
 40
1.0
176
     0
 90
        2
176
     1
  1
strokes_ogs.tif
176
     1
290
     0
176
     1
 40
1.0
176
     1
 40
1.0
176
     1
  0
VISUALSTYLE
  5
2C
102
{ACAD_REACTORS
330
2A
102
}
330
2A
100
AcDbVisualStyle
  2
FlatWithEdges
 70
     1
177
     3
291
     1
 70
    58
 90
        2
176
     1
 90
        1
176
     1
 90
        1
176
     1
 90
        2
176
     1
 40
0.6
176
     1
 40
30.0
176
     1
 62
     7
420
 16777215
176
     1
 90
        1
176
     1
 90
        0
176
     1
 62
     7
176
     1
 62
   257
176
     1
 90
        1
176
     1
 90
        1
176
     1
 40
1.0
176
     1
 90
        0
176
     1
 62
   257
176
     1
 40
1.0
176
     1
 90
        1
176
     1
 90
        6
176
     1
 90
        2
176
     1
 62
     7
176
     1
 90
        5
176
     1
 90
        0
176
     1
 90
        0
176
     1
290
     0
176
     1
 90
       13
176
     1
 40
0.0
176
     1
 90
        0
176
     1
290
     0
176
     1
290
     1
176
     1
290
     1
176
     1
290
     0
176
     1
290
     0
176
     1
290
     0
176
     1
290
     0
176
     1
290
     0
176
     1
290
     0
176
     1
 90
       50
176
     1
 40
0.0
176
     1
 40
1.0
176
     1
 90
        0
176
     1
 62
    18
420
        0
176
     1
 90
       50
176
     1
 90
        3
176
     1
 62
     5
420
      255
176
     1
290
     0
176
     1
 90
       50
176
     1
 90
       50
176
     1
 90
       50
176
     1
290
     0
176
     1
 90
       50
176
     1
 62
   256
176
     0
 40
1.0
176
     0
 90
        2
176
     1
  1
strokes_ogs.tif
176
     1
290
     0
176
     1
 40
1.0
176
     1
 40
1.0
176
     1
  0
VISUALSTYLE
  5
2D
102
{ACAD_REACTORS
330
2A
102
}
330
2A
100
AcDbVisualStyle
  2
Gouraud
 70
     2
177
     3
291
     1
 70
    58
 90
        2
176
     1
 90
        2
176
     1
 90
        1
176
     1
 90
        2
176
     1
 40
0.6
176
     1
 40
30.0
176
     1
 62
     7
420
 16777215
176
     1
 90
        0
176
     1
 90
        0
176
     1
 62
     7
176
     1
 62
   257
176
     1
 90
        1
176
     1
 90
        1
176
     1
 40
1.0
176
     1
 90
        0
176
     1
 62
     7
176
     1
 40
1.0
176
     1
 90
        1
176
     1
 90
        6
176
     1
 90
        2
176
     1
 62
     7
176
     1
 90
        5
176
     1
 90
        0
176
     1
 90
        0
176
     1
290
     0
176
     1
 90
       13
176
     1
 40
0.0
176
     1
 90
        0
176
     1
290
     0
176
     1
290
     1
176
     1
290
     1
176
     1
290
     0
176
     1
290
     0
176
     1
290
     0
176
     1
290
     0
176
     1
290
     0
176
     1
290
     0
176
     1
 90
       50
176
     1
 40
0.0
176
     1
 40
1.0
176
     1
 90
        0
176
     1
 62
    18
420
        0
176
     1
 90
       50
176
     1
 90
        3
176
     1
 62
     5
420
      255
176
     1
290
     0
176
     1
 90
       50
176
     1
 90
       50
176
     1
 90
       50
176
     1
290
     0
176
     1
 90
       50
176
     1
 62
   256
176
     0
 40
1.0
176
     0
 90
        2
176
     1
  1
strokes_ogs.tif
176
     1
290
     0
176
     1
 40
1.0
176
     1
 40
1.0
176
     1
  0
VISUALSTYLE
  5
2E
102
{ACAD_REACTORS
330
2A
102
}
330
2A
100
AcDbVisualStyle
  2
GouraudWithEdges
 70
     3
177
     3
291
     1
 70
    58
 90
        2
176
     1
 90
        2
176
     1
 90
        1
176
     1
 90
        2
176
     1
 40
0.6
176
     1
 40
30.0
176
     1
 62
     7
420
 16777215
176
     1
 90
        1
176
     1
 90
        0
176
     1
 62
     7
176
     1
 62
   257
176
     1
 90
        1
176
     1
 90
        1
176
     1
 40
1.0
176
     1
 90
        0
176
     1
 62
   257
176
     1
 40
1.0
176
     1
 90
        1
176
     1
 90
        6
176
     1
 90
        2
176
     1
 62
     7
176
     1
 90
        5
176
     1
 90
        0
176
     1
 90
        0
176
     1
290
     0
176
     1
 90
       13
176
     1
 40
0.0
176
     1
 90
        0
176
     1
290
     0
176
     1
290
     1
176
     1
290
     1
176
     1
290
     0
176
     1
290
     0
176
     1
290
     0
176
     1
290
     0
176
     1
290
     0
176
     1
290
     0
176
     1
 90
       50
176
     1
 40
0.0
176
     1
 40
1.0
176
     1
 90
        0
176
     1
 62
    18
420
        0
176
     1
 90
       50
176
     1
 90
        3
176
     1
 62
     5
420
      255
176
     1
290
     0
176
     1
 90
       50
176
     1
 90
       50
176
     1
 90
       50
176
     1
290
     0
176
     1
 90
       50
176
     1
 62
   256
176
     0
 40
1.0
176
     0
 90
        2
176
     1
  1
strokes_ogs.tif
176
     1
290
     0
176
     1
 40
1.0
176
     1
 40
1.0
176
     1
  0
VISUALSTYLE
  5
31
102
{ACAD_REACTORS
330
2A
102
}
330
2A
100
AcDbVisualStyle
  2
Hidden
 70
     6
177
     3
291
     0
 70
    58
 90
        1
176
     1
 90
        2
176
     1
 90
        2
176
     1
 90
        0
176
     1
 40
0.6
176
     1
 40
30.0
176
     1
 62
     7
420
 16777215
176
     1
 90
        2
176
     1
 90
        2
176
     1
 62
     7
176
     1
 62
   257
176
     1
 90
        2
176
     1
 90
        1
176
     1
 40
40.0
176
     1
 90
        0
176
     1
 62
   257
176
     1
 40
1.0
176
     1
 90
        1
176
     1
 90
        6
176
     1
 90
        2
176
     1
 62
     7
176
     1
 90
        3
176
     1
 90
        0
176
     1
 90
        0
176
     1
290
     0
176
     1
 90
        1
176
     1
 40
0.0
176
     1
 90
        0
176
     1
290
     0
176
     1
290
     1
176
     1
290
     1
176
     1
290
     0
176
     1
290
     0
176
     1
290
     0
176
     1
290
     0
176
     1
290
     0
176
     1
290
     0
176
     1
 90
       50
176
     1
 40
0.0
176
     1
 40
1.0
176
     1
 90
        0
176
     1
 62
    18
420
        0
176
     1
 90
       50
176
     1
 90
        3
176
     1
 62
     5
420
      255
176
     1
290
     0
176
     1
 90
       50
176
     1
 90
       50
176
     1
 90
       50
176
     1
290
     0
176
     1
 90
       50
176
     1
 62
   256
176
     0
 40
1.0
176
     0
 90
        2
176
     1
  1
strokes_ogs.tif
176
     1
290
     0
176
     1
 40
1.0
176
     1
 40
1.0
176
     1
  0
VISUALSTYLE
  5
3B
102
{ACAD_REACTORS
330
2A
102
}
330
2A
100
AcDbVisualStyle
  2
JitterOff
 70
    20
177
     3
291
     1
 70
    58
 90
        2
176
     0
 90
        2
176
     0
 90
        0
176
     0
 90
        0
176
     0
 40
0.6
176
     0
 40
30.0
176
     0
 62
     7
420
 16777215
176
     0
 90
        1
176
     0
 90
        4
176
     0
 62
     7
176
     0
 62
   257
176
     0
 90
        1
176
     0
 90
        1
176
     0
 40
1.0
176
     0
 90
       10
176
     2
 62
     7
176
     0
 40
1.0
176
     0
 90
        1
176
     0
 90
        6
176
     0
 90
        2
176
     0
 62
     7
176
     0
 90
        5
176
     0
 90
        0
176
     0
 90
        0
176
     0
290
     0
176
     0
 90
        1
176
     0
 40
0.0
176
     0
 90
        0
176
     0
290
     0
176
     0
290
     1
176
     0
290
     1
176
     0
290
     0
176
     0
290
     0
176
     0
290
     0
176
     0
290
     0
176
     0
290
     0
176
     0
290
     0
176
     0
 90
       50
176
     0
 40
0.0
176
     0
 40
1.0
176
     0
 90
        0
176
     0
 62
    18
420
        0
176
     0
 90
       50
176
     0
 90
        3
176
     0
 62
     5
420
      255
176
     0
290
     0
176
     0
 90
       50
176
     0
 90
       50
176
     0
 90
       50
176
     0
290
     0
176
     0
 90
       50
176
     0
 62
   256
176
     0
 40
1.0
176
     0
 90
        2
176
     0
  1
strokes_ogs.tif
176
     0
290
     0
176
     0
 40
1.0
176
     0
 40
1.0
176
     0
  0
VISUALSTYLE
  5
38
102
{ACAD_REACTORS
330
2A
102
}
330
2A
100
AcDbVisualStyle
  2
Linepattern
 70
    14
177
     3
291
     1
 70
    58
 90
        2
176
     1
 90
        2
176
     1
 90
        0
176
     1
 90
        0
176
     1
 40
0.6
176
     1
 40
30.0
176
     1
 62
     7
420
 16777215
176
     1
 90
        1
176
     1
 90
        4
176
     1
 62
     7
176
     1
 62
   257
176
     1
 90
        7
176
     1
 90
        7
176
     1
 40
1.0
176
     1
 90
        8
176
     1
 62
     7
176
     1
 40
1.0
176
     1
 90
        1
176
     1
 90
        6
176
     1
 90
        2
176
     1
 62
     7
176
     1
 90
        5
176
     1
 90
        0
176
     1
 90
        0
176
     1
290
     0
176
     1
 90
        1
176
     1
 40
0.0
176
     1
 90
        0
176
     1
290
     0
176
     1
290
     1
176
     1
290
     1
176
     1
290
     0
176
     1
290
     0
176
     1
290
     0
176
     1
290
     0
176
     1
290
     0
176
     1
290
     0
176
     1
 90
       50
176
     1
 40
0.0
176
     1
 40
1.0
176
     1
 90
        0
176
     1
 62
    18
420
        0
176
     1
 90
       50
176
     1
 90
        3
176
     1
 62
     5
420
      255
176
     1
290
     0
176
     1
 90
       50
176
     1
 90
       50
176
     1
 90
       50
176
     1
290
     0
176
     1
 90
       50
176
     1
 62
   256
176
     0
 40
1.0
176
     0
 90
        2
176
     1
  1
strokes_ogs.tif
176
     1
290
     0
176
     1
 40
1.0
176
     1
 40
1.0
176
     1
  0
VISUALSTYLE
  5
3C
102
{ACAD_REACTORS
330
2A
102
}
330
2A
100
AcDbVisualStyle
  2
OverhangOff
 70
    21
177
     3
291
     1
 70
    58
 90
        2
176
     0
 90
        2
176
     0
 90
        0
176
     0
 90
        0
176
     0
 40
0.6
176
     0
 40
30.0
176
     0
 62
     7
420
 16777215
176
     0
 90
        1
176
     0
 90
        4
176
     0
 62
     7
176
     0
 62
   257
176
     0
 90
        1
176
     0
 90
        1
176
     0
 40
1.0
176
     0
 90
        9
176
     2
 62
     7
176
     0
 40
1.0
176
     0
 90
        1
176
     0
 90
        6
176
     0
 90
        2
176
     0
 62
     7
176
     0
 90
        5
176
     0
 90
        0
176
     0
 90
        0
176
     0
290
     0
176
     0
 90
        1
176
     0
 40
0.0
176
     0
 90
        0
176
     0
290
     0
176
     0
290
     1
176
     0
290
     1
176
     0
290
     0
176
     0
290
     0
176
     0
290
     0
176
     0
290
     0
176
     0
290
     0
176
     0
290
     0
176
     0
 90
       50
176
     0
 40
0.0
176
     0
 40
1.0
176
     0
 90
        0
176
     0
 62
    18
420
        0
176
     0
 90
       50
176
     0
 90
        3
176
     0
 62
     5
420
      255
176
     0
290
     0
176
     0
 90
       50
176
     0
 90
       50
176
     0
 90
       50
176
     0
290
     0
176
     0
 90
       50
176
     0
 62
   256
176
     0
 40
1.0
176
     0
 90
        2
176
     0
  1
strokes_ogs.tif
176
     0
290
     0
176
     0
 40
1.0
176
     0
 40
1.0
176
     0
  0
VISUALSTYLE
  5
33
102
{ACAD_REACTORS
330
2A
102
}
330
2A
100
AcDbVisualStyle
  2
Realistic
 70
     8
177
     3
291
     0
 70
    58
 90
        2
176
     1
 90
        3
176
     1
 90
        0
176
     1
 90
        2
176
     1
 40
0.6
176
     1
 40
30.0
176
     1
 62
     7
420
 16777215
176
     1
 90
        0
176
     1
 90
        0
176
     1
 62
     7
176
     1
 62
   257
176
     1
 90
        1
176
     1
 90
        1
176
     1
 40
1.0
176
     1
 90
        8
176
     1
 62
   257
176
     1
 40
1.0
176
     1
 90
        1
176
     1
 90
        6
176
     1
 90
        2
176
     1
 62
     7
176
     1
 90
        3
176
     1
 90
        0
176
     1
 90
        0
176
     1
290
     0
176
     1
 90
       13
176
     1
 40
0.0
176
     1
 90
        0
176
     1
290
     0
176
     1
290
     1
176
     1
290
     1
176
     1
290
     0
176
     1
290
     0
176
     1
290
     0
176
     1
290
     0
176
     1
290
     0
176
     1
290
     0
176
     1
 90
       50
176
     1
 40
0.0
176
     1
 40
1.0
176
     1
 90
        0
176
     1
 62
    18
420
        0
176
     1
 90
       50
176
     1
 90
        3
176
     1
 62
     5
420
      255
176
     1
290
     0
176
     1
 90
       50
176
     1
 90
       50
176
     1
 90
       50
176
     1
290
     0
176
     1
 90
       50
176
     1
 62
   256
176
     0
 40
1.0
176
     0
 90
        2
176
     1
  1
strokes_ogs.tif
176
     1
290
     0
176
     1
 40
1.0
176
     1
 40
1.0
176
     1
  0
VISUALSTYLE
  5
42
102
{ACAD_REACTORS
330
2A
102
}
330
2A
100
AcDbVisualStyle
  2
Shaded
 70
    27
177
     3
291
     0
 70
    58
 90
        2
176
     1
 90
        2
176
     1
 90
        1
176
     1
 90
        2
176
     1
 40
0.6
176
     1
 40
30.0
176
     1
 62
     7
420
 16777215
176
     1
 90
        0
176
     1
 90
        4
176
     1
 62
     7
176
     1
 62
   257
176
     1
 90
        1
176
     1
 90
        1
176
     1
 40
1.0
176
     1
 90
        8
176
     1
 62
   257
176
     1
 40
1.0
176
     1
 90
        1
176
     1
 90
        6
176
     1
 90
        2
176
     1
 62
     8
420
  7895160
176
     1
 90
        3
176
     1
 90
        0
176
     1
 90
        0
176
     1
290
     0
176
     1
 90
        5
176
     1
 40
0.0
176
     1
 90
        0
176
     1
290
     0
176
     1
290
     1
176
     1
290
     1
176
     1
290
     0
176
     1
290
     0
176
     1
290
     0
176
     1
290
     0
176
     1
290
     0
176
     1
290
     0
176
     1
 90
       50
176
     1
 40
0.0
176
     1
 40
1.0
176
     1
 90
        0
176
     1
 62
    18
420
        0
176
     1
 90
       50
176
     1
 90
        3
176
     1
 62
     5
420
      255
176
     1
290
     0
176
     1
 90
       50
176
     1
 90
       50
176
     1
 90
       50
176
     1
290
     0
176
     1
 90
       50
176
     1
 62
   256
176
     0
 40
1.0
176
     0
 90
        2
176
     1
  1
strokes_ogs.tif
176
     1
290
     0
176
     1
 40
1.0
176
     1
 40
1.0
176
     1
  0
VISUALSTYLE
  5
41
102
{ACAD_REACTORS
330
2A
102
}
330
2A
100
AcDbVisualStyle
  2
Shaded with edges
 70
    26
177
     3
291
     0
 70
    58
 90
        2
176
     1
 90
        2
176
     1
 90
        1
176
     1
 90
        2
176
     1
 40
0.6
176
     1
 40
30.0
176
     1
 62
     7
420
 16777215
176
     1
 90
        1
176
     1
 90
       10
176
     1
 62
     7
176
     1
 62
   257
176
     1
 90
        2
176
     1
 90
        1
176
     1
 40
1.0
176
     1
 90
        8
176
     1
 62
   257
176
     1
 40
1.0
176
     1
 90
        1
176
     1
 90
        6
176
     1
 90
        2
176
     1
 62
     7
176
     1
 90
        3
176
     1
 90
        0
176
     1
 90
        0
176
     1
290
     0
176
     1
 90
        5
176
     1
 40
0.0
176
     1
 90
        0
176
     1
290
     0
176
     1
290
     1
176
     1
290
     1
176
     1
290
     0
176
     1
290
     0
176
     1
290
     0
176
     1
290
     0
176
     1
290
     0
176
     1
290
     0
176
     1
 90
       50
176
     1
 40
0.0
176
     1
 40
1.0
176
     1
 90
        0
176
     1
 62
    18
420
        0
176
     1
 90
       50
176
     1
 90
        3
176
     1
 62
     5
420
      255
176
     1
290
     0
176
     1
 90
       50
176
     1
 90
       50
176
     1
 90
       50
176
     1
290
     0
176
     1
 90
       50
176
     1
 62
   256
176
     0
 40
1.0
176
     0
 90
        2
176
     1
  1
strokes_ogs.tif
176
     1
290
     0
176
     1
 40
1.0
176
     1
 40
1.0
176
     1
  0
VISUALSTYLE
  5
3E
102
{ACAD_REACTORS
330
2A
102
}
330
2A
100
AcDbVisualStyle
  2
Shades of Gray
 70
    23
177
     3
291
     0
 70
    58
 90
        2
176
     1
 90
        2
176
     1
 90
        3
176
     1
 90
        0
176
     1
 40
0.6
176
     1
 40
30.0
176
     1
 62
     7
420
 16777215
176
     1
 90
        2
176
     1
 90
        2
176
     1
 62
     7
176
     1
 62
     7
176
     1
 90
        1
176
     1
 90
        1
176
     1
 40
40.0
176
     1
 90
        8
176
     1
 62
     7
176
     1
 40
1.0
176
     1
 90
        1
176
     1
 90
        6
176
     1
 90
        2
176
     1
 62
     7
176
     1
 90
        3
176
     1
 90
        0
176
     1
 90
        0
176
     1
290
     0
176
     1
 90
        1
176
     1
 40
0.0
176
     1
 90
        0
176
     1
290
     0
176
     1
290
     1
176
     1
290
     1
176
     1
290
     0
176
     1
290
     0
176
     1
290
     0
176
     1
290
     0
176
     1
290
     0
176
     1
290
     0
176
     1
 90
       50
176
     1
 40
0.0
176
     1
 40
1.0
176
     1
 90
        0
176
     1
 62
    18
420
        0
176
     1
 90
       50
176
     1
 90
        3
176
     1
 62
     5
420
      255
176
     1
290
     0
176
     1
 90
       50
176
     1
 90
       50
176
     1
 90
       50
176
     1
290
     0
176
     1
 90
       50
176
     1
 62
   256
176
     0
 40
1.0
176
     0
 90
        2
176
     1
  1
strokes_ogs.tif
176
     1
290
     0
176
     1
 40
1.0
176
     1
 40
1.0
176
     1
  0
VISUALSTYLE
  5
3F
102
{ACAD_REACTORS
330
2A
102
}
330
2A
100
AcDbVisualStyle
  2
Sketchy
 70
    24
177
     3
291
     0
 70
    58
 90
        1
176
     1
 90
        2
176
     1
 90
        2
176
     1
 90
        0
176
     1
 40
0.6
176
     1
 40
30.0
176
     1
 62
     7
420
 16777215
176
     1
 90
        2
176
     1
 90
        2
176
     1
 62
     7
176
     1
 62
     7
176
     1
 90
        1
176
     1
 90
        1
176
     1
 40
40.0
176
     1
 90
       11
176
     1
 62
     7
176
     1
 40
1.0
176
     1
 90
        1
176
     1
 90
        6
176
     1
 90
        2
176
     1
 62
     7
176
     1
 90
        6
176
     1
 90
        0
176
     1
 90
        0
176
     1
290
     0
176
     1
 90
        1
176
     1
 40
0.0
176
     1
 90
        0
176
     1
290
     0
176
     1
290
     1
176
     1
290
     1
176
     1
290
     0
176
     1
290
     0
176
     1
290
     0
176
     1
290
     0
176
     1
290
     0
176
     1
290
     0
176
     1
 90
       50
176
     1
 40
0.0
176
     1
 40
1.0
176
     1
 90
        0
176
     1
 62
    18
420
        0
176
     1
 90
       50
176
     1
 90
        3
176
     1
 62
     5
420
      255
176
     1
290
     0
176
     1
 90
       50
176
     1
 90
       50
176
     1
 90
       50
176
     1
290
     0
176
     1
 90
       50
176
     1
 62
   256
176
     0
 40
1.0
176
     0
 90
        2
176
     1
  1
strokes_ogs.tif
176
     1
290
     0
176
     1
 40
1.0
176
     1
 40
1.0
176
     1
  0
VISUALSTYLE
  5
37
102
{ACAD_REACTORS
330
2A
102
}
330
2A
100
AcDbVisualStyle
  2
Thicken
 70
    13
177
     3
291
     1
 70
    58
 90
        2
176
     1
 90
        2
176
     1
 90
        0
176
     1
 90
        0
176
     1
 40
0.6
176
     1
 40
30.0
176
     1
 62
     7
420
 16777215
176
     1
 90
        1
176
     1
 90
        4
176
     1
 62
     7
176
     1
 62
   257
176
     1
 90
        1
176
     1
 90
        1
176
     1
 40
1.0
176
     1
 90
       12
176
     1
 62
     7
176
     1
 40
1.0
176
     1
 90
        1
176
     1
 90
        6
176
     1
 90
        2
176
     1
 62
     7
176
     1
 90
        5
176
     1
 90
        0
176
     1
 90
        0
176
     1
290
     0
176
     1
 90
        1
176
     1
 40
0.0
176
     1
 90
        0
176
     1
290
     0
176
     1
290
     1
176
     1
290
     1
176
     1
290
     0
176
     1
290
     0
176
     1
290
     0
176
     1
290
     0
176
     1
290
     0
176
     1
290
     0
176
     1
 90
       50
176
     1
 40
0.0
176
     1
 40
1.0
176
     1
 90
        0
176
     1
 62
    18
420
        0
176
     1
 90
       50
176
     1
 90
        3
176
     1
 62
     5
420
      255
176
     1
290
     0
176
     1
 90
       50
176
     1
 90
       50
176
     1
 90
       50
176
     1
290
     0
176
     1
 90
       50
176
     1
 62
   256
176
     0
 40
1.0
176
     0
 90
        2
176
     1
  1
strokes_ogs.tif
176
     1
290
     0
176
     1
 40
1.0
176
     1
 40
1.0
176
     1
  0
VISUALSTYLE
  5
30
102
{ACAD_REACTORS
330
2A
102
}
330
2A
100
AcDbVisualStyle
  2
Wireframe
 70
     5
177
     3
291
     0
 70
    58
 90
        0
176
     1
 90
        2
176
     1
 90
        0
176
     1
 90
        0
176
     1
 40
0.6
176
     1
 40
30.0
176
     1
 62
     7
420
 16777215
176
     1
 90
        1
176
     1
 90
        4
176
     1
 62
     7
176
     1
 62
   257
176
     1
 90
        1
176
     1
 90
        1
176
     1
 40
1.0
176
     1
 90
        0
176
     1
 62
   257
176
     1
 40
1.0
176
     1
 90
        1
176
     1
 90
        6
176
     1
 90
        2
176
     1
 62
     7
176
     1
 90
        3
176
     1
 90
        0
176
     1
 90
        0
176
     1
290
     0
176
     1
 90
        1
176
     1
 40
0.0
176
     1
 90
        0
176
     1
290
     0
176
     1
290
     1
176
     1
290
     1
176
     1
290
     0
176
     1
290
     0
176
     1
290
     0
176
     1
290
     0
176
     1
290
     0
176
     1
290
     0
176
     1
 90
       50
176
     1
 40
0.0
176
     1
 40
1.0
176
     1
 90
        0
176
     1
 62
    18
420
        0
176
     1
 90
       50
176
     1
 90
        3
176
     1
 62
     5
420
      255
176
     1
290
     0
176
     1
 90
       50
176
     1
 90
       50
176
     1
 90
       50
176
     1
290
     0
176
     1
 90
       50
176
     1
 62
   256
176
     0
 40
1.0
176
     0
 90
        2
176
     1
  1
strokes_ogs.tif
176
     1
290
     0
176
     1
 40
1.0
176
     1
 40
1.0
176
     1
  0
VISUALSTYLE
  5
40
102
{ACAD_REACTORS
330
2A
102
}
330
2A
100
AcDbVisualStyle
  2
X-Ray
 70
    25
177
     3
291
     0
 70
    58
 90
        2
176
     1
 90
        2
176
     1
 90
        1
176
     1
 90
        1
176
     1
 40
0.5
176
     1
 40
30.0
176
     1
 62
     7
420
 16777215
176
     1
 90
        1
176
     1
 90
        0
176
     1
 62
     7
176
     1
 62
   257
176
     1
 90
        1
176
     1
 90
        1
176
     1
 40
1.0
176
     1
 90
        8
176
     1
 62
     7
176
     1
 40
1.0
176
     1
 90
        1
176
     1
 90
        6
176
     1
 90
        2
176
     1
 62
     7
176
     1
 90
        3
176
     1
 90
        0
176
     1
 90
        0
176
     1
290
     0
176
     1
 90
       13
176
     1
 40
0.0
176
     1
 90
        0
176
     1
290
     0
176
     1
290
     1
176
     1
290
     1
176
     1
290
     0
176
     1
290
     0
176
     1
290
     0
176
     1
290
     0
176
     1
290
     0
176
     1
290
     0
176
     1
 90
       50
176
     1
 40
0.0
176
     1
 40
1.0
176
     1
 90
        0
176
     1
 62
    18
420
        0
176
     1
 90
       50
176
     1
 90
        3
176
     1
 62
     5
420
      255
176
     1
290
     0
176
     1
 90
       50
176
     1
 90
       50
176
     1
 90
       50
176
     1
290
     0
176
     1
 90
       50
176
     1
 62
   256
176
     0
 40
1.0
176
     0
 90
        2
176
     1
  1
strokes_ogs.tif
176
     1
290
     0
176
     1
 40
1.0
176
     1
 40
1.0
176
     1
  0
DICTIONARYVAR
  5
1F0
102
{ACAD_REACTORS
330
1EF
102
}
330
1EF
100
DictionaryVariables
280
     0
  1
1:1
  0
DICTIONARYVAR
  5
1F5
102
{ACAD_REACTORS
330
1EF
102
}
330
1EF
100
DictionaryVariables
280
     0
  1
Standard
  0
DICTIONARYVAR
  5
1F4
102
{ACAD_REACTORS
330
1EF
102
}
330
1EF
100
DictionaryVariables
280
     0
  1
Standard
  0
DICTIONARY
  5
1F1
330
6A
100
AcDbDictionary
280
     1
281
     1
  3
ACAD_ROUNDTRIP_2008_TABLESTYLE_CELLSTYLEMAP
360
1F2
  0
CELLSTYLEMAP
  5
1F2
102
{ACAD_REACTORS
330
1F1
102
}
330
1F1
100
AcDbCellStyleMap
 90
        3
300
CELLSTYLE
  1
TABLEFORMAT_BEGIN
 90
        5
170
     1
 91
        0
 92
    32768
 62
   257
 93
        1
300
CONTENTFORMAT
  1
CONTENTFORMAT_BEGIN
 90
        0
 91
        0
 92
        4
 93
        0
300

 40
0.0
140
1.0
 94
        5
 62
     0
340
11
144
6.0
309
CONTENTFORMAT_END
171
     1
301
MARGIN
  1
CELLMARGIN_BEGIN
 40
1.5
 40
1.5
 40
1.5
 40
1.5
 40
1.5
 40
1.5
309
CELLMARGIN_END
 94
        6
 95
        1
302
GRIDFORMAT
  1
GRIDFORMAT_BEGIN
 90
        0
 91
        1
 62
     0
 92
       -2
340
14
 93
        0
 40
0.045
309
GRIDFORMAT_END
 95
        2
302
GRIDFORMAT
  1
GRIDFORMAT_BEGIN
 90
        0
 91
        1
 62
     0
 92
       -2
340
14
 93
        0
 40
0.045
309
GRIDFORMAT_END
 95
        4
302
GRIDFORMAT
  1
GRIDFORMAT_BEGIN
 90
        0
 91
        1
 62
     0
 92
       -2
340
14
 93
        0
 40
0.045
309
GRIDFORMAT_END
 95
        8
302
GRIDFORMAT
  1
GRIDFORMAT_BEGIN
 90
        0
 91
        1
 62
     0
 92
       -2
340
14
 93
        0
 40
0.045
309
GRIDFORMAT_END
 95
       16
302
GRIDFORMAT
  1
GRIDFORMAT_BEGIN
 90
        0
 91
        1
 62
     0
 92
       -2
340
14
 93
        0
 40
0.045
309
GRIDFORMAT_END
 95
       32
302
GRIDFORMAT
  1
GRIDFORMAT_BEGIN
 90
        0
 91
        1
 62
     0
 92
       -2
340
14
 93
        0
 40
0.045
309
GRIDFORMAT_END
309
TABLEFORMAT_END
  1
CELLSTYLE_BEGIN
 90
        1
 91
        1
300
_TITLE
309
CELLSTYLE_END
300
CELLSTYLE
  1
TABLEFORMAT_BEGIN
 90
        5
170
     1
 91
        0
 92
        0
 62
   257
 93
        1
300
CONTENTFORMAT
  1
CONTENTFORMAT_BEGIN
 90
        0
 91
        0
 92
        4
 93
        0
300

 40
0.0
140
1.0
 94
        5
 62
     0
340
11
144
4.5
309
CONTENTFORMAT_END
171
     1
301
MARGIN
  1
CELLMARGIN_BEGIN
 40
1.5
 40
1.5
 40
1.5
 40
1.5
 40
1.5
 40
1.5
309
CELLMARGIN_END
 94
        6
 95
        1
302
GRIDFORMAT
  1
GRIDFORMAT_BEGIN
 90
        0
 91
        1
 62
     0
 92
       -2
340
14
 93
        0
 40
0.045
309
GRIDFORMAT_END
 95
        2
302
GRIDFORMAT
  1
GRIDFORMAT_BEGIN
 90
        0
 91
        1
 62
     0
 92
       -2
340
14
 93
        0
 40
0.045
309
GRIDFORMAT_END
 95
        4
302
GRIDFORMAT
  1
GRIDFORMAT_BEGIN
 90
        0
 91
        1
 62
     0
 92
       -2
340
14
 93
        0
 40
0.045
309
GRIDFORMAT_END
 95
        8
302
GRIDFORMAT
  1
GRIDFORMAT_BEGIN
 90
        0
 91
        1
 62
     0
 92
       -2
340
14
 93
        0
 40
0.045
309
GRIDFORMAT_END
 95
       16
302
GRIDFORMAT
  1
GRIDFORMAT_BEGIN
 90
        0
 91
        1
 62
     0
 92
       -2
340
14
 93
        0
 40
0.045
309
GRIDFORMAT_END
 95
       32
302
GRIDFORMAT
  1
GRIDFORMAT_BEGIN
 90
        0
 91
        1
 62
     0
 92
       -2
340
14
 93
        0
 40
0.045
309
GRIDFORMAT_END
309
TABLEFORMAT_END
  1
CELLSTYLE_BEGIN
 90
        2
 91
        1
300
_HEADER
309
CELLSTYLE_END
300
CELLSTYLE
  1
TABLEFORMAT_BEGIN
 90
        5
170
     1
 91
        0
 92
        0
 62
   257
 93
        1
300
CONTENTFORMAT
  1
CONTENTFORMAT_BEGIN
 90
        0
 91
        0
 92
        4
 93
        0
300

 40
0.0
140
1.0
 94
        2
 62
     0
340
11
144
4.5
309
CONTENTFORMAT_END
171
     1
301
MARGIN
  1
CELLMARGIN_BEGIN
 40
1.5
 40
1.5
 40
1.5
 40
1.5
 40
1.5
 40
1.5
309
CELLMARGIN_END
 94
        6
 95
        1
302
GRIDFORMAT
  1
GRIDFORMAT_BEGIN
 90
        0
 91
        1
 62
     0
 92
       -2
340
14
 93
        0
 40
0.045
309
GRIDFORMAT_END
 95
        2
302
GRIDFORMAT
  1
GRIDFORMAT_BEGIN
 90
        0
 91
        1
 62
     0
 92
       -2
340
14
 93
        0
 40
0.045
309
GRIDFORMAT_END
 95
        4
302
GRIDFORMAT
  1
GRIDFORMAT_BEGIN
 90
        0
 91
        1
 62
     0
 92
       -2
340
14
 93
        0
 40
0.045
309
GRIDFORMAT_END
 95
        8
302
GRIDFORMAT
  1
GRIDFORMAT_BEGIN
 90
        0
 91
        1
 62
     0
 92
       -2
340
14
 93
        0
 40
0.045
309
GRIDFORMAT_END
 95
       16
302
GRIDFORMAT
  1
GRIDFORMAT_BEGIN
 90
        0
 91
        1
 62
     0
 92
       -2
340
14
 93
        0
 40
0.045
309
GRIDFORMAT_END
 95
       32
302
GRIDFORMAT
  1
GRIDFORMAT_BEGIN
 90
        0
 91
        1
 62
     0
 92
       -2
340
14
 93
        0
 40
0.045
309
GRIDFORMAT_END
309
TABLEFORMAT_END
  1
CELLSTYLE_BEGIN
 90
        3
 91
        2
300
_DATA
309
CELLSTYLE_END
  0
ENDSEC
  0
EOF