0
SECTION
  2
HEADER
  9
$ACADVER
  1
AC1027
  9
$ACADMAINTVER
 70
     8
  9
$DWGCODEPAGE
  3
ANSI_1252
  9
$REQUIREDVERSIONS
160
                 0
  9
$COMMENTS
  1
File was created by Cadenas
  9
$CUSTOMPROPERTYTAG
  1
NN
  9
$CUSTOMPROPERTY
  1
Grip Tight Medium Duty Wide Slot Take Up Metric Bore
  9
$CUSTOMPROPERTYTAG
  1
NT
  9
$CUSTOMPROPERTY
  1
GT Wide Slot Take-Up Bearings -(Medium Duty)
  9
$CUSTOMPROPERTYTAG
  1
NB
  9
$CUSTOMPROPERTY
  1
136311
  9
$CUSTOMPROPERTYTAG
  1
NBSYN
  9
$CUSTOMPROPERTY
  1
$PN.$LUBE.
  9
$CUSTOMPROPERTYTAG
  1
LINA
  9
$CUSTOMPROPERTY
  1
136311
  9
$CUSTOMPROPERTYTAG
  1
SERIES
  9
$CUSTOMPROPERTY
  1
215
  9
$CUSTOMPROPERTYTAG
  1
SS
  9
$CUSTOMPROPERTY
  1
70
  9
$CUSTOMPROPERTYTAG
  1
PN
  9
$CUSTOMPROPERTY
  1
136311
  9
$CUSTOMPROPERTYTAG
  1
DESCRIPTION
  9
$CUSTOMPROPERTY
  1
WSTU-GTM-70M
  9
$CUSTOMPROPERTYTAG
  1
A
  9
$CUSTOMPROPERTY
  1
65.1
  9
$CUSTOMPROPERTYTAG
  1
B
  9
$CUSTOMPROPERTY
  1
231.8
  9
$CUSTOMPROPERTYTAG
  1
C
  9
$CUSTOMPROPERTY
  1
27.0
  9
$CUSTOMPROPERTYTAG
  1
D
  9
$CUSTOMPROPERTY
  1
120.7
  9
$CUSTOMPROPERTYTAG
  1
E
  9
$CUSTOMPROPERTY
  1
139.7
  9
$CUSTOMPROPERTYTAG
  1
F
  9
$CUSTOMPROPERTY
  1
38.1
  9
$CUSTOMPROPERTYTAG
  1
G
  9
$CUSTOMPROPERTY
  1
20.6
  9
$CUSTOMPROPERTYTAG
  1
H
  9
$CUSTOMPROPERTY
  1
31.8
  9
$CUSTOMPROPERTYTAG
  1
J
  9
$CUSTOMPROPERTY
  1
111.1
  9
$CUSTOMPROPERTYTAG
  1
K
  9
$CUSTOMPROPERTY
  1
69.9
  9
$CUSTOMPROPERTYTAG
  1
L
  9
$CUSTOMPROPERTY
  1
108.0
  9
$CUSTOMPROPERTYTAG
  1
M
  9
$CUSTOMPROPERTY
  1
150.8
  9
$CUSTOMPROPERTYTAG
  1
N
  9
$CUSTOMPROPERTY
  1
169.9
  9
$CUSTOMPROPERTYTAG
  1
R
  9
$CUSTOMPROPERTY
  1
22.6
  9
$CUSTOMPROPERTYTAG
  1
S
  9
$CUSTOMPROPERTY
  1
42.5
  9
$CUSTOMPROPERTYTAG
  1
T
  9
$CUSTOMPROPERTY
  1
69.9
  9
$CUSTOMPROPERTYTAG
  1
Z
  9
$CUSTOMPROPERTY
  1
41.3
  9
$CUSTOMPROPERTYTAG
  1
COMPANY
  9
$CUSTOMPROPERTY
  1
baldor
  9
$INSBASE
 10
0.0
 20
0.0
 30
0.0
  9
$EXTMIN
 10
1.000000000000000E+20
 20
1.000000000000000E+20
 30
1.000000000000000E+20
  9
$EXTMAX
 10
-1.000000000000000E+20
 20
-1.000000000000000E+20
 30
-1.000000000000000E+20
  9
$LIMMIN
 10
0.0
 20
0.0
  9
$LIMMAX
 10
420.0
 20
297.0
  9
$ORTHOMODE
 70
     0
  9
$REGENMODE
 70
     1
  9
$FILLMODE
 70
     1
  9
$QTEXTMODE
 70
     0
  9
$MIRRTEXT
 70
     1
  9
$LTSCALE
 40
1.0
  9
$ATTMODE
 70
     1
  9
$TEXTSIZE
 40
2.5
  9
$TRACEWID
 40
1.0
  9
$TEXTSTYLE
  7
Standard
  9
$CLAYER
  8
0
  9
$CELTYPE
  6
ByLayer
  9
$CECOLOR
 62
   256
  9
$CELTSCALE
 40
1.0
  9
$DISPSILH
 70
     0
  9
$DIMSCALE
 40
1.0
  9
$DIMASZ
 40
2.5
  9
$DIMEXO
 40
0.625
  9
$DIMDLI
 40
3.75
  9
$DIMRND
 40
0.0
  9
$DIMDLE
 40
0.0
  9
$DIMEXE
 40
1.25
  9
$DIMTP
 40
0.0
  9
$DIMTM
 40
0.0
  9
$DIMTXT
 40
2.5
  9
$DIMCEN
 40
2.5
  9
$DIMTSZ
 40
0.0
  9
$DIMTOL
 70
     0
  9
$DIMLIM
 70
     0
  9
$DIMTIH
 70
     0
  9
$DIMTOH
 70
     0
  9
$DIMSE1
 70
     0
  9
$DIMSE2
 70
     0
  9
$DIMTAD
 70
     1
  9
$DIMZIN
 70
     8
  9
$DIMBLK
  1

  9
$DIMASO
 70
     1
  9
$DIMSHO
 70
     1
  9
$DIMPOST
  1

  9
$DIMAPOST
  1

  9
$DIMALT
 70
     0
  9
$DIMALTD
 70
     3
  9
$DIMALTF
 40
0.03937007874016
  9
$DIMLFAC
 40
1.0
  9
$DIMTOFL
 70
     1
  9
$DIMTVP
 40
0.0
  9
$DIMTIX
 70
     0
  9
$DIMSOXD
 70
     0
  9
$DIMSAH
 70
     0
  9
$DIMBLK1
  1

  9
$DIMBLK2
  1

  9
$DIMSTYLE
  2
ISO-25
  9
$DIMCLRD
 70
     0
  9
$DIMCLRE
 70
     0
  9
$DIMCLRT
 70
     0
  9
$DIMTFAC
 40
1.0
  9
$DIMGAP
 40
0.625
  9
$DIMJUST
 70
     0
  9
$DIMSD1
 70
     0
  9
$DIMSD2
 70
     0
  9
$DIMTOLJ
 70
     0
  9
$DIMTZIN
 70
     8
  9
$DIMALTZ
 70
     0
  9
$DIMALTTZ
 70
     0
  9
$DIMUPT
 70
     0
  9
$DIMDEC
 70
     2
  9
$DIMTDEC
 70
     2
  9
$DIMALTU
 70
     2
  9
$DIMALTTD
 70
     3
  9
$DIMTXSTY
  7
Standard
  9
$DIMAUNIT
 70
     0
  9
$DIMADEC
 70
     0
  9
$DIMALTRND
 40
0.0
  9
$DIMAZIN
 70
     0
  9
$DIMDSEP
 70
    44
  9
$DIMATFIT
 70
     3
  9
$DIMFRAC
 70
     0
  9
$DIMLDRBLK
  1

  9
$DIMLUNIT
 70
     2
  9
$DIMLWD
 70
    -2
  9
$DIMLWE
 70
    -2
  9
$DIMTMOVE
 70
     0
  9
$DIMFXL
 40
1.0
  9
$DIMFXLON
 70
     0
  9
$DIMJOGANG
 40
0.7853981633974483
  9
$DIMTFILL
 70
     0
  9
$DIMTFILLCLR
 70
     0
  9
$DIMARCSYM
 70
     0
  9
$DIMLTYPE
  6

  9
$DIMLTEX1
  6

  9
$DIMLTEX2
  6

  9
$DIMTXTDIRECTION
 70
     0
  9
$LUNITS
 70
     2
  9
$LUPREC
 70
     4
  9
$SKETCHINC
 40
1.0
  9
$FILLETRAD
 40
10.0
  9
$AUNITS
 70
     0
  9
$AUPREC
 70
     0
  9
$MENU
  1
.
  9
$ELEVATION
 40
0.0
  9
$PELEVATION
 40
0.0
  9
$THICKNESS
 40
0.0
  9
$LIMCHECK
 70
     0
  9
$CHAMFERA
 40
0.0
  9
$CHAMFERB
 40
0.0
  9
$CHAMFERC
 40
0.0
  9
$CHAMFERD
 40
0.0
  9
$SKPOLY
 70
     0
  9
$TDCREATE
 40
2458168.99296309
  9
$TDUCREATE
 40
2458168.951296424
  9
$TDUPDATE
 40
2458168.992963275
  9
$TDUUPDATE
 40
2458168.951296609
  9
$TDINDWG
 40
0.0000000116
  9
$TDUSRTIMER
 40
0.0000000116
  9
$USRTIMER
 70
     1
  9
$ANGBASE
 50
0.0
  9
$ANGDIR
 70
     0
  9
$PDMODE
 70
     0
  9
$PDSIZE
 40
0.0
  9
$PLINEWID
 40
0.0
  9
$SPLFRAME
 70
     0
  9
$SPLINETYPE
 70
     6
  9
$SPLINESEGS
 70
     8
  9
$HANDSEED
  5
22B
  9
$SURFTAB1
 70
     6
  9
$SURFTAB2
 70
     6
  9
$SURFTYPE
 70
     6
  9
$SURFU
 70
     6
  9
$SURFV
 70
     6
  9
$UCSBASE
  2

  9
$UCSNAME
  2

  9
$UCSORG
 10
0.0
 20
0.0
 30
0.0
  9
$UCSXDIR
 10
1.0
 20
0.0
 30
0.0
  9
$UCSYDIR
 10
0.0
 20
1.0
 30
0.0
  9
$UCSORTHOREF
  2

  9
$UCSORTHOVIEW
 70
     0
  9
$UCSORGTOP
 10
0.0
 20
0.0
 30
0.0
  9
$UCSORGBOTTOM
 10
0.0
 20
0.0
 30
0.0
  9
$UCSORGLEFT
 10
0.0
 20
0.0
 30
0.0
  9
$UCSORGRIGHT
 10
0.0
 20
0.0
 30
0.0
  9
$UCSORGFRONT
 10
0.0
 20
0.0
 30
0.0
  9
$UCSORGBACK
 10
0.0
 20
0.0
 30
0.0
  9
$PUCSBASE
  2

  9
$PUCSNAME
  2

  9
$PUCSORG
 10
0.0
 20
0.0
 30
0.0
  9
$PUCSXDIR
 10
1.0
 20
0.0
 30
0.0
  9
$PUCSYDIR
 10
0.0
 20
1.0
 30
0.0
  9
$PUCSORTHOREF
  2

  9
$PUCSORTHOVIEW
 70
     0
  9
$PUCSORGTOP
 10
0.0
 20
0.0
 30
0.0
  9
$PUCSORGBOTTOM
 10
0.0
 20
0.0
 30
0.0
  9
$PUCSORGLEFT
 10
0.0
 20
0.0
 30
0.0
  9
$PUCSORGRIGHT
 10
0.0
 20
0.0
 30
0.0
  9
$PUCSORGFRONT
 10
0.0
 20
0.0
 30
0.0
  9
$PUCSORGBACK
 10
0.0
 20
0.0
 30
0.0
  9
$USERI1
 70
     0
  9
$USERI2
 70
     0
  9
$USERI3
 70
     0
  9
$USERI4
 70
     0
  9
$USERI5
 70
     0
  9
$USERR1
 40
0.0
  9
$USERR2
 40
0.0
  9
$USERR3
 40
0.0
  9
$USERR4
 40
0.0
  9
$USERR5
 40
0.0
  9
$WORLDVIEW
 70
     1
  9
$SHADEDGE
 70
     3
  9
$SHADEDIF
 70
    70
  9
$TILEMODE
 70
     1
  9
$MAXACTVP
 70
    64
  9
$PINSBASE
 10
0.0
 20
0.0
 30
0.0
  9
$PLIMCHECK
 70
     0
  9
$PEXTMIN
 10
1.000000000000000E+20
 20
1.000000000000000E+20
 30
1.000000000000000E+20
  9
$PEXTMAX
 10
-1.000000000000000E+20
 20
-1.000000000000000E+20
 30
-1.000000000000000E+20
  9
$PLIMMIN
 10
0.0
 20
0.0
  9
$PLIMMAX
 10
420.0
 20
297.0
  9
$UNITMODE
 70
     0
  9
$VISRETAIN
 70
     1
  9
$PLINEGEN
 70
     0
  9
$PSLTSCALE
 70
     1
  9
$TREEDEPTH
 70
  3020
  9
$CMLSTYLE
  2
Standard
  9
$CMLJUST
 70
     0
  9
$CMLSCALE
 40
20.0
  9
$PROXYGRAPHICS
 70
     1
  9
$MEASUREMENT
 70
     1
  9
$CELWEIGHT
370
    -1
  9
$ENDCAPS
280
     0
  9
$JOINSTYLE
280
     0
  9
$LWDISPLAY
290
     0
  9
$INSUNITS
 70
     4
  9
$HYPERLINKBASE
  1

  9
$STYLESHEET
  1

  9
$XEDIT
290
     1
  9
$CEPSNTYPE
380
     0
  9
$PSTYLEMODE
290
     1
  9
$FINGERPRINTGUID
  2
{DCD73B93-C6ED-4F12-AC39-DA0BDCBAA3A2}
  9
$VERSIONGUID
  2
{FAEB1C32-E019-11D5-929B-00C0DF256EC4}
  9
$EXTNAMES
290
     1
  9
$PSVPSCALE
 40
0.0
  9
$OLESTARTUP
290
     0
  9
$SORTENTS
280
   127
  9
$INDEXCTL
280
     0
  9
$HIDETEXT
280
     1
  9
$XCLIPFRAME
280
     2
  9
$HALOGAP
280
     0
  9
$OBSCOLOR
 70
   257
  9
$OBSLTYPE
280
     0
  9
$INTERSECTIONDISPLAY
280
     0
  9
$INTERSECTIONCOLOR
 70
   257
  9
$DIMASSOC
280
     2
  9
$PROJECTNAME
  1

  9
$CAMERADISPLAY
290
     0
  9
$LENSLENGTH
 40
50.0
  9
$CAMERAHEIGHT
 40
0.0
  9
$STEPSPERSEC
 40
2.0
  9
$STEPSIZE
 40
6.0
  9
$3DDWFPREC
 40
2.0
  9
$PSOLWIDTH
 40
5.0
  9
$PSOLHEIGHT
 40
80.0
  9
$LOFTANG1
 40
1.570796326794897
  9
$LOFTANG2
 40
1.570796326794897
  9
$LOFTMAG1
 40
0.0
  9
$LOFTMAG2
 40
0.0
  9
$LOFTPARAM
 70
     7
  9
$LOFTNORMALS
280
     1
  9
$LATITUDE
 40
37.795
  9
$LONGITUDE
 40
-122.394
  9
$NORTHDIRECTION
 40
0.0
  9
$TIMEZONE
 70
 -8000
  9
$LIGHTGLYPHDISPLAY
280
     1
  9
$TILEMODELIGHTSYNCH
280
     1
  9
$CMATERIAL
347
44
  9
$SOLIDHIST
280
     0
  9
$SHOWHIST
280
     1
  9
$DWFFRAME
280
     2
  9
$DGNFRAME
280
     2
  9
$REALWORLDSCALE
290
     1
  9
$INTERFERECOLOR
 62
   256
  9
$CSHADOW
280
     0
  9
$SHADOWPLANELOCATION
 40
0.0
  0
ENDSEC
  0
SECTION
  2
CLASSES
  0
CLASS
  1
ACDBDICTIONARYWDFLT
  2
AcDbDictionaryWithDefault
  3
ObjectDBX Classes
 90
        0
 91
        4
280
     0
281
     0
  0
CLASS
  1
VISUALSTYLE
  2
AcDbVisualStyle
  3
ObjectDBX Classes
 90
     4095
 91
        4
280
     0
281
     0
  0
CLASS
  1
MATERIAL
  2
AcDbMaterial
  3
ObjectDBX Classes
 90
     1153
 91
        4
280
     0
281
     0
  0
CLASS
  1
SCALE
  2
AcDbScale
  3
ObjectDBX Classes
 90
     1153
 91
        4
280
     0
281
     0
  0
CLASS
  1
TABLESTYLE
  2
AcDbTableStyle
  3
ObjectDBX Classes
 90
     4095
 91
        4
280
     0
281
     0
  0
CLASS
  1
MLEADERSTYLE
  2
AcDbMLeaderStyle
  3
ACDB_MLEADERSTYLE_CLASS
 90
     4095
 91
        4
280
     0
281
     0
  0
CLASS
  1
SUN
  2
AcDbSun
  3
SCENEOE
 90
     1153
 91
        4
280
     0
281
     0
  0
CLASS
  1
DICTIONARYVAR
  2
AcDbDictionaryVar
  3
ObjectDBX Classes
 90
        0
 91
        4
280
     0
281
     0
  0
CLASS
  1
CELLSTYLEMAP
  2
AcDbCellStyleMap
  3
ObjectDBX Classes
 90
     1152
 91
        4
280
     0
281
     0
  0
ENDSEC
  0
SECTION
  2
TABLES
  0
TABLE
  2
VPORT
  5
8
330
0
100
AcDbSymbolTable
 70
     1
  0
VPORT
  5
29
330
8
100
AcDbSymbolTableRecord
100
AcDbViewportTableRecord
  2
*Active
 70
     0
 10
0.0
 20
0.0
 11
1.0
 21
1.0
 12
-3.774999618530273
 22
0.0
 13
0.0
 23
0.0
 14
10.0
 24
10.0
 15
10.0
 25
10.0
 16
0.0
 26
0.0
 36
1.0
 17
0.0
 27
0.0
 37
0.0
 40
173.298
 41
0.8558563762303307
 42
50.0
 43
0.0
 44
0.0
 50
0.0
 51
0.0
 71
     0
 72
   100
 73
     1
 74
     3
 75
     0
 76
     0
 77
     0
 78
     0
281
     0
 65
     1
110
0.0
120
0.0
130
0.0
111
1.0
121
0.0
131
0.0
112
0.0
122
1.0
132
0.0
 79
     0
146
0.0
348
2F
 60
     3
 61
     5
292
     1
282
     1
141
0.0
142
0.0
 63
   250
361
6D
  0
ENDTAB
  0
TABLE
  2
LTYPE
  5
5
330
0
100
AcDbSymbolTable
 70
     3
  0
LTYPE
  5
14
330
5
100
AcDbSymbolTableRecord
100
AcDbLinetypeTableRecord
  2
ByBlock
 70
     0
  3

 72
    65
 73
     0
 40
0.0
  0
LTYPE
  5
15
330
5
100
AcDbSymbolTableRecord
100
AcDbLinetypeTableRecord
  2
ByLayer
 70
     0
  3

 72
    65
 73
     0
 40
0.0
  0
LTYPE
  5
16
330
5
100
AcDbSymbolTableRecord
100
AcDbLinetypeTableRecord
  2
Continuous
 70
     0
  3
Solid line
 72
    65
 73
     0
 40
0.0
  0
LTYPE
  5
9F
330
5
100
AcDbSymbolTableRecord
100
AcDbLinetypeTableRecord
  2
Dashed
 70
     0
  3

 72
    65
 73
     2
 40
2.0
 49
1.0
 74
     0
 49
-1.0
 74
     0
  0
LTYPE
  5
18B
330
5
100
AcDbSymbolTableRecord
100
AcDbLinetypeTableRecord
  2
Center
 70
     0
  3

 72
    65
 73
     4
 40
1.5
 49
0.45
 74
     0
 49
-0.5
 74
     0
 49
0.05
 74
     0
 49
-0.5
 74
     0
  0
ENDTAB
  0
TABLE
  2
LAYER
  5
2
330
0
100
AcDbSymbolTable
 70
     7
  0
LAYER
  5
10
330
2
100
AcDbSymbolTableRecord
100
AcDbLayerTableRecord
  2
0
 70
     0
 62
     7
  6
Continuous
370
    -3
390
F
347
46
348
0
  0
LAYER
  5
72
330
2
100
AcDbSymbolTableRecord
100
AcDbLayerTableRecord
  2
AM_6
 70
     0
 62
    -2
  6
Continuous
370
    35
390
F
347
46
348
0
  0
LAYER
  5
A0
330
2
100
AcDbSymbolTableRecord
100
AcDbLayerTableRecord
  2
AM_9
 70
     0
 62
     6
  6
Dashed
370
    25
390
F
347
46
348
0
  0
LAYER
  5
18C
330
2
100
AcDbSymbolTableRecord
100
AcDbLayerTableRecord
  2
AM_7
 70
     0
 62
     7
  6
Center
370
    25
390
F
347
46
348
0
  0
LAYER
  5
18E
330
2
100
AcDbSymbolTableRecord
100
AcDbLayerTableRecord
  2
AM_4
 70
     0
 62
     7
  6
Continuous
370
    50
390
F
347
46
348
0
  0
LAYER
  5
1A3
330
2
100
AcDbSymbolTableRecord
100
AcDbLayerTableRecord
  2
AM_5
 70
     0
 62
     3
  6
Continuous
370
    25
390
F
347
46
348
0
  0
LAYER
  5
21A
330
2
100
AcDbSymbolTableRecord
100
AcDbLayerTableRecord
  2
ConnectionPoints
 70
     0
 62
     7
  6
Continuous
370
    50
390
F
347
46
348
0
  0
ENDTAB
  0
TABLE
  2
STYLE
  5
3
330
0
100
AcDbSymbolTable
 70
     1
  0
STYLE
  5
11
330
3
100
AcDbSymbolTableRecord
100
AcDbTextStyleTableRecord
  2
Standard
 70
     0
 40
0.0
 41
1.0
 50
0.0
 71
     0
 42
2.5
  3
txt
  4

  0
ENDTAB
  0
TABLE
  2
VIEW
  5
6
330
0
100
AcDbSymbolTable
 70
     0
  0
ENDTAB
  0
TABLE
  2
UCS
  5
7
330
0
100
AcDbSymbolTable
 70
     0
  0
ENDTAB
  0
TABLE
  2
APPID
  5
9
330
0
100
AcDbSymbolTable
 70
     1
  0
APPID
  5
12
330
9
100
AcDbSymbolTableRecord
100
AcDbRegAppTableRecord
  2
ACAD
 70
     0
  0
ENDTAB
  0
TABLE
  2
DIMSTYLE
  5
A
330
0
100
AcDbSymbolTable
 70
     1
100
AcDbDimStyleTable
  0
DIMSTYLE
105
27
330
A
100
AcDbSymbolTableRecord
100
AcDbDimStyleTableRecord
  2
ISO-25
 70
     0
 41
2.5
 42
0.625
 43
3.75
 44
1.25
 73
     0
 74
     0
 77
     1
 78
     8
140
2.5
141
2.5
143
0.03937007874016
147
0.625
171
     3
172
     1
178
     0
271
     2
272
     2
274
     3
278
    44
283
     0
284
     8
340
11
  0
ENDTAB
  0
TABLE
  2
BLOCK_RECORD
  5
1
330
0
100
AcDbSymbolTable
 70
     6
  0
BLOCK_RECORD
  5
1F
330
1
100
AcDbSymbolTableRecord
100
AcDbBlockTableRecord
  2
*Model_Space
340
22
 70
     0
280
     1
281
     0
  0
BLOCK_RECORD
  5
1B
330
1
100
AcDbSymbolTableRecord
100
AcDbBlockTableRecord
  2
*Paper_Space
340
1E
 70
     0
280
     1
281
     0
  0
BLOCK_RECORD
  5
23
330
1
100
AcDbSymbolTableRecord
100
AcDbBlockTableRecord
  2
*Paper_Space0
340
26
 70
     0
280
     1
281
     0
  0
BLOCK_RECORD
  5
6E
330
1
100
AcDbSymbolTableRecord
100
AcDbBlockTableRecord
  2
1_136311_2
340
0
102
{BLKREFS
331
6F
102
}
 70
     0
280
     1
281
     0
  0
BLOCK_RECORD
  5
8E
330
1
100
AcDbSymbolTableRecord
100
AcDbBlockTableRecord
  2
2_405016_Metric_0_in_136311_2
340
0
102
{BLKREFS
331
8F
102
}
 70
     0
280
     1
281
     0
  0
BLOCK_RECORD
  5
107
330
1
100
AcDbSymbolTableRecord
100
AcDbBlockTableRecord
  2
3_129527_0_in_136311_2
340
0
102
{BLKREFS
331
108
102
}
 70
     0
280
     1
281
     0
  0
BLOCK_RECORD
  5
14A
330
1
100
AcDbSymbolTableRecord
100
AcDbBlockTableRecord
  2
4_129964_0_in_136311_2
340
0
102
{BLKREFS
331
14B
102
}
 70
     0
280
     1
281
     0
  0
BLOCK_RECORD
  5
1A5
330
1
100
AcDbSymbolTableRecord
100
AcDbBlockTableRecord
  2
5_WSTU_GT_15_0_in_136311_2
340
0
102
{BLKREFS
331
1A6
102
}
 70
     0
280
     1
281
     0
  0
ENDTAB
  0
ENDSEC
  0
SECTION
  2
BLOCKS
  0
BLOCK
  5
20
330
1F
100
AcDbEntity
  8
0
100
AcDbBlockBegin
  2
*Model_Space
 70
     0
 10
0.0
 20
0.0
 30
0.0
  3
*Model_Space
  1

  0
ENDBLK
  5
21
330
1F
100
AcDbEntity
  8
0
100
AcDbBlockEnd
  0
BLOCK
  5
1C
330
1B
100
AcDbEntity
 67
     1
  8
0
100
AcDbBlockBegin
  2
*Paper_Space
 70
     0
 10
0.0
 20
0.0
 30
0.0
  3
*Paper_Space
  1

  0
ENDBLK
  5
1D
330
1B
100
AcDbEntity
 67
     1
  8
0
100
AcDbBlockEnd
  0
BLOCK
  5
24
330
23
100
AcDbEntity
  8
0
100
AcDbBlockBegin
  2
*Paper_Space0
 70
     0
 10
0.0
 20
0.0
 30
0.0
  3
*Paper_Space0
  1

  0
ENDBLK
  5
25
330
23
100
AcDbEntity
  8
0
100
AcDbBlockEnd
  0
BLOCK
  5
70
330
6E
100
AcDbEntity
  8
0
100
AcDbBlockBegin
  2
1_136311_2
 70
     2
 10
0.0
 20
0.0
 30
0.0
  3
1_136311_2
  1

  0
ATTDEF
  5
73
330
6E
100
AcDbEntity
  8
AM_6
100
AcDbText
 10
73.92999954223633
 20
84.95
 30
0.0
 40
0.5
  1
Grip Tight Medium Duty Wide Slot Take Up Metric Bore
100
AcDbAttributeDefinition
  3

  2
NN
 70
     8
280
     0
  0
ATTDEF
  5
74
330
6E
100
AcDbEntity
  8
AM_6
100
AcDbText
 10
73.92999954223633
 20
84.45
 30
0.0
 40
0.5
  1
GT Wide Slot Take-Up Bearings -(Medium Duty)
100
AcDbAttributeDefinition
  3

  2
NT
 70
     8
280
     0
  0
ATTDEF
  5
75
330
6E
100
AcDbEntity
  8
AM_6
100
AcDbText
 10
73.92999954223633
 20
83.95
 30
0.0
 40
0.5
  1
136311
100
AcDbAttributeDefinition
  3

  2
NB
 70
     8
280
     0
  0
ATTDEF
  5
76
330
6E
100
AcDbEntity
  8
AM_6
100
AcDbText
 10
73.92999954223633
 20
83.45
 30
0.0
 40
0.5
  1
$PN.$LUBE.
100
AcDbAttributeDefinition
  3

  2
NBSYN
 70
     8
280
     0
  0
ATTDEF
  5
77
330
6E
100
AcDbEntity
  8
AM_6
100
AcDbText
 10
73.92999954223633
 20
82.95
 30
0.0
 40
0.5
  1
136311
100
AcDbAttributeDefinition
  3

  2
LINA
 70
     8
280
     0
  0
ATTDEF
  5
78
330
6E
100
AcDbEntity
  8
AM_6
100
AcDbText
 10
73.92999954223633
 20
82.45
 30
0.0
 40
0.5
  1
215
100
AcDbAttributeDefinition
  3

  2
SERIES
 70
     8
280
     0
  0
ATTDEF
  5
79
330
6E
100
AcDbEntity
  8
AM_6
100
AcDbText
 10
73.92999954223633
 20
81.95
 30
0.0
 40
0.5
  1
70
100
AcDbAttributeDefinition
  3

  2
SS
 70
     8
280
     0
  0
ATTDEF
  5
7A
330
6E
100
AcDbEntity
  8
AM_6
100
AcDbText
 10
73.92999954223633
 20
81.45
 30
0.0
 40
0.5
  1
136311
100
AcDbAttributeDefinition
  3

  2
PN
 70
     8
280
     0
  0
ATTDEF
  5
7B
330
6E
100
AcDbEntity
  8
AM_6
100
AcDbText
 10
73.92999954223633
 20
80.95
 30
0.0
 40
0.5
  1
WSTU-GTM-70M
100
AcDbAttributeDefinition
  3

  2
DESCRIPTION
 70
     8
280
     0
  0
ATTDEF
  5
7C
330
6E
100
AcDbEntity
  8
AM_6
100
AcDbText
 10
73.92999954223633
 20
80.45
 30
0.0
 40
0.5
  1
65.1
100
AcDbAttributeDefinition
  3

  2
A
 70
     8
280
     0
  0
ATTDEF
  5
7D
330
6E
100
AcDbEntity
  8
AM_6
100
AcDbText
 10
73.92999954223633
 20
79.95
 30
0.0
 40
0.5
  1
231.8
100
AcDbAttributeDefinition
  3

  2
B
 70
     8
280
     0
  0
ATTDEF
  5
7E
330
6E
100
AcDbEntity
  8
AM_6
100
AcDbText
 10
73.92999954223633
 20
79.45
 30
0.0
 40
0.5
  1
27.0
100
AcDbAttributeDefinition
  3

  2
C
 70
     8
280
     0
  0
ATTDEF
  5
7F
330
6E
100
AcDbEntity
  8
AM_6
100
AcDbText
 10
73.92999954223633
 20
78.95
 30
0.0
 40
0.5
  1
120.7
100
AcDbAttributeDefinition
  3

  2
D
 70
     8
280
     0
  0
ATTDEF
  5
80
330
6E
100
AcDbEntity
  8
AM_6
100
AcDbText
 10
73.92999954223633
 20
78.45
 30
0.0
 40
0.5
  1
139.7
100
AcDbAttributeDefinition
  3

  2
E
 70
     8
280
     0
  0
ATTDEF
  5
81
330
6E
100
AcDbEntity
  8
AM_6
100
AcDbText
 10
73.92999954223633
 20
77.95
 30
0.0
 40
0.5
  1
38.1
100
AcDbAttributeDefinition
  3

  2
F
 70
     8
280
     0
  0
ATTDEF
  5
82
330
6E
100
AcDbEntity
  8
AM_6
100
AcDbText
 10
73.92999954223633
 20
77.45
 30
0.0
 40
0.5
  1
20.6
100
AcDbAttributeDefinition
  3

  2
G
 70
     8
280
     0
  0
ATTDEF
  5
83
330
6E
100
AcDbEntity
  8
AM_6
100
AcDbText
 10
73.92999954223633
 20
76.95
 30
0.0
 40
0.5
  1
31.8
100
AcDbAttributeDefinition
  3

  2
H
 70
     8
280
     0
  0
ATTDEF
  5
84
330
6E
100
AcDbEntity
  8
AM_6
100
AcDbText
 10
73.92999954223633
 20
76.45
 30
0.0
 40
0.5
  1
111.1
100
AcDbAttributeDefinition
  3

  2
J
 70
     8
280
     0
  0
ATTDEF
  5
85
330
6E
100
AcDbEntity
  8
AM_6
100
AcDbText
 10
73.92999954223633
 20
75.95
 30
0.0
 40
0.5
  1
69.9
100
AcDbAttributeDefinition
  3

  2
K
 70
     8
280
     0
  0
ATTDEF
  5
86
330
6E
100
AcDbEntity
  8
AM_6
100
AcDbText
 10
73.92999954223633
 20
75.45
 30
0.0
 40
0.5
  1
108.0
100
AcDbAttributeDefinition
  3

  2
L
 70
     8
280
     0
  0
ATTDEF
  5
87
330
6E
100
AcDbEntity
  8
AM_6
100
AcDbText
 10
73.92999954223633
 20
74.95
 30
0.0
 40
0.5
  1
150.8
100
AcDbAttributeDefinition
  3

  2
M
 70
     8
280
     0
  0
ATTDEF
  5
88
330
6E
100
AcDbEntity
  8
AM_6
100
AcDbText
 10
73.92999954223633
 20
74.45
 30
0.0
 40
0.5
  1
169.9
100
AcDbAttributeDefinition
  3

  2
N
 70
     8
280
     0
  0
ATTDEF
  5
89
330
6E
100
AcDbEntity
  8
AM_6
100
AcDbText
 10
73.92999954223633
 20
73.95
 30
0.0
 40
0.5
  1
22.6
100
AcDbAttributeDefinition
  3

  2
R
 70
     8
280
     0
  0
ATTDEF
  5
8A
330
6E
100
AcDbEntity
  8
AM_6
100
AcDbText
 10
73.92999954223633
 20
73.45
 30
0.0
 40
0.5
  1
42.5
100
AcDbAttributeDefinition
  3

  2
S
 70
     8
280
     0
  0
ATTDEF
  5
8B
330
6E
100
AcDbEntity
  8
AM_6
100
AcDbText
 10
73.92999954223633
 20
72.95
 30
0.0
 40
0.5
  1
69.9
100
AcDbAttributeDefinition
  3

  2
T
 70
     8
280
     0
  0
ATTDEF
  5
8C
330
6E
100
AcDbEntity
  8
AM_6
100
AcDbText
 10
73.92999954223633
 20
72.45
 30
0.0
 40
0.5
  1
41.3
100
AcDbAttributeDefinition
  3

  2
Z
 70
     8
280
     0
  0
ATTDEF
  5
8D
330
6E
100
AcDbEntity
  8
AM_6
100
AcDbText
 10
73.92999954223633
 20
71.95
 30
0.0
 40
0.5
  1
baldor
100
AcDbAttributeDefinition
  3

  2
COMPANY
 70
     8
280
     0
  0
INSERT
  5
8F
330
6E
100
AcDbEntity
  8
0
100
AcDbBlockReference
  2
2_405016_Metric_0_in_136311_2
 10
0.0
 20
0.0
 30
0.0
  0
INSERT
  5
108
330
6E
100
AcDbEntity
  8
0
100
AcDbBlockReference
  2
3_129527_0_in_136311_2
 10
0.0
 20
0.0
 30
0.0
  0
INSERT
  5
14B
330
6E
100
AcDbEntity
  8
0
100
AcDbBlockReference
  2
4_129964_0_in_136311_2
 10
0.0
 20
0.0
 30
0.0
  0
INSERT
  5
1A6
330
6E
100
AcDbEntity
  8
0
100
AcDbBlockReference
  2
5_WSTU_GT_15_0_in_136311_2
 10
0.0
 20
0.0
 30
0.0
  0
ENDBLK
  5
71
330
6E
100
AcDbEntity
  8
0
100
AcDbBlockEnd
  0
BLOCK
  5
90
330
8E
100
AcDbEntity
  8
0
100
AcDbBlockBegin
  2
2_405016_Metric_0_in_136311_2
 70
     2
 10
0.0
 20
0.0
 30
0.0
  3
2_405016_Metric_0_in_136311_2
  1

  0
ATTDEF
  5
92
330
8E
100
AcDbEntity
  8
AM_6
100
AcDbText
 10
10.55625000000002
 20
-40.49490184921513
 30
0.0
 40
0.5
  1
405016 -Metric
100
AcDbAttributeDefinition
  3

  2
NN
 70
     8
280
     0
  0
ATTDEF
  5
93
330
8E
100
AcDbEntity
  8
AM_6
100
AcDbText
 10
10.55625000000002
 20
-40.99490184921513
 30
0.0
 40
0.5
  1
Grease Fitting
100
AcDbAttributeDefinition
  3

  2
NT
 70
     8
280
     0
  0
ATTDEF
  5
94
330
8E
100
AcDbEntity
  8
AM_6
100
AcDbText
 10
10.55625000000002
 20
-41.49490184921513
 30
0.0
 40
0.5
  1
405016-Metric
100
AcDbAttributeDefinition
  3

  2
NB
 70
     8
280
     0
  0
ATTDEF
  5
95
330
8E
100
AcDbEntity
  8
AM_6
100
AcDbText
 10
10.55625000000002
 20
-41.99490184921513
 30
0.0
 40
0.5
  1
$MN.-Metric
100
AcDbAttributeDefinition
  3

  2
NBSYN
 70
     8
280
     0
  0
ATTDEF
  5
96
330
8E
100
AcDbEntity
  8
AM_6
100
AcDbText
 10
10.55625000000002
 20
-42.49490184921513
 30
0.0
 40
0.5
  1
405016
100
AcDbAttributeDefinition
  3

  2
LINA
 70
     8
280
     0
  0
ATTDEF
  5
97
330
8E
100
AcDbEntity
  8
AM_6
100
AcDbText
 10
10.55625000000002
 20
-42.99490184921513
 30
0.0
 40
0.5
  1
405016
100
AcDbAttributeDefinition
  3

  2
MN
 70
     8
280
     0
  0
ATTDEF
  5
98
330
8E
100
AcDbEntity
  8
AM_6
100
AcDbText
 10
10.55625000000002
 20
-43.49490184921513
 30
0.0
 40
0.5
  1
7/16 HEX
100
AcDbAttributeDefinition
  3

  2
H
 70
     8
280
     0
  0
ATTDEF
  5
99
330
8E
100
AcDbEntity
  8
AM_6
100
AcDbText
 10
10.55625000000002
 20
-43.99490184921513
 30
0.0
 40
0.5
  1
9.728
100
AcDbAttributeDefinition
  3

  2
NDR
 70
     8
280
     0
  0
ATTDEF
  5
9A
330
8E
100
AcDbEntity
  8
AM_6
100
AcDbText
 10
10.55625000000002
 20
-44.49490184921513
 30
0.0
 40
0.5
  1
8.560
100
AcDbAttributeDefinition
  3

  2
KDR
 70
     8
280
     0
  0
ATTDEF
  5
9B
330
8E
100
AcDbEntity
  8
AM_6
100
AcDbText
 10
10.55625000000002
 20
-44.99490184921513
 30
0.0
 40
0.5
  1
4.0005
100
AcDbAttributeDefinition
  3

  2
BZE
 70
     8
280
     0
  0
ATTDEF
  5
9C
330
8E
100
AcDbEntity
  8
AM_6
100
AcDbText
 10
10.55625000000002
 20
-45.49490184921513
 30
0.0
 40
0.5
  1
11.1125
100
AcDbAttributeDefinition
  3

  2
HEX
 70
     8
280
     0
  0
ATTDEF
  5
9D
330
8E
100
AcDbEntity
  8
AM_6
100
AcDbText
 10
10.55625000000002
 20
-45.99490184921513
 30
0.0
 40
0.5
  1
7.143750
100
AcDbAttributeDefinition
  3

  2
HEX2
 70
     8
280
     0
  0
ATTDEF
  5
9E
330
8E
100
AcDbEntity
  8
AM_6
100
AcDbText
 10
10.55625000000002
 20
-46.49490184921513
 30
0.0
 40
0.5
  1
baldor
100
AcDbAttributeDefinition
  3

  2
COMPANY
 70
     8
280
     0
  0
LWPOLYLINE
  5
A1
330
8E
100
AcDbEntity
  8
AM_9
100
AcDbPolyline
 90
        5
 70
     0
 43
0.0
 10
-4.549376881905941
 20
-55.85716575011958
 10
-4.680053692952526
 20
-55.01722104716567
 10
-4.730040525586984
 20
-54.14453519314443
 10
-4.684077415975237
 20
-53.22541173564805
 10
-4.549376881905941
 20
-52.28529075011959
  0
LINE
  5
A2
330
8E
100
AcDbEntity
  8
AM_9
100
AcDbLine
 10
-3.837282897828235
 20
-52.11926331106881
 30
0.0
 11
-4.549376881905941
 21
-52.28529075011959
 31
0.0
  0
LWPOLYLINE
  5
A3
330
8E
100
AcDbEntity
  8
AM_9
100
AcDbPolyline
 90
        5
 70
     0
 43
0.0
 10
-4.549376881905941
 20
-52.28529075011959
 10
-5.050422008373634
 20
-51.48708835050993
 10
-5.477080537076169
 20
-50.65674219793953
 10
-5.817773758536462
 20
-49.78065630374617
 10
-6.068998929608751
 20
-48.88309494714501
  0
LINE
  5
A4
330
8E
100
AcDbEntity
  8
AM_9
100
AcDbLine
 10
-5.333905179049324
 20
-48.71170502447114
 30
0.0
 11
-6.068998929608751
 21
-48.88309494714501
 31
0.0
  0
LINE
  5
A5
330
8E
100
AcDbEntity
  8
AM_9
100
AcDbLine
 10
-6.068998929608751
 20
-48.88309494714501
 30
0.0
 11
-6.887292896806427
 21
-48.99610033531012
 31
0.0
  0
LWPOLYLINE
  5
A6
330
8E
100
AcDbEntity
  8
AM_9
100
AcDbPolyline
 90
        3
 70
     0
 43
0.0
 10
-7.147354260923544
 20
-49.02492744350232
 10
-7.395910919975464
 20
-49.04531207475422
 10
-7.588696252319894
 20
-49.05279169482686
  0
LWPOLYLINE
  5
A7
330
8E
100
AcDbEntity
  8
AM_9
100
AcDbPolyline
 90
        5
 70
     0
 43
0.0
 10
-6.068998929608751
 20
-56.02684494714502
 10
-5.830160733401211
 20
-56.01615077826179
 10
-5.503852774457663
 20
-55.98578491330026
 10
-5.070861224918891
 20
-55.93179039060553
 10
-4.549376881905941
 20
-55.85716575011958
  0
LINE
  5
A8
330
8E
100
AcDbEntity
  8
AM_9
100
AcDbLine
 10
-3.837282897828235
 20
-55.69113831106882
 30
0.0
 11
-4.549376881905941
 21
-55.85716575011958
 31
0.0
  0
LINE
  5
A9
330
8E
100
AcDbEntity
  8
AM_9
100
AcDbLine
 10
-11.49136154692729
 20
-56.35285201901979
 30
0.0
 11
-9.587647916362412
 21
-56.82342881516682
 31
0.0
  0
LINE
  5
AA
330
8E
100
AcDbEntity
  8
AM_9
100
AcDbLine
 10
-11.16548248281835
 20
-50.05607452079887
 30
0.0
 11
-12.66477284326564
 21
-51.3200747278164
 31
0.0
  0
LWPOLYLINE
  5
AB
330
8E
100
AcDbEntity
  8
AM_9
100
AcDbPolyline
 90
        3
 70
     0
 43
0.0
 10
-6.830431020205955
 20
-48.87599925250316
 10
-6.382400080731247
 20
-48.80866661256952
 10
-5.996343371387018
 20
-48.75656484729699
  0
LWPOLYLINE
  5
AC
330
8E
100
AcDbEntity
  8
AM_9
100
AcDbPolyline
 90
        9
 70
     0
 43
0.0
 10
-9.638207379119056
 20
-50.14286969900347
 10
-9.728117288955607
 20
-50.07221239427931
 10
-9.956711461258358
 20
-49.93153186454593
 10
-10.18412558480329
 20
-49.84355195908734
 10
-10.4127699132646
 20
-49.8043783293564
 10
-10.64036203068494
 20
-49.81413773964901
 10
-10.87516273401744
 20
-49.87920189712996
 10
-11.08098763401965
 20
-49.99129766529331
 10
-11.17169486570098
 20
-50.061349121926
  0
LWPOLYLINE
  5
AD
330
8E
100
AcDbEntity
  8
AM_9
100
AcDbPolyline
 90
        9
 70
     0
 43
0.0
 10
-9.622176356437143
 20
-56.81433468921304
 10
-9.56043812159574
 20
-56.82980858771342
 10
-9.33164821141988
 20
-56.85619309557409
 10
-9.105264118054416
 20
-56.8334123450517
 10
-8.877160738025925
 20
-56.75608458606629
 10
-8.678895171674196
 20
-56.63432423375672
 10
-8.509774175609198
 20
-56.47541904193692
 10
-8.36539540790465
 20
-56.27912132079145
 10
-8.25285666285083
 20
-56.06241299182281
  0
LWPOLYLINE
  5
AE
330
8E
100
AcDbEntity
  8
AM_9
100
AcDbPolyline
 90
        3
 70
     0
 43
0.0
 10
-0.0000000000000045
 20
-43.640778983853
 10
1.382816900963394
 20
-44.41668148362153
 10
2.778124999999994
 20
-45.145
  0
LWPOLYLINE
  5
AF
330
8E
100
AcDbEntity
  8
AM_9
100
AcDbPolyline
 90
        3
 70
     0
 43
0.0
 10
-2.778125000000005
 20
-45.14500000000001
 10
-1.389062500000005
 20
-44.42007281403007
 10
-0.0000000000000045
 20
-43.640778983853
  0
LWPOLYLINE
  5
B0
330
8E
100
AcDbEntity
  8
AM_9
100
AcDbPolyline
 90
        6
 70
     0
 43
0.0
 10
-3.837282897828235
 20
-55.69113831106882
 10
-3.973124856539692
 20
-55.68971497347935
 10
-4.165448524257251
 20
-55.7008620967062
 10
-4.429920560679959
 20
-55.72781574339293
 10
-4.766969289547207
 20
-55.77142327771372
 10
-5.333905179049324
 20
-55.85545502447115
  0
LINE
  5
B1
330
8E
100
AcDbEntity
  8
AM_9
100
AcDbLine
 10
-3.615517807927583
 20
-53.49921950513723
 30
0.0
 11
-3.605746149316374
 21
-53.85134298235551
 31
0.0
  0
LWPOLYLINE
  5
B2
330
8E
100
AcDbEntity
  8
AM_9
100
AcDbPolyline
 90
        4
 70
     0
 43
0.0
 10
-3.837282897828236
 20
-52.11926331106881
 10
-3.705296695971728
 20
-52.72716981401243
 10
-3.624930539193421
 20
-53.35852718757703
 10
-3.615517807927583
 20
-53.49921950513723
  0
LINE
  5
B3
330
8E
100
AcDbEntity
  8
AM_9
100
AcDbLine
 10
-4.573741885064162
 20
-49.90406773037513
 30
0.0
 11
-4.485106171058629
 21
-50.07782873077598
 31
0.0
  0
LINE
  5
B4
330
8E
100
AcDbEntity
  8
AM_9
100
AcDbLine
 10
-4.625451204670003
 20
-49.80766501230291
 30
0.0
 11
-4.573741885064162
 21
-49.90406773037513
 31
0.0
  0
LWPOLYLINE
  5
B5
330
8E
100
AcDbEntity
  8
AM_9
100
AcDbPolyline
 90
        3
 70
     0
 43
0.0
 10
-5.333905179049325
 20
-48.71170502447114
 10
-4.936675458173817
 20
-49.28501849892115
 10
-4.625451204670003
 20
-49.80766501230291
  0
LWPOLYLINE
  5
B6
330
8E
100
AcDbEntity
  8
AM_9
100
AcDbPolyline
 90
        3
 70
     0
 43
0.0
 10
-5.736282007269864
 20
-48.72773773910477
 10
-5.560509266840906
 20
-48.71396339412864
 10
-5.333905179049324
 20
-48.71170502447114
  0
LINE
  5
B7
330
8E
100
AcDbEntity
  8
AM_9
100
AcDbLine
 10
-4.477259168340679
 20
-50.09374187574992
 30
0.0
 11
-4.485689043732697
 21
-50.07664667849585
 31
0.0
  0
LINE
  5
B8
330
8E
100
AcDbEntity
  8
AM_9
100
AcDbLine
 10
-3.605746148079326
 20
-53.85276810623211
 30
0.0
 11
-3.605746148079326
 21
-53.83167328227923
 31
0.0
  0
LWPOLYLINE
  5
B9
330
8E
100
AcDbEntity
  8
AM_9
100
AcDbPolyline
 90
        3
 70
     0
 43
0.0
 10
-3.616959962411281
 20
-54.23344068186731
 10
-3.660719790057632
 20
-54.71052124034203
 10
-3.837282897828235
 20
-55.69113831106882
  0
LWPOLYLINE
  5
BA
330
8E
100
AcDbEntity
  8
AM_9
100
AcDbPolyline
 90
        3
 70
     0
 43
0.0
 10
-3.605746149316374
 20
-53.85134298235551
 10
-3.6080611418661
 20
-54.02398433551978
 10
-3.611575440964231
 20
-54.12603093054233
  0
LINE
  5
BB
330
8E
100
AcDbEntity
  8
AM_9
100
AcDbLine
 10
-4.052532798950236
 20
-51.18668581698969
 30
0.0
 11
-3.837282897828235
 21
-52.11926331106881
 31
0.0
  0
LWPOLYLINE
  5
BC
330
8E
100
AcDbEntity
  8
AM_9
100
AcDbPolyline
 90
        3
 70
     0
 43
0.0
 10
-4.485106171058629
 20
-50.07782873077598
 10
-4.290054100087523
 20
-50.50973826329616
 10
-4.259496923664146
 20
-50.58543967269679
  0
ELLIPSE
  5
BD
330
8E
100
AcDbEntity
  8
AM_9
100
AcDbEllipse
 10
-5.115285751734369
 20
-52.21306421886847
 30
0.0
 11
-0.8110435929053145
 21
3.478577195640767
 31
0.0
210
0.0
220
0.0
230
1.0
 40
0.3659981507706672
 41
2.150416404658201
 42
6.139946939636901
  0
LWPOLYLINE
  5
BE
330
8E
100
AcDbEntity
  8
AM_9
100
AcDbPolyline
 90
        3
 70
     0
 43
0.0
 10
-7.760864787992074
 20
-51.31345337203565
 10
-7.698114323064444
 20
-51.97564052161346
 10
-7.588696252319894
 20
-52.62466669482686
  0
LWPOLYLINE
  5
BF
330
8E
100
AcDbEntity
  8
AM_9
100
AcDbPolyline
 90
        3
 70
     0
 43
0.0
 10
-6.609853898455279
 20
-50.17592592808984
 10
-6.646959991776587
 20
-49.80364633553605
 10
-6.830431020205955
 20
-48.87599925250316
  0
LINE
  5
C0
330
8E
100
AcDbEntity
  8
AM_9
100
AcDbLine
 10
-6.830431020205955
 20
-48.87599925250316
 30
0.0
 11
-7.588696252319894
 21
-49.05279169482686
 31
0.0
  0
LWPOLYLINE
  5
C1
330
8E
100
AcDbEntity
  8
AM_9
100
AcDbPolyline
 90
        3
 70
     0
 43
0.0
 10
-7.588696252319894
 20
-49.05279169482686
 10
-7.697739397127517
 20
-49.74987070916352
 10
-7.760864787992074
 20
-50.44428852429534
  0
LINE
  5
C2
330
8E
100
AcDbEntity
  8
AM_9
100
AcDbLine
 10
-6.887292896806427
 20
-48.99610033531012
 30
0.0
 11
-7.147354260923544
 21
-49.02492744350232
 31
0.0
  0
ELLIPSE
  5
C3
330
8E
100
AcDbEntity
  8
AM_9
100
AcDbEllipse
 10
-6.26629664127094
 20
-52.48142681507381
 30
0.0
 11
-0.8110435929053188
 21
3.478577195640803
 31
0.0
210
0.0
220
0.0
230
1.0
 40
0.3659981507706649
 41
2.200398655463644
 42
6.139946939636896
  0
ELLIPSE
  5
C4
330
8E
100
AcDbEntity
  8
AM_9
100
AcDbEllipse
 10
-6.266296641270864
 20
-52.4814268150738
 30
0.0
 11
-0.8110435929053559
 21
3.478577195640944
 31
0.0
210
0.0
220
0.0
230
1.0
 40
0.3659981507706713
 41
1.173751154322805
 42
1.951156734850492
  0
LWPOLYLINE
  5
C5
330
8E
100
AcDbEntity
  8
AM_9
100
AcDbPolyline
 90
        3
 70
     0
 43
0.0
 10
-7.760864787992074
 20
-50.44428852429534
 10
-7.784509761460654
 20
-50.8820930938689
 10
-7.760864787992074
 20
-51.31345337203565
  0
ELLIPSE
  5
C6
330
8E
100
AcDbEntity
  8
AM_9
100
AcDbEllipse
 10
-6.266296641270743
 20
-52.48142681507425
 30
0.0
 11
-0.8110435929053968
 21
3.478577195641414
 31
0.0
210
0.0
220
0.0
230
1.0
 40
0.3659981507706569
 41
0.0560213022651075
 42
0.8626327579757543
  0
LWPOLYLINE
  5
C7
330
8E
100
AcDbEntity
  8
AM_9
100
AcDbPolyline
 90
       14
 70
     0
 43
0.0
 10
-8.25544705951738
 20
-56.06831406594043
 10
-8.250377081484409
 20
-56.05771552046549
 10
-8.220727220896494
 20
-56.00639184144756
 10
-8.148043707848833
 20
-55.90792296345703
 10
-8.02290347836011
 20
-55.778867508527
 10
-7.837096068838883
 20
-55.63800610811861
 10
-7.59159559992056
 20
-55.51033555134376
 10
-7.305441171720758
 20
-55.42232877064804
 10
-7.012586045132503
 20
-55.38878482345027
 10
-6.748120749835863
 20
-55.4056265539292
 10
-6.535649776109166
 20
-55.45468480365183
 10
-6.384235623495368
 20
-55.51369460636333
 10
-6.290774741193776
 20
-55.56434036410094
 10
-6.247090557923053
 20
-55.59436904736794
  0
LWPOLYLINE
  5
C8
330
8E
100
AcDbEntity
  8
AM_9
100
AcDbPolyline
 90
        3
 70
     0
 43
0.0
 10
-6.241414701572784
 20
-55.59892780726909
 10
-6.245486666181201
 20
-55.59523908169479
 10
-6.272265997092718
 20
-55.56827594348805
  0
LWPOLYLINE
  5
C9
330
8E
100
AcDbEntity
  8
AM_9
100
AcDbPolyline
 90
        3
 70
     0
 43
0.0
 10
-7.638904120530147
 20
-49.72232453492133
 10
-7.624589831058698
 20
-49.67903511057553
 10
-7.622744426414252
 20
-49.6743854984129
  0
LWPOLYLINE
  5
CA
330
8E
100
AcDbEntity
  8
AM_9
100
AcDbPolyline
 90
       14
 70
     0
 43
0.0
 10
-7.625962648039669
 20
-49.68127973907078
 10
-7.656216841021548
 20
-49.73441694647035
 10
-7.727896617434084
 20
-49.83217433769021
 10
-7.851654932523426
 20
-49.96069276543263
 10
-8.035946291053166
 20
-50.10153901084321
 10
-8.280143083430122
 20
-50.22985926190272
 10
-8.565682753350789
 20
-50.31907515198316
 10
-8.85879977043232
 20
-50.3539644485765
 10
-9.124297673989949
 20
-50.33816720873739
 10
-9.338194734121007
 20
-50.28962434796671
 10
-9.491090826917672
 20
-50.23061319171598
 10
-9.585866182540986
 20
-50.17959843560504
 10
-9.630659865381482
 20
-50.14895902046892
 10
-9.636672393764856
 20
-50.14415404664749
  0
LINE
  5
CB
330
8E
100
AcDbEntity
  8
AM_9
100
AcDbLine
 10
-4.498867597488416
 20
-49.20040698714612
 30
0.0
 11
-5.749702073295886
 21
-49.49204383472278
 31
0.0
  0
LINE
  5
CC
330
8E
100
AcDbEntity
  8
AM_9
100
AcDbLine
 10
-4.480869430172892
 20
-54.93408460301416
 30
0.0
 11
-3.4127249160611
 21
-54.68504261954087
 31
0.0
  0
LWPOLYLINE
  5
CD
330
8E
100
AcDbEntity
  8
AM_9
100
AcDbPolyline
 90
       20
 70
     0
 43
0.0
 10
-3.412894494842746
 20
-54.68508214925171
 10
-3.284291520882658
 20
-54.61897056608315
 10
-3.167739146394212
 20
-54.47739677942889
 10
-3.070557447853727
 20
-54.25844987254284
 10
-3.001126812430816
 20
-53.98117718386943
 10
-2.957268343506168
 20
-53.63713980143762
 10
-2.94271464565255
 20
-53.25598889147064
 10
-2.95695681667695
 20
-52.82617048344427
 10
-2.998748603033097
 20
-52.38411945689948
 10
-3.069253891791886
 20
-51.91682779519102
 10
-3.162573084305301
 20
-51.46318536004809
 10
-3.281280336792632
 20
-51.01043103280827
 10
-3.415613668153264
 20
-50.59573983368016
 10
-3.56917312809098
 20
-50.20795336822163
 10
-3.729407788863491
 20
-49.87881015362552
 10
-3.900563582124104
 20
-49.59968684955894
 10
-4.068570560479348
 20
-49.39363114871168
 10
-4.237973131810887
 20
-49.25524012688495
 10
-4.397035613753725
 20
-49.19581586980426
 10
-4.436833944820349
 20
-49.19321007466995
  0
LINE
  5
CE
330
8E
100
AcDbEntity
  8
AM_9
100
AcDbLine
 10
-4.498659790440596
 20
-49.20035854774172
 30
0.0
 11
-4.547549295795377
 21
-49.21672297245754
 31
0.0
  0
LWPOLYLINE
  5
CF
330
8E
100
AcDbEntity
  8
AM_9
100
AcDbPolyline
 90
        3
 70
     0
 43
0.0
 10
-6.830431020205955
 20
-52.44787425250316
 10
-6.691143549353732
 20
-51.74623035747346
 10
-6.609853898455525
 20
-51.04509077583034
  0
LWPOLYLINE
  5
D0
330
8E
100
AcDbEntity
  8
AM_9
100
AcDbPolyline
 90
        5
 70
     0
 43
0.0
 10
-4.547549295794524
 20
-53.13827702754266
 10
-4.404185730898372
 20
-53.53233339056032
 10
-4.243653641815984
 20
-53.89169258101902
 10
-4.079360450144666
 20
-54.18628096276115
 10
-3.926954090829492
 20
-54.40014134662373
  0
ARC
  5
D1
330
8E
100
AcDbEntity
  8
AM_9
100
AcDbCircle
 10
-0.0000000000000051
 20
-51.17749999999999
 30
0.0
 40
5.080000000000003
100
AcDbArc
 50
219.3376599097077
 51
0.0
  0
LWPOLYLINE
  5
D2
330
8E
100
AcDbEntity
  8
AM_9
100
AcDbPolyline
 90
        6
 70
     0
 43
0.0
 10
-3.926954090829492
 20
-54.40014134662373
 10
-3.906600444275939
 20
-54.42450398452264
 10
-3.739733627290443
 20
-54.58648510379631
 10
-3.574110867010548
 20
-54.6766474248098
 10
-3.423743718108899
 20
-54.68738010504426
 10
-3.412894494842746
 20
-54.68508214925171
  0
LINE
  5
D3
330
8E
100
AcDbEntity
  8
AM_9
100
AcDbLine
 10
-5.996343371387018
 20
-48.75656484729699
 30
0.0
 11
-5.736282007269864
 21
-48.72773773910477
 31
0.0
  0
ELLIPSE
  5
D4
330
8E
100
AcDbEntity
  8
AM_9
100
AcDbEllipse
 10
-5.115285751734321
 20
-52.21306421886857
 30
0.0
 11
-0.8110435929054031
 21
3.478577195640896
 31
0.0
210
0.0
220
0.0
230
1.0
 40
0.365998150770571
 41
0.056021302265016
 42
0.8626327579757188
  0
LINE
  5
D5
330
8E
100
AcDbEntity
  8
AM_9
100
AcDbLine
 10
-6.609853898455525
 20
-51.04509077583034
 30
0.0
 11
-6.609853898455279
 21
-50.17592592808984
 31
0.0
  0
ELLIPSE
  5
D6
330
8E
100
AcDbEntity
  8
AM_9
100
AcDbEllipse
 10
-5.115285751734296
 20
-52.21306421886845
 30
0.0
 11
-0.81104359290536
 21
3.478577195640951
 31
0.0
210
0.0
220
0.0
230
1.0
 40
0.3659981507706772
 41
1.144545279139758
 42
1.95115673485048
  0
LWPOLYLINE
  5
D7
330
8E
100
AcDbEntity
  8
AM_9
100
AcDbPolyline
 90
        3
 70
     0
 43
0.0
 10
-5.333905179049324
 20
-55.85545502447115
 10
-5.495237602967164
 20
-55.11041542538194
 10
-5.736282007269855
 20
-54.36665993102582
  0
LINE
  5
D8
330
8E
100
AcDbEntity
  8
AM_9
100
AcDbLine
 10
-5.736282007269855
 20
-54.36665993102582
 30
0.0
 11
-5.99634337138701
 21
-53.78012942772722
 31
0.0
  0
LWPOLYLINE
  5
D9
330
8E
100
AcDbEntity
  8
AM_9
100
AcDbPolyline
 90
        3
 70
     0
 43
0.0
 10
-5.99634337138701
 20
-53.78012942772722
 10
-6.253713524124909
 20
-53.30910892482295
 10
-6.830431020205955
 20
-52.44787425250316
  0
LINE
  5
DA
330
8E
100
AcDbEntity
  8
AM_9
100
AcDbLine
 10
-6.830431020205955
 20
-52.44787425250316
 30
0.0
 11
-7.588696252319894
 21
-52.62466669482686
 31
0.0
  0
LWPOLYLINE
  5
DB
330
8E
100
AcDbEntity
  8
AM_9
100
AcDbPolyline
 90
        3
 70
     0
 43
0.0
 10
-7.588696252319894
 20
-52.62466669482686
 10
-7.397029361446428
 20
-53.33843506077803
 10
-7.147354260923543
 20
-54.0484920239326
  0
LINE
  5
DC
330
8E
100
AcDbEntity
  8
AM_9
100
AcDbLine
 10
-7.147354260923543
 20
-54.0484920239326
 30
0.0
 11
-6.887292896806427
 21
-54.63502252723112
 31
0.0
  0
LWPOLYLINE
  5
DD
330
8E
100
AcDbEntity
  8
AM_9
100
AcDbPolyline
 90
        3
 70
     0
 43
0.0
 10
-6.887292896806427
 20
-54.63502252723112
 10
-6.507011440078413
 20
-55.33872959307751
 10
-6.068998929608751
 20
-56.02684494714502
  0
LINE
  5
DE
330
8E
100
AcDbEntity
  8
AM_9
100
AcDbLine
 10
-5.333905179049324
 20
-55.85545502447115
 30
0.0
 11
-6.068998929608751
 21
-56.02684494714502
 31
0.0
  0
LWPOLYLINE
  5
DF
330
8E
100
AcDbEntity
  8
AM_9
100
AcDbPolyline
 90
        3
 70
     0
 43
0.0
 10
2.778124999999995
 20
-43.87500000000001
 10
1.389062499999995
 20
-43.21086468596995
 10
-0.0000000000000044
 20
-42.60109601614701
  0
LWPOLYLINE
  5
E0
330
8E
100
AcDbEntity
  8
AM_9
100
AcDbPolyline
 90
        3
 70
     0
 43
0.0
 10
-0.0000000000000044
 20
-42.60109601614701
 10
-1.382816900963404
 20
-43.20801041734188
 10
-2.778125000000005
 20
-43.87500000000001
  0
LWPOLYLINE
  5
E1
330
8E
100
AcDbEntity
  8
AM_9
100
AcDbPolyline
 90
        3
 70
     0
 43
0.0
 10
2.778124999999994
 20
-45.145
 10
4.167187499999994
 20
-45.80913531403007
 10
5.556249999999996
 20
-46.41890398385301
  0
LWPOLYLINE
  5
E2
330
8E
100
AcDbEntity
  8
AM_9
100
AcDbPolyline
 90
        3
 70
     0
 43
0.0
 10
-5.556250000000006
 20
-46.41890398385301
 10
-4.173433099036606
 20
-45.81198958265814
 10
-2.778125000000005
 20
-45.14500000000001
  0
LINE
  5
E3
330
8E
100
AcDbEntity
  8
AM_9
100
AcDbLine
 10
-0.0000000000000045
 20
-43.640778983853
 30
0.0
 11
-0.0000000000000044
 21
-42.60109601614701
 31
0.0
  0
LWPOLYLINE
  5
E4
330
8E
100
AcDbEntity
  8
AM_9
100
AcDbPolyline
 90
        3
 70
     0
 43
0.0
 10
5.556249999999996
 20
-45.37922101614701
 10
4.173433099036596
 20
-44.60331851637849
 10
2.778124999999995
 20
-43.87500000000001
  0
LWPOLYLINE
  5
E5
330
8E
100
AcDbEntity
  8
AM_9
100
AcDbPolyline
 90
        3
 70
     0
 43
0.0
 10
-2.778125000000005
 20
-43.87500000000001
 10
-4.167187500000005
 20
-44.59992718596995
 10
-5.556250000000006
 20
-45.37922101614701
  0
ELLIPSE
  5
E6
330
8E
100
AcDbEntity
  8
AM_9
100
AcDbEllipse
 10
-0.0000000000000107
 20
-51.17750000000001
 30
0.0
 11
-5.079999999999992
 21
7.569789948686656E-8
 31
0.0
210
0.0
220
0.0
230
1.0
 40
0.8660254037844387
 41
0.4619460369188744
 42
5.821239302964525
  0
LWPOLYLINE
  5
E7
330
8E
100
AcDbEntity
  8
AM_9
100
AcDbPolyline
 90
        7
 70
     0
 43
0.0
 10
-4.547549295794533
 20
-53.13827702754266
 10
-4.680277139818009
 20
-52.73201089390839
 10
-4.804994146739739
 20
-52.32416923971289
 10
-4.9176913384857
 20
-51.89829675767452
 10
-5.008516140987745
 20
-51.45511714162146
 10
-5.065126856945116
 20
-51.01132388347287
 10
-5.079999999236806
 20
-50.66334199862465
  0
LINE
  5
E8
330
8E
100
AcDbEntity
  8
AM_9
100
AcDbLine
 10
-5.080000000000005
 20
-49.31218750000001
 30
0.0
 11
-5.080000000000005
 21
-50.66561088939236
 31
0.0
  0
LINE
  5
E9
330
8E
100
AcDbEntity
  8
AM_9
100
AcDbLine
 10
5.079999999999993
 20
-51.17750000000001
 30
0.0
 11
5.079999999999994
 21
-49.31218750000001
 31
0.0
  0
LWPOLYLINE
  5
EA
330
8E
100
AcDbEntity
  8
AM_9
100
AcDbPolyline
 90
        8
 70
     0
 43
0.0
 10
-5.079999999236806
 20
-50.66334199862465
 10
-5.079458245572027
 20
-50.59958631698213
 10
-5.050335633392998
 20
-50.21171697599754
 10
-4.982589552160023
 20
-49.88331484601792
 10
-4.878563523460397
 20
-49.60259458609682
 10
-4.752207997638142
 20
-49.39256082294768
 10
-4.610115106939388
 20
-49.25226857346146
 10
-4.547549295794533
 20
-49.21672297245735
  0
LINE
  5
EB
330
8E
100
AcDbEntity
  8
AM_9
100
AcDbLine
 10
-5.556250000000007
 20
-51.97515398385301
 30
0.0
 11
-5.556250000000006
 21
-45.37922101614701
 31
0.0
  0
LWPOLYLINE
  5
EC
330
8E
100
AcDbEntity
  8
AM_9
100
AcDbPolyline
 90
        3
 70
     0
 43
0.0
 10
-2.778125000000005
 20
-53.47937500000001
 10
-4.167187500000005
 20
-52.75444781403007
 10
-5.556250000000007
 20
-51.97515398385301
  0
LINE
  5
ED
330
8E
100
AcDbEntity
  8
AM_9
100
AcDbLine
 10
-2.444601706721192
 20
-53.64435064817783
 30
0.0
 11
-2.778125000000005
 21
-53.47937500000001
 31
0.0
  0
LWPOLYLINE
  5
EE
330
8E
100
AcDbEntity
  8
AM_9
100
AcDbPolyline
 90
        3
 70
     0
 43
0.0
 10
-0.0000000000000056
 20
-54.75327898385301
 10
-1.382816900963404
 20
-54.14636458265813
 10
-2.444601706721192
 20
-53.64435064817783
  0
LWPOLYLINE
  5
EF
330
8E
100
AcDbEntity
  8
AM_9
100
AcDbPolyline
 90
        3
 70
     0
 43
0.0
 10
-5.556250000000007
 20
-50.93547101614701
 10
-4.173433099036606
 20
-51.54238541734188
 10
-2.778125000000006
 20
-52.20937500000001
  0
LINE
  5
F0
330
8E
100
AcDbEntity
  8
AM_9
100
AcDbLine
 10
-0.0000000000000056
 20
-54.75327898385301
 30
0.0
 11
-0.0000000000000058
 21
-53.71359601614702
 31
0.0
  0
LWPOLYLINE
  5
F1
330
8E
100
AcDbEntity
  8
AM_9
100
AcDbPolyline
 90
        3
 70
     0
 43
0.0
 10
2.778124999999994
 20
-53.47937500000001
 10
1.389062499999994
 20
-54.14351031403007
 10
-0.0000000000000056
 20
-54.75327898385301
  0
LWPOLYLINE
  5
F2
330
8E
100
AcDbEntity
  8
AM_9
100
AcDbPolyline
 90
        3
 70
     0
 43
0.0
 10
5.556249999999995
 20
-51.97515398385301
 10
4.173433099036596
 20
-52.75105648362154
 10
2.778124999999994
 20
-53.47937500000001
  0
LINE
  5
F3
330
8E
100
AcDbEntity
  8
AM_9
100
AcDbLine
 10
5.556249999999995
 20
-51.97515398385301
 30
0.0
 11
5.556249999999996
 21
-45.37922101614701
 31
0.0
  0
LWPOLYLINE
  5
F4
330
8E
100
AcDbEntity
  8
AM_9
100
AcDbPolyline
 90
        3
 70
     0
 43
0.0
 10
2.778124999999994
 20
-52.20937500000001
 10
4.167187499999994
 20
-51.54523968596995
 10
5.556249999999995
 20
-50.93547101614701
  0
LWPOLYLINE
  5
F5
330
8E
100
AcDbEntity
  8
AM_9
100
AcDbPolyline
 90
        3
 70
     0
 43
0.0
 10
-2.778125000000006
 20
-52.20937500000001
 10
-1.389062500000005
 20
-52.93430218596995
 10
-0.0000000000000058
 20
-53.71359601614702
  0
LWPOLYLINE
  5
F6
330
8E
100
AcDbEntity
  8
AM_9
100
AcDbPolyline
 90
        3
 70
     0
 43
0.0
 10
-0.0000000000000058
 20
-53.71359601614702
 10
1.382816900963394
 20
-52.93769351637848
 10
2.778124999999994
 20
-52.20937500000001
  0
LINE
  5
F7
330
8E
100
AcDbEntity
  8
AM_9
100
AcDbLine
 10
-5.080000000000005
 20
-47.05000000000001
 30
0.0
 11
-5.080000000000005
 21
-48.0421875
 31
0.0
  0
LINE
  5
F8
330
8E
100
AcDbEntity
  8
AM_9
100
AcDbLine
 10
5.079999999999994
 20
-48.0421875
 30
0.0
 11
5.079999999999994
 21
-47.05000000000001
 31
0.0
  0
LINE
  5
F9
330
8E
100
AcDbEntity
  8
AM_9
100
AcDbLine
 10
-4.702588083318105
 20
-44.35267350379019
 30
0.0
 11
-4.857153757791757
 21
-46.82197524036602
 31
0.0
  0
LINE
  5
FA
330
8E
100
AcDbEntity
  8
AM_9
100
AcDbLine
 10
4.857153757791746
 20
-46.82197524036603
 30
0.0
 11
4.702588083318094
 21
-44.35267350379019
 31
0.0
  0
ELLIPSE
  5
FB
330
8E
100
AcDbEntity
  8
AM_9
100
AcDbEllipse
 10
-0.0000000000000047
 20
-44.27187500000001
 30
0.0
 11
4.106358510281482
 21
0.0
 31
0.0
210
0.0
220
0.0
230
1.0
 40
0.8660254037844392
 41
0.0
 42
6.283185307179586
  0
ELLIPSE
  5
FC
330
8E
100
AcDbEntity
  8
AM_9
100
AcDbEllipse
 10
-11.90625000000002
 20
-53.79640353647998
 30
0.0
 11
-0.5968279661269572
 21
2.55980340742579
 31
0.0
210
0.0
220
0.0
230
1.0
 40
0.3659981507706687
 41
0.0
 42
6.283185307179586
  0
ELLIPSE
  5
FD
330
8E
100
AcDbEntity
  8
AM_9
100
AcDbEllipse
 10
-10.14553017344
 20
-53.38588496698487
 30
0.0
 11
-0.8025283190312383
 21
3.44205506813482
 31
0.0
210
0.0
220
0.0
230
1.0
 40
0.3659981507706693
 41
0.0
 42
6.283185307179586
  0
ELLIPSE
  5
FE
330
8E
100
AcDbEntity
  8
AM_9
100
AcDbEllipse
 10
-9.474104895899835
 20
-53.22933959258688
 30
0.0
 11
-0.7681852811307379
 21
3.294757303237219
 31
0.0
210
0.0
220
0.0
230
1.0
 40
0.3659981507706503
 41
0.0
 42
6.283185307179586
  0
ELLIPSE
  5
FF
330
8E
100
AcDbEntity
  8
AM_9
100
AcDbEllipse
 10
-5.115285751734394
 20
-52.21306421886847
 30
0.0
 11
-0.6344163215614973
 21
2.721020384145696
 31
0.0
210
0.0
220
0.0
230
1.0
 40
0.3659981507706654
 41
0.0
 42
6.283185307179586
  0
ELLIPSE
  5
100
330
8E
100
AcDbEntity
  8
AM_9
100
AcDbEllipse
 10
0.0000000000000169
 20
-49.31218749999999
 30
0.0
 11
-5.080000000000035
 21
6.221205739668597E-16
 31
0.0
210
0.0
220
0.0
230
1.0
 40
0.8660254037844386
 41
0.0
 42
6.283185307179586
  0
ELLIPSE
  5
101
330
8E
100
AcDbEntity
  8
AM_9
100
AcDbEllipse
 10
-0.0000000000000075
 20
-49.31218750000003
 30
0.0
 11
-5.556250000000016
 21
6.804443777762501E-16
 31
0.0
210
0.0
220
0.0
230
1.0
 40
0.8660254037844318
 41
0.0
 42
6.283185307179586
  0
ELLIPSE
  5
102
330
8E
100
AcDbEntity
  8
AM_9
100
AcDbEllipse
 10
-0.000000000000006
 20
-48.04218749999998
 30
0.0
 11
-5.556250000000023
 21
6.804443777762510E-16
 31
0.0
210
0.0
220
0.0
230
1.0
 40
0.866025403784442
 41
0.0
 42
6.283185307179586
  0
ELLIPSE
  5
103
330
8E
100
AcDbEntity
  8
AM_9
100
AcDbEllipse
 10
-0.0000000000000195
 20
-48.04218750000003
 30
0.0
 11
-5.079999999999977
 21
7.569789948686633E-8
 31
0.0
210
0.0
220
0.0
230
1.0
 40
0.8660254037844357
 41
0.0
 42
6.283185307179586
  0
ELLIPSE
  5
104
330
8E
100
AcDbEntity
  8
AM_9
100
AcDbEllipse
 10
-0.0000000000000053
 20
-47.05000000000002
 30
0.0
 11
-5.080000000000011
 21
6.221205739668567E-16
 31
0.0
210
0.0
220
0.0
230
1.0
 40
0.8660254037844398
 41
0.0
 42
6.283185307179586
  0
ELLIPSE
  5
105
330
8E
100
AcDbEntity
  8
AM_9
100
AcDbEllipse
 10
0.0000000000000071
 20
-47.05
 30
0.0
 11
-4.864285115153653
 21
7.248349718944153E-8
 31
0.0
210
0.0
220
0.0
230
1.0
 40
0.8660254037844387
 41
0.0
 42
6.283185307179586
  0
ELLIPSE
  5
106
330
8E
100
AcDbEntity
  8
AM_9
100
AcDbEllipse
 10
-0.0000000000000075
 20
-44.57344199719768
 30
0.0
 11
-4.709492504676826
 21
5.767464921460926E-16
 31
0.0
210
0.0
220
0.0
230
1.0
 40
0.8660254037844419
 41
0.0
 42
6.283185307179586
  0
ENDBLK
  5
91
330
8E
100
AcDbEntity
  8
0
100
AcDbBlockEnd
  0
BLOCK
  5
109
330
107
100
AcDbEntity
  8
0
100
AcDbBlockBegin
  2
3_129527_0_in_136311_2
 70
     2
 10
0.0
 20
0.0
 30
0.0
  3
3_129527_0_in_136311_2
  1

  0
ATTDEF
  5
10B
330
107
100
AcDbEntity
  8
AM_6
100
AcDbText
 10
24.62
 20
64.98502722595885
 30
0.0
 40
0.5
  1
INS-GT-M B
100
AcDbAttributeDefinition
  3

  2
NN
 70
     8
280
     0
  0
ATTDEF
  5
10C
330
107
100
AcDbEntity
  8
AM_6
100
AcDbText
 10
24.62
 20
64.48502722595885
 30
0.0
 40
0.5
  1
GT Normal Duty Bearing Inserts
100
AcDbAttributeDefinition
  3

  2
NT
 70
     8
280
     0
  0
ATTDEF
  5
10D
330
107
100
AcDbEntity
  8
AM_6
100
AcDbText
 10
24.62
 20
63.98502722595885
 30
0.0
 40
0.5
  1
129527
100
AcDbAttributeDefinition
  3

  2
NB
 70
     8
280
     0
  0
ATTDEF
  5
10E
330
107
100
AcDbEntity
  8
AM_6
100
AcDbText
 10
24.62
 20
63.48502722595885
 30
0.0
 40
0.5
  1
$PN.
100
AcDbAttributeDefinition
  3

  2
NBSYN
 70
     8
280
     0
  0
ATTDEF
  5
10F
330
107
100
AcDbEntity
  8
AM_6
100
AcDbText
 10
24.62
 20
62.98502722595885
 30
0.0
 40
0.5
  1
129527
100
AcDbAttributeDefinition
  3

  2
LINA
 70
     8
280
     0
  0
ATTDEF
  5
110
330
107
100
AcDbEntity
  8
AM_6
100
AcDbText
 10
24.62
 20
62.48502722595885
 30
0.0
 40
0.5
  1
215
100
AcDbAttributeDefinition
  3

  2
SERIES
 70
     8
280
     0
  0
ATTDEF
  5
111
330
107
100
AcDbEntity
  8
AM_6
100
AcDbText
 10
24.62
 20
61.98502722595885
 30
0.0
 40
0.5
  1
129527
100
AcDbAttributeDefinition
  3

  2
PN
 70
     8
280
     0
  0
ATTDEF
  5
112
330
107
100
AcDbEntity
  8
AM_6
100
AcDbText
 10
24.62
 20
61.48502722595885
 30
0.0
 40
0.5
  1
INS-GT-15
100
AcDbAttributeDefinition
  3

  2
DESCRIPTION
 70
     8
280
     0
  0
ATTDEF
  5
113
330
107
100
AcDbEntity
  8
AM_6
100
AcDbText
 10
24.62
 20
60.98502722595885
 30
0.0
 40
0.5
  1
62.5
100
AcDbAttributeDefinition
  3

  2
A
 70
     8
280
     0
  0
ATTDEF
  5
114
330
107
100
AcDbEntity
  8
AM_6
100
AcDbText
 10
24.62
 20
60.48502722595885
 30
0.0
 40
0.5
  1
29.0
100
AcDbAttributeDefinition
  3

  2
C
 70
     8
280
     0
  0
ATTDEF
  5
115
330
107
100
AcDbEntity
  8
AM_6
100
AcDbText
 10
24.62
 20
59.98502722595885
 30
0.0
 40
0.5
  1
130.0
100
AcDbAttributeDefinition
  3

  2
D
 70
     8
280
     0
  0
ATTDEF
  5
116
330
107
100
AcDbEntity
  8
AM_6
100
AcDbText
 10
24.62
 20
59.48502722595885
 30
0.0
 40
0.5
  1
7.1
100
AcDbAttributeDefinition
  3

  2
J
 70
     8
280
     0
  0
ATTDEF
  5
117
330
107
100
AcDbEntity
  8
AM_6
100
AcDbText
 10
24.62
 20
58.98502722595885
 30
0.0
 40
0.5
  1
112.8
100
AcDbAttributeDefinition
  3

  2
L
 70
     8
280
     0
  0
ATTDEF
  5
118
330
107
100
AcDbEntity
  8
AM_6
100
AcDbText
 10
24.62
 20
58.48502722595885
 30
0.0
 40
0.5
  1
#10 - 32 x 1/4
100
AcDbAttributeDefinition
  3

  2
N
 70
     8
280
     0
  0
ATTDEF
  5
119
330
107
100
AcDbEntity
  8
AM_6
100
AcDbText
 10
24.62
 20
57.98502722595885
 30
0.0
 40
0.5
  1
21.8
100
AcDbAttributeDefinition
  3

  2
W
 70
     8
280
     0
  0
ATTDEF
  5
11A
330
107
100
AcDbEntity
  8
AM_6
100
AcDbText
 10
24.62
 20
57.48502722595885
 30
0.0
 40
0.5
  1
40.6
100
AcDbAttributeDefinition
  3

  2
X
 70
     8
280
     0
  0
ATTDEF
  5
11B
330
107
100
AcDbEntity
  8
AM_6
100
AcDbText
 10
24.62
 20
56.98502722595885
 30
0.0
 40
0.5
  1
40.6
100
AcDbAttributeDefinition
  3

  2
Y
 70
     8
280
     0
  0
ATTDEF
  5
11C
330
107
100
AcDbEntity
  8
AM_6
100
AcDbText
 10
24.62
 20
56.48502722595885
 30
0.0
 40
0.5
  1
baldor
100
AcDbAttributeDefinition
  3

  2
COMPANY
 70
     8
280
     0
  0
LINE
  5
11D
330
107
100
AcDbEntity
  8
AM_9
100
AcDbLine
 10
-30.45
 20
-42.07619047619047
 30
0.0
 11
-15.22500000000013
 21
-42.07619047619047
 31
0.0
  0
LINE
  5
11E
330
107
100
AcDbEntity
  8
AM_9
100
AcDbLine
 10
-15.22500000000013
 20
42.07619047619047
 30
0.0
 11
-30.45
 21
42.07619047619047
 31
0.0
  0
LINE
  5
11F
330
107
100
AcDbEntity
  8
AM_9
100
AcDbLine
 10
-15.22500000000013
 20
42.07619047619047
 30
0.0
 11
-15.22500000000013
 21
-42.07619047619047
 31
0.0
  0
LINE
  5
120
330
107
100
AcDbEntity
  8
AM_9
100
AcDbLine
 10
-15.22500000000013
 20
-42.07619047619047
 30
0.0
 11
19.62
 21
-43.29300468913043
 31
0.0
  0
LINE
  5
121
330
107
100
AcDbEntity
  8
AM_9
100
AcDbLine
 10
19.62
 20
43.29300468913043
 30
0.0
 11
-15.22500000000013
 21
42.07619047619047
 31
0.0
  0
LINE
  5
122
330
107
100
AcDbEntity
  8
AM_9
100
AcDbLine
 10
-25.375
 20
-46.1047619047619
 30
0.0
 11
-20.3
 21
-46.1047619047619
 31
0.0
  0
LINE
  5
123
330
107
100
AcDbEntity
  8
AM_9
100
AcDbLine
 10
-20.3
 20
46.1047619047619
 30
0.0
 11
-25.375
 21
46.1047619047619
 31
0.0
  0
LINE
  5
124
330
107
100
AcDbEntity
  8
AM_9
100
AcDbLine
 10
-25.375
 20
50.13333333333333
 30
0.0
 11
-25.375
 21
-50.13333333333333
 31
0.0
  0
LINE
  5
125
330
107
100
AcDbEntity
  8
AM_9
100
AcDbLine
 10
-29.29
 20
-50.13333333333333
 30
0.0
 11
-25.375
 21
-50.13333333333333
 31
0.0
  0
LINE
  5
126
330
107
100
AcDbEntity
  8
AM_9
100
AcDbLine
 10
-25.375
 20
50.13333333333333
 30
0.0
 11
-29.29
 21
50.13333333333333
 31
0.0
  0
LINE
  5
127
330
107
100
AcDbEntity
  8
AM_9
100
AcDbLine
 10
-20.30000000000001
 20
50.13333333333333
 30
0.0
 11
-20.30000000000001
 21
-50.13333333333333
 31
0.0
  0
LINE
  5
128
330
107
100
AcDbEntity
  8
AM_9
100
AcDbLine
 10
-20.30000000000001
 20
-50.13333333333333
 30
0.0
 11
-14.5
 21
-50.13333333333333
 31
0.0
  0
LINE
  5
129
330
107
100
AcDbEntity
  8
AM_9
100
AcDbLine
 10
-14.5
 20
50.13333333333333
 30
0.0
 11
-20.30000000000001
 21
50.13333333333333
 31
0.0
  0
LINE
  5
12A
330
107
100
AcDbEntity
  8
AM_9
100
AcDbLine
 10
-30.45
 20
48.97333333333334
 30
0.0
 11
-30.45
 21
-48.97333333333334
 31
0.0
  0
LINE
  5
12B
330
107
100
AcDbEntity
  8
AM_9
100
AcDbLine
 10
-29.29
 20
50.13333333333333
 30
0.0
 11
-29.29
 21
-50.13333333333333
 31
0.0
  0
LINE
  5
12C
330
107
100
AcDbEntity
  8
AM_9
100
AcDbLine
 10
-30.45
 20
-48.97333333333334
 30
0.0
 11
-29.29
 21
-50.13333333333333
 31
0.0
  0
LINE
  5
12D
330
107
100
AcDbEntity
  8
AM_9
100
AcDbLine
 10
-29.29
 20
50.13333333333333
 30
0.0
 11
-30.45
 21
48.97333333333334
 31
0.0
  0
LINE
  5
12E
330
107
100
AcDbEntity
  8
AM_9
100
AcDbLine
 10
14.5
 20
-50.13333333333333
 30
0.0
 11
18.46
 21
-50.13333333333333
 31
0.0
  0
LINE
  5
12F
330
107
100
AcDbEntity
  8
AM_9
100
AcDbLine
 10
18.46
 20
50.13333333333333
 30
0.0
 11
14.5
 21
50.13333333333333
 31
0.0
  0
LINE
  5
130
330
107
100
AcDbEntity
  8
AM_9
100
AcDbLine
 10
18.46
 20
50.13333333333333
 30
0.0
 11
18.46
 21
-50.13333333333333
 31
0.0
  0
LINE
  5
131
330
107
100
AcDbEntity
  8
AM_9
100
AcDbLine
 10
19.62
 20
48.97333333333334
 30
0.0
 11
19.62
 21
-48.97333333333334
 31
0.0
  0
LINE
  5
132
330
107
100
AcDbEntity
  8
AM_9
100
AcDbLine
 10
19.62
 20
48.97333333333334
 30
0.0
 11
18.46
 21
50.13333333333333
 31
0.0
  0
LINE
  5
133
330
107
100
AcDbEntity
  8
AM_9
100
AcDbLine
 10
18.46
 20
-50.13333333333333
 30
0.0
 11
19.62
 21
-48.97333333333334
 31
0.0
  0
LINE
  5
134
330
107
100
AcDbEntity
  8
AM_9
100
AcDbLine
 10
-8.52
 20
-62.1
 30
0.0
 11
-5.680000000000001
 21
-62.1
 31
0.0
  0
LINE
  5
135
330
107
100
AcDbEntity
  8
AM_9
100
AcDbLine
 10
-5.680000000000001
 20
62.1
 30
0.0
 11
-8.52
 21
62.1
 31
0.0
  0
LINE
  5
136
330
107
100
AcDbEntity
  8
AM_9
100
AcDbLine
 10
-14.50000000000001
 20
61.3178776527872
 30
0.0
 11
-14.50000000000001
 21
-61.31787765276206
 31
0.0
  0
ARC
  5
137
330
107
100
AcDbEntity
  8
AM_9
100
AcDbCircle
 10
-13.33999999999998
 20
-61.3178776527872
 30
0.0
 40
1.160000000000023
100
AcDbArc
 50
180.0
 51
248.5875329531158
  0
ARC
  5
138
330
107
100
AcDbEntity
  8
AM_9
100
AcDbCircle
 10
-13.33999999999998
 20
61.3178776527872
 30
0.0
 40
1.16000000000002
100
AcDbArc
 50
111.4124670468842
 51
180.0
  0
LINE
  5
139
330
107
100
AcDbEntity
  8
AM_9
100
AcDbLine
 10
14.5
 20
61.31787765278722
 30
0.0
 11
14.5
 21
-61.31787765276208
 31
0.0
  0
ARC
  5
13A
330
107
100
AcDbEntity
  8
AM_9
100
AcDbCircle
 10
13.34
 20
-61.31787765278722
 30
0.0
 40
1.159999999999997
100
AcDbArc
 50
291.4124618948018
 51
0.0
  0
ARC
  5
13B
330
107
100
AcDbEntity
  8
AM_9
100
AcDbCircle
 10
13.34
 20
61.31787765278722
 30
0.0
 40
1.159999999999998
100
AcDbArc
 50
0.0
 51
68.5875381051983
  0
LINE
  5
13C
330
107
100
AcDbEntity
  8
AM_9
100
AcDbLine
 10
-13.76349206349206
 20
62.39781027668523
 30
0.0
 11
-13.76349206349206
 21
-62.39781027668523
 31
0.0
  0
ARC
  5
13D
330
107
100
AcDbEntity
  8
AM_9
100
AcDbCircle
 10
0.0000000000034337
 20
-27.29999999998913
 30
0.0
 40
37.70000000001138
100
AcDbArc
 50
248.5875329531172
 51
256.3789887586088
  0
ARC
  5
13E
330
107
100
AcDbEntity
  8
AM_9
100
AcDbCircle
 10
0.0000000000028741
 20
27.29999999999101
 30
0.0
 40
37.70000000000942
100
AcDbArc
 50
103.6210112413911
 51
111.4124670468831
  0
LINE
  5
13F
330
107
100
AcDbEntity
  8
AM_9
100
AcDbLine
 10
-8.878294592104488
 20
63.93967637869921
 30
0.0
 11
-8.878294592104488
 21
-63.93967637869921
 31
0.0
  0
LINE
  5
140
330
107
100
AcDbEntity
  8
AM_9
100
AcDbLine
 10
-8.52
 20
63.65783271868663
 30
0.0
 11
-8.52
 21
-63.65783271862381
 31
0.0
  0
ARC
  5
141
330
107
100
AcDbEntity
  8
AM_9
100
AcDbCircle
 10
-8.80999999999999
 20
-63.65783271868665
 30
0.0
 40
0.2899999999999942
100
AcDbArc
 50
256.3789850345382
 51
0.0
  0
ARC
  5
142
330
107
100
AcDbEntity
  8
AM_9
100
AcDbCircle
 10
-8.80999999999999
 20
63.65783271868665
 30
0.0
 40
0.2899999999999903
100
AcDbArc
 50
0.0
 51
103.6210149654618
  0
LINE
  5
143
330
107
100
AcDbEntity
  8
AM_9
100
AcDbLine
 10
-5.679999999999994
 20
64.31967044693941
 30
0.0
 11
-5.679999999999994
 21
-64.31967044690558
 31
0.0
  0
ARC
  5
144
330
107
100
AcDbEntity
  8
AM_9
100
AcDbCircle
 10
-5.389999999999994
 20
-64.31967044693941
 30
0.0
 40
0.2900000000000009
100
AcDbArc
 50
180.0
 51
261.7160431017281
  0
ARC
  5
145
330
107
100
AcDbEntity
  8
AM_9
100
AcDbCircle
 10
-5.389999999999996
 20
64.31967044693941
 30
0.0
 40
0.2899999999999991
100
AcDbArc
 50
98.28395689827161
 51
180.0
  0
LINE
  5
146
330
107
100
AcDbEntity
  8
AM_9
100
AcDbLine
 10
-5.43178294573644
 20
64.60664463645057
 30
0.0
 11
-5.43178294573644
 21
-64.60664463645057
 31
0.0
  0
LINE
  5
147
330
107
100
AcDbEntity
  8
AM_9
100
AcDbLine
 10
13.76349196638366
 20
62.39781031476596
 30
0.0
 11
13.76349196638366
 21
-62.39781031476596
 31
0.0
  0
ARC
  5
148
330
107
100
AcDbEntity
  8
AM_9
100
AcDbCircle
 10
0.0000000000000162
 20
-27.30000000000009
 30
0.0
 40
37.6999999999999
100
AcDbArc
 50
261.7160431017304
 51
291.4124668883584
  0
ARC
  5
149
330
107
100
AcDbEntity
  8
AM_9
100
AcDbCircle
 10
0.0000000000002398
 20
27.30000000000202
 30
0.0
 40
37.69999999999803
100
AcDbArc
 50
68.5875331116408
 51
98.28395689827036
  0
ENDBLK
  5
10A
330
107
100
AcDbEntity
  8
0
100
AcDbBlockEnd
  0
BLOCK
  5
14C
330
14A
100
AcDbEntity
  8
0
100
AcDbBlockBegin
  2
4_129964_0_in_136311_2
 70
     2
 10
0.0
 20
0.0
 30
0.0
  3
4_129964_0_in_136311_2
  1

  0
ATTDEF
  5
14E
330
14A
100
AcDbEntity
  8
AM_6
100
AcDbText
 10
27.6
 20
54.0
 30
0.0
 40
0.5
  1
Grip Tight Normal Duty Adapter and Nut Metric Bore
100
AcDbAttributeDefinition
  3

  2
NN
 70
     8
280
     0
  0
ATTDEF
  5
14F
330
14A
100
AcDbEntity
  8
AM_6
100
AcDbText
 10
27.6
 20
53.5
 30
0.0
 40
0.5
  1
GT and GTM Adapter & Lock Nut Assemblies
100
AcDbAttributeDefinition
  3

  2
NT
 70
     8
280
     0
  0
ATTDEF
  5
150
330
14A
100
AcDbEntity
  8
AM_6
100
AcDbText
 10
27.6
 20
53.0
 30
0.0
 40
0.5
  1
129964
100
AcDbAttributeDefinition
  3

  2
NB
 70
     8
280
     0
  0
ATTDEF
  5
151
330
14A
100
AcDbEntity
  8
AM_6
100
AcDbText
 10
27.6
 20
52.5
 30
0.0
 40
0.5
  1
$PN.
100
AcDbAttributeDefinition
  3

  2
NBSYN
 70
     8
280
     0
  0
ATTDEF
  5
152
330
14A
100
AcDbEntity
  8
AM_6
100
AcDbText
 10
27.6
 20
52.0
 30
0.0
 40
0.5
  1
129964
100
AcDbAttributeDefinition
  3

  2
LINA
 70
     8
280
     0
  0
ATTDEF
  5
153
330
14A
100
AcDbEntity
  8
AM_6
100
AcDbText
 10
27.6
 20
51.5
 30
0.0
 40
0.5
  1
215
100
AcDbAttributeDefinition
  3

  2
SERIES
 70
     8
280
     0
  0
ATTDEF
  5
154
330
14A
100
AcDbEntity
  8
AM_6
100
AcDbText
 10
27.6
 20
51.0
 30
0.0
 40
0.5
  1
70
100
AcDbAttributeDefinition
  3

  2
SS
 70
     8
280
     0
  0
ATTDEF
  5
155
330
14A
100
AcDbEntity
  8
AM_6
100
AcDbText
 10
27.6
 20
50.5
 30
0.0
 40
0.5
  1
129964
100
AcDbAttributeDefinition
  3

  2
PN
 70
     8
280
     0
  0
ATTDEF
  5
156
330
14A
100
AcDbEntity
  8
AM_6
100
AcDbText
 10
27.6
 20
50.0
 30
0.0
 40
0.5
  1
AN-GTM-15-70M
100
AcDbAttributeDefinition
  3

  2
DESCRIPTION
 70
     8
280
     0
  0
ATTDEF
  5
157
330
14A
100
AcDbEntity
  8
AM_6
100
AcDbText
 10
27.6
 20
49.5
 30
0.0
 40
0.5
  1
65.1
100
AcDbAttributeDefinition
  3

  2
A
 70
     8
280
     0
  0
ATTDEF
  5
158
330
14A
100
AcDbEntity
  8
AM_6
100
AcDbText
 10
27.6
 20
49.0
 30
0.0
 40
0.5
  1
29.0
100
AcDbAttributeDefinition
  3

  2
C
 70
     8
280
     0
  0
ATTDEF
  5
159
330
14A
100
AcDbEntity
  8
AM_6
100
AcDbText
 10
27.6
 20
48.5
 30
0.0
 40
0.5
  1
130.0
100
AcDbAttributeDefinition
  3

  2
D
 70
     8
280
     0
  0
ATTDEF
  5
15A
330
14A
100
AcDbEntity
  8
AM_6
100
AcDbText
 10
27.6
 20
48.0
 30
0.0
 40
0.5
  1
6.7
100
AcDbAttributeDefinition
  3

  2
J
 70
     8
280
     0
  0
ATTDEF
  5
15B
330
14A
100
AcDbEntity
  8
AM_6
100
AcDbText
 10
27.6
 20
47.5
 30
0.0
 40
0.5
  1
108.0
100
AcDbAttributeDefinition
  3

  2
L
 70
     8
280
     0
  0
ATTDEF
  5
15C
330
14A
100
AcDbEntity
  8
AM_6
100
AcDbText
 10
27.6
 20
47.0
 30
0.0
 40
0.5
  1
10 - 32 x 1/4
100
AcDbAttributeDefinition
  3

  2
N
 70
     8
280
     0
  0
ATTDEF
  5
15D
330
14A
100
AcDbEntity
  8
AM_6
100
AcDbText
 10
27.6
 20
46.5
 30
0.0
 40
0.5
  1
22.6
100
AcDbAttributeDefinition
  3

  2
W
 70
     8
280
     0
  0
ATTDEF
  5
15E
330
14A
100
AcDbEntity
  8
AM_6
100
AcDbText
 10
27.6
 20
46.0
 30
0.0
 40
0.5
  1
41.3
100
AcDbAttributeDefinition
  3

  2
X
 70
     8
280
     0
  0
ATTDEF
  5
15F
330
14A
100
AcDbEntity
  8
AM_6
100
AcDbText
 10
27.6
 20
45.5
 30
0.0
 40
0.5
  1
42.5
100
AcDbAttributeDefinition
  3

  2
Y
 70
     8
280
     0
  0
ATTDEF
  5
160
330
14A
100
AcDbEntity
  8
AM_6
100
AcDbText
 10
27.6
 20
45.0
 30
0.0
 40
0.5
  1
baldor
100
AcDbAttributeDefinition
  3

  2
COMPANY
 70
     8
280
     0
  0
LWPOLYLINE
  5
161
330
14A
100
AcDbEntity
  8
AM_9
100
AcDbPolyline
 90
       11
 70
     0
 43
0.0
 10
-34.73299535957245
 20
1.344296337840129
 10
-34.91324640462243
 20
1.568687384586979
 10
-35.20345412451392
 20
1.838891126012034
 10
-35.53391886454604
 20
2.058122144477935
 10
-35.90379555614293
 20
2.223036303770119
 10
-36.29574604405042
 20
2.325126491007013
 10
-36.70609130248253
 20
2.361091783821636
 10
-37.11673112021992
 20
2.328651401468867
 10
-37.51870819674093
 20
2.226778268608439
 10
-37.89786492708883
 20
2.058974367628017
 10
-38.40398194122964
 20
1.687867799333378
  0
LWPOLYLINE
  5
162
330
14A
100
AcDbEntity
  8
AM_9
100
AcDbPolyline
 90
       11
 70
     0
 43
0.0
 10
-38.59805081869228
 20
-1.478406673025159
 10
-38.34437121406205
 20
-1.743027049080236
 10
-38.02567725990787
 20
-1.983302182149498
 10
-37.67197470837743
 20
-2.168334020680543
 10
-37.28460435660568
 20
-2.294749814487926
 10
-36.8816886556929
 20
-2.355815164074316
 10
-36.46843497856967
 20
-2.348576102020949
 10
-36.06214719272219
 20
-2.272781905040834
 10
-35.67343454790079
 20
-2.128892062873948
 10
-35.31454660559102
 20
-1.921649117626204
 10
-35.03478569801651
 20
-1.693053944164243
  0
LINE
  5
163
330
14A
100
AcDbEntity
  8
AM_9
100
AcDbLine
 10
-38.40398194122964
 20
1.687867799333378
 30
0.0
 11
-38.82693383074365
 21
1.144947280514246
 31
0.0
  0
LINE
  5
164
330
14A
100
AcDbEntity
  8
AM_9
100
AcDbLine
 10
-40.14
 20
-3.35
 30
0.0
 11
-40.14
 21
3.35
 31
0.0
  0
LINE
  5
165
330
14A
100
AcDbEntity
  8
AM_9
100
AcDbLine
 10
-20.65
 20
41.9726699583962
 30
0.0
 11
-41.3
 21
41.9726699583962
 31
0.0
  0
LINE
  5
166
330
14A
100
AcDbEntity
  8
AM_9
100
AcDbLine
 10
-20.65
 20
43.993723706712
 30
0.0
 11
-21.81000000000001
 21
45.00029458932207
 31
0.0
  0
LINE
  5
167
330
14A
100
AcDbEntity
  8
AM_9
100
AcDbLine
 10
-21.81000000000001
 20
45.00029458932207
 30
0.0
 11
-40.14
 21
45.00029458932207
 31
0.0
  0
LINE
  5
168
330
14A
100
AcDbEntity
  8
AM_9
100
AcDbLine
 10
-40.14
 20
45.00029458932207
 30
0.0
 11
-41.3
 21
43.993723706712
 31
0.0
  0
LINE
  5
169
330
14A
100
AcDbEntity
  8
AM_9
100
AcDbLine
 10
-20.65
 20
-41.97266995839622
 30
0.0
 11
-41.3
 21
-41.97266995839622
 31
0.0
  0
LINE
  5
16A
330
14A
100
AcDbEntity
  8
AM_9
100
AcDbLine
 10
-41.3
 20
-43.99372370671203
 30
0.0
 11
-40.14
 21
-45.0002945893221
 31
0.0
  0
LINE
  5
16B
330
14A
100
AcDbEntity
  8
AM_9
100
AcDbLine
 10
-40.14
 20
-45.0002945893221
 30
0.0
 11
-21.81000000000001
 21
-45.0002945893221
 31
0.0
  0
LINE
  5
16C
330
14A
100
AcDbEntity
  8
AM_9
100
AcDbLine
 10
-21.81000000000001
 20
-45.0002945893221
 30
0.0
 11
-20.65
 21
-43.99372370671203
 31
0.0
  0
LINE
  5
16D
330
14A
100
AcDbEntity
  8
AM_9
100
AcDbLine
 10
-20.65
 20
45.3226699583962
 30
0.0
 11
-41.3
 21
45.3226699583962
 31
0.0
  0
LINE
  5
16E
330
14A
100
AcDbEntity
  8
AM_9
100
AcDbLine
 10
-20.65
 20
-45.32266995839622
 30
0.0
 11
-41.3
 21
-45.32266995839622
 31
0.0
  0
LINE
  5
16F
330
14A
100
AcDbEntity
  8
AM_9
100
AcDbLine
 10
-30.97499999999999
 20
40.28571428571428
 30
0.0
 11
-41.29999999999999
 21
40.28571428571428
 31
0.0
  0
LINE
  5
170
330
14A
100
AcDbEntity
  8
AM_9
100
AcDbLine
 10
22.6
 20
34.97767144908304
 30
0.0
 11
-42.49999999999999
 21
34.97767144908305
 31
0.0
  0
LINE
  5
171
330
14A
100
AcDbEntity
  8
AM_9
100
AcDbLine
 10
-42.49999999999999
 20
-35.0
 30
0.0
 11
22.59999999999999
 21
-35.0
 31
0.0
  0
LINE
  5
172
330
14A
100
AcDbEntity
  8
AM_9
100
AcDbLine
 10
-30.97499999999999
 20
40.26631688533487
 30
0.0
 11
-15.4875000000002
 21
40.26631688533487
 31
0.0
  0
LINE
  5
173
330
14A
100
AcDbEntity
  8
AM_9
100
AcDbLine
 10
-30.97499999999999
 20
-40.28571428571428
 30
0.0
 11
-15.4875000000002
 21
-40.28571428571428
 31
0.0
  0
LINE
  5
174
330
14A
100
AcDbEntity
  8
AM_9
100
AcDbLine
 10
-15.4875000000002
 20
40.26631688533487
 30
0.0
 11
21.46999998261828
 21
41.55750362135151
 31
0.0
  0
LINE
  5
175
330
14A
100
AcDbEntity
  8
AM_9
100
AcDbLine
 10
-15.4875000000002
 20
40.26631688533487
 30
0.0
 11
-15.4875000000002
 21
-40.28571428571428
 31
0.0
  0
LINE
  5
176
330
14A
100
AcDbEntity
  8
AM_9
100
AcDbLine
 10
22.6
 20
26.65975431244632
 30
0.0
 11
22.6
 21
-26.65975431244632
 31
0.0
  0
LINE
  5
177
330
14A
100
AcDbEntity
  8
AM_9
100
AcDbLine
 10
-15.4875000000002
 20
-40.28571428571428
 30
0.0
 11
21.47
 21
-41.57629862420556
 31
0.0
  0
LINE
  5
178
330
14A
100
AcDbEntity
  8
AM_9
100
AcDbLine
 10
-25.8125
 20
-44.14285714285714
 30
0.0
 11
-20.65
 21
-44.14285714285714
 31
0.0
  0
LINE
  5
179
330
14A
100
AcDbEntity
  8
AM_9
100
AcDbLine
 10
-20.65
 20
44.14285714285714
 30
0.0
 11
-25.8125
 21
44.14285714285714
 31
0.0
  0
LINE
  5
17A
330
14A
100
AcDbEntity
  8
AM_9
100
AcDbLine
 10
-25.8125
 20
48.54
 30
0.0
 11
-25.8125
 21
-48.54
 31
0.0
  0
LINE
  5
17B
330
14A
100
AcDbEntity
  8
AM_9
100
AcDbLine
 10
-30.97499999999999
 20
48.54
 30
0.0
 11
-30.97499999999999
 21
-48.54
 31
0.0
  0
LINE
  5
17C
330
14A
100
AcDbEntity
  8
AM_9
100
AcDbLine
 10
-30.97499999999999
 20
-48.54
 30
0.0
 11
-25.8125
 21
-48.54
 31
0.0
  0
LINE
  5
17D
330
14A
100
AcDbEntity
  8
AM_9
100
AcDbLine
 10
-25.8125
 20
48.54
 30
0.0
 11
-30.97499999999999
 21
48.54
 31
0.0
  0
LINE
  5
17E
330
14A
100
AcDbEntity
  8
AM_9
100
AcDbLine
 10
-20.64999999999999
 20
3.35
 30
0.0
 11
-34.78907874606627
 21
3.35
 31
0.0
  0
LINE
  5
17F
330
14A
100
AcDbEntity
  8
AM_9
100
AcDbLine
 10
-21.81
 20
48.35029458932208
 30
0.0
 11
-20.65
 21
47.34372370671201
 31
0.0
  0
LINE
  5
180
330
14A
100
AcDbEntity
  8
AM_9
100
AcDbLine
 10
-20.65
 20
52.84
 30
0.0
 11
-21.47
 21
53.66
 31
0.0
  0
LINE
  5
181
330
14A
100
AcDbEntity
  8
AM_9
100
AcDbLine
 10
-20.65
 20
52.84
 30
0.0
 11
-20.65
 21
-52.84
 31
0.0
  0
LINE
  5
182
330
14A
100
AcDbEntity
  8
AM_9
100
AcDbLine
 10
-34.78907874606627
 20
-3.35
 30
0.0
 11
-20.64999999999999
 21
-3.35
 31
0.0
  0
LINE
  5
183
330
14A
100
AcDbEntity
  8
AM_9
100
AcDbLine
 10
-21.81
 20
-48.35029458932209
 30
0.0
 11
-40.14
 21
-48.35029458932209
 31
0.0
  0
LINE
  5
184
330
14A
100
AcDbEntity
  8
AM_9
100
AcDbLine
 10
-40.14
 20
-48.35029458932209
 30
0.0
 11
-41.3
 21
-47.34372370671203
 31
0.0
  0
LINE
  5
185
330
14A
100
AcDbEntity
  8
AM_9
100
AcDbLine
 10
-40.13999999999999
 20
48.35029458932208
 30
0.0
 11
-21.81
 21
48.35029458932208
 31
0.0
  0
LINE
  5
186
330
14A
100
AcDbEntity
  8
AM_9
100
AcDbLine
 10
-21.81
 20
27.30982240879644
 30
0.0
 11
-21.81
 21
-27.30982240879644
 31
0.0
  0
LINE
  5
187
330
14A
100
AcDbEntity
  8
AM_9
100
AcDbLine
 10
-20.65
 20
-47.34372370671203
 30
0.0
 11
-21.81
 21
-48.35029458932209
 31
0.0
  0
LINE
  5
188
330
14A
100
AcDbEntity
  8
AM_9
100
AcDbLine
 10
-21.47
 20
-53.66
 30
0.0
 11
-20.65
 21
-52.84
 31
0.0
  0
LINE
  5
189
330
14A
100
AcDbEntity
  8
AM_9
100
AcDbLine
 10
-41.3
 20
47.34372370671202
 30
0.0
 11
-40.13999999999999
 21
48.35029458932208
 31
0.0
  0
CIRCLE
  5
18A
330
14A
100
AcDbEntity
  8
AM_9
100
AcDbCircle
 10
-36.71666666666667
 20
-0.0000000000000015
 30
0.0
 40
1.981199999999997
  0
LINE
  5
18D
330
14A
100
AcDbEntity
  8
AM_7
100
AcDbLine
 10
-36.71666666666666
 20
-2.533649999999998
 30
0.0
 11
-36.71666666666666
 21
2.533649999999998
 31
0.0
  0
LINE
  5
18F
330
14A
100
AcDbEntity
  8
AM_4
100
AcDbLine
 10
-42.49999999999999
 20
40.26631688533487
 30
0.0
 11
-41.3
 21
40.26631688533487
 31
0.0
  0
LINE
  5
190
330
14A
100
AcDbEntity
  8
AM_4
100
AcDbLine
 10
-42.49999999999999
 20
40.26631688533487
 30
0.0
 11
-42.49999999999999
 21
-40.28571428571428
 31
0.0
  0
LINE
  5
191
330
14A
100
AcDbEntity
  8
AM_4
100
AcDbLine
 10
-42.49999999999999
 20
-40.28571428571428
 30
0.0
 11
-41.3
 21
-40.28571428571428
 31
0.0
  0
LINE
  5
192
330
14A
100
AcDbEntity
  8
AM_4
100
AcDbLine
 10
21.46999998261828
 20
41.55750362135151
 30
0.0
 11
22.6
 21
41.59698192113789
 31
0.0
  0
LINE
  5
193
330
14A
100
AcDbEntity
  8
AM_4
100
AcDbLine
 10
22.6
 20
-26.65975431244632
 30
0.0
 11
22.6
 21
-41.61575909373123
 31
0.0
  0
LINE
  5
194
330
14A
100
AcDbEntity
  8
AM_4
100
AcDbLine
 10
22.6
 20
41.59698192113789
 30
0.0
 11
22.6
 21
26.65975431244632
 31
0.0
  0
LINE
  5
195
330
14A
100
AcDbEntity
  8
AM_4
100
AcDbLine
 10
21.47
 20
-41.57629862420556
 30
0.0
 11
22.6
 21
-41.61575909373123
 31
0.0
  0
LINE
  5
196
330
14A
100
AcDbEntity
  8
AM_4
100
AcDbLine
 10
-21.47
 20
53.66
 30
0.0
 11
-21.81
 21
54.0
 31
0.0
  0
LINE
  5
197
330
14A
100
AcDbEntity
  8
AM_4
100
AcDbLine
 10
-41.3
 20
-3.35
 30
0.0
 11
-34.78907874606627
 21
-3.35
 31
0.0
  0
LINE
  5
198
330
14A
100
AcDbEntity
  8
AM_4
100
AcDbLine
 10
-40.14
 20
-54.0
 30
0.0
 11
-21.81
 21
-54.0
 31
0.0
  0
LINE
  5
199
330
14A
100
AcDbEntity
  8
AM_4
100
AcDbLine
 10
-40.14
 20
-3.35
 30
0.0
 11
-40.14
 21
-54.0
 31
0.0
  0
LINE
  5
19A
330
14A
100
AcDbEntity
  8
AM_4
100
AcDbLine
 10
-41.3
 20
52.84
 30
0.0
 11
-41.3
 21
-52.84
 31
0.0
  0
LINE
  5
19B
330
14A
100
AcDbEntity
  8
AM_4
100
AcDbLine
 10
-41.3
 20
-52.84
 30
0.0
 11
-40.14
 21
-54.0
 31
0.0
  0
LINE
  5
19C
330
14A
100
AcDbEntity
  8
AM_4
100
AcDbLine
 10
-34.78907874606627
 20
3.35
 30
0.0
 11
-41.3
 21
3.35
 31
0.0
  0
LINE
  5
19D
330
14A
100
AcDbEntity
  8
AM_4
100
AcDbLine
 10
-21.81
 20
54.0
 30
0.0
 11
-40.14
 21
54.0
 31
0.0
  0
LINE
  5
19E
330
14A
100
AcDbEntity
  8
AM_4
100
AcDbLine
 10
-21.81
 20
54.0
 30
0.0
 11
-21.81
 21
27.30982240879644
 31
0.0
  0
LINE
  5
19F
330
14A
100
AcDbEntity
  8
AM_4
100
AcDbLine
 10
-21.81
 20
-27.30982240879644
 30
0.0
 11
-21.81
 21
-54.0
 31
0.0
  0
LINE
  5
1A0
330
14A
100
AcDbEntity
  8
AM_4
100
AcDbLine
 10
-21.81
 20
-54.0
 30
0.0
 11
-21.47
 21
-53.66
 31
0.0
  0
LINE
  5
1A1
330
14A
100
AcDbEntity
  8
AM_4
100
AcDbLine
 10
-40.14
 20
54.0
 30
0.0
 11
-41.3
 21
52.84
 31
0.0
  0
LINE
  5
1A2
330
14A
100
AcDbEntity
  8
AM_4
100
AcDbLine
 10
-40.14
 20
54.0
 30
0.0
 11
-40.14
 21
3.35
 31
0.0
  0
ARC
  5
1A4
330
14A
100
AcDbEntity
  8
AM_5
100
AcDbCircle
 10
-36.71667472224907
 20
-0.0000000000000004
 30
0.0
 40
2.413000000000001
100
AcDbArc
 50
74.99999999999996
 51
15.00000000000002
  0
ENDBLK
  5
14D
330
14A
100
AcDbEntity
  8
0
100
AcDbBlockEnd
  0
BLOCK
  5
1A7
330
1A5
100
AcDbEntity
  8
0
100
AcDbBlockBegin
  2
5_WSTU_GT_15_0_in_136311_2
 70
     2
 10
0.0
 20
0.0
 30
0.0
  3
5_WSTU_GT_15_0_in_136311_2
  1

  0
ATTDEF
  5
1A9
330
1A5
100
AcDbEntity
  8
AM_6
100
AcDbText
 10
73.92999954223633
 20
84.95
 30
0.0
 40
0.5
  1
GTNWSTUB-M-b
100
AcDbAttributeDefinition
  3

  2
NN
 70
     8
280
     0
  0
ATTDEF
  5
1AA
330
1A5
100
AcDbEntity
  8
AM_6
100
AcDbText
 10
73.92999954223633
 20
84.45
 30
0.0
 40
0.5
  1
Grip Tight Adapter Ball Bearings
100
AcDbAttributeDefinition
  3

  2
NT
 70
     8
280
     0
  0
ATTDEF
  5
1AB
330
1A5
100
AcDbEntity
  8
AM_6
100
AcDbText
 10
73.92999954223633
 20
83.95
 30
0.0
 40
0.5
  1
WSTU-GT-15
100
AcDbAttributeDefinition
  3

  2
NB
 70
     8
280
     0
  0
ATTDEF
  5
1AC
330
1A5
100
AcDbEntity
  8
AM_6
100
AcDbText
 10
73.92999954223633
 20
83.45
 30
0.0
 40
0.5
  1
$PN.$LUBE.
100
AcDbAttributeDefinition
  3

  2
NBSYN
 70
     8
280
     0
  0
ATTDEF
  5
1AD
330
1A5
100
AcDbEntity
  8
AM_6
100
AcDbText
 10
73.92999954223633
 20
82.95
 30
0.0
 40
0.5
  1
WSTU-GT-15
100
AcDbAttributeDefinition
  3

  2
LINA
 70
     8
280
     0
  0
ATTDEF
  5
1AE
330
1A5
100
AcDbEntity
  8
AM_6
100
AcDbText
 10
73.92999954223633
 20
82.45
 30
0.0
 40
0.5
  1
215
100
AcDbAttributeDefinition
  3

  2
SERIES
 70
     8
280
     0
  0
ATTDEF
  5
1AF
330
1A5
100
AcDbEntity
  8
AM_6
100
AcDbText
 10
73.92999954223633
 20
81.95
 30
0.0
 40
0.5
  1
75
100
AcDbAttributeDefinition
  3

  2
SS
 70
     8
280
     0
  0
ATTDEF
  5
1B0
330
1A5
100
AcDbEntity
  8
AM_6
100
AcDbText
 10
73.92999954223633
 20
81.45
 30
0.0
 40
0.5
  1
WSTU-GT-15
100
AcDbAttributeDefinition
  3

  2
PN
 70
     8
280
     0
  0
ATTDEF
  5
1B1
330
1A5
100
AcDbEntity
  8
AM_6
100
AcDbText
 10
73.92999954223633
 20
80.95
 30
0.0
 40
0.5
  1
WSTU-GT-15
100
AcDbAttributeDefinition
  3

  2
DESCRIPTION
 70
     8
280
     0
  0
ATTDEF
  5
1B2
330
1A5
100
AcDbEntity
  8
AM_6
100
AcDbText
 10
73.92999954223633
 20
80.45
 30
0.0
 40
0.5
  1
8.6
100
AcDbAttributeDefinition
  3

  2
WEIGHT
 70
     8
280
     0
  0
ATTDEF
  5
1B3
330
1A5
100
AcDbEntity
  8
AM_6
100
AcDbText
 10
73.92999954223633
 20
79.95
 30
0.0
 40
0.5
  1
130.0
100
AcDbAttributeDefinition
  3

  2
BOD
 70
     8
280
     0
  0
ATTDEF
  5
1B4
330
1A5
100
AcDbEntity
  8
AM_6
100
AcDbText
 10
73.92999954223633
 20
79.45
 30
0.0
 40
0.5
  1
65.1
100
AcDbAttributeDefinition
  3

  2
A
 70
     8
280
     0
  0
ATTDEF
  5
1B5
330
1A5
100
AcDbEntity
  8
AM_6
100
AcDbText
 10
73.92999954223633
 20
78.95
 30
0.0
 40
0.5
  1
231.8
100
AcDbAttributeDefinition
  3

  2
B
 70
     8
280
     0
  0
ATTDEF
  5
1B6
330
1A5
100
AcDbEntity
  8
AM_6
100
AcDbText
 10
73.92999954223633
 20
78.45
 30
0.0
 40
0.5
  1
27.0
100
AcDbAttributeDefinition
  3

  2
C
 70
     8
280
     0
  0
ATTDEF
  5
1B7
330
1A5
100
AcDbEntity
  8
AM_6
100
AcDbText
 10
73.92999954223633
 20
77.95
 30
0.0
 40
0.5
  1
139.7
100
AcDbAttributeDefinition
  3

  2
E
 70
     8
280
     0
  0
ATTDEF
  5
1B8
330
1A5
100
AcDbEntity
  8
AM_6
100
AcDbText
 10
73.92999954223633
 20
77.45
 30
0.0
 40
0.5
  1
38.1
100
AcDbAttributeDefinition
  3

  2
F
 70
     8
280
     0
  0
ATTDEF
  5
1B9
330
1A5
100
AcDbEntity
  8
AM_6
100
AcDbText
 10
73.92999954223633
 20
76.95
 30
0.0
 40
0.5
  1
20.6
100
AcDbAttributeDefinition
  3

  2
G
 70
     8
280
     0
  0
ATTDEF
  5
1BA
330
1A5
100
AcDbEntity
  8
AM_6
100
AcDbText
 10
73.92999954223633
 20
76.45
 30
0.0
 40
0.5
  1
31.8
100
AcDbAttributeDefinition
  3

  2
H
 70
     8
280
     0
  0
ATTDEF
  5
1BB
330
1A5
100
AcDbEntity
  8
AM_6
100
AcDbText
 10
73.92999954223633
 20
75.95
 30
0.0
 40
0.5
  1
111.1
100
AcDbAttributeDefinition
  3

  2
J
 70
     8
280
     0
  0
ATTDEF
  5
1BC
330
1A5
100
AcDbEntity
  8
AM_6
100
AcDbText
 10
73.92999954223633
 20
75.45
 30
0.0
 40
0.5
  1
69.9
100
AcDbAttributeDefinition
  3

  2
K
 70
     8
280
     0
  0
ATTDEF
  5
1BD
330
1A5
100
AcDbEntity
  8
AM_6
100
AcDbText
 10
73.92999954223633
 20
74.95
 30
0.0
 40
0.5
  1
108.0
100
AcDbAttributeDefinition
  3

  2
L
 70
     8
280
     0
  0
ATTDEF
  5
1BE
330
1A5
100
AcDbEntity
  8
AM_6
100
AcDbText
 10
73.92999954223633
 20
74.45
 30
0.0
 40
0.5
  1
150.8
100
AcDbAttributeDefinition
  3

  2
M
 70
     8
280
     0
  0
ATTDEF
  5
1BF
330
1A5
100
AcDbEntity
  8
AM_6
100
AcDbText
 10
73.92999954223633
 20
73.95
 30
0.0
 40
0.5
  1
169.9
100
AcDbAttributeDefinition
  3

  2
N
 70
     8
280
     0
  0
ATTDEF
  5
1C0
330
1A5
100
AcDbEntity
  8
AM_6
100
AcDbText
 10
73.92999954223633
 20
73.45
 30
0.0
 40
0.5
  1
22.6
100
AcDbAttributeDefinition
  3

  2
R
 70
     8
280
     0
  0
ATTDEF
  5
1C1
330
1A5
100
AcDbEntity
  8
AM_6
100
AcDbText
 10
73.92999954223633
 20
72.95
 30
0.0
 40
0.5
  1
42.5
100
AcDbAttributeDefinition
  3

  2
S
 70
     8
280
     0
  0
ATTDEF
  5
1C2
330
1A5
100
AcDbEntity
  8
AM_6
100
AcDbText
 10
73.92999954223633
 20
72.45
 30
0.0
 40
0.5
  1
69.9
100
AcDbAttributeDefinition
  3

  2
T
 70
     8
280
     0
  0
ATTDEF
  5
1C3
330
1A5
100
AcDbEntity
  8
AM_6
100
AcDbText
 10
73.92999954223633
 20
71.95
 30
0.0
 40
0.5
  1
41.3
100
AcDbAttributeDefinition
  3

  2
Z
 70
     8
280
     0
  0
ATTDEF
  5
1C4
330
1A5
100
AcDbEntity
  8
AM_6
100
AcDbText
 10
73.92999954223633
 20
71.45
 30
0.0
 40
0.5
  1
baldor
100
AcDbAttributeDefinition
  3

  2
COMPANY
 70
     8
280
     0
  0
LWPOLYLINE
  5
1C5
330
1A5
100
AcDbEntity
  8
AM_9
100
AcDbPolyline
 90
        4
 70
     0
 43
0.0
 10
9.512219456936423
 20
-43.35240519215808
 10
9.752048271535541
 20
-44.12015344212602
 10
9.9376140941276
 20
-45.0822960990205
 10
10.0
 20
-46.05
  0
LWPOLYLINE
  5
1C6
330
1A5
100
AcDbEntity
  8
AM_9
100
AcDbPolyline
 90
       25
 70
     0
 43
0.0
 10
-9.527389685256932
 20
-43.39404211614303
 10
-9.436949084734911
 20
-43.15733641058884
 10
-9.008396726336393
 20
-42.24047142623812
 10
-8.469725876793568
 20
-41.36910802882077
 10
-7.821816482788322
 20
-40.54981799656129
 10
-7.074107963988024
 20
-39.79406557460806
 10
-6.240485010179649
 20
-39.11696897671995
 10
-5.32351346329581
 20
-38.52483006174678
 10
-4.336213073532593
 20
-38.02617271913066
 10
-3.297107118586998
 20
-37.63143541553455
 10
-2.217652083671814
 20
-37.34736759720209
 10
-1.106576130628254
 20
-37.17481790900252
 10
0.0150307870077851
 20
-37.11750750805017
 10
1.130607664551921
 20
-37.1772910263883
 10
2.235441507392255
 20
-37.35108585747022
 10
3.308779565634028
 20
-37.63518317438216
 10
4.339770559973395
 20
-38.02771604938891
 10
5.31965764621987
 20
-38.52259339079365
 10
6.230329264319673
 20
-39.10960912164929
 10
7.066401329813564
 20
-39.78710256669722
 10
7.816341118837241
 20
-40.54364457141364
 10
8.466171146471062
 20
-41.36404351003183
 10
9.009507862863543
 20
-42.24257565181473
 10
9.440888168323626
 20
-43.16736344814565
 10
9.512219456936423
 20
-43.35240519215808
  0
LWPOLYLINE
  5
1C7
330
1A5
100
AcDbEntity
  8
AM_9
100
AcDbPolyline
 90
        4
 70
     0
 43
0.0
 10
-10.00000000000001
 20
-46.05
 10
-9.936413639004112
 20
-45.07305623487154
 10
-9.747307914191182
 20
-44.10190101039993
 10
-9.527389685256932
 20
-43.39404211614303
  0
ELLIPSE
  5
1C8
330
1A5
100
AcDbEntity
  8
AM_9
100
AcDbEllipse
 10
-0.000000000000005
 20
-47.05
 30
0.0
 11
-7.999999999999993
 21
9.797174393178818E-16
 31
0.0
210
0.0
220
0.0
230
1.0
 40
0.8660254037844382
 41
0.0
 42
6.283185307179586
  0
ELLIPSE
  5
1C9
330
1A5
100
AcDbEntity
  8
AM_9
100
AcDbEllipse
 10
0.0000000000000817
 20
-46.04999999999936
 30
0.0
 11
10.0000000000001
 21
0.0
 31
0.0
210
0.0
220
0.0
230
1.0
 40
0.866025403784431
 41
2.830090183199303
 42
3.484355588175868
  0
LWPOLYLINE
  5
1CA
330
1A5
100
AcDbEntity
  8
AM_9
100
AcDbPolyline
 90
       41
 70
     0
 43
0.0
 10
-9.940309656666221
 20
-47.02578220810591
 10
-9.914905618249113
 20
-47.21431424063837
 10
-9.790124933873937
 20
-47.87269740875801
 10
-9.610849463222777
 20
-48.52051612722056
 10
-9.378066772350106
 20
-49.15435156021367
 10
-9.092998774534381
 20
-49.77084199667495
 10
-8.757111293124439
 20
-50.36668311105486
 10
-8.37212687240467
 20
-50.9386345724451
 10
-7.940037486543956
 20
-51.48353404154636
 10
-7.463113725411465
 20
-51.99831831661606
 10
-6.943907585481886
 20
-52.4800501338898
 10
-6.385247078102304
 20
-52.92594816454765
 10
-5.790222246192235
 20
-53.33341729927562
 10
-5.162163525587364
 20
-53.70007645829146
 10
-4.50461439272797
 20
-54.02378182475849
 10
-3.821300725614339
 20
-54.30264435430534
 10
-3.116099259430106
 20
-54.53504139867063
 10
-2.39300707345519
 20
-54.71962308081683
 10
-1.656113399913654
 20
-54.85531455946888
 10
-0.9095743834959377
 20
-54.9413155177451
 10
-0.1575908651228695
 20
-54.97709817105414
 10
0.595611136783189
 20
-54.9624049076587
 10
1.345789959453261
 20
-54.89724738512503
 10
2.088700458902997
 20
-54.78190926066171
 10
2.820139048796025
 20
-54.61694361799756
 10
3.535940634210858
 20
-54.40317580920905
 10
4.231996646291299
 20
-54.14170786256777
 10
4.904275699536625
 20
-53.83392359739187
 10
5.548847709817584
 20
-53.48149347340659
 10
6.161912066797082
 20
-53.08637778342811
 10
6.739829980575985
 20
-52.65082643194234
 10
7.2791604108571
 20
-52.17737335184888
 10
7.776698098048721
 20
-51.66882374050925
 10
8.229511310261001
 20
-51.12823285455048
 10
8.634976243463786
 20
-50.558876101137
 10
8.990804826047748
 20
-49.96421146249858
 10
9.295063155737557
 20
-49.34783660763928
 10
9.546178922419168
 20
-48.71344403471163
 10
9.742937718889953
 20
-48.06477797042101
 10
9.884469746071606
 20
-47.40559642881798
 10
9.938618152836192
 20
-47.03946885291804
  0
LINE
  5
1CB
330
1A5
100
AcDbEntity
  8
AM_9
100
AcDbLine
 10
-9.999981126527395
 20
-46.06737743572748
 30
0.0
 11
-9.999082016200791
 21
-46.1711901650282
 31
0.0
  0
LWPOLYLINE
  5
1CC
330
1A5
100
AcDbEntity
  8
AM_9
100
AcDbPolyline
 90
        5
 70
     0
 43
0.0
 10
-9.406915700369122
 20
-48.9568499496802
 10
-9.438616390609129
 20
-48.87905148192622
 10
-9.75036689095245
 20
-47.95637853273291
 10
-9.9384407293505
 20
-47.00611954063653
 10
-10.00000000000001
 20
-46.05
  0
LWPOLYLINE
  5
1CD
330
1A5
100
AcDbEntity
  8
AM_9
100
AcDbPolyline
 90
       23
 70
     0
 43
0.0
 10
9.308207056158478
 20
-49.17884444252946
 10
9.01215410379819
 20
-49.75053216900111
 10
8.470516747710091
 20
-50.57499082577016
 10
7.825386092434088
 20
-51.3365507450897
 10
7.078549912555065
 20
-52.0306750572088
 10
6.24049493155715
 20
-52.65012396354578
 10
5.326801103688838
 20
-53.18448282265291
 10
4.34243973942122
 20
-53.62962204867043
 10
3.299793900636066
 20
-53.98198199002994
 10
2.218532882229315
 20
-54.23562980855041
 10
1.112974444470864
 20
-54.38696439396595
 10
-0.0102068272890087
 20
-54.43738754480261
 10
-1.129712109823649
 20
-54.38604927716832
 10
-2.22997328376909
 20
-54.2328864119704
 10
-3.305666540684834
 20
-53.98033074248324
 10
-4.33671717790673
 20
-53.63258004250972
 10
-5.314797106145692
 20
-53.18992196091082
 10
-6.229395699560456
 20
-52.65743347308236
 10
-7.063619922312222
 20
-52.04395838804466
 10
-7.812214029577153
 20
-51.34920614362036
 10
-8.464831342331536
 20
-50.58256291968812
 10
-9.0092032478055
 20
-49.75726335326699
 10
-9.406915700369122
 20
-48.9568499496802
  0
LWPOLYLINE
  5
1CE
330
1A5
100
AcDbEntity
  8
AM_9
100
AcDbPolyline
 90
        5
 70
     0
 43
0.0
 10
10.0
 20
-46.05
 10
9.936590160204128
 20
-47.01407989922543
 10
9.748766969998616
 20
-47.96241460326989
 10
9.44013992315667
 20
-48.87751189485289
 10
9.308207056158478
 20
-49.17884444252946
  0
ELLIPSE
  5
1CF
330
1A5
100
AcDbEntity
  8
AM_9
100
AcDbEllipse
 10
-0.0000000000000053
 20
-46.05000000000016
 30
0.0
 11
10.00000000000002
 21
0.0
 31
0.0
210
0.0
220
0.0
230
1.0
 40
0.8660254037844345
 41
3.484355588175783
 42
9.1132754903788
  0
LINE
  5
1D0
330
1A5
100
AcDbEntity
  8
AM_9
100
AcDbLine
 10
-21.47000000000001
 20
69.572174753992
 30
0.0
 11
21.46999999999998
 21
69.572174753992
 31
0.0
  0
LINE
  5
1D1
330
1A5
100
AcDbEntity
  8
AM_9
100
AcDbLine
 10
-21.47000000000001
 20
-69.57217475399203
 30
0.0
 11
21.46999999999998
 21
-69.57217475399203
 31
0.0
  0
LINE
  5
1D2
330
1A5
100
AcDbEntity
  8
AM_9
100
AcDbLine
 10
-24.86
 20
79.06405843616037
 30
0.0
 11
-20.34
 21
79.06405843616037
 31
0.0
  0
LINE
  5
1D3
330
1A5
100
AcDbEntity
  8
AM_9
100
AcDbLine
 10
-24.86
 20
77.58402595554008
 30
0.0
 11
-20.34
 21
77.58402595554008
 31
0.0
  0
LINE
  5
1D4
330
1A5
100
AcDbEntity
  8
AM_9
100
AcDbLine
 10
-24.86
 20
78.69405034966044
 30
0.0
 11
-20.34
 21
78.69405034966044
 31
0.0
  0
LINE
  5
1D5
330
1A5
100
AcDbEntity
  8
AM_9
100
AcDbLine
 10
-24.86
 20
76.47400162999985
 30
0.0
 11
-20.34
 21
76.47400162999985
 31
0.0
  0
LINE
  5
1D6
330
1A5
100
AcDbEntity
  8
AM_9
100
AcDbLine
 10
-24.86
 20
79.80407474378008
 30
0.0
 11
-20.34
 21
79.80407474378008
 31
0.0
  0
LINE
  5
1D7
330
1A5
100
AcDbEntity
  8
AM_9
100
AcDbLine
 10
-24.86
 20
77.88003246284033
 30
0.0
 11
-20.34
 21
77.88003246284033
 31
0.0
  0
LINE
  5
1D8
330
1A5
100
AcDbEntity
  8
AM_9
100
AcDbLine
 10
-24.86
 20
79.21206169870047
 30
0.0
 11
-20.34
 21
79.21206169870047
 31
0.0
  0
LINE
  5
1D9
330
1A5
100
AcDbEntity
  8
AM_9
100
AcDbLine
 10
-24.86
 20
77.06601460904047
 30
0.0
 11
-20.34
 21
77.06601460904047
 31
0.0
  0
LINE
  5
1DA
330
1A5
100
AcDbEntity
  8
AM_9
100
AcDbLine
 10
-24.86
 20
77.28801943300027
 30
0.0
 11
-20.34
 21
77.28801943300027
 31
0.0
  0
LINE
  5
1DB
330
1A5
100
AcDbEntity
  8
AM_9
100
AcDbLine
 10
-24.86
 20
79.65607148378038
 30
0.0
 11
-20.34
 21
79.65607148378038
 31
0.0
  0
LINE
  5
1DC
330
1A5
100
AcDbEntity
  8
AM_9
100
AcDbLine
 10
-24.86
 20
76.62200489253996
 30
0.0
 11
-20.34
 21
76.62200489253996
 31
0.0
  0
LINE
  5
1DD
330
1A5
100
AcDbEntity
  8
AM_9
100
AcDbLine
 10
-24.86
 20
79.36006495870016
 30
0.0
 11
-20.34
 21
79.36006495870016
 31
0.0
  0
LINE
  5
1DE
330
1A5
100
AcDbEntity
  8
AM_9
100
AcDbLine
 10
-24.86
 20
76.91801128046062
 30
0.0
 11
-20.34
 21
76.91801128046062
 31
0.0
  0
LINE
  5
1DF
330
1A5
100
AcDbEntity
  8
AM_9
100
AcDbLine
 10
-24.86
 20
78.99005680616051
 30
0.0
 11
-20.34
 21
78.99005680616051
 31
0.0
  0
LINE
  5
1E0
330
1A5
100
AcDbEntity
  8
AM_9
100
AcDbLine
 10
-24.86
 20
77.21401780300042
 30
0.0
 11
-20.34
 21
77.21401780300042
 31
0.0
  0
LINE
  5
1E1
330
1A5
100
AcDbEntity
  8
AM_9
100
AcDbLine
 10
-24.86
 20
78.32404221490002
 30
0.0
 11
-20.34
 21
78.32404221490002
 31
0.0
  0
LINE
  5
1E2
330
1A5
100
AcDbEntity
  8
AM_9
100
AcDbLine
 10
-24.86
 20
78.02803570759976
 30
0.0
 11
-20.34
 21
78.02803570759976
 31
0.0
  0
LINE
  5
1E3
330
1A5
100
AcDbEntity
  8
AM_9
100
AcDbLine
 10
-24.86
 20
78.47204545711976
 30
0.0
 11
-20.34
 21
78.47204545711976
 31
0.0
  0
LINE
  5
1E4
330
1A5
100
AcDbEntity
  8
AM_9
100
AcDbLine
 10
-24.86
 20
79.87807637632034
 30
0.0
 11
-20.34
 21
79.87807637632034
 31
0.0
  0
LINE
  5
1E5
330
1A5
100
AcDbEntity
  8
AM_9
100
AcDbLine
 10
-20.34
 20
76.4
 30
0.0
 11
-20.34
 21
79.87807637632034
 31
0.0
  0
LINE
  5
1E6
330
1A5
100
AcDbEntity
  8
AM_9
100
AcDbLine
 10
-24.86
 20
76.4
 30
0.0
 11
-20.34
 21
76.4
 31
0.0
  0
LINE
  5
1E7
330
1A5
100
AcDbEntity
  8
AM_9
100
AcDbLine
 10
-24.86
 20
76.84400964792036
 30
0.0
 11
-20.34
 21
76.84400964792036
 31
0.0
  0
LINE
  5
1E8
330
1A5
100
AcDbEntity
  8
AM_9
100
AcDbLine
 10
-24.86
 20
79.43406659124042
 30
0.0
 11
-20.34
 21
79.43406659124042
 31
0.0
  0
LINE
  5
1E9
330
1A5
100
AcDbEntity
  8
AM_9
100
AcDbLine
 10
-21.47
 20
-65.0
 30
0.0
 11
21.47
 21
-65.0
 31
0.0
  0
LINE
  5
1EA
330
1A5
100
AcDbEntity
  8
AM_9
100
AcDbLine
 10
21.47
 20
65.0
 30
0.0
 11
-21.47
 21
65.0
 31
0.0
  0
LINE
  5
1EB
330
1A5
100
AcDbEntity
  8
AM_9
100
AcDbLine
 10
-21.47
 20
27.57791870319442
 30
0.0
 11
-21.47
 21
-27.57791870319441
 31
0.0
  0
LINE
  5
1EC
330
1A5
100
AcDbEntity
  8
AM_9
100
AcDbLine
 10
21.47000000000001
 20
-27.57791870319442
 30
0.0
 11
21.47000000000001
 21
27.57791870319443
 31
0.0
  0
LINE
  5
1ED
330
1A5
100
AcDbEntity
  8
AM_9
100
AcDbLine
 10
-21.47
 20
-33.35999999999999
 30
0.0
 11
21.47000000000001
 21
-33.35999999999999
 31
0.0
  0
LINE
  5
1EE
330
1A5
100
AcDbEntity
  8
AM_9
100
AcDbLine
 10
-21.47
 20
-34.95
 30
0.0
 11
21.47000000000001
 21
-34.95
 31
0.0
  0
LINE
  5
1EF
330
1A5
100
AcDbEntity
  8
AM_9
100
AcDbLine
 10
-21.47
 20
34.95000000000002
 30
0.0
 11
21.47000000000001
 21
34.95000000000002
 31
0.0
  0
LINE
  5
1F0
330
1A5
100
AcDbEntity
  8
AM_9
100
AcDbLine
 10
-21.47
 20
33.36
 30
0.0
 11
21.47000000000001
 21
33.36
 31
0.0
  0
LINE
  5
1F1
330
1A5
100
AcDbEntity
  8
AM_7
100
AcDbLine
 10
0.0000000000000086
 20
-20.0025
 30
0.0
 11
0.0000000000000086
 21
20.0025
 31
0.0
  0
LINE
  5
1F2
330
1A5
100
AcDbEntity
  8
AM_7
100
AcDbLine
 10
68.92999954223633
 20
0.0
 30
0.0
 11
-76.47999877929688
 21
0.0
 31
0.0
  0
LINE
  5
1F3
330
1A5
100
AcDbEntity
  8
AM_4
100
AcDbLine
 10
-24.86
 20
-83.95000000000002
 30
0.0
 11
-24.86
 21
-75.40000000000003
 31
0.0
  0
LINE
  5
1F4
330
1A5
100
AcDbEntity
  8
AM_4
100
AcDbLine
 10
-13.5
 20
-75.40000000000003
 30
0.0
 11
-13.49999999999999
 21
-84.95
 31
0.0
  0
LINE
  5
1F5
330
1A5
100
AcDbEntity
  8
AM_4
100
AcDbLine
 10
-23.86
 20
-84.95
 30
0.0
 11
-24.86
 21
-83.95000000000002
 31
0.0
  0
LINE
  5
1F6
330
1A5
100
AcDbEntity
  8
AM_4
100
AcDbLine
 10
-23.86
 20
-84.95
 30
0.0
 11
-13.49999999999999
 21
-84.95
 31
0.0
  0
LINE
  5
1F7
330
1A5
100
AcDbEntity
  8
AM_4
100
AcDbLine
 10
13.50000000000002
 20
-84.95
 30
0.0
 11
13.5
 21
-75.4
 31
0.0
  0
LINE
  5
1F8
330
1A5
100
AcDbEntity
  8
AM_4
100
AcDbLine
 10
24.86000000000001
 20
-75.4
 30
0.0
 11
24.86
 21
-83.95000000000002
 31
0.0
  0
LINE
  5
1F9
330
1A5
100
AcDbEntity
  8
AM_4
100
AcDbLine
 10
13.50000000000002
 20
-84.95
 30
0.0
 11
23.86000000000002
 21
-84.95
 31
0.0
  0
LINE
  5
1FA
330
1A5
100
AcDbEntity
  8
AM_4
100
AcDbLine
 10
24.86
 20
-83.95000000000002
 30
0.0
 11
23.86000000000001
 21
-84.94999999999999
 31
0.0
  0
LINE
  5
1FB
330
1A5
100
AcDbEntity
  8
AM_4
100
AcDbLine
 10
21.47
 20
-72.4
 30
0.0
 11
24.86000000000001
 21
-75.4
 31
0.0
  0
LINE
  5
1FC
330
1A5
100
AcDbEntity
  8
AM_4
100
AcDbLine
 10
-24.86
 20
-75.40000000000003
 30
0.0
 11
-21.47
 21
-72.39999999999998
 31
0.0
  0
LINE
  5
1FD
330
1A5
100
AcDbEntity
  8
AM_4
100
AcDbLine
 10
-24.86
 20
-82.83000000000001
 30
0.0
 11
-13.49999999999999
 21
-82.83000000000001
 31
0.0
  0
LINE
  5
1FE
330
1A5
100
AcDbEntity
  8
AM_4
100
AcDbLine
 10
13.5
 20
-75.4
 30
0.0
 11
-13.5
 21
-75.40000000000003
 31
0.0
  0
LINE
  5
1FF
330
1A5
100
AcDbEntity
  8
AM_4
100
AcDbLine
 10
13.50000000000002
 20
-82.83000000000001
 30
0.0
 11
24.86
 21
-82.83000000000001
 31
0.0
  0
LINE
  5
200
330
1A5
100
AcDbEntity
  8
AM_4
100
AcDbLine
 10
24.86000000000001
 20
83.95000000000002
 30
0.0
 11
24.86000000000001
 21
75.4
 31
0.0
  0
LINE
  5
201
330
1A5
100
AcDbEntity
  8
AM_4
100
AcDbLine
 10
13.5
 20
75.4
 30
0.0
 11
13.50000000000002
 21
84.95
 31
0.0
  0
LINE
  5
202
330
1A5
100
AcDbEntity
  8
AM_4
100
AcDbLine
 10
23.86
 20
84.95
 30
0.0
 11
24.86
 21
83.95000000000002
 31
0.0
  0
LINE
  5
203
330
1A5
100
AcDbEntity
  8
AM_4
100
AcDbLine
 10
13.50000000000002
 20
84.95
 30
0.0
 11
23.86
 21
84.95
 31
0.0
  0
LINE
  5
204
330
1A5
100
AcDbEntity
  8
AM_4
100
AcDbLine
 10
-24.86
 20
75.4
 30
0.0
 11
-24.86
 21
83.95000000000002
 31
0.0
  0
LINE
  5
205
330
1A5
100
AcDbEntity
  8
AM_4
100
AcDbLine
 10
-13.49999999999999
 20
84.95
 30
0.0
 11
-13.5
 21
75.4
 31
0.0
  0
LINE
  5
206
330
1A5
100
AcDbEntity
  8
AM_4
100
AcDbLine
 10
-23.86
 20
84.95
 30
0.0
 11
-13.49999999999999
 21
84.95
 31
0.0
  0
LINE
  5
207
330
1A5
100
AcDbEntity
  8
AM_4
100
AcDbLine
 10
-24.86
 20
83.95000000000002
 30
0.0
 11
-23.86
 21
84.95
 31
0.0
  0
LINE
  5
208
330
1A5
100
AcDbEntity
  8
AM_4
100
AcDbLine
 10
-13.5
 20
75.4
 30
0.0
 11
13.5
 21
75.4
 31
0.0
  0
LINE
  5
209
330
1A5
100
AcDbEntity
  8
AM_4
100
AcDbLine
 10
24.86000000000001
 20
75.4
 30
0.0
 11
21.47
 21
72.4
 31
0.0
  0
LINE
  5
20A
330
1A5
100
AcDbEntity
  8
AM_4
100
AcDbLine
 10
-21.47
 20
72.4
 30
0.0
 11
-24.86
 21
75.4
 31
0.0
  0
LINE
  5
20B
330
1A5
100
AcDbEntity
  8
AM_4
100
AcDbLine
 10
13.50000000000002
 20
82.83
 30
0.0
 11
24.86
 21
82.83
 31
0.0
  0
LINE
  5
20C
330
1A5
100
AcDbEntity
  8
AM_4
100
AcDbLine
 10
-24.86
 20
82.83
 30
0.0
 11
-13.49999999999999
 21
82.83
 31
0.0
  0
LINE
  5
20D
330
1A5
100
AcDbEntity
  8
AM_4
100
AcDbLine
 10
-21.47
 20
-58.73
 30
0.0
 11
21.46999999999999
 21
-58.73
 31
0.0
  0
LINE
  5
20E
330
1A5
100
AcDbEntity
  8
AM_4
100
AcDbLine
 10
-21.47
 20
58.73000004738569
 30
0.0
 11
21.46999999999999
 21
58.73000004738569
 31
0.0
  0
LINE
  5
20F
330
1A5
100
AcDbEntity
  8
AM_4
100
AcDbLine
 10
-21.47
 20
-55.55
 30
0.0
 11
21.47
 21
-55.55
 31
0.0
  0
LINE
  5
210
330
1A5
100
AcDbEntity
  8
AM_4
100
AcDbLine
 10
-21.47
 20
55.55000000000001
 30
0.0
 11
21.47
 21
55.55000000000001
 31
0.0
  0
ARC
  5
211
330
1A5
100
AcDbEntity
  8
AM_4
100
AcDbCircle
 10
0.0000000000000249
 20
0.0000000000000071
 30
0.0
 40
34.95000000000002
100
AcDbArc
 50
127.9015213176963
 51
232.0984786823037
  0
ARC
  5
212
330
1A5
100
AcDbEntity
  8
AM_4
100
AcDbCircle
 10
0.0
 20
-0.0000000000000018
 30
0.0
 40
34.95000000000002
100
AcDbArc
 50
307.9015213176962
 51
52.09847868230377
  0
LINE
  5
213
330
1A5
100
AcDbEntity
  8
AM_4
100
AcDbLine
 10
-21.46999999999999
 20
27.57791870319442
 30
0.0
 11
-21.47
 21
72.4
 31
0.0
  0
LINE
  5
214
330
1A5
100
AcDbEntity
  8
AM_4
100
AcDbLine
 10
-21.47
 20
-72.39999999999998
 30
0.0
 11
-21.46999999999999
 21
-27.57791870319441
 31
0.0
  0
CIRCLE
  5
215
330
1A5
100
AcDbEntity
  8
AM_4
100
AcDbCircle
 10
0.0000000000000086
 20
0.0
 30
0.0
 40
19.05
  0
LINE
  5
216
330
1A5
100
AcDbEntity
  8
AM_4
100
AcDbLine
 10
-21.47
 20
-52.36999999999995
 30
0.0
 11
21.47
 21
-52.36999999999995
 31
0.0
  0
LINE
  5
217
330
1A5
100
AcDbEntity
  8
AM_4
100
AcDbLine
 10
21.47000000000001
 20
-27.57791870319443
 30
0.0
 11
21.47
 21
-72.4
 31
0.0
  0
LINE
  5
218
330
1A5
100
AcDbEntity
  8
AM_4
100
AcDbLine
 10
21.47
 20
72.4
 30
0.0
 11
21.47000000000001
 21
27.57791870319443
 31
0.0
  0
LINE
  5
219
330
1A5
100
AcDbEntity
  8
AM_4
100
AcDbLine
 10
-21.47
 20
52.37000000000001
 30
0.0
 11
21.47
 21
52.37000000000001
 31
0.0
  0
ENDBLK
  5
1A8
330
1A5
100
AcDbEntity
  8
0
100
AcDbBlockEnd
  0
ENDSEC
  0
SECTION
  2
ENTITIES
  0
INSERT
  5
6F
330
1F
100
AcDbEntity
  8
0
100
AcDbBlockReference
  2
1_136311_2
 10
0.0
 20
0.0
 30
0.0
  0
POINT
  5
21B
330
1F
100
AcDbEntity
  8
ConnectionPoints
100
AcDbPoint
 10
0.0
 20
0.0
 30
0.0
  0
POINT
  5
21C
330
1F
100
AcDbEntity
  8
ConnectionPoints
100
AcDbPoint
 10
0.0
 20
0.0
 30
0.0
  0
POINT
  5
21D
330
1F
100
AcDbEntity
  8
ConnectionPoints
100
AcDbPoint
 10
22.6
 20
0.0
 30
-0.0000000000000014
  0
POINT
  5
21E
330
1F
100
AcDbEntity
  8
ConnectionPoints
100
AcDbPoint
 10
0.0
 20
0.0
 30
0.0
  0
POINT
  5
21F
330
1F
100
AcDbEntity
  8
ConnectionPoints
100
AcDbPoint
 10
0.0
 20
0.0
 30
0.0
  0
POINT
  5
220
330
1F
100
AcDbEntity
  8
ConnectionPoints
100
AcDbPoint
 10
-0.000000000000005
 20
-47.05
 30
-81.4929904961157
  0
POINT
  5
221
330
1F
100
AcDbEntity
  8
ConnectionPoints
100
AcDbPoint
 10
-22.6
 20
0.0
 30
0.0000000000000014
  0
ENDSEC
  0
SECTION
  2
OBJECTS
  0
DICTIONARY
  5
C
330
0
100
AcDbDictionary
281
     1
  3
ACAD_DETAILVIEWSTYLE
350
229
  3
ACAD_GROUP
350
D
  3
ACAD_LAYOUT
350
1A
  3
ACAD_MATERIAL
350
43
  3
ACAD_MLEADERSTYLE
350
6B
  3
ACAD_MLINESTYLE
350
17
  3
ACAD_PLOTSETTINGS
350
19
  3
ACAD_PLOTSTYLENAME
350
E
  3
ACAD_SCALELIST
350
47
  3
ACAD_SECTIONVIEWSTYLE
350
22A
  3
ACAD_TABLESTYLE
350
69
  3
ACAD_VISUALSTYLE
350
2A
  3
ACDB_RECOMPOSE_DATA
350
226
  3
AcDbVariableDictionary
350
222
  0
SUN
  5
6D
330
29
100
AcDbSun
 90
        1
290
     0
 63
     7
421
 16777215
 40
1.0
291
     1
 91
  2455826
 92
 54000000
292
     0
 70
     2
 71
   256
280
     1
  0
DICTIONARY
  5
229
102
{ACAD_REACTORS
330
C
102
}
330
C
100
AcDbDictionary
281
     1
  0
DICTIONARY
  5
D
102
{ACAD_REACTORS
330
C
102
}
330
C
100
AcDbDictionary
281
     1
  0
DICTIONARY
  5
1A
102
{ACAD_REACTORS
330
C
102
}
330
C
100
AcDbDictionary
281
     1
  3
Layout1
350
1E
  3
Layout2
350
26
  3
Model
350
22
  0
DICTIONARY
  5
43
102
{ACAD_REACTORS
330
C
102
}
330
C
100
AcDbDictionary
281
     1
  3
ByBlock
350
45
  3
ByLayer
350
44
  3
Global
350
46
  0
DICTIONARY
  5
6B
102
{ACAD_REACTORS
330
C
102
}
330
C
100
AcDbDictionary
281
     1
  3
Standard
350
6C
  0
DICTIONARY
  5
17
102
{ACAD_REACTORS
330
C
102
}
330
C
100
AcDbDictionary
281
     1
  3
Standard
350
18
  0
DICTIONARY
  5
19
102
{ACAD_REACTORS
330
C
102
}
330
C
100
AcDbDictionary
281
     1
  0
ACDBDICTIONARYWDFLT
  5
E
102
{ACAD_REACTORS
330
C
102
}
330
C
100
AcDbDictionary
281
     1
  3
Normal
350
F
100
AcDbDictionaryWithDefault
340
F
  0
DICTIONARY
  5
47
102
{ACAD_REACTORS
330
C
102
}
330
C
100
AcDbDictionary
281
     1
  3
A0
350
48
  3
A1
350
49
  3
A2
350
4A
  3
A3
350
4B
  3
A4
350
4C
  3
A5
350
4D
  3
A6
350
4E
  3
A7
350
4F
  3
A8
350
50
  3
A9
350
51
  3
B0
350
52
  3
B1
350
53
  3
B2
350
54
  3
B3
350
55
  3
B4
350
56
  3
B5
350
57
  3
B6
350
58
  3
B7
350
59
  3
B8
350
5A
  3
B9
350
5B
  3
C0
350
5C
  3
C1
350
5D
  3
C2
350
5E
  3
C3
350
5F
  3
C4
350
60
  3
C5
350
61
  3
C6
350
62
  3
C7
350
63
  3
C8
350
64
  3
C9
350
65
  3
D0
350
66
  3
D1
350
67
  3
D2
350
68
  0
DICTIONARY
  5
22A
102
{ACAD_REACTORS
330
C
102
}
330
C
100
AcDbDictionary
281
     1
  0
DICTIONARY
  5
69
102
{ACAD_REACTORS
330
C
102
}
330
C
100
AcDbDictionary
281
     1
  3
Standard
350
6A
  0
DICTIONARY
  5
2A
102
{ACAD_REACTORS
330
C
102
}
330
C
100
AcDbDictionary
281
     1
  3
2dWireframe
350
2F
  3
Basic
350
32
  3
Brighten
350
36
  3
ColorChange
350
3A
  3
Conceptual
350
34
  3
Dim
350
35
  3
EdgeColorOff
350
3D
  3
Facepattern
350
39
  3
Flat
350
2B
  3
FlatWithEdges
350
2C
  3
Gouraud
350
2D
  3
GouraudWithEdges
350
2E
  3
Hidden
350
31
  3
JitterOff
350
3B
  3
Linepattern
350
38
  3
OverhangOff
350
3C
  3
Realistic
350
33
  3
Shaded
350
42
  3
Shaded with edges
350
41
  3
Shades of Gray
350
3E
  3
Sketchy
350
3F
  3
Thicken
350
37
  3
Wireframe
350
30
  3
X-Ray
350
40
  0
XRECORD
  5
226
102
{ACAD_REACTORS
330
C
102
}
330
C
100
AcDbXrecord
280
     1
 90
        1
330
6A
  0
DICTIONARY
  5
222
102
{ACAD_REACTORS
330
C
102
}
330
C
100
AcDbDictionary
281
     1
  3
CANNOSCALE
350
223
  3
CMLEADERSTYLE
350
228
  3
CTABLESTYLE
350
227
  0
LAYOUT
  5
1E
102
{ACAD_REACTORS
330
1A
102
}
330
1A
100
AcDbPlotSettings
  1

  2
none_device
  4

  6

 40
0.0
 41
0.0
 42
0.0
 43
0.0
 44
0.0
 45
0.0
 46
0.0
 47
0.0
 48
0.0
 49
0.0
140
0.0
141
0.0
142
1.0
143
1.0
 70
   688
 72
     1
 73
     0
 74
     5
  7

 75
    16
 76
     0
 77
     2
 78
   300
147
1.0
148
0.0
149
0.0
100
AcDbLayout
  1
Layout1
 70
     1
 71
     1
 10
0.0
 20
0.0
 11
420.0
 21
297.0
 12
0.0
 22
0.0
 32
0.0
 14
1.000000000000000E+20
 24
1.000000000000000E+20
 34
1.000000000000000E+20
 15
-1.000000000000000E+20
 25
-1.000000000000000E+20
 35
-1.000000000000000E+20
146
0.0
 13
0.0
 23
0.0
 33
0.0
 16
1.0
 26
0.0
 36
0.0
 17
0.0
 27
1.0
 37
0.0
 76
     0
330
1B
  0
LAYOUT
  5
26
102
{ACAD_REACTORS
330
1A
102
}
330
1A
100
AcDbPlotSettings
  1

  2
none_device
  4

  6

 40
0.0
 41
0.0
 42
0.0
 43
0.0
 44
0.0
 45
0.0
 46
0.0
 47
0.0
 48
0.0
 49
0.0
140
0.0
141
0.0
142
1.0
143
1.0
 70
   688
 72
     1
 73
     0
 74
     5
  7

 75
    16
 76
     0
 77
     2
 78
   300
147
1.0
148
0.0
149
0.0
100
AcDbLayout
  1
Layout2
 70
     1
 71
     2
 10
0.0
 20
0.0
 11
0.0
 21
0.0
 12
0.0
 22
0.0
 32
0.0
 14
0.0
 24
0.0
 34
0.0
 15
0.0
 25
0.0
 35
0.0
146
0.0
 13
0.0
 23
0.0
 33
0.0
 16
1.0
 26
0.0
 36
0.0
 17
0.0
 27
1.0
 37
0.0
 76
     0
330
23
  0
LAYOUT
  5
22
102
{ACAD_REACTORS
330
1A
102
}
330
1A
100
AcDbPlotSettings
  1

  2
none_device
  4
Letter_(8.50_x_11.00_Inches)
  6

 40
6.35
 41
6.35
 42
6.35000508
 43
6.35000508
 44
215.9
 45
279.4
 46
0.0
 47
0.0
 48
0.0
 49
0.0
140
0.0
141
0.0
142
1.0
143
1.0
 70
  1712
 72
     1
 73
     0
 74
     0
  7

 75
     0
 76
     0
 77
     2
 78
   300
147
1.0
148
0.0
149
0.0
100
AcDbLayout
  1
Model
 70
     1
 71
     0
 10
0.0
 20
0.0
 11
420.0
 21
297.0
 12
0.0
 22
0.0
 32
0.0
 14
1.000000000000000E+20
 24
1.000000000000000E+20
 34
1.000000000000000E+20
 15
-1.000000000000000E+20
 25
-1.000000000000000E+20
 35
-1.000000000000000E+20
146
0.0
 13
0.0
 23
0.0
 33
0.0
 16
1.0
 26
0.0
 36
0.0
 17
0.0
 27
1.0
 37
0.0
 76
     0
330
1F
331
29
  0
MATERIAL
  5
45
102
{ACAD_REACTORS
330
43
102
}
330
43
100
AcDbMaterial
  1
ByBlock
 72
     1
 94
      127
  0
MATERIAL
  5
44
102
{ACAD_REACTORS
330
43
102
}
330
43
100
AcDbMaterial
  1
ByLayer
 72
     1
 94
      127
  0
MATERIAL
  5
46
102
{ACAD_REACTORS
330
43
102
}
330
43
100
AcDbMaterial
  1
Global
 72
     1
 94
      127
  0
MLEADERSTYLE
  5
6C
102
{ACAD_REACTORS
330
6B
102
}
330
6B
100
AcDbMLeaderStyle
179
     2
170
     2
171
     1
172
     0
 90
        2
 40
0.0
 41
0.0
173
     1
 91
-1056964608
340
14
 92
       -2
290
     1
 42
2.0
291
     1
 43
8.0
  3
Standard
341
0
 44
4.0
300

342
11
174
     1
178
     6
175
     1
176
     0
 93
-1056964608
 45
4.0
292
     0
297
     0
 46
4.0
343
0
 94
-1056964608
 47
1.0
 49
1.0
140
1.0
293
     1
141
0.0
294
     1
177
     0
142
1.0
295
     0
296
     0
143
3.75
271
     0
272
     9
273
     9
298
     0
  0
MLINESTYLE
  5
18
102
{ACAD_REACTORS
330
17
102
}
330
17
100
AcDbMlineStyle
  2
Standard
 70
     0
  3

 62
   256
 51
90.0
 52
90.0
 71
     2
 49
0.5
 62
   256
  6
BYLAYER
 49
-0.5
 62
   256
  6
BYLAYER
  0
ACDBPLACEHOLDER
  5
F
102
{ACAD_REACTORS
330
E
102
}
330
E
  0
SCALE
  5
48
102
{ACAD_REACTORS
330
47
102
}
330
47
100
AcDbScale
 70
     0
300
1:1
140
1.0
141
1.0
290
     1
  0
SCALE
  5
49
102
{ACAD_REACTORS
330
47
102
}
330
47
100
AcDbScale
 70
     0
300
1:2
140
1.0
141
2.0
290
     0
  0
SCALE
  5
4A
102
{ACAD_REACTORS
330
47
102
}
330
47
100
AcDbScale
 70
     0
300
1:4
140
1.0
141
4.0
290
     0
  0
SCALE
  5
4B
102
{ACAD_REACTORS
330
47
102
}
330
47
100
AcDbScale
 70
     0
300
1:5
140
1.0
141
5.0
290
     0
  0
SCALE
  5
4C
102
{ACAD_REACTORS
330
47
102
}
330
47
100
AcDbScale
 70
     0
300
1:8
140
1.0
141
8.0
290
     0
  0
SCALE
  5
4D
102
{ACAD_REACTORS
330
47
102
}
330
47
100
AcDbScale
 70
     0
300
1:10
140
1.0
141
10.0
290
     0
  0
SCALE
  5
4E
102
{ACAD_REACTORS
330
47
102
}
330
47
100
AcDbScale
 70
     0
300
1:16
140
1.0
141
16.0
290
     0
  0
SCALE
  5
4F
102
{ACAD_REACTORS
330
47
102
}
330
47
100
AcDbScale
 70
     0
300
1:20
140
1.0
141
20.0
290
     0
  0
SCALE
  5
50
102
{ACAD_REACTORS
330
47
102
}
330
47
100
AcDbScale
 70
     0
300
1:30
140
1.0
141
30.0
290
     0
  0
SCALE
  5
51
102
{ACAD_REACTORS
330
47
102
}
330
47
100
AcDbScale
 70
     0
300
1:40
140
1.0
141
40.0
290
     0
  0
SCALE
  5
52
102
{ACAD_REACTORS
330
47
102
}
330
47
100
AcDbScale
 70
     0
300
1:50
140
1.0
141
50.0
290
     0
  0
SCALE
  5
53
102
{ACAD_REACTORS
330
47
102
}
330
47
100
AcDbScale
 70
     0
300
1:100
140
1.0
141
100.0
290
     0
  0
SCALE
  5
54
102
{ACAD_REACTORS
330
47
102
}
330
47
100
AcDbScale
 70
     0
300
2:1
140
2.0
141
1.0
290
     0
  0
SCALE
  5
55
102
{ACAD_REACTORS
330
47
102
}
330
47
100
AcDbScale
 70
     0
300
4:1
140
4.0
141
1.0
290
     0
  0
SCALE
  5
56
102
{ACAD_REACTORS
330
47
102
}
330
47
100
AcDbScale
 70
     0
300
8:1
140
8.0
141
1.0
290
     0
  0
SCALE
  5
57
102
{ACAD_REACTORS
330
47
102
}
330
47
100
AcDbScale
 70
     0
300
10:1
140
10.0
141
1.0
290
     0
  0
SCALE
  5
58
102
{ACAD_REACTORS
330
47
102
}
330
47
100
AcDbScale
 70
     0
300
100:1
140
100.0
141
1.0
290
     0
  0
SCALE
  5
59
102
{ACAD_REACTORS
330
47
102
}
330
47
100
AcDbScale
 70
     0
300
1/128" = 1'-0"
140
0.0078125
141
12.0
290
     0
  0
SCALE
  5
5A
102
{ACAD_REACTORS
330
47
102
}
330
47
100
AcDbScale
 70
     0
300
1/64" = 1'-0"
140
0.015625
141
12.0
290
     0
  0
SCALE
  5
5B
102
{ACAD_REACTORS
330
47
102
}
330
47
100
AcDbScale
 70
     0
300
1/32" = 1'-0"
140
0.03125
141
12.0
290
     0
  0
SCALE
  5
5C
102
{ACAD_REACTORS
330
47
102
}
330
47
100
AcDbScale
 70
     0
300
1/16" = 1'-0"
140
0.0625
141
12.0
290
     0
  0
SCALE
  5
5D
102
{ACAD_REACTORS
330
47
102
}
330
47
100
AcDbScale
 70
     0
300
3/32" = 1'-0"
140
0.09375
141
12.0
290
     0
  0
SCALE
  5
5E
102
{ACAD_REACTORS
330
47
102
}
330
47
100
AcDbScale
 70
     0
300
1/8" = 1'-0"
140
0.125
141
12.0
290
     0
  0
SCALE
  5
5F
102
{ACAD_REACTORS
330
47
102
}
330
47
100
AcDbScale
 70
     0
300
3/16" = 1'-0"
140
0.1875
141
12.0
290
     0
  0
SCALE
  5
60
102
{ACAD_REACTORS
330
47
102
}
330
47
100
AcDbScale
 70
     0
300
1/4" = 1'-0"
140
0.25
141
12.0
290
     0
  0
SCALE
  5
61
102
{ACAD_REACTORS
330
47
102
}
330
47
100
AcDbScale
 70
     0
300
3/8" = 1'-0"
140
0.375
141
12.0
290
     0
  0
SCALE
  5
62
102
{ACAD_REACTORS
330
47
102
}
330
47
100
AcDbScale
 70
     0
300
1/2" = 1'-0"
140
0.5
141
12.0
290
     0
  0
SCALE
  5
63
102
{ACAD_REACTORS
330
47
102
}
330
47
100
AcDbScale
 70
     0
300
3/4" = 1'-0"
140
0.75
141
12.0
290
     0
  0
SCALE
  5
64
102
{ACAD_REACTORS
330
47
102
}
330
47
100
AcDbScale
 70
     0
300
1" = 1'-0"
140
1.0
141
12.0
290
     0
  0
SCALE
  5
65
102
{ACAD_REACTORS
330
47
102
}
330
47
100
AcDbScale
 70
     0
300
1-1/2" = 1'-0"
140
1.5
141
12.0
290
     0
  0
SCALE
  5
66
102
{ACAD_REACTORS
330
47
102
}
330
47
100
AcDbScale
 70
     0
300
3" = 1'-0"
140
3.0
141
12.0
290
     0
  0
SCALE
  5
67
102
{ACAD_REACTORS
330
47
102
}
330
47
100
AcDbScale
 70
     0
300
6" = 1'-0"
140
6.0
141
12.0
290
     0
  0
SCALE
  5
68
102
{ACAD_REACTORS
330
47
102
}
330
47
100
AcDbScale
 70
     0
300
1'-0" = 1'-0"
140
12.0
141
12.0
290
     0
  0
TABLESTYLE
  5
6A
102
{ACAD_REACTORS
330
69
102
}
102
{ACAD_XDICTIONARY
360
224
102
}
330
69
100
AcDbTableStyle
  3
Standard
 70
     0
 71
     0
 40
0.06
 41
0.06
280
     0
281
     0
  7
Standard
140
4.5
170
     2
 62
     0
 63
   257
283
     0
 90
        4
 91
        0
  1

274
    -2
284
     1
 64
     0
275
    -2
285
     1
 65
     0
276
    -2
286
     1
 66
     0
277
    -2
287
     1
 67
     0
278
    -2
288
     1
 68
     0
279
    -2
289
     1
 69
     0
  7
Standard
140
6.0
170
     5
 62
     0
 63
   257
283
     0
 90
        4
 91
        0
  1

274
    -2
284
     1
 64
     0
275
    -2
285
     1
 65
     0
276
    -2
286
     1
 66
     0
277
    -2
287
     1
 67
     0
278
    -2
288
     1
 68
     0
279
    -2
289
     1
 69
     0
  7
Standard
140
4.5
170
     5
 62
     0
 63
   257
283
     0
 90
        4
 91
        0
  1

274
    -2
284
     1
 64
     0
275
    -2
285
     1
 65
     0
276
    -2
286
     1
 66
     0
277
    -2
287
     1
 67
     0
278
    -2
288
     1
 68
     0
279
    -2
289
     1
 69
     0
  0
VISUALSTYLE
  5
2F
102
{ACAD_REACTORS
330
2A
102
}
330
2A
100
AcDbVisualStyle
  2
2dWireframe
 70
     4
177
     3
291
     0
 70
    58
 90
        0
176
     1
 90
        2
176
     1
 90
        0
176
     1
 90
        0
176
     1
 40
0.6
176
     1
 40
30.0
176
     1
 62
     7
420
 16777215
176
     1
 90
        1
176
     1
 90
        4
176
     1
 62
     7
176
     1
 62
   257
176
     1
 90
        1
176
     1
 90
        1
176
     1
 40
1.0
176
     1
 90
        0
176
     1
 62
   257
176
     1
 40
1.0
176
     1
 90
        1
176
     1
 90
        6
176
     1
 90
        2
176
     1
 62
     7
176
     1
 90
        5
176
     1
 90
        0
176
     1
 90
        0
176
     1
290
     0
176
     1
 90
        1
176
     1
 40
0.0
176
     1
 90
        0
176
     1
290
     1
176
     1
290
     1
176
     1
290
     0
176
     1
290
     0
176
     1
290
     0
176
     1
290
     0
176
     1
290
     0
176
     1
290
     0
176
     1
290
     0
176
     1
 90
       50
176
     1
 40
0.0
176
     1
 40
1.0
176
     1
 90
        0
176
     1
 62
    18
420
        0
176
     1
 90
       50
176
     1
 90
        3
176
     1
 62
     5
420
      255
176
     1
290
     0
176
     1
 90
       50
176
     1
 90
       50
176
     1
 90
       50
176
     1
290
     0
176
     1
 90
       50
176
     1
 62
   256
176
     0
 40
1.0
176
     0
 90
        2
176
     1
  1
strokes_ogs.tif
176
     1
290
     0
176
     1
 40
1.0
176
     1
 40
1.0
176
     1
  0
VISUALSTYLE
  5
32
102
{ACAD_REACTORS
330
2A
102
}
330
2A
100
AcDbVisualStyle
  2
Basic
 70
     7
177
     3
291
     1
 70
    58
 90
        1
176
     1
 90
        0
176
     1
 90
        1
176
     1
 90
        0
176
     1
 40
0.6
176
     1
 40
30.0
176
     1
 62
     7
420
 16777215
176
     1
 90
        0
176
     1
 90
        4
176
     1
 62
     7
176
     1
 62
   257
176
     1
 90
        1
176
     1
 90
        1
176
     1
 40
1.0
176
     1
 90
        8
176
     1
 62
     7
176
     1
 40
1.0
176
     1
 90
        1
176
     1
 90
        6
176
     1
 90
        2
176
     1
 62
     7
176
     1
 90
        5
176
     1
 90
        0
176
     1
 90
        0
176
     1
290
     0
176
     1
 90
        1
176
     1
 40
0.0
176
     1
 90
        0
176
     1
290
     0
176
     1
290
     1
176
     1
290
     1
176
     1
290
     0
176
     1
290
     0
176
     1
290
     0
176
     1
290
     0
176
     1
290
     0
176
     1
290
     0
176
     1
 90
       50
176
     1
 40
0.0
176
     1
 40
1.0
176
     1
 90
        0
176
     1
 62
    18
420
        0
176
     1
 90
       50
176
     1
 90
        3
176
     1
 62
     5
420
      255
176
     1
290
     0
176
     1
 90
       50
176
     1
 90
       50
176
     1
 90
       50
176
     1
290
     0
176
     1
 90
       50
176
     1
 62
   256
176
     0
 40
1.0
176
     0
 90
        2
176
     1
  1
strokes_ogs.tif
176
     1
290
     0
176
     1
 40
1.0
176
     1
 40
1.0
176
     1
  0
VISUALSTYLE
  5
36
102
{ACAD_REACTORS
330
2A
102
}
330
2A
100
AcDbVisualStyle
  2
Brighten
 70
    12
177
     3
291
     1
 70
    58
 90
        2
176
     1
 90
        2
176
     1
 90
        0
176
     1
 90
        0
176
     1
 40
0.6
176
     1
 40
30.0
176
     1
 62
     7
420
 16777215
176
     1
 90
        1
176
     1
 90
        4
176
     1
 62
     7
176
     1
 62
   257
176
     1
 90
        1
176
     1
 90
        1
176
     1
 40
1.0
176
     1
 90
        8
176
     1
 62
     7
176
     1
 40
1.0
176
     1
 90
        1
176
     1
 90
        6
176
     1
 90
        2
176
     1
 62
     7
176
     1
 90
        5
176
     1
 90
        0
176
     1
 90
        0
176
     1
290
     0
176
     1
 90
        1
176
     1
 40
50.0
176
     1
 90
        0
176
     1
290
     0
176
     1
290
     1
176
     1
290
     1
176
     1
290
     0
176
     1
290
     0
176
     1
290
     0
176
     1
290
     0
176
     1
290
     0
176
     1
290
     0
176
     1
 90
       50
176
     1
 40
0.0
176
     1
 40
1.0
176
     1
 90
        0
176
     1
 62
    18
420
        0
176
     1
 90
       50
176
     1
 90
        3
176
     1
 62
     5
420
      255
176
     1
290
     0
176
     1
 90
       50
176
     1
 90
       50
176
     1
 90
       50
176
     1
290
     0
176
     1
 90
       50
176
     1
 62
   256
176
     0
 40
1.0
176
     0
 90
        2
176
     1
  1
strokes_ogs.tif
176
     1
290
     0
176
     1
 40
1.0
176
     1
 40
1.0
176
     1
  0
VISUALSTYLE
  5
3A
102
{ACAD_REACTORS
330
2A
102
}
330
2A
100
AcDbVisualStyle
  2
ColorChange
 70
    16
177
     3
291
     1
 70
    58
 90
        2
176
     1
 90
        2
176
     1
 90
        3
176
     1
 90
        0
176
     1
 40
0.6
176
     1
 40
30.0
176
     1
 62
     8
420
  8421504
176
     1
 90
        1
176
     1
 90
        4
176
     1
 62
     7
176
     1
 62
   257
176
     1
 90
        1
176
     1
 90
        1
176
     1
 40
1.0
176
     1
 90
        8
176
     1
 62
     8
420
  8421504
176
     1
 40
1.0
176
     1
 90
        1
176
     1
 90
        6
176
     1
 90
        2
176
     1
 62
     7
176
     1
 90
        5
176
     1
 90
        0
176
     1
 90
        0
176
     1
290
     0
176
     1
 90
        1
176
     1
 40
0.0
176
     1
 90
        0
176
     1
290
     0
176
     1
290
     1
176
     1
290
     1
176
     1
290
     0
176
     1
290
     0
176
     1
290
     0
176
     1
290
     0
176
     1
290
     0
176
     1
290
     0
176
     1
 90
       50
176
     1
 40
0.0
176
     1
 40
1.0
176
     1
 90
        0
176
     1
 62
    18
420
        0
176
     1
 90
       50
176
     1
 90
        3
176
     1
 62
     5
420
      255
176
     1
290
     0
176
     1
 90
       50
176
     1
 90
       50
176
     1
 90
       50
176
     1
290
     0
176
     1
 90
       50
176
     1
 62
   256
176
     0
 40
1.0
176
     0
 90
        2
176
     1
  1
strokes_ogs.tif
176
     1
290
     0
176
     1
 40
1.0
176
     1
 40
1.0
176
     1
  0
VISUALSTYLE
  5
34
102
{ACAD_REACTORS
330
2A
102
}
330
2A
100
AcDbVisualStyle
  2
Conceptual
 70
     9
177
     3
291
     0
 70
    58
 90
        3
176
     1
 90
        2
176
     1
 90
        0
176
     1
 90
        0
176
     1
 40
0.6
176
     1
 40
30.0
176
     1
 62
     7
420
 16777215
176
     1
 90
        2
176
     1
 90
        2
176
     1
 62
     7
176
     1
 62
   257
176
     1
 90
        1
176
     1
 90
        1
176
     1
 40
179.0
176
     1
 90
        8
176
     1
 62
     7
176
     1
 40
1.0
176
     1
 90
        1
176
     1
 90
        6
176
     1
 90
        2
176
     1
 62
     7
176
     1
 90
        3
176
     1
 90
        0
176
     1
 90
        0
176
     1
290
     0
176
     1
 90
        1
176
     1
 40
0.0
176
     1
 90
        0
176
     1
290
     0
176
     1
290
     1
176
     1
290
     1
176
     1
290
     0
176
     1
290
     0
176
     1
290
     0
176
     1
290
     0
176
     1
290
     0
176
     1
290
     0
176
     1
 90
       50
176
     1
 40
0.0
176
     1
 40
1.0
176
     1
 90
        0
176
     1
 62
    18
420
        0
176
     1
 90
       50
176
     1
 90
        3
176
     1
 62
     5
420
      255
176
     1
290
     0
176
     1
 90
       50
176
     1
 90
       50
176
     1
 90
       50
176
     1
290
     0
176
     1
 90
       50
176
     1
 62
   256
176
     0
 40
1.0
176
     0
 90
        2
176
     1
  1
strokes_ogs.tif
176
     1
290
     0
176
     1
 40
1.0
176
     1
 40
1.0
176
     1
  0
VISUALSTYLE
  5
35
102
{ACAD_REACTORS
330
2A
102
}
330
2A
100
AcDbVisualStyle
  2
Dim
 70
    11
177
     3
291
     1
 70
    58
 90
        2
176
     1
 90
        2
176
     1
 90
        0
176
     1
 90
        0
176
     1
 40
0.6
176
     1
 40
30.0
176
     1
 62
     7
420
 16777215
176
     1
 90
        1
176
     1
 90
        4
176
     1
 62
     7
176
     1
 62
   257
176
     1
 90
        1
176
     1
 90
        1
176
     1
 40
1.0
176
     1
 90
        8
176
     1
 62
     7
176
     1
 40
1.0
176
     1
 90
        1
176
     1
 90
        6
176
     1
 90
        2
176
     1
 62
     7
176
     1
 90
        5
176
     1
 90
        0
176
     1
 90
        0
176
     1
290
     0
176
     1
 90
        1
176
     1
 40
-50.0
176
     1
 90
        0
176
     1
290
     0
176
     1
290
     1
176
     1
290
     1
176
     1
290
     0
176
     1
290
     0
176
     1
290
     0
176
     1
290
     0
176
     1
290
     0
176
     1
290
     0
176
     1
 90
       50
176
     1
 40
0.0
176
     1
 40
1.0
176
     1
 90
        0
176
     1
 62
    18
420
        0
176
     1
 90
       50
176
     1
 90
        3
176
     1
 62
     5
420
      255
176
     1
290
     0
176
     1
 90
       50
176
     1
 90
       50
176
     1
 90
       50
176
     1
290
     0
176
     1
 90
       50
176
     1
 62
   256
176
     0
 40
1.0
176
     0
 90
        2
176
     1
  1
strokes_ogs.tif
176
     1
290
     0
176
     1
 40
1.0
176
     1
 40
1.0
176
     1
  0
VISUALSTYLE
  5
3D
102
{ACAD_REACTORS
330
2A
102
}
330
2A
100
AcDbVisualStyle
  2
EdgeColorOff
 70
    22
177
     3
291
     1
 70
    58
 90
        2
176
     0
 90
        2
176
     0
 90
        0
176
     0
 90
        0
176
     0
 40
0.6
176
     0
 40
30.0
176
     0
 62
     7
420
 16777215
176
     0
 90
        1
176
     0
 90
        4
176
     0
 62
     7
176
     0
 62
   257
176
     0
 90
        1
176
     0
 90
        1
176
     0
 40
1.0
176
     0
 90
        8
176
     2
 62
     7
176
     0
 40
1.0
176
     0
 90
        1
176
     0
 90
        6
176
     0
 90
        2
176
     0
 62
     7
176
     0
 90
        5
176
     0
 90
        0
176
     0
 90
        0
176
     0
290
     0
176
     0
 90
        1
176
     0
 40
0.0
176
     0
 90
        0
176
     0
290
     0
176
     0
290
     1
176
     0
290
     1
176
     0
290
     0
176
     0
290
     0
176
     0
290
     0
176
     0
290
     0
176
     0
290
     0
176
     0
290
     0
176
     0
 90
       50
176
     0
 40
0.0
176
     0
 40
1.0
176
     0
 90
        0
176
     0
 62
    18
420
        0
176
     0
 90
       50
176
     0
 90
        3
176
     0
 62
     5
420
      255
176
     0
290
     0
176
     0
 90
       50
176
     0
 90
       50
176
     0
 90
       50
176
     0
290
     0
176
     0
 90
       50
176
     0
 62
   256
176
     0
 40
1.0
176
     0
 90
        2
176
     0
  1
strokes_ogs.tif
176
     0
290
     0
176
     0
 40
1.0
176
     0
 40
1.0
176
     0
  0
VISUALSTYLE
  5
39
102
{ACAD_REACTORS
330
2A
102
}
330
2A
100
AcDbVisualStyle
  2
Facepattern
 70
    15
177
     3
291
     1
 70
    58
 90
        2
176
     1
 90
        2
176
     1
 90
        0
176
     1
 90
        0
176
     1
 40
0.6
176
     1
 40
30.0
176
     1
 62
     7
420
 16777215
176
     1
 90
        1
176
     1
 90
        4
176
     1
 62
     7
176
     1
 62
   257
176
     1
 90
        1
176
     1
 90
        1
176
     1
 40
1.0
176
     1
 90
        8
176
     1
 62
     7
176
     1
 40
1.0
176
     1
 90
        1
176
     1
 90
        6
176
     1
 90
        2
176
     1
 62
     7
176
     1
 90
        5
176
     1
 90
        0
176
     1
 90
        0
176
     1
290
     0
176
     1
 90
        1
176
     1
 40
0.0
176
     1
 90
        0
176
     1
290
     0
176
     1
290
     1
176
     1
290
     1
176
     1
290
     0
176
     1
290
     0
176
     1
290
     0
176
     1
290
     0
176
     1
290
     0
176
     1
290
     0
176
     1
 90
       50
176
     1
 40
0.0
176
     1
 40
1.0
176
     1
 90
        0
176
     1
 62
    18
420
        0
176
     1
 90
       50
176
     1
 90
        3
176
     1
 62
     5
420
      255
176
     1
290
     0
176
     1
 90
       50
176
     1
 90
       50
176
     1
 90
       50
176
     1
290
     0
176
     1
 90
       50
176
     1
 62
   256
176
     0
 40
1.0
176
     0
 90
        2
176
     1
  1
strokes_ogs.tif
176
     1
290
     0
176
     1
 40
1.0
176
     1
 40
1.0
176
     1
  0
VISUALSTYLE
  5
2B
102
{ACAD_REACTORS
330
2A
102
}
330
2A
100
AcDbVisualStyle
  2
Flat
 70
     0
177
     3
291
     1
 70
    58
 90
        2
176
     1
 90
        1
176
     1
 90
        1
176
     1
 90
        2
176
     1
 40
0.6
176
     1
 40
30.0
176
     1
 62
     7
420
 16777215
176
     1
 90
        0
176
     1
 90
        0
176
     1
 62
     7
176
     1
 62
   257
176
     1
 90
        1
176
     1
 90
        1
176
     1
 40
1.0
176
     1
 90
        8
176
     1
 62
     7
176
     1
 40
1.0
176
     1
 90
        1
176
     1
 90
        6
176
     1
 90
        2
176
     1
 62
     7
176
     1
 90
        5
176
     1
 90
        0
176
     1
 90
        0
176
     1
290
     0
176
     1
 90
       13
176
     1
 40
0.0
176
     1
 90
        0
176
     1
290
     0
176
     1
290
     1
176
     1
290
     1
176
     1
290
     0
176
     1
290
     0
176
     1
290
     0
176
     1
290
     0
176
     1
290
     0
176
     1
290
     0
176
     1
 90
       50
176
     1
 40
0.0
176
     1
 40
1.0
176
     1
 90
        0
176
     1
 62
    18
420
        0
176
     1
 90
       50
176
     1
 90
        3
176
     1
 62
     5
420
      255
176
     1
290
     0
176
     1
 90
       50
176
     1
 90
       50
176
     1
 90
       50
176
     1
290
     0
176
     1
 90
       50
176
     1
 62
   256
176
     0
 40
1.0
176
     0
 90
        2
176
     1
  1
strokes_ogs.tif
176
     1
290
     0
176
     1
 40
1.0
176
     1
 40
1.0
176
     1
  0
VISUALSTYLE
  5
2C
102
{ACAD_REACTORS
330
2A
102
}
330
2A
100
AcDbVisualStyle
  2
FlatWithEdges
 70
     1
177
     3
291
     1
 70
    58
 90
        2
176
     1
 90
        1
176
     1
 90
        1
176
     1
 90
        2
176
     1
 40
0.6
176
     1
 40
30.0
176
     1
 62
     7
420
 16777215
176
     1
 90
        1
176
     1
 90
        0
176
     1
 62
     7
176
     1
 62
   257
176
     1
 90
        1
176
     1
 90
        1
176
     1
 40
1.0
176
     1
 90
        0
176
     1
 62
   257
176
     1
 40
1.0
176
     1
 90
        1
176
     1
 90
        6
176
     1
 90
        2
176
     1
 62
     7
176
     1
 90
        5
176
     1
 90
        0
176
     1
 90
        0
176
     1
290
     0
176
     1
 90
       13
176
     1
 40
0.0
176
     1
 90
        0
176
     1
290
     0
176
     1
290
     1
176
     1
290
     1
176
     1
290
     0
176
     1
290
     0
176
     1
290
     0
176
     1
290
     0
176
     1
290
     0
176
     1
290
     0
176
     1
 90
       50
176
     1
 40
0.0
176
     1
 40
1.0
176
     1
 90
        0
176
     1
 62
    18
420
        0
176
     1
 90
       50
176
     1
 90
        3
176
     1
 62
     5
420
      255
176
     1
290
     0
176
     1
 90
       50
176
     1
 90
       50
176
     1
 90
       50
176
     1
290
     0
176
     1
 90
       50
176
     1
 62
   256
176
     0
 40
1.0
176
     0
 90
        2
176
     1
  1
strokes_ogs.tif
176
     1
290
     0
176
     1
 40
1.0
176
     1
 40
1.0
176
     1
  0
VISUALSTYLE
  5
2D
102
{ACAD_REACTORS
330
2A
102
}
330
2A
100
AcDbVisualStyle
  2
Gouraud
 70
     2
177
     3
291
     1
 70
    58
 90
        2
176
     1
 90
        2
176
     1
 90
        1
176
     1
 90
        2
176
     1
 40
0.6
176
     1
 40
30.0
176
     1
 62
     7
420
 16777215
176
     1
 90
        0
176
     1
 90
        0
176
     1
 62
     7
176
     1
 62
   257
176
     1
 90
        1
176
     1
 90
        1
176
     1
 40
1.0
176
     1
 90
        0
176
     1
 62
     7
176
     1
 40
1.0
176
     1
 90
        1
176
     1
 90
        6
176
     1
 90
        2
176
     1
 62
     7
176
     1
 90
        5
176
     1
 90
        0
176
     1
 90
        0
176
     1
290
     0
176
     1
 90
       13
176
     1
 40
0.0
176
     1
 90
        0
176
     1
290
     0
176
     1
290
     1
176
     1
290
     1
176
     1
290
     0
176
     1
290
     0
176
     1
290
     0
176
     1
290
     0
176
     1
290
     0
176
     1
290
     0
176
     1
 90
       50
176
     1
 40
0.0
176
     1
 40
1.0
176
     1
 90
        0
176
     1
 62
    18
420
        0
176
     1
 90
       50
176
     1
 90
        3
176
     1
 62
     5
420
      255
176
     1
290
     0
176
     1
 90
       50
176
     1
 90
       50
176
     1
 90
       50
176
     1
290
     0
176
     1
 90
       50
176
     1
 62
   256
176
     0
 40
1.0
176
     0
 90
        2
176
     1
  1
strokes_ogs.tif
176
     1
290
     0
176
     1
 40
1.0
176
     1
 40
1.0
176
     1
  0
VISUALSTYLE
  5
2E
102
{ACAD_REACTORS
330
2A
102
}
330
2A
100
AcDbVisualStyle
  2
GouraudWithEdges
 70
     3
177
     3
291
     1
 70
    58
 90
        2
176
     1
 90
        2
176
     1
 90
        1
176
     1
 90
        2
176
     1
 40
0.6
176
     1
 40
30.0
176
     1
 62
     7
420
 16777215
176
     1
 90
        1
176
     1
 90
        0
176
     1
 62
     7
176
     1
 62
   257
176
     1
 90
        1
176
     1
 90
        1
176
     1
 40
1.0
176
     1
 90
        0
176
     1
 62
   257
176
     1
 40
1.0
176
     1
 90
        1
176
     1
 90
        6
176
     1
 90
        2
176
     1
 62
     7
176
     1
 90
        5
176
     1
 90
        0
176
     1
 90
        0
176
     1
290
     0
176
     1
 90
       13
176
     1
 40
0.0
176
     1
 90
        0
176
     1
290
     0
176
     1
290
     1
176
     1
290
     1
176
     1
290
     0
176
     1
290
     0
176
     1
290
     0
176
     1
290
     0
176
     1
290
     0
176
     1
290
     0
176
     1
 90
       50
176
     1
 40
0.0
176
     1
 40
1.0
176
     1
 90
        0
176
     1
 62
    18
420
        0
176
     1
 90
       50
176
     1
 90
        3
176
     1
 62
     5
420
      255
176
     1
290
     0
176
     1
 90
       50
176
     1
 90
       50
176
     1
 90
       50
176
     1
290
     0
176
     1
 90
       50
176
     1
 62
   256
176
     0
 40
1.0
176
     0
 90
        2
176
     1
  1
strokes_ogs.tif
176
     1
290
     0
176
     1
 40
1.0
176
     1
 40
1.0
176
     1
  0
VISUALSTYLE
  5
31
102
{ACAD_REACTORS
330
2A
102
}
330
2A
100
AcDbVisualStyle
  2
Hidden
 70
     6
177
     3
291
     0
 70
    58
 90
        1
176
     1
 90
        2
176
     1
 90
        2
176
     1
 90
        0
176
     1
 40
0.6
176
     1
 40
30.0
176
     1
 62
     7
420
 16777215
176
     1
 90
        2
176
     1
 90
        2
176
     1
 62
     7
176
     1
 62
   257
176
     1
 90
        2
176
     1
 90
        1
176
     1
 40
40.0
176
     1
 90
        0
176
     1
 62
   257
176
     1
 40
1.0
176
     1
 90
        1
176
     1
 90
        6
176
     1
 90
        2
176
     1
 62
     7
176
     1
 90
        3
176
     1
 90
        0
176
     1
 90
        0
176
     1
290
     0
176
     1
 90
        1
176
     1
 40
0.0
176
     1
 90
        0
176
     1
290
     0
176
     1
290
     1
176
     1
290
     1
176
     1
290
     0
176
     1
290
     0
176
     1
290
     0
176
     1
290
     0
176
     1
290
     0
176
     1
290
     0
176
     1
 90
       50
176
     1
 40
0.0
176
     1
 40
1.0
176
     1
 90
        0
176
     1
 62
    18
420
        0
176
     1
 90
       50
176
     1
 90
        3
176
     1
 62
     5
420
      255
176
     1
290
     0
176
     1
 90
       50
176
     1
 90
       50
176
     1
 90
       50
176
     1
290
     0
176
     1
 90
       50
176
     1
 62
   256
176
     0
 40
1.0
176
     0
 90
        2
176
     1
  1
strokes_ogs.tif
176
     1
290
     0
176
     1
 40
1.0
176
     1
 40
1.0
176
     1
  0
VISUALSTYLE
  5
3B
102
{ACAD_REACTORS
330
2A
102
}
330
2A
100
AcDbVisualStyle
  2
JitterOff
 70
    20
177
     3
291
     1
 70
    58
 90
        2
176
     0
 90
        2
176
     0
 90
        0
176
     0
 90
        0
176
     0
 40
0.6
176
     0
 40
30.0
176
     0
 62
     7
420
 16777215
176
     0
 90
        1
176
     0
 90
        4
176
     0
 62
     7
176
     0
 62
   257
176
     0
 90
        1
176
     0
 90
        1
176
     0
 40
1.0
176
     0
 90
       10
176
     2
 62
     7
176
     0
 40
1.0
176
     0
 90
        1
176
     0
 90
        6
176
     0
 90
        2
176
     0
 62
     7
176
     0
 90
        5
176
     0
 90
        0
176
     0
 90
        0
176
     0
290
     0
176
     0
 90
        1
176
     0
 40
0.0
176
     0
 90
        0
176
     0
290
     0
176
     0
290
     1
176
     0
290
     1
176
     0
290
     0
176
     0
290
     0
176
     0
290
     0
176
     0
290
     0
176
     0
290
     0
176
     0
290
     0
176
     0
 90
       50
176
     0
 40
0.0
176
     0
 40
1.0
176
     0
 90
        0
176
     0
 62
    18
420
        0
176
     0
 90
       50
176
     0
 90
        3
176
     0
 62
     5
420
      255
176
     0
290
     0
176
     0
 90
       50
176
     0
 90
       50
176
     0
 90
       50
176
     0
290
     0
176
     0
 90
       50
176
     0
 62
   256
176
     0
 40
1.0
176
     0
 90
        2
176
     0
  1
strokes_ogs.tif
176
     0
290
     0
176
     0
 40
1.0
176
     0
 40
1.0
176
     0
  0
VISUALSTYLE
  5
38
102
{ACAD_REACTORS
330
2A
102
}
330
2A
100
AcDbVisualStyle
  2
Linepattern
 70
    14
177
     3
291
     1
 70
    58
 90
        2
176
     1
 90
        2
176
     1
 90
        0
176
     1
 90
        0
176
     1
 40
0.6
176
     1
 40
30.0
176
     1
 62
     7
420
 16777215
176
     1
 90
        1
176
     1
 90
        4
176
     1
 62
     7
176
     1
 62
   257
176
     1
 90
        7
176
     1
 90
        7
176
     1
 40
1.0
176
     1
 90
        8
176
     1
 62
     7
176
     1
 40
1.0
176
     1
 90
        1
176
     1
 90
        6
176
     1
 90
        2
176
     1
 62
     7
176
     1
 90
        5
176
     1
 90
        0
176
     1
 90
        0
176
     1
290
     0
176
     1
 90
        1
176
     1
 40
0.0
176
     1
 90
        0
176
     1
290
     0
176
     1
290
     1
176
     1
290
     1
176
     1
290
     0
176
     1
290
     0
176
     1
290
     0
176
     1
290
     0
176
     1
290
     0
176
     1
290
     0
176
     1
 90
       50
176
     1
 40
0.0
176
     1
 40
1.0
176
     1
 90
        0
176
     1
 62
    18
420
        0
176
     1
 90
       50
176
     1
 90
        3
176
     1
 62
     5
420
      255
176
     1
290
     0
176
     1
 90
       50
176
     1
 90
       50
176
     1
 90
       50
176
     1
290
     0
176
     1
 90
       50
176
     1
 62
   256
176
     0
 40
1.0
176
     0
 90
        2
176
     1
  1
strokes_ogs.tif
176
     1
290
     0
176
     1
 40
1.0
176
     1
 40
1.0
176
     1
  0
VISUALSTYLE
  5
3C
102
{ACAD_REACTORS
330
2A
102
}
330
2A
100
AcDbVisualStyle
  2
OverhangOff
 70
    21
177
     3
291
     1
 70
    58
 90
        2
176
     0
 90
        2
176
     0
 90
        0
176
     0
 90
        0
176
     0
 40
0.6
176
     0
 40
30.0
176
     0
 62
     7
420
 16777215
176
     0
 90
        1
176
     0
 90
        4
176
     0
 62
     7
176
     0
 62
   257
176
     0
 90
        1
176
     0
 90
        1
176
     0
 40
1.0
176
     0
 90
        9
176
     2
 62
     7
176
     0
 40
1.0
176
     0
 90
        1
176
     0
 90
        6
176
     0
 90
        2
176
     0
 62
     7
176
     0
 90
        5
176
     0
 90
        0
176
     0
 90
        0
176
     0
290
     0
176
     0
 90
        1
176
     0
 40
0.0
176
     0
 90
        0
176
     0
290
     0
176
     0
290
     1
176
     0
290
     1
176
     0
290
     0
176
     0
290
     0
176
     0
290
     0
176
     0
290
     0
176
     0
290
     0
176
     0
290
     0
176
     0
 90
       50
176
     0
 40
0.0
176
     0
 40
1.0
176
     0
 90
        0
176
     0
 62
    18
420
        0
176
     0
 90
       50
176
     0
 90
        3
176
     0
 62
     5
420
      255
176
     0
290
     0
176
     0
 90
       50
176
     0
 90
       50
176
     0
 90
       50
176
     0
290
     0
176
     0
 90
       50
176
     0
 62
   256
176
     0
 40
1.0
176
     0
 90
        2
176
     0
  1
strokes_ogs.tif
176
     0
290
     0
176
     0
 40
1.0
176
     0
 40
1.0
176
     0
  0
VISUALSTYLE
  5
33
102
{ACAD_REACTORS
330
2A
102
}
330
2A
100
AcDbVisualStyle
  2
Realistic
 70
     8
177
     3
291
     0
 70
    58
 90
        2
176
     1
 90
        3
176
     1
 90
        0
176
     1
 90
        2
176
     1
 40
0.6
176
     1
 40
30.0
176
     1
 62
     7
420
 16777215
176
     1
 90
        0
176
     1
 90
        0
176
     1
 62
     7
176
     1
 62
   257
176
     1
 90
        1
176
     1
 90
        1
176
     1
 40
1.0
176
     1
 90
        8
176
     1
 62
   257
176
     1
 40
1.0
176
     1
 90
        1
176
     1
 90
        6
176
     1
 90
        2
176
     1
 62
     7
176
     1
 90
        3
176
     1
 90
        0
176
     1
 90
        0
176
     1
290
     0
176
     1
 90
       13
176
     1
 40
0.0
176
     1
 90
        0
176
     1
290
     0
176
     1
290
     1
176
     1
290
     1
176
     1
290
     0
176
     1
290
     0
176
     1
290
     0
176
     1
290
     0
176
     1
290
     0
176
     1
290
     0
176
     1
 90
       50
176
     1
 40
0.0
176
     1
 40
1.0
176
     1
 90
        0
176
     1
 62
    18
420
        0
176
     1
 90
       50
176
     1
 90
        3
176
     1
 62
     5
420
      255
176
     1
290
     0
176
     1
 90
       50
176
     1
 90
       50
176
     1
 90
       50
176
     1
290
     0
176
     1
 90
       50
176
     1
 62
   256
176
     0
 40
1.0
176
     0
 90
        2
176
     1
  1
strokes_ogs.tif
176
     1
290
     0
176
     1
 40
1.0
176
     1
 40
1.0
176
     1
  0
VISUALSTYLE
  5
42
102
{ACAD_REACTORS
330
2A
102
}
330
2A
100
AcDbVisualStyle
  2
Shaded
 70
    27
177
     3
291
     0
 70
    58
 90
        2
176
     1
 90
        2
176
     1
 90
        1
176
     1
 90
        2
176
     1
 40
0.6
176
     1
 40
30.0
176
     1
 62
     7
420
 16777215
176
     1
 90
        0
176
     1
 90
        4
176
     1
 62
     7
176
     1
 62
   257
176
     1
 90
        1
176
     1
 90
        1
176
     1
 40
1.0
176
     1
 90
        8
176
     1
 62
   257
176
     1
 40
1.0
176
     1
 90
        1
176
     1
 90
        6
176
     1
 90
        2
176
     1
 62
     8
420
  7895160
176
     1
 90
        3
176
     1
 90
        0
176
     1
 90
        0
176
     1
290
     0
176
     1
 90
        5
176
     1
 40
0.0
176
     1
 90
        0
176
     1
290
     0
176
     1
290
     1
176
     1
290
     1
176
     1
290
     0
176
     1
290
     0
176
     1
290
     0
176
     1
290
     0
176
     1
290
     0
176
     1
290
     0
176
     1
 90
       50
176
     1
 40
0.0
176
     1
 40
1.0
176
     1
 90
        0
176
     1
 62
    18
420
        0
176
     1
 90
       50
176
     1
 90
        3
176
     1
 62
     5
420
      255
176
     1
290
     0
176
     1
 90
       50
176
     1
 90
       50
176
     1
 90
       50
176
     1
290
     0
176
     1
 90
       50
176
     1
 62
   256
176
     0
 40
1.0
176
     0
 90
        2
176
     1
  1
strokes_ogs.tif
176
     1
290
     0
176
     1
 40
1.0
176
     1
 40
1.0
176
     1
  0
VISUALSTYLE
  5
41
102
{ACAD_REACTORS
330
2A
102
}
330
2A
100
AcDbVisualStyle
  2
Shaded with edges
 70
    26
177
     3
291
     0
 70
    58
 90
        2
176
     1
 90
        2
176
     1
 90
        1
176
     1
 90
        2
176
     1
 40
0.6
176
     1
 40
30.0
176
     1
 62
     7
420
 16777215
176
     1
 90
        1
176
     1
 90
       10
176
     1
 62
     7
176
     1
 62
   257
176
     1
 90
        2
176
     1
 90
        1
176
     1
 40
1.0
176
     1
 90
        8
176
     1
 62
   257
176
     1
 40
1.0
176
     1
 90
        1
176
     1
 90
        6
176
     1
 90
        2
176
     1
 62
     7
176
     1
 90
        3
176
     1
 90
        0
176
     1
 90
        0
176
     1
290
     0
176
     1
 90
        5
176
     1
 40
0.0
176
     1
 90
        0
176
     1
290
     0
176
     1
290
     1
176
     1
290
     1
176
     1
290
     0
176
     1
290
     0
176
     1
290
     0
176
     1
290
     0
176
     1
290
     0
176
     1
290
     0
176
     1
 90
       50
176
     1
 40
0.0
176
     1
 40
1.0
176
     1
 90
        0
176
     1
 62
    18
420
        0
176
     1
 90
       50
176
     1
 90
        3
176
     1
 62
     5
420
      255
176
     1
290
     0
176
     1
 90
       50
176
     1
 90
       50
176
     1
 90
       50
176
     1
290
     0
176
     1
 90
       50
176
     1
 62
   256
176
     0
 40
1.0
176
     0
 90
        2
176
     1
  1
strokes_ogs.tif
176
     1
290
     0
176
     1
 40
1.0
176
     1
 40
1.0
176
     1
  0
VISUALSTYLE
  5
3E
102
{ACAD_REACTORS
330
2A
102
}
330
2A
100
AcDbVisualStyle
  2
Shades of Gray
 70
    23
177
     3
291
     0
 70
    58
 90
        2
176
     1
 90
        2
176
     1
 90
        3
176
     1
 90
        0
176
     1
 40
0.6
176
     1
 40
30.0
176
     1
 62
     7
420
 16777215
176
     1
 90
        2
176
     1
 90
        2
176
     1
 62
     7
176
     1
 62
     7
176
     1
 90
        1
176
     1
 90
        1
176
     1
 40
40.0
176
     1
 90
        8
176
     1
 62
     7
176
     1
 40
1.0
176
     1
 90
        1
176
     1
 90
        6
176
     1
 90
        2
176
     1
 62
     7
176
     1
 90
        3
176
     1
 90
        0
176
     1
 90
        0
176
     1
290
     0
176
     1
 90
        1
176
     1
 40
0.0
176
     1
 90
        0
176
     1
290
     0
176
     1
290
     1
176
     1
290
     1
176
     1
290
     0
176
     1
290
     0
176
     1
290
     0
176
     1
290
     0
176
     1
290
     0
176
     1
290
     0
176
     1
 90
       50
176
     1
 40
0.0
176
     1
 40
1.0
176
     1
 90
        0
176
     1
 62
    18
420
        0
176
     1
 90
       50
176
     1
 90
        3
176
     1
 62
     5
420
      255
176
     1
290
     0
176
     1
 90
       50
176
     1
 90
       50
176
     1
 90
       50
176
     1
290
     0
176
     1
 90
       50
176
     1
 62
   256
176
     0
 40
1.0
176
     0
 90
        2
176
     1
  1
strokes_ogs.tif
176
     1
290
     0
176
     1
 40
1.0
176
     1
 40
1.0
176
     1
  0
VISUALSTYLE
  5
3F
102
{ACAD_REACTORS
330
2A
102
}
330
2A
100
AcDbVisualStyle
  2
Sketchy
 70
    24
177
     3
291
     0
 70
    58
 90
        1
176
     1
 90
        2
176
     1
 90
        2
176
     1
 90
        0
176
     1
 40
0.6
176
     1
 40
30.0
176
     1
 62
     7
420
 16777215
176
     1
 90
        2
176
     1
 90
        2
176
     1
 62
     7
176
     1
 62
     7
176
     1
 90
        1
176
     1
 90
        1
176
     1
 40
40.0
176
     1
 90
       11
176
     1
 62
     7
176
     1
 40
1.0
176
     1
 90
        1
176
     1
 90
        6
176
     1
 90
        2
176
     1
 62
     7
176
     1
 90
        6
176
     1
 90
        0
176
     1
 90
        0
176
     1
290
     0
176
     1
 90
        1
176
     1
 40
0.0
176
     1
 90
        0
176
     1
290
     0
176
     1
290
     1
176
     1
290
     1
176
     1
290
     0
176
     1
290
     0
176
     1
290
     0
176
     1
290
     0
176
     1
290
     0
176
     1
290
     0
176
     1
 90
       50
176
     1
 40
0.0
176
     1
 40
1.0
176
     1
 90
        0
176
     1
 62
    18
420
        0
176
     1
 90
       50
176
     1
 90
        3
176
     1
 62
     5
420
      255
176
     1
290
     0
176
     1
 90
       50
176
     1
 90
       50
176
     1
 90
       50
176
     1
290
     0
176
     1
 90
       50
176
     1
 62
   256
176
     0
 40
1.0
176
     0
 90
        2
176
     1
  1
strokes_ogs.tif
176
     1
290
     0
176
     1
 40
1.0
176
     1
 40
1.0
176
     1
  0
VISUALSTYLE
  5
37
102
{ACAD_REACTORS
330
2A
102
}
330
2A
100
AcDbVisualStyle
  2
Thicken
 70
    13
177
     3
291
     1
 70
    58
 90
        2
176
     1
 90
        2
176
     1
 90
        0
176
     1
 90
        0
176
     1
 40
0.6
176
     1
 40
30.0
176
     1
 62
     7
420
 16777215
176
     1
 90
        1
176
     1
 90
        4
176
     1
 62
     7
176
     1
 62
   257
176
     1
 90
        1
176
     1
 90
        1
176
     1
 40
1.0
176
     1
 90
       12
176
     1
 62
     7
176
     1
 40
1.0
176
     1
 90
        1
176
     1
 90
        6
176
     1
 90
        2
176
     1
 62
     7
176
     1
 90
        5
176
     1
 90
        0
176
     1
 90
        0
176
     1
290
     0
176
     1
 90
        1
176
     1
 40
0.0
176
     1
 90
        0
176
     1
290
     0
176
     1
290
     1
176
     1
290
     1
176
     1
290
     0
176
     1
290
     0
176
     1
290
     0
176
     1
290
     0
176
     1
290
     0
176
     1
290
     0
176
     1
 90
       50
176
     1
 40
0.0
176
     1
 40
1.0
176
     1
 90
        0
176
     1
 62
    18
420
        0
176
     1
 90
       50
176
     1
 90
        3
176
     1
 62
     5
420
      255
176
     1
290
     0
176
     1
 90
       50
176
     1
 90
       50
176
     1
 90
       50
176
     1
290
     0
176
     1
 90
       50
176
     1
 62
   256
176
     0
 40
1.0
176
     0
 90
        2
176
     1
  1
strokes_ogs.tif
176
     1
290
     0
176
     1
 40
1.0
176
     1
 40
1.0
176
     1
  0
VISUALSTYLE
  5
30
102
{ACAD_REACTORS
330
2A
102
}
330
2A
100
AcDbVisualStyle
  2
Wireframe
 70
     5
177
     3
291
     0
 70
    58
 90
        0
176
     1
 90
        2
176
     1
 90
        0
176
     1
 90
        0
176
     1
 40
0.6
176
     1
 40
30.0
176
     1
 62
     7
420
 16777215
176
     1
 90
        1
176
     1
 90
        4
176
     1
 62
     7
176
     1
 62
   257
176
     1
 90
        1
176
     1
 90
        1
176
     1
 40
1.0
176
     1
 90
        0
176
     1
 62
   257
176
     1
 40
1.0
176
     1
 90
        1
176
     1
 90
        6
176
     1
 90
        2
176
     1
 62
     7
176
     1
 90
        3
176
     1
 90
        0
176
     1
 90
        0
176
     1
290
     0
176
     1
 90
        1
176
     1
 40
0.0
176
     1
 90
        0
176
     1
290
     0
176
     1
290
     1
176
     1
290
     1
176
     1
290
     0
176
     1
290
     0
176
     1
290
     0
176
     1
290
     0
176
     1
290
     0
176
     1
290
     0
176
     1
 90
       50
176
     1
 40
0.0
176
     1
 40
1.0
176
     1
 90
        0
176
     1
 62
    18
420
        0
176
     1
 90
       50
176
     1
 90
        3
176
     1
 62
     5
420
      255
176
     1
290
     0
176
     1
 90
       50
176
     1
 90
       50
176
     1
 90
       50
176
     1
290
     0
176
     1
 90
       50
176
     1
 62
   256
176
     0
 40
1.0
176
     0
 90
        2
176
     1
  1
strokes_ogs.tif
176
     1
290
     0
176
     1
 40
1.0
176
     1
 40
1.0
176
     1
  0
VISUALSTYLE
  5
40
102
{ACAD_REACTORS
330
2A
102
}
330
2A
100
AcDbVisualStyle
  2
X-Ray
 70
    25
177
     3
291
     0
 70
    58
 90
        2
176
     1
 90
        2
176
     1
 90
        1
176
     1
 90
        1
176
     1
 40
0.5
176
     1
 40
30.0
176
     1
 62
     7
420
 16777215
176
     1
 90
        1
176
     1
 90
        0
176
     1
 62
     7
176
     1
 62
   257
176
     1
 90
        1
176
     1
 90
        1
176
     1
 40
1.0
176
     1
 90
        8
176
     1
 62
     7
176
     1
 40
1.0
176
     1
 90
        1
176
     1
 90
        6
176
     1
 90
        2
176
     1
 62
     7
176
     1
 90
        3
176
     1
 90
        0
176
     1
 90
        0
176
     1
290
     0
176
     1
 90
       13
176
     1
 40
0.0
176
     1
 90
        0
176
     1
290
     0
176
     1
290
     1
176
     1
290
     1
176
     1
290
     0
176
     1
290
     0
176
     1
290
     0
176
     1
290
     0
176
     1
290
     0
176
     1
290
     0
176
     1
 90
       50
176
     1
 40
0.0
176
     1
 40
1.0
176
     1
 90
        0
176
     1
 62
    18
420
        0
176
     1
 90
       50
176
     1
 90
        3
176
     1
 62
     5
420
      255
176
     1
290
     0
176
     1
 90
       50
176
     1
 90
       50
176
     1
 90
       50
176
     1
290
     0
176
     1
 90
       50
176
     1
 62
   256
176
     0
 40
1.0
176
     0
 90
        2
176
     1
  1
strokes_ogs.tif
176
     1
290
     0
176
     1
 40
1.0
176
     1
 40
1.0
176
     1
  0
DICTIONARYVAR
  5
223
102
{ACAD_REACTORS
330
222
102
}
330
222
100
DictionaryVariables
280
     0
  1
1:1
  0
DICTIONARYVAR
  5
228
102
{ACAD_REACTORS
330
222
102
}
330
222
100
DictionaryVariables
280
     0
  1
Standard
  0
DICTIONARYVAR
  5
227
102
{ACAD_REACTORS
330
222
102
}
330
222
100
DictionaryVariables
280
     0
  1
Standard
  0
DICTIONARY
  5
224
330
6A
100
AcDbDictionary
280
     1
281
     1
  3
ACAD_ROUNDTRIP_2008_TABLESTYLE_CELLSTYLEMAP
360
225
  0
CELLSTYLEMAP
  5
225
102
{ACAD_REACTORS
330
224
102
}
330
224
100
AcDbCellStyleMap
 90
        3
300
CELLSTYLE
  1
TABLEFORMAT_BEGIN
 90
        5
170
     1
 91
        0
 92
    32768
 62
   257
 93
        1
300
CONTENTFORMAT
  1
CONTENTFORMAT_BEGIN
 90
        0
 91
        0
 92
        4
 93
        0
300

 40
0.0
140
1.0
 94
        5
 62
     0
340
11
144
6.0
309
CONTENTFORMAT_END
171
     1
301
MARGIN
  1
CELLMARGIN_BEGIN
 40
1.5
 40
1.5
 40
1.5
 40
1.5
 40
1.5
 40
1.5
309
CELLMARGIN_END
 94
        6
 95
        1
302
GRIDFORMAT
  1
GRIDFORMAT_BEGIN
 90
        0
 91
        1
 62
     0
 92
       -2
340
14
 93
        0
 40
0.045
309
GRIDFORMAT_END
 95
        2
302
GRIDFORMAT
  1
GRIDFORMAT_BEGIN
 90
        0
 91
        1
 62
     0
 92
       -2
340
14
 93
        0
 40
0.045
309
GRIDFORMAT_END
 95
        4
302
GRIDFORMAT
  1
GRIDFORMAT_BEGIN
 90
        0
 91
        1
 62
     0
 92
       -2
340
14
 93
        0
 40
0.045
309
GRIDFORMAT_END
 95
        8
302
GRIDFORMAT
  1
GRIDFORMAT_BEGIN
 90
        0
 91
        1
 62
     0
 92
       -2
340
14
 93
        0
 40
0.045
309
GRIDFORMAT_END
 95
       16
302
GRIDFORMAT
  1
GRIDFORMAT_BEGIN
 90
        0
 91
        1
 62
     0
 92
       -2
340
14
 93
        0
 40
0.045
309
GRIDFORMAT_END
 95
       32
302
GRIDFORMAT
  1
GRIDFORMAT_BEGIN
 90
        0
 91
        1
 62
     0
 92
       -2
340
14
 93
        0
 40
0.045
309
GRIDFORMAT_END
309
TABLEFORMAT_END
  1
CELLSTYLE_BEGIN
 90
        1
 91
        1
300
_TITLE
309
CELLSTYLE_END
300
CELLSTYLE
  1
TABLEFORMAT_BEGIN
 90
        5
170
     1
 91
        0
 92
        0
 62
   257
 93
        1
300
CONTENTFORMAT
  1
CONTENTFORMAT_BEGIN
 90
        0
 91
        0
 92
        4
 93
        0
300

 40
0.0
140
1.0
 94
        5
 62
     0
340
11
144
4.5
309
CONTENTFORMAT_END
171
     1
301
MARGIN
  1
CELLMARGIN_BEGIN
 40
1.5
 40
1.5
 40
1.5
 40
1.5
 40
1.5
 40
1.5
309
CELLMARGIN_END
 94
        6
 95
        1
302
GRIDFORMAT
  1
GRIDFORMAT_BEGIN
 90
        0
 91
        1
 62
     0
 92
       -2
340
14
 93
        0
 40
0.045
309
GRIDFORMAT_END
 95
        2
302
GRIDFORMAT
  1
GRIDFORMAT_BEGIN
 90
        0
 91
        1
 62
     0
 92
       -2
340
14
 93
        0
 40
0.045
309
GRIDFORMAT_END
 95
        4
302
GRIDFORMAT
  1
GRIDFORMAT_BEGIN
 90
        0
 91
        1
 62
     0
 92
       -2
340
14
 93
        0
 40
0.045
309
GRIDFORMAT_END
 95
        8
302
GRIDFORMAT
  1
GRIDFORMAT_BEGIN
 90
        0
 91
        1
 62
     0
 92
       -2
340
14
 93
        0
 40
0.045
309
GRIDFORMAT_END
 95
       16
302
GRIDFORMAT
  1
GRIDFORMAT_BEGIN
 90
        0
 91
        1
 62
     0
 92
       -2
340
14
 93
        0
 40
0.045
309
GRIDFORMAT_END
 95
       32
302
GRIDFORMAT
  1
GRIDFORMAT_BEGIN
 90
        0
 91
        1
 62
     0
 92
       -2
340
14
 93
        0
 40
0.045
309
GRIDFORMAT_END
309
TABLEFORMAT_END
  1
CELLSTYLE_BEGIN
 90
        2
 91
        1
300
_HEADER
309
CELLSTYLE_END
300
CELLSTYLE
  1
TABLEFORMAT_BEGIN
 90
        5
170
     1
 91
        0
 92
        0
 62
   257
 93
        1
300
CONTENTFORMAT
  1
CONTENTFORMAT_BEGIN
 90
        0
 91
        0
 92
        4
 93
        0
300

 40
0.0
140
1.0
 94
        2
 62
     0
340
11
144
4.5
309
CONTENTFORMAT_END
171
     1
301
MARGIN
  1
CELLMARGIN_BEGIN
 40
1.5
 40
1.5
 40
1.5
 40
1.5
 40
1.5
 40
1.5
309
CELLMARGIN_END
 94
        6
 95
        1
302
GRIDFORMAT
  1
GRIDFORMAT_BEGIN
 90
        0
 91
        1
 62
     0
 92
       -2
340
14
 93
        0
 40
0.045
309
GRIDFORMAT_END
 95
        2
302
GRIDFORMAT
  1
GRIDFORMAT_BEGIN
 90
        0
 91
        1
 62
     0
 92
       -2
340
14
 93
        0
 40
0.045
309
GRIDFORMAT_END
 95
        4
302
GRIDFORMAT
  1
GRIDFORMAT_BEGIN
 90
        0
 91
        1
 62
     0
 92
       -2
340
14
 93
        0
 40
0.045
309
GRIDFORMAT_END
 95
        8
302
GRIDFORMAT
  1
GRIDFORMAT_BEGIN
 90
        0
 91
        1
 62
     0
 92
       -2
340
14
 93
        0
 40
0.045
309
GRIDFORMAT_END
 95
       16
302
GRIDFORMAT
  1
GRIDFORMAT_BEGIN
 90
        0
 91
        1
 62
     0
 92
       -2
340
14
 93
        0
 40
0.045
309
GRIDFORMAT_END
 95
       32
302
GRIDFORMAT
  1
GRIDFORMAT_BEGIN
 90
        0
 91
        1
 62
     0
 92
       -2
340
14
 93
        0
 40
0.045
309
GRIDFORMAT_END
309
TABLEFORMAT_END
  1
CELLSTYLE_BEGIN
 90
        3
 91
        2
300
_DATA
309
CELLSTYLE_END
  0
ENDSEC
  0
EOF