0
SECTION
  2
HEADER
  9
$ACADVER
  1
AC1027
  9
$ACADMAINTVER
 70
     8
  9
$DWGCODEPAGE
  3
ANSI_1252
  9
$REQUIREDVERSIONS
160
                 0
  9
$COMMENTS
  1
File was created by Cadenas
  9
$CUSTOMPROPERTYTAG
  1
NN
  9
$CUSTOMPROPERTY
  1
Grip Tight Medium Duty Wide Slot Take Up Metric Bore
  9
$CUSTOMPROPERTYTAG
  1
NT
  9
$CUSTOMPROPERTY
  1
GT Wide Slot Take-Up Bearings -(Medium Duty)
  9
$CUSTOMPROPERTYTAG
  1
NB
  9
$CUSTOMPROPERTY
  1
136311
  9
$CUSTOMPROPERTYTAG
  1
NBSYN
  9
$CUSTOMPROPERTY
  1
$PN.$LUBE.
  9
$CUSTOMPROPERTYTAG
  1
LINA
  9
$CUSTOMPROPERTY
  1
136311
  9
$CUSTOMPROPERTYTAG
  1
SERIES
  9
$CUSTOMPROPERTY
  1
215
  9
$CUSTOMPROPERTYTAG
  1
SS
  9
$CUSTOMPROPERTY
  1
70
  9
$CUSTOMPROPERTYTAG
  1
PN
  9
$CUSTOMPROPERTY
  1
136311
  9
$CUSTOMPROPERTYTAG
  1
DESCRIPTION
  9
$CUSTOMPROPERTY
  1
WSTU-GTM-70M
  9
$CUSTOMPROPERTYTAG
  1
A
  9
$CUSTOMPROPERTY
  1
65.1
  9
$CUSTOMPROPERTYTAG
  1
B
  9
$CUSTOMPROPERTY
  1
231.8
  9
$CUSTOMPROPERTYTAG
  1
C
  9
$CUSTOMPROPERTY
  1
27.0
  9
$CUSTOMPROPERTYTAG
  1
D
  9
$CUSTOMPROPERTY
  1
120.7
  9
$CUSTOMPROPERTYTAG
  1
E
  9
$CUSTOMPROPERTY
  1
139.7
  9
$CUSTOMPROPERTYTAG
  1
F
  9
$CUSTOMPROPERTY
  1
38.1
  9
$CUSTOMPROPERTYTAG
  1
G
  9
$CUSTOMPROPERTY
  1
20.6
  9
$CUSTOMPROPERTYTAG
  1
H
  9
$CUSTOMPROPERTY
  1
31.8
  9
$CUSTOMPROPERTYTAG
  1
J
  9
$CUSTOMPROPERTY
  1
111.1
  9
$CUSTOMPROPERTYTAG
  1
K
  9
$CUSTOMPROPERTY
  1
69.9
  9
$CUSTOMPROPERTYTAG
  1
L
  9
$CUSTOMPROPERTY
  1
108.0
  9
$CUSTOMPROPERTYTAG
  1
M
  9
$CUSTOMPROPERTY
  1
150.8
  9
$CUSTOMPROPERTYTAG
  1
N
  9
$CUSTOMPROPERTY
  1
169.9
  9
$CUSTOMPROPERTYTAG
  1
R
  9
$CUSTOMPROPERTY
  1
22.6
  9
$CUSTOMPROPERTYTAG
  1
S
  9
$CUSTOMPROPERTY
  1
42.5
  9
$CUSTOMPROPERTYTAG
  1
T
  9
$CUSTOMPROPERTY
  1
69.9
  9
$CUSTOMPROPERTYTAG
  1
Z
  9
$CUSTOMPROPERTY
  1
41.3
  9
$CUSTOMPROPERTYTAG
  1
COMPANY
  9
$CUSTOMPROPERTY
  1
baldor
  9
$INSBASE
 10
0.0
 20
0.0
 30
0.0
  9
$EXTMIN
 10
1.000000000000000E+20
 20
1.000000000000000E+20
 30
1.000000000000000E+20
  9
$EXTMAX
 10
-1.000000000000000E+20
 20
-1.000000000000000E+20
 30
-1.000000000000000E+20
  9
$LIMMIN
 10
0.0
 20
0.0
  9
$LIMMAX
 10
420.0
 20
297.0
  9
$ORTHOMODE
 70
     0
  9
$REGENMODE
 70
     1
  9
$FILLMODE
 70
     1
  9
$QTEXTMODE
 70
     0
  9
$MIRRTEXT
 70
     1
  9
$LTSCALE
 40
1.0
  9
$ATTMODE
 70
     1
  9
$TEXTSIZE
 40
2.5
  9
$TRACEWID
 40
1.0
  9
$TEXTSTYLE
  7
Standard
  9
$CLAYER
  8
0
  9
$CELTYPE
  6
ByLayer
  9
$CECOLOR
 62
   256
  9
$CELTSCALE
 40
1.0
  9
$DISPSILH
 70
     0
  9
$DIMSCALE
 40
1.0
  9
$DIMASZ
 40
2.5
  9
$DIMEXO
 40
0.625
  9
$DIMDLI
 40
3.75
  9
$DIMRND
 40
0.0
  9
$DIMDLE
 40
0.0
  9
$DIMEXE
 40
1.25
  9
$DIMTP
 40
0.0
  9
$DIMTM
 40
0.0
  9
$DIMTXT
 40
2.5
  9
$DIMCEN
 40
2.5
  9
$DIMTSZ
 40
0.0
  9
$DIMTOL
 70
     0
  9
$DIMLIM
 70
     0
  9
$DIMTIH
 70
     0
  9
$DIMTOH
 70
     0
  9
$DIMSE1
 70
     0
  9
$DIMSE2
 70
     0
  9
$DIMTAD
 70
     1
  9
$DIMZIN
 70
     8
  9
$DIMBLK
  1

  9
$DIMASO
 70
     1
  9
$DIMSHO
 70
     1
  9
$DIMPOST
  1

  9
$DIMAPOST
  1

  9
$DIMALT
 70
     0
  9
$DIMALTD
 70
     3
  9
$DIMALTF
 40
0.03937007874016
  9
$DIMLFAC
 40
1.0
  9
$DIMTOFL
 70
     1
  9
$DIMTVP
 40
0.0
  9
$DIMTIX
 70
     0
  9
$DIMSOXD
 70
     0
  9
$DIMSAH
 70
     0
  9
$DIMBLK1
  1

  9
$DIMBLK2
  1

  9
$DIMSTYLE
  2
ISO-25
  9
$DIMCLRD
 70
     0
  9
$DIMCLRE
 70
     0
  9
$DIMCLRT
 70
     0
  9
$DIMTFAC
 40
1.0
  9
$DIMGAP
 40
0.625
  9
$DIMJUST
 70
     0
  9
$DIMSD1
 70
     0
  9
$DIMSD2
 70
     0
  9
$DIMTOLJ
 70
     0
  9
$DIMTZIN
 70
     8
  9
$DIMALTZ
 70
     0
  9
$DIMALTTZ
 70
     0
  9
$DIMUPT
 70
     0
  9
$DIMDEC
 70
     2
  9
$DIMTDEC
 70
     2
  9
$DIMALTU
 70
     2
  9
$DIMALTTD
 70
     3
  9
$DIMTXSTY
  7
Standard
  9
$DIMAUNIT
 70
     0
  9
$DIMADEC
 70
     0
  9
$DIMALTRND
 40
0.0
  9
$DIMAZIN
 70
     0
  9
$DIMDSEP
 70
    44
  9
$DIMATFIT
 70
     3
  9
$DIMFRAC
 70
     0
  9
$DIMLDRBLK
  1

  9
$DIMLUNIT
 70
     2
  9
$DIMLWD
 70
    -2
  9
$DIMLWE
 70
    -2
  9
$DIMTMOVE
 70
     0
  9
$DIMFXL
 40
1.0
  9
$DIMFXLON
 70
     0
  9
$DIMJOGANG
 40
0.7853981633974483
  9
$DIMTFILL
 70
     0
  9
$DIMTFILLCLR
 70
     0
  9
$DIMARCSYM
 70
     0
  9
$DIMLTYPE
  6

  9
$DIMLTEX1
  6

  9
$DIMLTEX2
  6

  9
$DIMTXTDIRECTION
 70
     0
  9
$LUNITS
 70
     2
  9
$LUPREC
 70
     4
  9
$SKETCHINC
 40
1.0
  9
$FILLETRAD
 40
10.0
  9
$AUNITS
 70
     0
  9
$AUPREC
 70
     0
  9
$MENU
  1
.
  9
$ELEVATION
 40
0.0
  9
$PELEVATION
 40
0.0
  9
$THICKNESS
 40
0.0
  9
$LIMCHECK
 70
     0
  9
$CHAMFERA
 40
0.0
  9
$CHAMFERB
 40
0.0
  9
$CHAMFERC
 40
0.0
  9
$CHAMFERD
 40
0.0
  9
$SKPOLY
 70
     0
  9
$TDCREATE
 40
2458168.992957118
  9
$TDUCREATE
 40
2458168.951290451
  9
$TDUPDATE
 40
2458168.992957303
  9
$TDUUPDATE
 40
2458168.951290637
  9
$TDINDWG
 40
0.0000000116
  9
$TDUSRTIMER
 40
0.0000000116
  9
$USRTIMER
 70
     1
  9
$ANGBASE
 50
0.0
  9
$ANGDIR
 70
     0
  9
$PDMODE
 70
     0
  9
$PDSIZE
 40
0.0
  9
$PLINEWID
 40
0.0
  9
$SPLFRAME
 70
     0
  9
$SPLINETYPE
 70
     6
  9
$SPLINESEGS
 70
     8
  9
$HANDSEED
  5
264
  9
$SURFTAB1
 70
     6
  9
$SURFTAB2
 70
     6
  9
$SURFTYPE
 70
     6
  9
$SURFU
 70
     6
  9
$SURFV
 70
     6
  9
$UCSBASE
  2

  9
$UCSNAME
  2

  9
$UCSORG
 10
0.0
 20
0.0
 30
0.0
  9
$UCSXDIR
 10
1.0
 20
0.0
 30
0.0
  9
$UCSYDIR
 10
0.0
 20
1.0
 30
0.0
  9
$UCSORTHOREF
  2

  9
$UCSORTHOVIEW
 70
     0
  9
$UCSORGTOP
 10
0.0
 20
0.0
 30
0.0
  9
$UCSORGBOTTOM
 10
0.0
 20
0.0
 30
0.0
  9
$UCSORGLEFT
 10
0.0
 20
0.0
 30
0.0
  9
$UCSORGRIGHT
 10
0.0
 20
0.0
 30
0.0
  9
$UCSORGFRONT
 10
0.0
 20
0.0
 30
0.0
  9
$UCSORGBACK
 10
0.0
 20
0.0
 30
0.0
  9
$PUCSBASE
  2

  9
$PUCSNAME
  2

  9
$PUCSORG
 10
0.0
 20
0.0
 30
0.0
  9
$PUCSXDIR
 10
1.0
 20
0.0
 30
0.0
  9
$PUCSYDIR
 10
0.0
 20
1.0
 30
0.0
  9
$PUCSORTHOREF
  2

  9
$PUCSORTHOVIEW
 70
     0
  9
$PUCSORGTOP
 10
0.0
 20
0.0
 30
0.0
  9
$PUCSORGBOTTOM
 10
0.0
 20
0.0
 30
0.0
  9
$PUCSORGLEFT
 10
0.0
 20
0.0
 30
0.0
  9
$PUCSORGRIGHT
 10
0.0
 20
0.0
 30
0.0
  9
$PUCSORGFRONT
 10
0.0
 20
0.0
 30
0.0
  9
$PUCSORGBACK
 10
0.0
 20
0.0
 30
0.0
  9
$USERI1
 70
     0
  9
$USERI2
 70
     0
  9
$USERI3
 70
     0
  9
$USERI4
 70
     0
  9
$USERI5
 70
     0
  9
$USERR1
 40
0.0
  9
$USERR2
 40
0.0
  9
$USERR3
 40
0.0
  9
$USERR4
 40
0.0
  9
$USERR5
 40
0.0
  9
$WORLDVIEW
 70
     1
  9
$SHADEDGE
 70
     3
  9
$SHADEDIF
 70
    70
  9
$TILEMODE
 70
     1
  9
$MAXACTVP
 70
    64
  9
$PINSBASE
 10
0.0
 20
0.0
 30
0.0
  9
$PLIMCHECK
 70
     0
  9
$PEXTMIN
 10
1.000000000000000E+20
 20
1.000000000000000E+20
 30
1.000000000000000E+20
  9
$PEXTMAX
 10
-1.000000000000000E+20
 20
-1.000000000000000E+20
 30
-1.000000000000000E+20
  9
$PLIMMIN
 10
0.0
 20
0.0
  9
$PLIMMAX
 10
420.0
 20
297.0
  9
$UNITMODE
 70
     0
  9
$VISRETAIN
 70
     1
  9
$PLINEGEN
 70
     0
  9
$PSLTSCALE
 70
     1
  9
$TREEDEPTH
 70
  3020
  9
$CMLSTYLE
  2
Standard
  9
$CMLJUST
 70
     0
  9
$CMLSCALE
 40
20.0
  9
$PROXYGRAPHICS
 70
     1
  9
$MEASUREMENT
 70
     1
  9
$CELWEIGHT
370
    -1
  9
$ENDCAPS
280
     0
  9
$JOINSTYLE
280
     0
  9
$LWDISPLAY
290
     0
  9
$INSUNITS
 70
     4
  9
$HYPERLINKBASE
  1

  9
$STYLESHEET
  1

  9
$XEDIT
290
     1
  9
$CEPSNTYPE
380
     0
  9
$PSTYLEMODE
290
     1
  9
$FINGERPRINTGUID
  2
{DBE6EA3E-AF46-41B1-86C0-29D53C1DE35A}
  9
$VERSIONGUID
  2
{FAEB1C32-E019-11D5-929B-00C0DF256EC4}
  9
$EXTNAMES
290
     1
  9
$PSVPSCALE
 40
0.0
  9
$OLESTARTUP
290
     0
  9
$SORTENTS
280
   127
  9
$INDEXCTL
280
     0
  9
$HIDETEXT
280
     1
  9
$XCLIPFRAME
280
     2
  9
$HALOGAP
280
     0
  9
$OBSCOLOR
 70
   257
  9
$OBSLTYPE
280
     0
  9
$INTERSECTIONDISPLAY
280
     0
  9
$INTERSECTIONCOLOR
 70
   257
  9
$DIMASSOC
280
     2
  9
$PROJECTNAME
  1

  9
$CAMERADISPLAY
290
     0
  9
$LENSLENGTH
 40
50.0
  9
$CAMERAHEIGHT
 40
0.0
  9
$STEPSPERSEC
 40
2.0
  9
$STEPSIZE
 40
6.0
  9
$3DDWFPREC
 40
2.0
  9
$PSOLWIDTH
 40
5.0
  9
$PSOLHEIGHT
 40
80.0
  9
$LOFTANG1
 40
1.570796326794897
  9
$LOFTANG2
 40
1.570796326794897
  9
$LOFTMAG1
 40
0.0
  9
$LOFTMAG2
 40
0.0
  9
$LOFTPARAM
 70
     7
  9
$LOFTNORMALS
280
     1
  9
$LATITUDE
 40
37.795
  9
$LONGITUDE
 40
-122.394
  9
$NORTHDIRECTION
 40
0.0
  9
$TIMEZONE
 70
 -8000
  9
$LIGHTGLYPHDISPLAY
280
     1
  9
$TILEMODELIGHTSYNCH
280
     1
  9
$CMATERIAL
347
44
  9
$SOLIDHIST
280
     0
  9
$SHOWHIST
280
     1
  9
$DWFFRAME
280
     2
  9
$DGNFRAME
280
     2
  9
$REALWORLDSCALE
290
     1
  9
$INTERFERECOLOR
 62
   256
  9
$CSHADOW
280
     0
  9
$SHADOWPLANELOCATION
 40
0.0
  0
ENDSEC
  0
SECTION
  2
CLASSES
  0
CLASS
  1
ACDBDICTIONARYWDFLT
  2
AcDbDictionaryWithDefault
  3
ObjectDBX Classes
 90
        0
 91
        4
280
     0
281
     0
  0
CLASS
  1
VISUALSTYLE
  2
AcDbVisualStyle
  3
ObjectDBX Classes
 90
     4095
 91
        4
280
     0
281
     0
  0
CLASS
  1
MATERIAL
  2
AcDbMaterial
  3
ObjectDBX Classes
 90
     1153
 91
        4
280
     0
281
     0
  0
CLASS
  1
SCALE
  2
AcDbScale
  3
ObjectDBX Classes
 90
     1153
 91
        4
280
     0
281
     0
  0
CLASS
  1
TABLESTYLE
  2
AcDbTableStyle
  3
ObjectDBX Classes
 90
     4095
 91
        4
280
     0
281
     0
  0
CLASS
  1
MLEADERSTYLE
  2
AcDbMLeaderStyle
  3
ACDB_MLEADERSTYLE_CLASS
 90
     4095
 91
        4
280
     0
281
     0
  0
CLASS
  1
SUN
  2
AcDbSun
  3
SCENEOE
 90
     1153
 91
        4
280
     0
281
     0
  0
CLASS
  1
DICTIONARYVAR
  2
AcDbDictionaryVar
  3
ObjectDBX Classes
 90
        0
 91
        4
280
     0
281
     0
  0
CLASS
  1
CELLSTYLEMAP
  2
AcDbCellStyleMap
  3
ObjectDBX Classes
 90
     1152
 91
        4
280
     0
281
     0
  0
ENDSEC
  0
SECTION
  2
TABLES
  0
TABLE
  2
VPORT
  5
8
330
0
100
AcDbSymbolTable
 70
     1
  0
VPORT
  5
29
330
8
100
AcDbSymbolTableRecord
100
AcDbViewportTableRecord
  2
*Active
 70
     0
 10
0.0
 20
0.0
 11
1.0
 21
1.0
 12
40.41939597845084
 22
0.0
 13
0.0
 23
0.0
 14
10.0
 24
10.0
 15
10.0
 25
10.0
 16
0.0
 26
0.0
 36
1.0
 17
0.0
 27
0.0
 37
0.0
 40
173.298
 41
1.603008876062967
 42
50.0
 43
0.0
 44
0.0
 50
0.0
 51
0.0
 71
     0
 72
   100
 73
     1
 74
     3
 75
     0
 76
     0
 77
     0
 78
     0
281
     0
 65
     1
110
0.0
120
0.0
130
0.0
111
1.0
121
0.0
131
0.0
112
0.0
122
1.0
132
0.0
 79
     0
146
0.0
348
2F
 60
     3
 61
     5
292
     1
282
     1
141
0.0
142
0.0
 63
   250
361
6D
  0
ENDTAB
  0
TABLE
  2
LTYPE
  5
5
330
0
100
AcDbSymbolTable
 70
     3
  0
LTYPE
  5
14
330
5
100
AcDbSymbolTableRecord
100
AcDbLinetypeTableRecord
  2
ByBlock
 70
     0
  3

 72
    65
 73
     0
 40
0.0
  0
LTYPE
  5
15
330
5
100
AcDbSymbolTableRecord
100
AcDbLinetypeTableRecord
  2
ByLayer
 70
     0
  3

 72
    65
 73
     0
 40
0.0
  0
LTYPE
  5
16
330
5
100
AcDbSymbolTableRecord
100
AcDbLinetypeTableRecord
  2
Continuous
 70
     0
  3
Solid line
 72
    65
 73
     0
 40
0.0
  0
LTYPE
  5
9F
330
5
100
AcDbSymbolTableRecord
100
AcDbLinetypeTableRecord
  2
Dashed
 70
     0
  3

 72
    65
 73
     2
 40
2.0
 49
1.0
 74
     0
 49
-1.0
 74
     0
  0
LTYPE
  5
C6
330
5
100
AcDbSymbolTableRecord
100
AcDbLinetypeTableRecord
  2
Center
 70
     0
  3

 72
    65
 73
     4
 40
1.5
 49
0.45
 74
     0
 49
-0.5
 74
     0
 49
0.05
 74
     0
 49
-0.5
 74
     0
  0
ENDTAB
  0
TABLE
  2
LAYER
  5
2
330
0
100
AcDbSymbolTable
 70
     7
  0
LAYER
  5
10
330
2
100
AcDbSymbolTableRecord
100
AcDbLayerTableRecord
  2
0
 70
     0
 62
     7
  6
Continuous
370
    -3
390
F
347
46
348
0
  0
LAYER
  5
72
330
2
100
AcDbSymbolTableRecord
100
AcDbLayerTableRecord
  2
AM_6
 70
     0
 62
    -2
  6
Continuous
370
    35
390
F
347
46
348
0
  0
LAYER
  5
A0
330
2
100
AcDbSymbolTableRecord
100
AcDbLayerTableRecord
  2
AM_9
 70
     0
 62
     6
  6
Dashed
370
    25
390
F
347
46
348
0
  0
LAYER
  5
BF
330
2
100
AcDbSymbolTableRecord
100
AcDbLayerTableRecord
  2
AM_5
 70
     0
 62
     3
  6
Continuous
370
    25
390
F
347
46
348
0
  0
LAYER
  5
C7
330
2
100
AcDbSymbolTableRecord
100
AcDbLayerTableRecord
  2
AM_7
 70
     0
 62
     7
  6
Center
370
    25
390
F
347
46
348
0
  0
LAYER
  5
CA
330
2
100
AcDbSymbolTableRecord
100
AcDbLayerTableRecord
  2
AM_4
 70
     0
 62
     7
  6
Continuous
370
    50
390
F
347
46
348
0
  0
LAYER
  5
253
330
2
100
AcDbSymbolTableRecord
100
AcDbLayerTableRecord
  2
ConnectionPoints
 70
     0
 62
     7
  6
Continuous
370
    50
390
F
347
46
348
0
  0
ENDTAB
  0
TABLE
  2
STYLE
  5
3
330
0
100
AcDbSymbolTable
 70
     1
  0
STYLE
  5
11
330
3
100
AcDbSymbolTableRecord
100
AcDbTextStyleTableRecord
  2
Standard
 70
     0
 40
0.0
 41
1.0
 50
0.0
 71
     0
 42
2.5
  3
txt
  4

  0
ENDTAB
  0
TABLE
  2
VIEW
  5
6
330
0
100
AcDbSymbolTable
 70
     0
  0
ENDTAB
  0
TABLE
  2
UCS
  5
7
330
0
100
AcDbSymbolTable
 70
     0
  0
ENDTAB
  0
TABLE
  2
APPID
  5
9
330
0
100
AcDbSymbolTable
 70
     1
  0
APPID
  5
12
330
9
100
AcDbSymbolTableRecord
100
AcDbRegAppTableRecord
  2
ACAD
 70
     0
  0
ENDTAB
  0
TABLE
  2
DIMSTYLE
  5
A
330
0
100
AcDbSymbolTable
 70
     1
100
AcDbDimStyleTable
  0
DIMSTYLE
105
27
330
A
100
AcDbSymbolTableRecord
100
AcDbDimStyleTableRecord
  2
ISO-25
 70
     0
 41
2.5
 42
0.625
 43
3.75
 44
1.25
 73
     0
 74
     0
 77
     1
 78
     8
140
2.5
141
2.5
143
0.03937007874016
147
0.625
171
     3
172
     1
178
     0
271
     2
272
     2
274
     3
278
    44
283
     0
284
     8
340
11
  0
ENDTAB
  0
TABLE
  2
BLOCK_RECORD
  5
1
330
0
100
AcDbSymbolTable
 70
     6
  0
BLOCK_RECORD
  5
1F
330
1
100
AcDbSymbolTableRecord
100
AcDbBlockTableRecord
  2
*Model_Space
340
22
 70
     0
280
     1
281
     0
  0
BLOCK_RECORD
  5
1B
330
1
100
AcDbSymbolTableRecord
100
AcDbBlockTableRecord
  2
*Paper_Space
340
1E
 70
     0
280
     1
281
     0
  0
BLOCK_RECORD
  5
23
330
1
100
AcDbSymbolTableRecord
100
AcDbBlockTableRecord
  2
*Paper_Space0
340
26
 70
     0
280
     1
281
     0
  0
BLOCK_RECORD
  5
6E
330
1
100
AcDbSymbolTableRecord
100
AcDbBlockTableRecord
  2
1_136311_0
340
0
102
{BLKREFS
331
6F
102
}
 70
     0
280
     1
281
     0
  0
BLOCK_RECORD
  5
8E
330
1
100
AcDbSymbolTableRecord
100
AcDbBlockTableRecord
  2
2_405016_Metric_0_in_136311_0
340
0
102
{BLKREFS
331
8F
102
}
 70
     0
280
     1
281
     0
  0
BLOCK_RECORD
  5
10A
330
1
100
AcDbSymbolTableRecord
100
AcDbBlockTableRecord
  2
3_129527_0_in_136311_0
340
0
102
{BLKREFS
331
10B
102
}
 70
     0
280
     1
281
     0
  0
BLOCK_RECORD
  5
12D
330
1
100
AcDbSymbolTableRecord
100
AcDbBlockTableRecord
  2
4_129964_0_in_136311_0
340
0
102
{BLKREFS
331
12E
102
}
 70
     0
280
     1
281
     0
  0
BLOCK_RECORD
  5
168
330
1
100
AcDbSymbolTableRecord
100
AcDbBlockTableRecord
  2
5_WSTU_GT_15_0_in_136311_0
340
0
102
{BLKREFS
331
169
102
}
 70
     0
280
     1
281
     0
  0
ENDTAB
  0
ENDSEC
  0
SECTION
  2
BLOCKS
  0
BLOCK
  5
20
330
1F
100
AcDbEntity
  8
0
100
AcDbBlockBegin
  2
*Model_Space
 70
     0
 10
0.0
 20
0.0
 30
0.0
  3
*Model_Space
  1

  0
ENDBLK
  5
21
330
1F
100
AcDbEntity
  8
0
100
AcDbBlockEnd
  0
BLOCK
  5
1C
330
1B
100
AcDbEntity
 67
     1
  8
0
100
AcDbBlockBegin
  2
*Paper_Space
 70
     0
 10
0.0
 20
0.0
 30
0.0
  3
*Paper_Space
  1

  0
ENDBLK
  5
1D
330
1B
100
AcDbEntity
 67
     1
  8
0
100
AcDbBlockEnd
  0
BLOCK
  5
24
330
23
100
AcDbEntity
  8
0
100
AcDbBlockBegin
  2
*Paper_Space0
 70
     0
 10
0.0
 20
0.0
 30
0.0
  3
*Paper_Space0
  1

  0
ENDBLK
  5
25
330
23
100
AcDbEntity
  8
0
100
AcDbBlockEnd
  0
BLOCK
  5
70
330
6E
100
AcDbEntity
  8
0
100
AcDbBlockBegin
  2
1_136311_0
 70
     2
 10
0.0
 20
0.0
 30
0.0
  3
1_136311_0
  1

  0
ATTDEF
  5
73
330
6E
100
AcDbEntity
  8
AM_6
100
AcDbText
 10
181.595
 20
84.95
 30
0.0
 40
0.5
  1
Grip Tight Medium Duty Wide Slot Take Up Metric Bore
100
AcDbAttributeDefinition
  3

  2
NN
 70
     8
280
     0
  0
ATTDEF
  5
74
330
6E
100
AcDbEntity
  8
AM_6
100
AcDbText
 10
181.595
 20
84.45
 30
0.0
 40
0.5
  1
GT Wide Slot Take-Up Bearings -(Medium Duty)
100
AcDbAttributeDefinition
  3

  2
NT
 70
     8
280
     0
  0
ATTDEF
  5
75
330
6E
100
AcDbEntity
  8
AM_6
100
AcDbText
 10
181.595
 20
83.95
 30
0.0
 40
0.5
  1
136311
100
AcDbAttributeDefinition
  3

  2
NB
 70
     8
280
     0
  0
ATTDEF
  5
76
330
6E
100
AcDbEntity
  8
AM_6
100
AcDbText
 10
181.595
 20
83.45
 30
0.0
 40
0.5
  1
$PN.$LUBE.
100
AcDbAttributeDefinition
  3

  2
NBSYN
 70
     8
280
     0
  0
ATTDEF
  5
77
330
6E
100
AcDbEntity
  8
AM_6
100
AcDbText
 10
181.595
 20
82.95
 30
0.0
 40
0.5
  1
136311
100
AcDbAttributeDefinition
  3

  2
LINA
 70
     8
280
     0
  0
ATTDEF
  5
78
330
6E
100
AcDbEntity
  8
AM_6
100
AcDbText
 10
181.595
 20
82.45
 30
0.0
 40
0.5
  1
215
100
AcDbAttributeDefinition
  3

  2
SERIES
 70
     8
280
     0
  0
ATTDEF
  5
79
330
6E
100
AcDbEntity
  8
AM_6
100
AcDbText
 10
181.595
 20
81.95
 30
0.0
 40
0.5
  1
70
100
AcDbAttributeDefinition
  3

  2
SS
 70
     8
280
     0
  0
ATTDEF
  5
7A
330
6E
100
AcDbEntity
  8
AM_6
100
AcDbText
 10
181.595
 20
81.45
 30
0.0
 40
0.5
  1
136311
100
AcDbAttributeDefinition
  3

  2
PN
 70
     8
280
     0
  0
ATTDEF
  5
7B
330
6E
100
AcDbEntity
  8
AM_6
100
AcDbText
 10
181.595
 20
80.95
 30
0.0
 40
0.5
  1
WSTU-GTM-70M
100
AcDbAttributeDefinition
  3

  2
DESCRIPTION
 70
     8
280
     0
  0
ATTDEF
  5
7C
330
6E
100
AcDbEntity
  8
AM_6
100
AcDbText
 10
181.595
 20
80.45
 30
0.0
 40
0.5
  1
65.1
100
AcDbAttributeDefinition
  3

  2
A
 70
     8
280
     0
  0
ATTDEF
  5
7D
330
6E
100
AcDbEntity
  8
AM_6
100
AcDbText
 10
181.595
 20
79.95
 30
0.0
 40
0.5
  1
231.8
100
AcDbAttributeDefinition
  3

  2
B
 70
     8
280
     0
  0
ATTDEF
  5
7E
330
6E
100
AcDbEntity
  8
AM_6
100
AcDbText
 10
181.595
 20
79.45
 30
0.0
 40
0.5
  1
27.0
100
AcDbAttributeDefinition
  3

  2
C
 70
     8
280
     0
  0
ATTDEF
  5
7F
330
6E
100
AcDbEntity
  8
AM_6
100
AcDbText
 10
181.595
 20
78.95
 30
0.0
 40
0.5
  1
120.7
100
AcDbAttributeDefinition
  3

  2
D
 70
     8
280
     0
  0
ATTDEF
  5
80
330
6E
100
AcDbEntity
  8
AM_6
100
AcDbText
 10
181.595
 20
78.45
 30
0.0
 40
0.5
  1
139.7
100
AcDbAttributeDefinition
  3

  2
E
 70
     8
280
     0
  0
ATTDEF
  5
81
330
6E
100
AcDbEntity
  8
AM_6
100
AcDbText
 10
181.595
 20
77.95
 30
0.0
 40
0.5
  1
38.1
100
AcDbAttributeDefinition
  3

  2
F
 70
     8
280
     0
  0
ATTDEF
  5
82
330
6E
100
AcDbEntity
  8
AM_6
100
AcDbText
 10
181.595
 20
77.45
 30
0.0
 40
0.5
  1
20.6
100
AcDbAttributeDefinition
  3

  2
G
 70
     8
280
     0
  0
ATTDEF
  5
83
330
6E
100
AcDbEntity
  8
AM_6
100
AcDbText
 10
181.595
 20
76.95
 30
0.0
 40
0.5
  1
31.8
100
AcDbAttributeDefinition
  3

  2
H
 70
     8
280
     0
  0
ATTDEF
  5
84
330
6E
100
AcDbEntity
  8
AM_6
100
AcDbText
 10
181.595
 20
76.45
 30
0.0
 40
0.5
  1
111.1
100
AcDbAttributeDefinition
  3

  2
J
 70
     8
280
     0
  0
ATTDEF
  5
85
330
6E
100
AcDbEntity
  8
AM_6
100
AcDbText
 10
181.595
 20
75.95
 30
0.0
 40
0.5
  1
69.9
100
AcDbAttributeDefinition
  3

  2
K
 70
     8
280
     0
  0
ATTDEF
  5
86
330
6E
100
AcDbEntity
  8
AM_6
100
AcDbText
 10
181.595
 20
75.45
 30
0.0
 40
0.5
  1
108.0
100
AcDbAttributeDefinition
  3

  2
L
 70
     8
280
     0
  0
ATTDEF
  5
87
330
6E
100
AcDbEntity
  8
AM_6
100
AcDbText
 10
181.595
 20
74.95
 30
0.0
 40
0.5
  1
150.8
100
AcDbAttributeDefinition
  3

  2
M
 70
     8
280
     0
  0
ATTDEF
  5
88
330
6E
100
AcDbEntity
  8
AM_6
100
AcDbText
 10
181.595
 20
74.45
 30
0.0
 40
0.5
  1
169.9
100
AcDbAttributeDefinition
  3

  2
N
 70
     8
280
     0
  0
ATTDEF
  5
89
330
6E
100
AcDbEntity
  8
AM_6
100
AcDbText
 10
181.595
 20
73.95
 30
0.0
 40
0.5
  1
22.6
100
AcDbAttributeDefinition
  3

  2
R
 70
     8
280
     0
  0
ATTDEF
  5
8A
330
6E
100
AcDbEntity
  8
AM_6
100
AcDbText
 10
181.595
 20
73.45
 30
0.0
 40
0.5
  1
42.5
100
AcDbAttributeDefinition
  3

  2
S
 70
     8
280
     0
  0
ATTDEF
  5
8B
330
6E
100
AcDbEntity
  8
AM_6
100
AcDbText
 10
181.595
 20
72.95
 30
0.0
 40
0.5
  1
69.9
100
AcDbAttributeDefinition
  3

  2
T
 70
     8
280
     0
  0
ATTDEF
  5
8C
330
6E
100
AcDbEntity
  8
AM_6
100
AcDbText
 10
181.595
 20
72.45
 30
0.0
 40
0.5
  1
41.3
100
AcDbAttributeDefinition
  3

  2
Z
 70
     8
280
     0
  0
ATTDEF
  5
8D
330
6E
100
AcDbEntity
  8
AM_6
100
AcDbText
 10
181.595
 20
71.95
 30
0.0
 40
0.5
  1
baldor
100
AcDbAttributeDefinition
  3

  2
COMPANY
 70
     8
280
     0
  0
INSERT
  5
8F
330
6E
100
AcDbEntity
  8
0
100
AcDbBlockReference
  2
2_405016_Metric_0_in_136311_0
 10
0.0
 20
0.0
 30
0.0
  0
INSERT
  5
10B
330
6E
100
AcDbEntity
  8
0
100
AcDbBlockReference
  2
3_129527_0_in_136311_0
 10
0.0
 20
0.0
 30
0.0
  0
INSERT
  5
12E
330
6E
100
AcDbEntity
  8
0
100
AcDbBlockReference
  2
4_129964_0_in_136311_0
 10
0.0
 20
0.0
 30
0.0
  0
INSERT
  5
169
330
6E
100
AcDbEntity
  8
0
100
AcDbBlockReference
  2
5_WSTU_GT_15_0_in_136311_0
 10
0.0
 20
0.0
 30
0.0
  0
ENDBLK
  5
71
330
6E
100
AcDbEntity
  8
0
100
AcDbBlockEnd
  0
BLOCK
  5
90
330
8E
100
AcDbEntity
  8
0
100
AcDbBlockBegin
  2
2_405016_Metric_0_in_136311_0
 70
     2
 10
0.0
 20
0.0
 30
0.0
  3
2_405016_Metric_0_in_136311_0
  1

  0
ATTDEF
  5
92
330
8E
100
AcDbEntity
  8
AM_6
100
AcDbText
 10
-69.62795759119767
 20
-40.49490184921514
 30
0.0
 40
0.5
  1
405016 -Metric
100
AcDbAttributeDefinition
  3

  2
NN
 70
     8
280
     0
  0
ATTDEF
  5
93
330
8E
100
AcDbEntity
  8
AM_6
100
AcDbText
 10
-69.62795759119767
 20
-40.99490184921514
 30
0.0
 40
0.5
  1
Grease Fitting
100
AcDbAttributeDefinition
  3

  2
NT
 70
     8
280
     0
  0
ATTDEF
  5
94
330
8E
100
AcDbEntity
  8
AM_6
100
AcDbText
 10
-69.62795759119767
 20
-41.49490184921514
 30
0.0
 40
0.5
  1
405016-Metric
100
AcDbAttributeDefinition
  3

  2
NB
 70
     8
280
     0
  0
ATTDEF
  5
95
330
8E
100
AcDbEntity
  8
AM_6
100
AcDbText
 10
-69.62795759119767
 20
-41.99490184921514
 30
0.0
 40
0.5
  1
$MN.-Metric
100
AcDbAttributeDefinition
  3

  2
NBSYN
 70
     8
280
     0
  0
ATTDEF
  5
96
330
8E
100
AcDbEntity
  8
AM_6
100
AcDbText
 10
-69.62795759119767
 20
-42.49490184921514
 30
0.0
 40
0.5
  1
405016
100
AcDbAttributeDefinition
  3

  2
LINA
 70
     8
280
     0
  0
ATTDEF
  5
97
330
8E
100
AcDbEntity
  8
AM_6
100
AcDbText
 10
-69.62795759119767
 20
-42.99490184921514
 30
0.0
 40
0.5
  1
405016
100
AcDbAttributeDefinition
  3

  2
MN
 70
     8
280
     0
  0
ATTDEF
  5
98
330
8E
100
AcDbEntity
  8
AM_6
100
AcDbText
 10
-69.62795759119767
 20
-43.49490184921514
 30
0.0
 40
0.5
  1
7/16 HEX
100
AcDbAttributeDefinition
  3

  2
H
 70
     8
280
     0
  0
ATTDEF
  5
99
330
8E
100
AcDbEntity
  8
AM_6
100
AcDbText
 10
-69.62795759119767
 20
-43.99490184921514
 30
0.0
 40
0.5
  1
9.728
100
AcDbAttributeDefinition
  3

  2
NDR
 70
     8
280
     0
  0
ATTDEF
  5
9A
330
8E
100
AcDbEntity
  8
AM_6
100
AcDbText
 10
-69.62795759119767
 20
-44.49490184921514
 30
0.0
 40
0.5
  1
8.560
100
AcDbAttributeDefinition
  3

  2
KDR
 70
     8
280
     0
  0
ATTDEF
  5
9B
330
8E
100
AcDbEntity
  8
AM_6
100
AcDbText
 10
-69.62795759119767
 20
-44.99490184921514
 30
0.0
 40
0.5
  1
4.0005
100
AcDbAttributeDefinition
  3

  2
BZE
 70
     8
280
     0
  0
ATTDEF
  5
9C
330
8E
100
AcDbEntity
  8
AM_6
100
AcDbText
 10
-69.62795759119767
 20
-45.49490184921514
 30
0.0
 40
0.5
  1
11.1125
100
AcDbAttributeDefinition
  3

  2
HEX
 70
     8
280
     0
  0
ATTDEF
  5
9D
330
8E
100
AcDbEntity
  8
AM_6
100
AcDbText
 10
-69.62795759119767
 20
-45.99490184921514
 30
0.0
 40
0.5
  1
7.143750
100
AcDbAttributeDefinition
  3

  2
HEX2
 70
     8
280
     0
  0
ATTDEF
  5
9E
330
8E
100
AcDbEntity
  8
AM_6
100
AcDbText
 10
-69.62795759119767
 20
-46.49490184921514
 30
0.0
 40
0.5
  1
baldor
100
AcDbAttributeDefinition
  3

  2
COMPANY
 70
     8
280
     0
  0
LINE
  5
A1
330
8E
100
AcDbEntity
  8
AM_9
100
AcDbLine
 10
-74.62795759119767
 20
-47.82808578695019
 30
0.0
 11
-78.73431610147914
 21
-40.71566421304982
 31
0.0
  0
LINE
  5
A2
330
8E
100
AcDbEntity
  8
AM_9
100
AcDbLine
 10
-78.73431610147914
 20
-40.71566421304982
 30
0.0
 11
-79.55821245970918
 21
-40.49490184921514
 31
0.0
  0
LINE
  5
A3
330
8E
100
AcDbEntity
  8
AM_9
100
AcDbLine
 10
-74.84871995503234
 20
-48.65198214518023
 30
0.0
 11
-74.62795759119767
 21
-47.82808578695019
 31
0.0
  0
ARC
  5
A4
330
8E
100
AcDbEntity
  8
AM_9
100
AcDbCircle
 10
-88.64203020439338
 20
-51.1775000000213
 30
0.0
 40
5.079999999969393
100
AcDbArc
 50
165.4547915767351
 51
254.2031652830043
  0
LINE
  5
A5
330
8E
100
AcDbEntity
  8
AM_9
100
AcDbLine
 10
-74.84871995503234
 20
-48.65198214518023
 30
0.0
 11
-79.55821245970918
 21
-40.49490184921514
 31
0.0
  0
LINE
  5
A6
330
8E
100
AcDbEntity
  8
AM_9
100
AcDbLine
 10
-79.55821245970918
 20
-40.49490184921514
 30
0.0
 11
-83.92513305369252
 21
-42.83740551902643
 31
0.0
  0
LINE
  5
A7
330
8E
100
AcDbEntity
  8
AM_9
100
AcDbLine
 10
-79.06084793853886
 20
-51.26259448097358
 30
0.0
 11
-74.84871995503234
 21
-48.65198214518023
 31
0.0
  0
LINE
  5
A8
330
8E
100
AcDbEntity
  8
AM_9
100
AcDbLine
 10
-92.3354351005934
 20
-55.69113831106882
 30
0.0
 11
-92.62300306047987
 21
-55.85716575011958
 31
0.0
  0
LINE
  5
A9
330
8E
100
AcDbEntity
  8
AM_9
100
AcDbLine
 10
-94.39765809335509
 20
-52.11926331106881
 30
0.0
 11
-94.68522605324158
 21
-52.28529075011959
 31
0.0
  0
LWPOLYLINE
  5
AA
330
8E
100
AcDbEntity
  8
AM_9
100
AcDbPolyline
 90
        6
 70
     0
 43
0.0
 10
-94.39765809335509
 20
-52.11926331106881
 10
-93.97561570687186
 20
-52.72716981401243
 10
-93.5678285454315
 20
-53.35852718757703
 10
-93.17454342741394
 20
-54.02398433551978
 10
-92.80652498349927
 20
-54.71052124034203
 10
-92.3354351005934
 20
-55.69113831106882
  0
LINE
  5
AB
330
8E
100
AcDbEntity
  8
AM_9
100
AcDbLine
 10
-87.25227792853704
 20
-53.58462155165333
 30
0.0
 11
-90.0495438951687
 21
-48.73961477516401
 31
0.0
  0
ELLIPSE
  5
AC
330
8E
100
AcDbEntity
  8
AM_9
100
AcDbEllipse
 10
-90.43568004593678
 20
-52.21306421886847
 30
0.0
 11
-1.785937500000003
 21
3.093334489142542
 31
0.0
210
0.0
220
0.0
230
1.0
 40
0.9063077870366497
 41
5.859216366485142
 42
9.848746901463814
  0
LWPOLYLINE
  5
AD
330
8E
100
AcDbEntity
  8
AM_9
100
AcDbPolyline
 90
        6
 70
     0
 43
0.0
 10
-92.3354351005934
 20
-55.69113831106882
 10
-91.59363807010551
 20
-55.68971497347935
 10
-90.86024434476657
 20
-55.7008620967062
 10
-90.13155058784335
 20
-55.72781574339293
 10
-89.42572315588988
 20
-55.77142327771372
 10
-88.49559401121557
 20
-55.85545502447115
  0
LWPOLYLINE
  5
AE
330
8E
100
AcDbEntity
  8
AM_9
100
AcDbPolyline
 90
        6
 70
     0
 43
0.0
 10
-92.62003999673895
 20
-48.71170502447114
 10
-92.88189206021514
 20
-49.28501849892115
 10
-93.17002526180407
 20
-49.88100486283387
 10
-93.49296021605497
 20
-50.50973826329616
 10
-93.84591674127314
 20
-51.15892471870117
 10
-94.39765809335509
 20
-52.11926331106881
  0
LWPOLYLINE
  5
AF
330
8E
100
AcDbEntity
  8
AM_9
100
AcDbPolyline
 90
        5
 70
     0
 43
0.0
 10
-87.50997505968364
 20
-53.13827702754266
 10
-87.71234867261894
 20
-53.53233339056032
 10
-87.98555293784716
 20
-53.89169258101902
 10
-88.30668644651722
 20
-54.18628096276115
 10
-88.57108839726655
 20
-54.36277501387099
  0
LWPOLYLINE
  5
B0
330
8E
100
AcDbEntity
  8
AM_9
100
AcDbPolyline
 90
        9
 70
     0
 43
0.0
 10
-87.57483387606605
 20
-51.01712368195715
 10
-87.57731368483584
 20
-51.01132388347287
 10
-87.78943131545739
 20
-50.59958631698213
 10
-88.06562076756683
 20
-50.21171697599754
 10
-88.38053813910197
 20
-49.88331484601792
 10
-88.74689327039817
 20
-49.60259458609682
 10
-89.14092295886293
 20
-49.39256082294768
 10
-89.575095415052
 20
-49.25226857346146
 10
-89.77408534902882
 20
-49.21672297245735
  0
LWPOLYLINE
  5
B1
330
8E
100
AcDbEntity
  8
AM_9
100
AcDbPolyline
 90
        6
 70
     0
 43
0.0
 10
-87.50997505968364
 20
-53.13827702754266
 10
-87.38412668369313
 20
-52.73201089390839
 10
-87.33058641823784
 20
-52.32416923971289
 10
-87.34277261987215
 20
-51.89829675767452
 10
-87.42444725846917
 20
-51.45511714162146
 10
-87.57483387606605
 20
-51.01712368195715
  0
LINE
  5
B2
330
8E
100
AcDbEntity
  8
AM_9
100
AcDbLine
 10
-91.36483974753351
 20
-49.52328151847387
 30
0.0
 11
-91.83268004593678
 21
-49.79338924069475
 31
0.0
  0
LINE
  5
B3
330
8E
100
AcDbEntity
  8
AM_9
100
AcDbLine
 10
-89.03868004593677
 20
-54.63273919704218
 30
0.0
 11
-88.57084156004814
 21
-54.36263252127711
 31
0.0
  0
LWPOLYLINE
  5
B4
330
8E
100
AcDbEntity
  8
AM_9
100
AcDbPolyline
 90
       21
 70
     0
 43
0.0
 10
-88.57108839726655
 20
-54.36277501387099
 10
-88.68490319442158
 20
-54.42450398452264
 10
-89.08881086531635
 20
-54.58648510379631
 10
-89.529779498788
 20
-54.6766474248098
 10
-89.97060861789623
 20
-54.68738010504426
 10
-90.42419449213715
 20
-54.61897056608315
 10
-90.85167043423904
 20
-54.47739677942889
 10
-91.26611572931695
 20
-54.25844987254284
 10
-91.63185162115673
 20
-53.98117718386943
 10
-91.96033338394672
 20
-53.63713980143762
 10
-92.2234704792031
 20
-53.25598889147064
 10
-92.4294689195472
 20
-52.82617048344427
 10
-92.56095560579456
 20
-52.38411945689948
 10
-92.62191399147595
 20
-51.91682779519102
 10
-92.60724335896494
 20
-51.46318536004809
 10
-92.51652208221319
 20
-51.01043103280827
 10
-92.35707238161453
 20
-50.59573983368016
 10
-92.12446936542143
 20
-50.20795336822163
 10
-91.83754616070634
 20
-49.87881015362552
 10
-91.4885209217313
 20
-49.59968684955894
 10
-91.36503508375928
 20
-49.52339430749396
  0
LWPOLYLINE
  5
B5
330
8E
100
AcDbEntity
  8
AM_9
100
AcDbPolyline
 90
        5
 70
     0
 43
0.0
 10
-91.36503508375928
 20
-49.52339430749396
 10
-91.10595908234845
 20
-49.39363114871168
 10
-90.67940614272909
 20
-49.25524012688495
 10
-90.2374630044176
 20
-49.19581586980426
 10
-89.77408534902838
 20
-49.21672297245754
  0
ELLIPSE
  5
B6
330
8E
100
AcDbEntity
  8
AM_9
100
AcDbEllipse
 10
-90.43568004593692
 20
-52.21306421886845
 30
0.0
 11
-1.785937500000031
 21
3.093334489142698
 31
0.0
210
0.0
220
0.0
230
1.0
 40
0.9063077870366467
 41
3.764821264091978
 42
4.571432719802696
  0
ELLIPSE
  5
B7
330
8E
100
AcDbEntity
  8
AM_9
100
AcDbEllipse
 10
-90.4356800459368
 20
-52.21306421886857
 30
0.0
 11
-1.785937500000543
 21
3.09333448914235
 31
0.0
210
0.0
220
0.0
230
1.0
 40
0.9063077870366847
 41
4.853345240966572
 42
5.65995669667728
  0
LWPOLYLINE
  5
B8
330
8E
100
AcDbEntity
  8
AM_9
100
AcDbPolyline
 90
        5
 70
     0
 43
0.0
 10
-92.62300306047987
 20
-55.85716575011958
 10
-93.17830772834498
 20
-55.01722104716567
 10
-93.7090683363668
 20
-54.14453519314443
 10
-94.21497587306149
 20
-53.22541173564805
 10
-94.68522605324158
 20
-52.28529075011959
  0
LWPOLYLINE
  5
B9
330
8E
100
AcDbEntity
  8
AM_9
100
AcDbPolyline
 90
        4
 70
     0
 43
0.0
 10
-89.99869621878138
 20
-56.0112134924772
 10
-90.74764898433544
 20
-55.98578491330026
 10
-91.70316636110951
 20
-55.93179039060553
 10
-92.62300306047987
 20
-55.85716575011958
  0
LWPOLYLINE
  5
BA
330
8E
100
AcDbEntity
  8
AM_9
100
AcDbPolyline
 90
        4
 70
     0
 43
0.0
 10
-94.68522605324158
 20
-52.28529075011959
 10
-94.30734725494744
 20
-51.48708835050993
 10
-93.89004373998351
 20
-50.65674219793953
 10
-93.49706212701052
 20
-49.91826341831044
  0
ELLIPSE
  5
BB
330
8E
100
AcDbEntity
  8
AM_9
100
AcDbEllipse
 10
-90.90049769741552
 20
-52.4814268150738
 30
0.0
 11
-1.785937500000002
 21
3.093334489142563
 31
0.0
210
0.0
220
0.0
230
1.0
 40
0.9063077870366495
 41
0.2238836634021721
 42
2.915879327203331
  0
LWPOLYLINE
  5
BC
330
8E
100
AcDbEntity
  8
AM_9
100
AcDbPolyline
 90
       15
 70
     0
 43
0.0
 10
-89.344469642449
 20
-52.72190725754564
 10
-89.3142500887963
 20
-52.90233989080124
 10
-89.29194843941443
 20
-53.41304377870592
 10
-89.36213323430927
 20
-53.89422676399977
 10
-89.51751106492527
 20
-54.32809598818472
 10
-89.75037753385978
 20
-54.70227478493841
 10
-90.05698387438926
 20
-55.00844167242533
 10
-90.43954143740073
 20
-55.23650551997766
 10
-90.89551363554044
 20
-55.36678205063923
 10
-91.3310689145051
 20
-55.38344461393564
 10
-91.82337540693989
 20
-55.2924705754666
 10
-92.29968026536007
 20
-55.09370756932754
 10
-92.74067518581931
 20
-54.79762338156434
 10
-93.12829994076003
 20
-54.41723495733622
 10
-93.45379101107915
 20
-53.95557139703758
  0
LWPOLYLINE
  5
BD
330
8E
100
AcDbEntity
  8
AM_9
100
AcDbPolyline
 90
       15
 70
     0
 43
0.0
 10
-93.45379101107915
 20
-53.95557139703758
 10
-93.56377334809764
 20
-53.74738103068808
 10
-93.75500109671894
 20
-53.24082118220116
 10
-93.8513758574127
 20
-52.7222600380738
 10
-93.85203413511694
 20
-52.21648624894973
 10
-93.76164216822897
 20
-51.7447443089436
 10
-93.58793226063817
 20
-51.32362981405868
 10
-93.33809654578425
 20
-50.9643397629332
 10
-93.01445967708237
 20
-50.67489990126317
 10
-92.61422301489362
 20
-50.46706798965376
 10
-92.14638286399695
 20
-50.36280099791804
 10
-91.70787137593416
 20
-50.37032446596412
 10
-91.21783258730811
 20
-50.48667837927579
 10
-90.7480090919704
 20
-50.7086231876688
 10
-90.36269158391264
 20
-50.98597086510747
  0
ELLIPSE
  5
BE
330
8E
100
AcDbEntity
  8
AM_9
100
AcDbEllipse
 10
-92.19592062769826
 20
-53.22933959258696
 30
0.0
 11
1.691562466580847
 21
-2.929872136294563
 31
0.0
210
0.0
220
0.0
230
1.0
 40
0.9063077870366513
 41
0.0
 42
6.283185307179586
  0
LINE
  5
C0
330
8E
100
AcDbEntity
  8
AM_5
100
AcDbLine
 10
-78.44312597015936
 20
-50.19266864678882
 30
0.0
 11
-74.62795759119767
 21
-47.8280857869502
 31
0.0
  0
LINE
  5
C1
330
8E
100
AcDbEntity
  8
AM_5
100
AcDbLine
 10
-79.06084793853886
 20
-51.26259448097358
 30
0.0
 11
-78.44312597015936
 21
-50.19266864678881
 31
0.0
  0
LINE
  5
C2
330
8E
100
AcDbEntity
  8
AM_5
100
AcDbLine
 10
-78.15098341258253
 20
-50.69867439956501
 30
0.0
 11
-82.98183167451033
 21
-42.33139976625026
 31
0.0
  0
LINE
  5
C3
330
8E
100
AcDbEntity
  8
AM_5
100
AcDbLine
 10
-82.68968911693351
 20
-42.83740551902643
 30
0.0
 11
-78.73431610147912
 21
-40.71566421304982
 31
0.0
  0
LINE
  5
C4
330
8E
100
AcDbEntity
  8
AM_5
100
AcDbLine
 10
-83.9251330536925
 20
-42.83740551902643
 30
0.0
 11
-82.68968911693351
 21
-42.83740551902643
 31
0.0
  0
ELLIPSE
  5
C5
330
8E
100
AcDbEntity
  8
AM_9
100
AcDbEllipse
 10
-90.43568004593678
 20
-52.21306421886844
 30
0.0
 11
-1.397000000000019
 21
2.419674978173739
 31
0.0
210
0.0
220
0.0
230
1.0
 40
0.9063077870366485
 41
0.0
 42
6.283185307179586
  0
LINE
  5
C8
330
8E
100
AcDbEntity
  8
AM_7
100
AcDbLine
 10
-93.97603020435639
 20
-51.17749999999989
 30
0.0
 11
-83.30803020435616
 21
-51.17749999999989
 31
0.0
  0
LINE
  5
C9
330
8E
100
AcDbEntity
  8
AM_7
100
AcDbLine
 10
-88.64203020435627
 20
-56.51150000000001
 30
0.0
 11
-88.64203020435627
 21
-45.84349999999976
 31
0.0
  0
LINE
  5
CB
330
8E
100
AcDbEntity
  8
AM_4
100
AcDbLine
 10
-82.63308918236291
 20
-54.1240411497773
 30
0.0
 11
-82.00385134828721
 21
-54.753278983853
 31
0.0
  0
LINE
  5
CC
330
8E
100
AcDbEntity
  8
AM_4
100
AcDbLine
 10
-82.63308918236291
 20
-54.1240411497773
 30
0.0
 11
-88.18933918236291
 21
-44.50033385022272
 31
0.0
  0
LINE
  5
CD
330
8E
100
AcDbEntity
  8
AM_4
100
AcDbLine
 10
-88.41965621465691
 20
-43.640778983853
 30
0.0
 11
-88.18933918236291
 21
-44.50033385022272
 31
0.0
  0
LINE
  5
CE
330
8E
100
AcDbEntity
  8
AM_4
100
AcDbLine
 10
-80.43338465675045
 20
-52.8540411497773
 30
0.0
 11
-85.98963465675044
 21
-43.23033385022272
 31
0.0
  0
LINE
  5
CF
330
8E
100
AcDbEntity
  8
AM_4
100
AcDbLine
 10
-85.98963465675044
 20
-43.23033385022272
 30
0.0
 11
-86.61887249082615
 21
-42.60109601614701
 31
0.0
  0
LINE
  5
D0
330
8E
100
AcDbEntity
  8
AM_4
100
AcDbLine
 10
-80.20306762445644
 20
-53.71359601614702
 30
0.0
 11
-80.43338465675045
 21
-52.8540411497773
 31
0.0
  0
ARC
  5
D1
330
8E
100
AcDbEntity
  8
AM_4
100
AcDbCircle
 10
-88.64203020435626
 20
-51.17749999999987
 30
0.0
 40
5.080000000000124
100
AcDbArc
 50
254.2031652826672
 51
299.9999999999994
  0
ARC
  5
D2
330
8E
100
AcDbEntity
  8
AM_4
100
AcDbCircle
 10
-88.64203020435627
 20
-51.17749999999997
 30
0.0
 40
5.079999999999952
100
AcDbArc
 50
119.9999999999998
 51
165.4547915770731
  0
LINE
  5
D3
330
8E
100
AcDbEntity
  8
AM_4
100
AcDbLine
 10
-90.0495438951687
 20
-48.73961477516401
 30
0.0
 11
-91.18203020435624
 21
-46.77809094877506
 31
0.0
  0
LINE
  5
D4
330
8E
100
AcDbEntity
  8
AM_4
100
AcDbLine
 10
-87.95121418236292
 20
-44.91277844877506
 30
0.0
 11
-91.18203020435624
 21
-46.77809094877506
 31
0.0
  0
LINE
  5
D5
330
8E
100
AcDbEntity
  8
AM_4
100
AcDbLine
 10
-86.10203020435624
 20
-55.57690905122496
 30
0.0
 11
-82.87121418236292
 21
-53.71159655122496
 31
0.0
  0
LINE
  5
D6
330
8E
100
AcDbEntity
  8
AM_4
100
AcDbLine
 10
-86.10203020435624
 20
-55.57690905122496
 30
0.0
 11
-87.25227792853704
 21
-53.58462155165333
 31
0.0
  0
LINE
  5
D7
330
8E
100
AcDbEntity
  8
AM_4
100
AcDbLine
 10
-84.03299049611569
 20
-42.65059094877506
 30
0.0
 11
-85.75150965675043
 21
-43.64277844877506
 31
0.0
  0
LINE
  5
D8
330
8E
100
AcDbEntity
  8
AM_4
100
AcDbLine
 10
-80.67150965675043
 20
-52.44159655122495
 30
0.0
 11
-78.95299049611569
 21
-51.44940905122495
 31
0.0
  0
LINE
  5
D9
330
8E
100
AcDbEntity
  8
AM_4
100
AcDbLine
 10
-88.41965621465691
 20
-43.640778983853
 30
0.0
 11
-86.61887249082615
 21
-42.60109601614701
 31
0.0
  0
LWPOLYLINE
  5
DA
330
8E
100
AcDbEntity
  8
AM_4
100
AcDbPolyline
 90
        3
 70
     0
 43
0.0
 10
-87.81714100725155
 20
-45.14500000000001
 10
-88.16548150595611
 20
-44.42007281403007
 10
-88.41965621465691
 20
-43.640778983853
  0
LWPOLYLINE
  5
DB
330
8E
100
AcDbEntity
  8
AM_4
100
AcDbPolyline
 90
        3
 70
     0
 43
0.0
 10
-86.61887249082615
 20
-42.60109601614701
 10
-86.07333964951853
 20
-43.20801041734188
 10
-85.61743648163907
 20
-43.87500000000001
  0
LWPOLYLINE
  5
DC
330
8E
100
AcDbEntity
  8
AM_4
100
AcDbPolyline
 90
        3
 70
     0
 43
0.0
 10
-86.81570499806449
 20
-46.41890398385301
 10
-87.3612378393721
 20
-45.81198958265814
 10
-87.81714100725155
 20
-45.14500000000001
  0
LWPOLYLINE
  5
DD
330
8E
100
AcDbEntity
  8
AM_4
100
AcDbPolyline
 90
        3
 70
     0
 43
0.0
 10
-85.61743648163907
 20
-43.87500000000001
 10
-85.26909598293452
 20
-44.59992718596995
 10
-85.01492127423371
 20
-45.37922101614701
  0
LINE
  5
DE
330
8E
100
AcDbEntity
  8
AM_4
100
AcDbLine
 10
-86.81570499806449
 20
-46.41890398385301
 30
0.0
 11
-85.01492127423371
 21
-45.37922101614701
 31
0.0
  0
LWPOLYLINE
  5
DF
330
8E
100
AcDbEntity
  8
AM_4
100
AcDbPolyline
 90
        4
 70
     0
 43
0.0
 10
-85.41121418236291
 20
-49.31218750000001
 10
-85.99470969902464
 20
-48.22953153472264
 10
-86.51997263391499
 20
-47.11325497268395
 10
-86.81570499806449
 20
-46.41890398385301
  0
LWPOLYLINE
  5
E0
330
8E
100
AcDbEntity
  8
AM_4
100
AcDbPolyline
 90
        3
 70
     0
 43
0.0
 10
-83.60780256487962
 20
-51.97515398385301
 10
-84.55252026119284
 20
-50.67683113217643
 10
-85.41121418236291
 20
-49.31218750000001
  0
LWPOLYLINE
  5
E1
330
8E
100
AcDbEntity
  8
AM_4
100
AcDbPolyline
 90
        4
 70
     0
 43
0.0
 10
-85.01492127423371
 20
-45.37922101614701
 10
-84.56146186083802
 20
-45.98250825063718
 10
-83.85936266898723
 20
-46.9925052417174
 10
-83.21150965675044
 20
-48.0421875
  0
LWPOLYLINE
  5
E2
330
8E
100
AcDbEntity
  8
AM_4
100
AcDbPolyline
 90
        3
 70
     0
 43
0.0
 10
-83.21150965675044
 20
-48.0421875
 10
-82.46218135389776
 20
-49.46164593596995
 10
-81.80701884104886
 20
-50.93547101614701
  0
LINE
  5
E3
330
8E
100
AcDbEntity
  8
AM_4
100
AcDbLine
 10
-83.60780256487962
 20
-51.97515398385301
 30
0.0
 11
-81.80701884104886
 21
-50.93547101614701
 31
0.0
  0
LWPOLYLINE
  5
E4
330
8E
100
AcDbEntity
  8
AM_4
100
AcDbPolyline
 90
        3
 70
     0
 43
0.0
 10
-83.00528735747427
 20
-53.47937500000001
 10
-83.35362785617883
 20
-52.75444781403007
 10
-83.60780256487962
 20
-51.97515398385301
  0
LWPOLYLINE
  5
E5
330
8E
100
AcDbEntity
  8
AM_4
100
AcDbPolyline
 90
        3
 70
     0
 43
0.0
 10
-82.00385134828721
 20
-54.75327898385301
 10
-82.54938418959482
 20
-54.14636458265813
 10
-83.00528735747427
 20
-53.47937500000001
  0
LINE
  5
E6
330
8E
100
AcDbEntity
  8
AM_4
100
AcDbLine
 10
-82.00385134828721
 20
-54.75327898385301
 30
0.0
 11
-80.20306762445644
 21
-53.71359601614702
 31
0.0
  0
LWPOLYLINE
  5
E7
330
8E
100
AcDbEntity
  8
AM_4
100
AcDbPolyline
 90
        3
 70
     0
 43
0.0
 10
-80.80558283186178
 20
-52.20937500000001
 10
-80.45724233315724
 20
-52.93430218596995
 10
-80.20306762445644
 20
-53.71359601614702
  0
LWPOLYLINE
  5
E8
330
8E
100
AcDbEntity
  8
AM_4
100
AcDbPolyline
 90
        3
 70
     0
 43
0.0
 10
-81.80701884104886
 20
-50.93547101614701
 10
-81.26148599974125
 20
-51.54238541734188
 10
-80.80558283186178
 20
-52.20937500000001
  0
LINE
  5
E9
330
8E
100
AcDbEntity
  8
AM_4
100
AcDbLine
 10
-88.79245006519201
 20
-56.02684494714502
 30
0.0
 11
-89.99869621878138
 21
-56.0112134924772
 31
0.0
  0
LINE
  5
EA
330
8E
100
AcDbEntity
  8
AM_4
100
AcDbLine
 10
-93.49706212701052
 20
-49.91826341831044
 30
0.0
 11
-92.91689605071541
 21
-48.88309494714501
 31
0.0
  0
LWPOLYLINE
  5
EB
330
8E
100
AcDbEntity
  8
AM_4
100
AcDbPolyline
 90
        3
 70
     0
 43
0.0
 10
-88.49559401121557
 20
-55.85545502447115
 10
-88.0644624799441
 20
-55.11041542538194
 10
-87.65455074746586
 20
-54.36665993102582
  0
LINE
  5
EC
330
8E
100
AcDbEntity
  8
AM_4
100
AcDbLine
 10
-87.65455074746586
 20
-54.36665993102582
 30
0.0
 11
-87.34920388084794
 21
-53.78012942772722
 31
0.0
  0
LWPOLYLINE
  5
ED
330
8E
100
AcDbEntity
  8
AM_4
100
AcDbPolyline
 90
        3
 70
     0
 43
0.0
 10
-87.34920388084794
 20
-53.78012942772722
 10
-87.11641322180338
 20
-53.30910892482295
 10
-86.71793696879564
 20
-52.44787425250316
  0
LWPOLYLINE
  5
EE
330
8E
100
AcDbEntity
  8
AM_4
100
AcDbPolyline
 90
        3
 70
     0
 43
0.0
 10
-88.11936839894457
 20
-54.63502252723112
 10
-88.46824191416474
 20
-55.33872959307751
 10
-88.79245006519201
 20
-56.02684494714502
  0
LINE
  5
EF
330
8E
100
AcDbEntity
  8
AM_4
100
AcDbLine
 10
-88.49559401121557
 20
-55.85545502447115
 30
0.0
 11
-88.79245006519201
 21
-56.02684494714502
 31
0.0
  0
LWPOLYLINE
  5
F0
330
8E
100
AcDbEntity
  8
AM_4
100
AcDbPolyline
 90
        3
 70
     0
 43
0.0
 10
-88.78015996155733
 20
-48.87599925250316
 10
-89.49294238076597
 20
-48.80866661256952
 10
-90.2495602436508
 20
-48.75656484729699
  0
LINE
  5
F1
330
8E
100
AcDbEntity
  8
AM_4
100
AcDbLine
 10
-90.2495602436508
 20
-48.75656484729699
 30
0.0
 11
-90.91018399291082
 21
-48.72773773910477
 31
0.0
  0
LWPOLYLINE
  5
F2
330
8E
100
AcDbEntity
  8
AM_4
100
AcDbPolyline
 90
        3
 70
     0
 43
0.0
 10
-90.91018399291082
 20
-48.72773773910477
 10
-91.49413087409373
 20
-48.71396339412864
 10
-92.62003999673895
 20
-48.71170502447114
  0
LINE
  5
F3
330
8E
100
AcDbEntity
  8
AM_4
100
AcDbLine
 10
-92.62003999673895
 20
-48.71170502447114
 30
0.0
 11
-92.91689605071541
 21
-48.88309494714501
 31
0.0
  0
LWPOLYLINE
  5
F4
330
8E
100
AcDbEntity
  8
AM_4
100
AcDbPolyline
 90
        3
 70
     0
 43
0.0
 10
-92.91689605071541
 20
-48.88309494714501
 10
-92.16302859137683
 20
-48.94607168465211
 10
-91.37500164438953
 20
-48.99610033531012
  0
LWPOLYLINE
  5
F5
330
8E
100
AcDbEntity
  8
AM_4
100
AcDbPolyline
 90
        3
 70
     0
 43
0.0
 10
-90.71437789512959
 20
-49.02492744350232
 10
-89.91045390343739
 20
-49.04531207475422
 10
-89.08637345405617
 20
-49.05279169482686
  0
LWPOLYLINE
  5
F6
330
8E
100
AcDbEntity
  8
AM_4
100
AcDbPolyline
 90
        3
 70
     0
 43
0.0
 10
-87.02415046129448
 20
-52.62466669482686
 10
-87.42768748919713
 20
-53.33843506077803
 10
-87.8140215323267
 20
-54.0484920239326
  0
LWPOLYLINE
  5
F7
330
8E
100
AcDbEntity
  8
AM_4
100
AcDbPolyline
 90
        3
 70
     0
 43
0.0
 10
-86.71793696879564
 20
-52.44787425250316
 10
-87.04803252017577
 20
-51.74623035747346
 10
-87.40906558307746
 20
-51.04509077583034
  0
LINE
  5
F8
330
8E
100
AcDbEntity
  8
AM_4
100
AcDbLine
 10
-87.40906558307746
 20
-51.04509077583034
 30
0.0
 11
-87.91087814189046
 21
-50.17592592808984
 31
0.0
  0
LWPOLYLINE
  5
F9
330
8E
100
AcDbEntity
  8
AM_4
100
AcDbPolyline
 90
        3
 70
     0
 43
0.0
 10
-87.91087814189046
 20
-50.17592592808984
 10
-88.14579348140339
 20
-49.80364633553605
 10
-88.78015996155733
 20
-48.87599925250316
  0
LINE
  5
FA
330
8E
100
AcDbEntity
  8
AM_4
100
AcDbLine
 10
-88.78015996155733
 20
-48.87599925250316
 30
0.0
 11
-89.08637345405617
 21
-49.05279169482686
 31
0.0
  0
LWPOLYLINE
  5
FB
330
8E
100
AcDbEntity
  8
AM_4
100
AcDbPolyline
 90
        3
 70
     0
 43
0.0
 10
-89.08637345405617
 20
-49.05279169482686
 10
-88.74262851034626
 20
-49.74987070916352
 10
-88.37569579336926
 20
-50.44428852429534
  0
LWPOLYLINE
  5
FC
330
8E
100
AcDbEntity
  8
AM_4
100
AcDbPolyline
 90
        3
 70
     0
 43
0.0
 10
-87.87388323455623
 20
-51.31345337203565
 10
-87.4577815872342
 20
-51.97564052161346
 10
-87.02415046129448
 20
-52.62466669482686
  0
LINE
  5
FD
330
8E
100
AcDbEntity
  8
AM_4
100
AcDbLine
 10
-86.71793696879564
 20
-52.44787425250316
 30
0.0
 11
-87.02415046129448
 21
-52.62466669482686
 31
0.0
  0
LINE
  5
FE
330
8E
100
AcDbEntity
  8
AM_4
100
AcDbLine
 10
-91.37500164438953
 20
-48.99610033531012
 30
0.0
 11
-90.71437789512959
 21
-49.02492744350232
 31
0.0
  0
ELLIPSE
  5
FF
330
8E
100
AcDbEntity
  8
AM_4
100
AcDbEllipse
 10
-90.90049769741552
 20
-52.48142681507377
 30
0.0
 11
-1.785937499999974
 21
3.093334489142578
 31
0.0
210
0.0
220
0.0
230
1.0
 40
0.9063077870366495
 41
2.91587932720334
 42
3.565561594284252
  0
ELLIPSE
  5
100
330
8E
100
AcDbEntity
  8
AM_4
100
AcDbEllipse
 10
-90.90049769741553
 20
-52.48142681507387
 30
0.0
 11
-1.785937500000017
 21
3.093334489142592
 31
0.0
210
0.0
220
0.0
230
1.0
 40
0.9063077870366493
 41
5.85921636648513
 42
6.507068970581739
  0
LINE
  5
101
330
8E
100
AcDbEntity
  8
AM_4
100
AcDbLine
 10
-87.8140215323267
 20
-54.0484920239326
 30
0.0
 11
-88.11936839894457
 21
-54.63502252723112
 31
0.0
  0
ELLIPSE
  5
102
330
8E
100
AcDbEntity
  8
AM_4
100
AcDbEllipse
 10
-90.90049769741563
 20
-52.4814268150738
 30
0.0
 11
-1.785937500000046
 21
3.093334489142627
 31
0.0
210
0.0
220
0.0
230
1.0
 40
0.9063077870366476
 41
3.764821264091946
 42
4.5714327198027
  0
LWPOLYLINE
  5
103
330
8E
100
AcDbEntity
  8
AM_4
100
AcDbPolyline
 90
        3
 70
     0
 43
0.0
 10
-88.37569579336926
 20
-50.44428852429534
 10
-88.13566074165702
 20
-50.8820930938689
 10
-87.87388323455623
 20
-51.31345337203565
  0
ELLIPSE
  5
104
330
8E
100
AcDbEntity
  8
AM_4
100
AcDbEllipse
 10
-90.90049769741555
 20
-52.4814268150739
 30
0.0
 11
-1.785937500000103
 21
3.093334489142598
 31
0.0
210
0.0
220
0.0
230
1.0
 40
0.9063077870366434
 41
4.853345240966671
 42
5.659956696677417
  0
LWPOLYLINE
  5
105
330
8E
100
AcDbEntity
  8
AM_4
100
AcDbPolyline
 90
        6
 70
     0
 43
0.0
 10
-95.68179537104537
 20
-52.34996949259875
 10
-95.75317066706687
 20
-52.90764518409864
 10
-95.726718841833
 20
-53.55787154678772
 10
-95.58561744484298
 20
-54.20164937897874
 10
-95.33405970821774
 20
-54.81688557570935
 10
-95.24114378119366
 20
-54.98750000000001
  0
LWPOLYLINE
  5
106
330
8E
100
AcDbEntity
  8
AM_4
100
AcDbPolyline
 90
       28
 70
     0
 43
0.0
 10
-93.13410567169636
 20
-56.70171122120572
 10
-92.91127405411126
 20
-56.76333256729416
 10
-92.28013660286997
 20
-56.85297464543633
 10
-91.65286892597373
 20
-56.81983569596755
 10
-91.05195725201698
 20
-56.6658879351521
 10
-90.49830429545156
 20
-56.39767847187989
 10
-90.01035582269748
 20
-56.02551961527896
 10
-89.60394444290237
 20
-55.56286249653652
 10
-89.29184659915235
 20
-55.02540917605491
 10
-89.08391705050714
 20
-54.43065676389705
 10
-88.98711571877918
 20
-53.79791716106349
 10
-89.0051245312948
 20
-53.14808814309595
 10
-89.13793571446227
 20
-52.50308628643518
 10
-89.38164195005932
 20
-51.88502515183586
 10
-89.72849318824548
 20
-51.31534124330686
 10
-90.16712571279967
 20
-50.81402535956572
 10
-90.68279002456978
 20
-50.39898941798516
 10
-91.25785895176787
 20
-50.08524672810945
 10
-91.87219948941902
 20
-49.88434229087157
 10
-92.50383088525612
 20
-49.80363799420111
 10
-93.1299209581723
 20
-49.84573685833347
 10
-93.72805921679816
 20
-50.00831288357328
 10
-94.27749957443703
 20
-50.28451285022911
 10
-94.75999495531194
 20
-50.6637852268999
 10
-95.15990277590741
 20
-51.13246522386943
 10
-95.46468272740888
 20
-51.67472452168708
 10
-95.66468375349042
 20
-52.2729309711436
 10
-95.68179537104537
 20
-52.34996949259875
  0
LWPOLYLINE
  5
107
330
8E
100
AcDbEntity
  8
AM_4
100
AcDbPolyline
 90
        6
 70
     0
 43
0.0
 10
-95.24114378119366
 20
-54.98750000000001
 10
-95.03744564260863
 20
-55.30397709676116
 10
-94.60544392692583
 20
-55.81039566692366
 10
-94.09485031351672
 20
-56.23228546556395
 10
-93.52347031308393
 20
-56.55387269017906
 10
-93.13410567169636
 20
-56.70171122120572
  0
ELLIPSE
  5
108
330
8E
100
AcDbEntity
  8
AM_4
100
AcDbEllipse
 10
-93.1781041896614
 20
-53.79640353648
 30
0.0
 11
1.314229537202296
 21
-2.276312331242103
 31
0.0
210
0.0
220
0.0
230
1.0
 40
0.9063077870366517
 41
0.0
 42
6.283185307179586
  0
ELLIPSE
  5
109
330
8E
100
AcDbEntity
  8
AM_4
100
AcDbEllipse
 10
-92.46706516984537
 20
-53.38588496698488
 30
0.0
 11
-1.767186662107279
 21
3.060857085227816
 31
0.0
210
0.0
220
0.0
230
1.0
 40
0.9063077870366552
 41
0.0
 42
6.283185307179586
  0
ENDBLK
  5
91
330
8E
100
AcDbEntity
  8
0
100
AcDbBlockEnd
  0
BLOCK
  5
10C
330
10A
100
AcDbEntity
  8
0
100
AcDbBlockBegin
  2
3_129527_0_in_136311_0
 70
     2
 10
0.0
 20
0.0
 30
0.0
  3
3_129527_0_in_136311_0
  1

  0
ATTDEF
  5
10E
330
10A
100
AcDbEntity
  8
AM_6
100
AcDbText
 10
69.60664463645057
 20
64.60664463645057
 30
0.0
 40
0.5
  1
INS-GT-M B
100
AcDbAttributeDefinition
  3

  2
NN
 70
     8
280
     0
  0
ATTDEF
  5
10F
330
10A
100
AcDbEntity
  8
AM_6
100
AcDbText
 10
69.60664463645057
 20
64.10664463645057
 30
0.0
 40
0.5
  1
GT Normal Duty Bearing Inserts
100
AcDbAttributeDefinition
  3

  2
NT
 70
     8
280
     0
  0
ATTDEF
  5
110
330
10A
100
AcDbEntity
  8
AM_6
100
AcDbText
 10
69.60664463645057
 20
63.60664463645057
 30
0.0
 40
0.5
  1
129527
100
AcDbAttributeDefinition
  3

  2
NB
 70
     8
280
     0
  0
ATTDEF
  5
111
330
10A
100
AcDbEntity
  8
AM_6
100
AcDbText
 10
69.60664463645057
 20
63.10664463645057
 30
0.0
 40
0.5
  1
$PN.
100
AcDbAttributeDefinition
  3

  2
NBSYN
 70
     8
280
     0
  0
ATTDEF
  5
112
330
10A
100
AcDbEntity
  8
AM_6
100
AcDbText
 10
69.60664463645057
 20
62.60664463645057
 30
0.0
 40
0.5
  1
129527
100
AcDbAttributeDefinition
  3

  2
LINA
 70
     8
280
     0
  0
ATTDEF
  5
113
330
10A
100
AcDbEntity
  8
AM_6
100
AcDbText
 10
69.60664463645057
 20
62.10664463645057
 30
0.0
 40
0.5
  1
215
100
AcDbAttributeDefinition
  3

  2
SERIES
 70
     8
280
     0
  0
ATTDEF
  5
114
330
10A
100
AcDbEntity
  8
AM_6
100
AcDbText
 10
69.60664463645057
 20
61.60664463645057
 30
0.0
 40
0.5
  1
129527
100
AcDbAttributeDefinition
  3

  2
PN
 70
     8
280
     0
  0
ATTDEF
  5
115
330
10A
100
AcDbEntity
  8
AM_6
100
AcDbText
 10
69.60664463645057
 20
61.10664463645057
 30
0.0
 40
0.5
  1
INS-GT-15
100
AcDbAttributeDefinition
  3

  2
DESCRIPTION
 70
     8
280
     0
  0
ATTDEF
  5
116
330
10A
100
AcDbEntity
  8
AM_6
100
AcDbText
 10
69.60664463645057
 20
60.60664463645057
 30
0.0
 40
0.5
  1
62.5
100
AcDbAttributeDefinition
  3

  2
A
 70
     8
280
     0
  0
ATTDEF
  5
117
330
10A
100
AcDbEntity
  8
AM_6
100
AcDbText
 10
69.60664463645057
 20
60.10664463645057
 30
0.0
 40
0.5
  1
29.0
100
AcDbAttributeDefinition
  3

  2
C
 70
     8
280
     0
  0
ATTDEF
  5
118
330
10A
100
AcDbEntity
  8
AM_6
100
AcDbText
 10
69.60664463645057
 20
59.60664463645057
 30
0.0
 40
0.5
  1
130.0
100
AcDbAttributeDefinition
  3

  2
D
 70
     8
280
     0
  0
ATTDEF
  5
119
330
10A
100
AcDbEntity
  8
AM_6
100
AcDbText
 10
69.60664463645057
 20
59.10664463645057
 30
0.0
 40
0.5
  1
7.1
100
AcDbAttributeDefinition
  3

  2
J
 70
     8
280
     0
  0
ATTDEF
  5
11A
330
10A
100
AcDbEntity
  8
AM_6
100
AcDbText
 10
69.60664463645057
 20
58.60664463645057
 30
0.0
 40
0.5
  1
112.8
100
AcDbAttributeDefinition
  3

  2
L
 70
     8
280
     0
  0
ATTDEF
  5
11B
330
10A
100
AcDbEntity
  8
AM_6
100
AcDbText
 10
69.60664463645057
 20
58.10664463645057
 30
0.0
 40
0.5
  1
#10 - 32 x 1/4
100
AcDbAttributeDefinition
  3

  2
N
 70
     8
280
     0
  0
ATTDEF
  5
11C
330
10A
100
AcDbEntity
  8
AM_6
100
AcDbText
 10
69.60664463645057
 20
57.60664463645057
 30
0.0
 40
0.5
  1
21.8
100
AcDbAttributeDefinition
  3

  2
W
 70
     8
280
     0
  0
ATTDEF
  5
11D
330
10A
100
AcDbEntity
  8
AM_6
100
AcDbText
 10
69.60664463645057
 20
57.10664463645057
 30
0.0
 40
0.5
  1
40.6
100
AcDbAttributeDefinition
  3

  2
X
 70
     8
280
     0
  0
ATTDEF
  5
11E
330
10A
100
AcDbEntity
  8
AM_6
100
AcDbText
 10
69.60664463645057
 20
56.60664463645057
 30
0.0
 40
0.5
  1
40.6
100
AcDbAttributeDefinition
  3

  2
Y
 70
     8
280
     0
  0
ATTDEF
  5
11F
330
10A
100
AcDbEntity
  8
AM_6
100
AcDbText
 10
69.60664463645057
 20
56.10664463645057
 30
0.0
 40
0.5
  1
baldor
100
AcDbAttributeDefinition
  3

  2
COMPANY
 70
     8
280
     0
  0
CIRCLE
  5
120
330
10A
100
AcDbEntity
  8
AM_9
100
AcDbCircle
 10
0.0
 20
0.0
 30
0.0
 40
43.29300468913043
  0
CIRCLE
  5
121
330
10A
100
AcDbEntity
  8
AM_9
100
AcDbCircle
 10
0.0
 20
0.0
 30
0.0
 40
62.1
  0
CIRCLE
  5
122
330
10A
100
AcDbEntity
  8
AM_9
100
AcDbCircle
 10
0.0
 20
0.0
 30
0.0
 40
63.65783271868663
  0
CIRCLE
  5
123
330
10A
100
AcDbEntity
  8
AM_9
100
AcDbCircle
 10
0.0
 20
0.0
 30
0.0
 40
46.1047619047619
  0
CIRCLE
  5
124
330
10A
100
AcDbEntity
  8
AM_9
100
AcDbCircle
 10
0.0
 20
0.0
 30
0.0
 40
42.07619047619047
  0
CIRCLE
  5
125
330
10A
100
AcDbEntity
  8
AM_9
100
AcDbCircle
 10
0.0
 20
0.0
 30
0.0
 40
48.97333333333334
  0
CIRCLE
  5
126
330
10A
100
AcDbEntity
  8
AM_9
100
AcDbCircle
 10
0.0
 20
0.0
 30
0.0
 40
50.13333333333333
  0
CIRCLE
  5
127
330
10A
100
AcDbEntity
  8
AM_4
100
AcDbCircle
 10
0.0
 20
0.0
 30
0.0
 40
64.60664463645057
  0
CIRCLE
  5
128
330
10A
100
AcDbEntity
  8
AM_4
100
AcDbCircle
 10
0.0
 20
0.0
 30
0.0
 40
64.31967044693941
  0
CIRCLE
  5
129
330
10A
100
AcDbEntity
  8
AM_4
100
AcDbCircle
 10
0.0
 20
0.0
 30
0.0
 40
63.94783271868663
  0
CIRCLE
  5
12A
330
10A
100
AcDbEntity
  8
AM_4
100
AcDbCircle
 10
0.0
 20
0.0
 30
0.0
 40
63.93967637869921
  0
CIRCLE
  5
12B
330
10A
100
AcDbEntity
  8
AM_4
100
AcDbCircle
 10
0.0
 20
0.0
 30
0.0
 40
61.3178776527872
  0
CIRCLE
  5
12C
330
10A
100
AcDbEntity
  8
AM_4
100
AcDbCircle
 10
0.0
 20
0.0
 30
0.0
 40
62.39781027668523
  0
ENDBLK
  5
10D
330
10A
100
AcDbEntity
  8
0
100
AcDbBlockEnd
  0
BLOCK
  5
12F
330
12D
100
AcDbEntity
  8
0
100
AcDbBlockBegin
  2
4_129964_0_in_136311_0
 70
     2
 10
0.0
 20
0.0
 30
0.0
  3
4_129964_0_in_136311_0
  1

  0
ATTDEF
  5
131
330
12D
100
AcDbEntity
  8
AM_6
100
AcDbText
 10
58.89598779130038
 20
53.97022692636489
 30
0.0
 40
0.5
  1
Grip Tight Normal Duty Adapter and Nut Metric Bore
100
AcDbAttributeDefinition
  3

  2
NN
 70
     8
280
     0
  0
ATTDEF
  5
132
330
12D
100
AcDbEntity
  8
AM_6
100
AcDbText
 10
58.89598779130038
 20
53.47022692636489
 30
0.0
 40
0.5
  1
GT and GTM Adapter & Lock Nut Assemblies
100
AcDbAttributeDefinition
  3

  2
NT
 70
     8
280
     0
  0
ATTDEF
  5
133
330
12D
100
AcDbEntity
  8
AM_6
100
AcDbText
 10
58.89598779130038
 20
52.97022692636489
 30
0.0
 40
0.5
  1
129964
100
AcDbAttributeDefinition
  3

  2
NB
 70
     8
280
     0
  0
ATTDEF
  5
134
330
12D
100
AcDbEntity
  8
AM_6
100
AcDbText
 10
58.89598779130038
 20
52.47022692636489
 30
0.0
 40
0.5
  1
$PN.
100
AcDbAttributeDefinition
  3

  2
NBSYN
 70
     8
280
     0
  0
ATTDEF
  5
135
330
12D
100
AcDbEntity
  8
AM_6
100
AcDbText
 10
58.89598779130038
 20
51.97022692636489
 30
0.0
 40
0.5
  1
129964
100
AcDbAttributeDefinition
  3

  2
LINA
 70
     8
280
     0
  0
ATTDEF
  5
136
330
12D
100
AcDbEntity
  8
AM_6
100
AcDbText
 10
58.89598779130038
 20
51.47022692636489
 30
0.0
 40
0.5
  1
215
100
AcDbAttributeDefinition
  3

  2
SERIES
 70
     8
280
     0
  0
ATTDEF
  5
137
330
12D
100
AcDbEntity
  8
AM_6
100
AcDbText
 10
58.89598779130038
 20
50.97022692636489
 30
0.0
 40
0.5
  1
70
100
AcDbAttributeDefinition
  3

  2
SS
 70
     8
280
     0
  0
ATTDEF
  5
138
330
12D
100
AcDbEntity
  8
AM_6
100
AcDbText
 10
58.89598779130038
 20
50.47022692636489
 30
0.0
 40
0.5
  1
129964
100
AcDbAttributeDefinition
  3

  2
PN
 70
     8
280
     0
  0
ATTDEF
  5
139
330
12D
100
AcDbEntity
  8
AM_6
100
AcDbText
 10
58.89598779130038
 20
49.97022692636489
 30
0.0
 40
0.5
  1
AN-GTM-15-70M
100
AcDbAttributeDefinition
  3

  2
DESCRIPTION
 70
     8
280
     0
  0
ATTDEF
  5
13A
330
12D
100
AcDbEntity
  8
AM_6
100
AcDbText
 10
58.89598779130038
 20
49.47022692636489
 30
0.0
 40
0.5
  1
65.1
100
AcDbAttributeDefinition
  3

  2
A
 70
     8
280
     0
  0
ATTDEF
  5
13B
330
12D
100
AcDbEntity
  8
AM_6
100
AcDbText
 10
58.89598779130038
 20
48.97022692636489
 30
0.0
 40
0.5
  1
29.0
100
AcDbAttributeDefinition
  3

  2
C
 70
     8
280
     0
  0
ATTDEF
  5
13C
330
12D
100
AcDbEntity
  8
AM_6
100
AcDbText
 10
58.89598779130038
 20
48.47022692636489
 30
0.0
 40
0.5
  1
130.0
100
AcDbAttributeDefinition
  3

  2
D
 70
     8
280
     0
  0
ATTDEF
  5
13D
330
12D
100
AcDbEntity
  8
AM_6
100
AcDbText
 10
58.89598779130038
 20
47.97022692636489
 30
0.0
 40
0.5
  1
6.7
100
AcDbAttributeDefinition
  3

  2
J
 70
     8
280
     0
  0
ATTDEF
  5
13E
330
12D
100
AcDbEntity
  8
AM_6
100
AcDbText
 10
58.89598779130038
 20
47.47022692636489
 30
0.0
 40
0.5
  1
108.0
100
AcDbAttributeDefinition
  3

  2
L
 70
     8
280
     0
  0
ATTDEF
  5
13F
330
12D
100
AcDbEntity
  8
AM_6
100
AcDbText
 10
58.89598779130038
 20
46.97022692636489
 30
0.0
 40
0.5
  1
10 - 32 x 1/4
100
AcDbAttributeDefinition
  3

  2
N
 70
     8
280
     0
  0
ATTDEF
  5
140
330
12D
100
AcDbEntity
  8
AM_6
100
AcDbText
 10
58.89598779130038
 20
46.47022692636489
 30
0.0
 40
0.5
  1
22.6
100
AcDbAttributeDefinition
  3

  2
W
 70
     8
280
     0
  0
ATTDEF
  5
141
330
12D
100
AcDbEntity
  8
AM_6
100
AcDbText
 10
58.89598779130038
 20
45.97022692636489
 30
0.0
 40
0.5
  1
41.3
100
AcDbAttributeDefinition
  3

  2
X
 70
     8
280
     0
  0
ATTDEF
  5
142
330
12D
100
AcDbEntity
  8
AM_6
100
AcDbText
 10
58.89598779130038
 20
45.47022692636489
 30
0.0
 40
0.5
  1
42.5
100
AcDbAttributeDefinition
  3

  2
Y
 70
     8
280
     0
  0
ATTDEF
  5
143
330
12D
100
AcDbEntity
  8
AM_6
100
AcDbText
 10
58.89598779130038
 20
44.97022692636489
 30
0.0
 40
0.5
  1
baldor
100
AcDbAttributeDefinition
  3

  2
COMPANY
 70
     8
280
     0
  0
LINE
  5
144
330
12D
100
AcDbEntity
  8
AM_9
100
AcDbLine
 10
1.25
 20
40.28582544742225
 30
0.0
 11
1.25
 21
41.59698192113789
 31
0.0
  0
LINE
  5
145
330
12D
100
AcDbEntity
  8
AM_9
100
AcDbLine
 10
-1.25
 20
40.28582544742225
 30
0.0
 11
-1.25
 21
41.59698192113789
 31
0.0
  0
ARC
  5
146
330
12D
100
AcDbEntity
  8
AM_9
100
AcDbCircle
 10
-0.0000000000000001
 20
-0.0000000000000096
 30
0.0
 40
41.61575909373122
100
AcDbArc
 50
91.72123492599388
 51
88.27876507400612
  0
CIRCLE
  5
147
330
12D
100
AcDbEntity
  8
AM_9
100
AcDbCircle
 10
0.0
 20
0.0
 30
0.0
 40
44.14285714285714
  0
CIRCLE
  5
148
330
12D
100
AcDbEntity
  8
AM_9
100
AcDbCircle
 10
0.0
 20
0.0
 30
0.0
 40
48.54
  0
LINE
  5
149
330
12D
100
AcDbEntity
  8
AM_9
100
AcDbLine
 10
-53.5682
 20
-1.981200000000003
 30
0.0
 11
-40.9318
 21
-1.981200000000003
 31
0.0
  0
LINE
  5
14A
330
12D
100
AcDbEntity
  8
AM_9
100
AcDbLine
 10
-40.9318
 20
1.981200000000003
 30
0.0
 11
-53.5682
 21
1.981200000000003
 31
0.0
  0
LINE
  5
14B
330
12D
100
AcDbEntity
  8
AM_9
100
AcDbLine
 10
-40.9318
 20
-1.981200000000003
 30
0.0
 11
-40.5
 21
-2.412999999999998
 31
0.0
  0
LINE
  5
14C
330
12D
100
AcDbEntity
  8
AM_9
100
AcDbLine
 10
-40.5
 20
2.412999999999998
 30
0.0
 11
-40.9318
 21
1.981200000000003
 31
0.0
  0
LINE
  5
14D
330
12D
100
AcDbEntity
  8
AM_9
100
AcDbLine
 10
-40.5
 20
2.412999999999998
 30
0.0
 11
-40.5
 21
-2.412999999999998
 31
0.0
  0
LINE
  5
14E
330
12D
100
AcDbEntity
  8
AM_9
100
AcDbLine
 10
-40.9318
 20
1.981200000000003
 30
0.0
 11
-40.9318
 21
-1.981200000000003
 31
0.0
  0
LINE
  5
14F
330
12D
100
AcDbEntity
  8
AM_9
100
AcDbLine
 10
-53.5682
 20
1.981200000000003
 30
0.0
 11
-53.93188767513282
 21
2.344887675132821
 31
0.0
  0
LINE
  5
150
330
12D
100
AcDbEntity
  8
AM_9
100
AcDbLine
 10
-53.93775950950387
 20
-2.35075950950387
 30
0.0
 11
-53.5682
 21
-1.981200000000003
 31
0.0
  0
LINE
  5
151
330
12D
100
AcDbEntity
  8
AM_9
100
AcDbLine
 10
-53.5682
 20
1.981200000000003
 30
0.0
 11
-53.5682
 21
-1.981200000000003
 31
0.0
  0
LINE
  5
152
330
12D
100
AcDbEntity
  8
AM_5
100
AcDbLine
 10
-53.94606038442474
 20
-2.412999999999998
 30
0.0
 11
-40.5
 21
-2.412999999999998
 31
0.0
  0
LINE
  5
153
330
12D
100
AcDbEntity
  8
AM_5
100
AcDbLine
 10
-53.94606038442474
 20
2.412999999999998
 30
0.0
 11
-40.5
 21
2.412999999999998
 31
0.0
  0
LINE
  5
154
330
12D
100
AcDbEntity
  8
AM_4
100
AcDbLine
 10
50.39998799996
 20
-3.35
 30
0.0
 11
53.89598779130038
 21
-3.35
 31
0.0
  0
LINE
  5
155
330
12D
100
AcDbEntity
  8
AM_4
100
AcDbLine
 10
-24.04680879297231
 20
-48.35029458932209
 30
0.0
 11
-22.29880889730212
 21
-45.32266995839622
 31
0.0
  0
ARC
  5
156
330
12D
100
AcDbEntity
  8
AM_4
100
AcDbCircle
 10
0.0000000000000002
 20
0.0
 30
0.0
 40
53.99999999999999
100
AcDbArc
 50
243.556744299156
 51
356.443255700844
  0
LINE
  5
157
330
12D
100
AcDbEntity
  8
AM_4
100
AcDbLine
 10
-22.29880889730215
 20
45.3226699583962
 30
0.0
 11
-24.04680879297235
 21
48.35029458932208
 31
0.0
  0
LINE
  5
158
330
12D
100
AcDbEntity
  8
AM_4
100
AcDbLine
 10
53.89598779130038
 20
3.35
 30
0.0
 11
50.39998799996
 21
3.35
 31
0.0
  0
ARC
  5
159
330
12D
100
AcDbEntity
  8
AM_4
100
AcDbCircle
 10
0.0
 20
0.0000000000000071
 30
0.0
 40
53.99999999999999
100
AcDbArc
 50
3.55674429915604
 51
116.443255700844
  0
LINE
  5
15A
330
12D
100
AcDbEntity
  8
AM_4
100
AcDbLine
 10
-28.10117910265786
 20
-41.97266995839622
 30
0.0
 11
-29.84917899832805
 21
-45.0002945893221
 31
0.0
  0
LINE
  5
15B
330
12D
100
AcDbEntity
  8
AM_4
100
AcDbLine
 10
-29.84917899832808
 20
45.00029458932207
 30
0.0
 11
-28.10117910265789
 21
41.9726699583962
 31
0.0
  0
ARC
  5
15C
330
12D
100
AcDbEntity
  8
AM_4
100
AcDbCircle
 10
-0.0000000000000071
 20
0.0
 30
0.0
 40
53.99999999999999
100
AcDbArc
 50
123.5567442991561
 51
236.443255700844
  0
LINE
  5
15D
330
12D
100
AcDbEntity
  8
AM_4
100
AcDbLine
 10
1.25
 20
34.97767144908305
 30
0.0
 11
1.25
 21
40.28571428571428
 31
0.0
  0
LINE
  5
15E
330
12D
100
AcDbEntity
  8
AM_4
100
AcDbLine
 10
-1.25
 20
34.97767144908305
 30
0.0
 11
-1.250000000000001
 21
40.28571428571428
 31
0.0
  0
LINE
  5
15F
330
12D
100
AcDbEntity
  8
AM_4
100
AcDbLine
 10
-22.29880889730212
 20
-45.32266995839622
 30
0.0
 11
-28.10117910265786
 21
-41.97266995839622
 31
0.0
  0
LINE
  5
160
330
12D
100
AcDbEntity
  8
AM_4
100
AcDbLine
 10
-1.250000000000001
 20
40.28571428571428
 30
0.0
 11
1.25
 21
40.28571428571428
 31
0.0
  0
LINE
  5
161
330
12D
100
AcDbEntity
  8
AM_4
100
AcDbLine
 10
50.39998799996
 20
3.35
 30
0.0
 11
50.39998799996
 21
-3.35
 31
0.0
  0
ARC
  5
162
330
12D
100
AcDbEntity
  8
AM_4
100
AcDbCircle
 10
-0.0000000000000142
 20
-0.0000000000000142
 30
0.0
 40
52.84000000000002
100
AcDbArc
 50
3.634929532569084
 51
116.365070467431
  0
LINE
  5
163
330
12D
100
AcDbEntity
  8
AM_4
100
AcDbLine
 10
-28.10117910265789
 20
41.9726699583962
 30
0.0
 11
-22.29880889730215
 21
45.3226699583962
 31
0.0
  0
ARC
  5
164
330
12D
100
AcDbEntity
  8
AM_4
100
AcDbCircle
 10
-0.0000000000000071
 20
0.0000000000000036
 30
0.0
 40
52.84
100
AcDbArc
 50
123.6349295325691
 51
236.365070467431
  0
ARC
  5
165
330
12D
100
AcDbEntity
  8
AM_4
100
AcDbCircle
 10
-0.000000000000008
 20
0.0000000000000071
 30
0.0
 40
52.84000000000002
100
AcDbArc
 50
243.6349295325691
 51
356.3650704674311
  0
ARC
  5
166
330
12D
100
AcDbEntity
  8
AM_4
100
AcDbCircle
 10
-0.0000000000000001
 20
-0.0000000000000013
 30
0.0
 40
40.28571428571428
100
AcDbArc
 50
91.77807996556993
 51
88.22192003443008
  0
ARC
  5
167
330
12D
100
AcDbEntity
  8
AM_4
100
AcDbCircle
 10
0.0
 20
-0.0000000000000046
 30
0.0
 40
35.00000000000001
100
AcDbArc
 50
92.04671309767261
 51
87.95328690232742
  0
ENDBLK
  5
130
330
12D
100
AcDbEntity
  8
0
100
AcDbBlockEnd
  0
BLOCK
  5
16A
330
168
100
AcDbEntity
  8
0
100
AcDbBlockBegin
  2
5_WSTU_GT_15_0_in_136311_0
 70
     2
 10
0.0
 20
0.0
 30
0.0
  3
5_WSTU_GT_15_0_in_136311_0
  1

  0
ATTDEF
  5
16C
330
168
100
AcDbEntity
  8
AM_6
100
AcDbText
 10
181.595
 20
84.95
 30
0.0
 40
0.5
  1
GTNWSTUB-M-b
100
AcDbAttributeDefinition
  3

  2
NN
 70
     8
280
     0
  0
ATTDEF
  5
16D
330
168
100
AcDbEntity
  8
AM_6
100
AcDbText
 10
181.595
 20
84.45
 30
0.0
 40
0.5
  1
Grip Tight Adapter Ball Bearings
100
AcDbAttributeDefinition
  3

  2
NT
 70
     8
280
     0
  0
ATTDEF
  5
16E
330
168
100
AcDbEntity
  8
AM_6
100
AcDbText
 10
181.595
 20
83.95
 30
0.0
 40
0.5
  1
WSTU-GT-15
100
AcDbAttributeDefinition
  3

  2
NB
 70
     8
280
     0
  0
ATTDEF
  5
16F
330
168
100
AcDbEntity
  8
AM_6
100
AcDbText
 10
181.595
 20
83.45
 30
0.0
 40
0.5
  1
$PN.$LUBE.
100
AcDbAttributeDefinition
  3

  2
NBSYN
 70
     8
280
     0
  0
ATTDEF
  5
170
330
168
100
AcDbEntity
  8
AM_6
100
AcDbText
 10
181.595
 20
82.95
 30
0.0
 40
0.5
  1
WSTU-GT-15
100
AcDbAttributeDefinition
  3

  2
LINA
 70
     8
280
     0
  0
ATTDEF
  5
171
330
168
100
AcDbEntity
  8
AM_6
100
AcDbText
 10
181.595
 20
82.45
 30
0.0
 40
0.5
  1
215
100
AcDbAttributeDefinition
  3

  2
SERIES
 70
     8
280
     0
  0
ATTDEF
  5
172
330
168
100
AcDbEntity
  8
AM_6
100
AcDbText
 10
181.595
 20
81.95
 30
0.0
 40
0.5
  1
75
100
AcDbAttributeDefinition
  3

  2
SS
 70
     8
280
     0
  0
ATTDEF
  5
173
330
168
100
AcDbEntity
  8
AM_6
100
AcDbText
 10
181.595
 20
81.45
 30
0.0
 40
0.5
  1
WSTU-GT-15
100
AcDbAttributeDefinition
  3

  2
PN
 70
     8
280
     0
  0
ATTDEF
  5
174
330
168
100
AcDbEntity
  8
AM_6
100
AcDbText
 10
181.595
 20
80.95
 30
0.0
 40
0.5
  1
WSTU-GT-15
100
AcDbAttributeDefinition
  3

  2
DESCRIPTION
 70
     8
280
     0
  0
ATTDEF
  5
175
330
168
100
AcDbEntity
  8
AM_6
100
AcDbText
 10
181.595
 20
80.45
 30
0.0
 40
0.5
  1
8.6
100
AcDbAttributeDefinition
  3

  2
WEIGHT
 70
     8
280
     0
  0
ATTDEF
  5
176
330
168
100
AcDbEntity
  8
AM_6
100
AcDbText
 10
181.595
 20
79.95
 30
0.0
 40
0.5
  1
130.0
100
AcDbAttributeDefinition
  3

  2
BOD
 70
     8
280
     0
  0
ATTDEF
  5
177
330
168
100
AcDbEntity
  8
AM_6
100
AcDbText
 10
181.595
 20
79.45
 30
0.0
 40
0.5
  1
65.1
100
AcDbAttributeDefinition
  3

  2
A
 70
     8
280
     0
  0
ATTDEF
  5
178
330
168
100
AcDbEntity
  8
AM_6
100
AcDbText
 10
181.595
 20
78.95
 30
0.0
 40
0.5
  1
231.8
100
AcDbAttributeDefinition
  3

  2
B
 70
     8
280
     0
  0
ATTDEF
  5
179
330
168
100
AcDbEntity
  8
AM_6
100
AcDbText
 10
181.595
 20
78.45
 30
0.0
 40
0.5
  1
27.0
100
AcDbAttributeDefinition
  3

  2
C
 70
     8
280
     0
  0
ATTDEF
  5
17A
330
168
100
AcDbEntity
  8
AM_6
100
AcDbText
 10
181.595
 20
77.95
 30
0.0
 40
0.5
  1
139.7
100
AcDbAttributeDefinition
  3

  2
E
 70
     8
280
     0
  0
ATTDEF
  5
17B
330
168
100
AcDbEntity
  8
AM_6
100
AcDbText
 10
181.595
 20
77.45
 30
0.0
 40
0.5
  1
38.1
100
AcDbAttributeDefinition
  3

  2
F
 70
     8
280
     0
  0
ATTDEF
  5
17C
330
168
100
AcDbEntity
  8
AM_6
100
AcDbText
 10
181.595
 20
76.95
 30
0.0
 40
0.5
  1
20.6
100
AcDbAttributeDefinition
  3

  2
G
 70
     8
280
     0
  0
ATTDEF
  5
17D
330
168
100
AcDbEntity
  8
AM_6
100
AcDbText
 10
181.595
 20
76.45
 30
0.0
 40
0.5
  1
31.8
100
AcDbAttributeDefinition
  3

  2
H
 70
     8
280
     0
  0
ATTDEF
  5
17E
330
168
100
AcDbEntity
  8
AM_6
100
AcDbText
 10
181.595
 20
75.95
 30
0.0
 40
0.5
  1
111.1
100
AcDbAttributeDefinition
  3

  2
J
 70
     8
280
     0
  0
ATTDEF
  5
17F
330
168
100
AcDbEntity
  8
AM_6
100
AcDbText
 10
181.595
 20
75.45
 30
0.0
 40
0.5
  1
69.9
100
AcDbAttributeDefinition
  3

  2
K
 70
     8
280
     0
  0
ATTDEF
  5
180
330
168
100
AcDbEntity
  8
AM_6
100
AcDbText
 10
181.595
 20
74.95
 30
0.0
 40
0.5
  1
108.0
100
AcDbAttributeDefinition
  3

  2
L
 70
     8
280
     0
  0
ATTDEF
  5
181
330
168
100
AcDbEntity
  8
AM_6
100
AcDbText
 10
181.595
 20
74.45
 30
0.0
 40
0.5
  1
150.8
100
AcDbAttributeDefinition
  3

  2
M
 70
     8
280
     0
  0
ATTDEF
  5
182
330
168
100
AcDbEntity
  8
AM_6
100
AcDbText
 10
181.595
 20
73.95
 30
0.0
 40
0.5
  1
169.9
100
AcDbAttributeDefinition
  3

  2
N
 70
     8
280
     0
  0
ATTDEF
  5
183
330
168
100
AcDbEntity
  8
AM_6
100
AcDbText
 10
181.595
 20
73.45
 30
0.0
 40
0.5
  1
22.6
100
AcDbAttributeDefinition
  3

  2
R
 70
     8
280
     0
  0
ATTDEF
  5
184
330
168
100
AcDbEntity
  8
AM_6
100
AcDbText
 10
181.595
 20
72.95
 30
0.0
 40
0.5
  1
42.5
100
AcDbAttributeDefinition
  3

  2
S
 70
     8
280
     0
  0
ATTDEF
  5
185
330
168
100
AcDbEntity
  8
AM_6
100
AcDbText
 10
181.595
 20
72.45
 30
0.0
 40
0.5
  1
69.9
100
AcDbAttributeDefinition
  3

  2
T
 70
     8
280
     0
  0
ATTDEF
  5
186
330
168
100
AcDbEntity
  8
AM_6
100
AcDbText
 10
181.595
 20
71.95
 30
0.0
 40
0.5
  1
41.3
100
AcDbAttributeDefinition
  3

  2
Z
 70
     8
280
     0
  0
ATTDEF
  5
187
330
168
100
AcDbEntity
  8
AM_6
100
AcDbText
 10
181.595
 20
71.45
 30
0.0
 40
0.5
  1
baldor
100
AcDbAttributeDefinition
  3

  2
COMPANY
 70
     8
280
     0
  0
LINE
  5
188
330
168
100
AcDbEntity
  8
AM_9
100
AcDbLine
 10
119.1
 20
-19.05
 30
0.0
 11
139.7
 21
-19.05
 31
0.0
  0
LINE
  5
189
330
168
100
AcDbEntity
  8
AM_9
100
AcDbLine
 10
139.7
 20
19.05
 30
0.0
 11
119.1
 21
19.05
 31
0.0
  0
LINE
  5
18A
330
168
100
AcDbEntity
  8
AM_7
100
AcDbLine
 10
-68.25
 20
0.0
 30
0.0
 11
68.25
 21
0.0
 31
0.0
  0
LINE
  5
18B
330
168
100
AcDbEntity
  8
AM_7
100
AcDbLine
 10
0.0
 20
-68.25
 30
0.0
 11
0.0
 21
68.25
 31
0.0
  0
LINE
  5
18C
330
168
100
AcDbEntity
  8
AM_7
100
AcDbLine
 10
99.70499999999998
 20
0.0
 30
0.0
 11
176.595
 21
0.0
 31
0.0
  0
LINE
  5
18D
330
168
100
AcDbEntity
  8
AM_7
100
AcDbLine
 10
-93.85945437604332
 20
-54.18978125000001
 30
0.0
 11
8.172169142548812
 21
4.718204054313706
 31
0.0
  0
LINE
  5
18E
330
168
100
AcDbEntity
  8
AM_4
100
AcDbLine
 10
-85.4929904961157
 20
-40.1217967697245
 30
0.0
 11
-77.49323589306528
 21
-53.97777819029078
 31
0.0
  0
ARC
  5
18F
330
168
100
AcDbEntity
  8
AM_4
100
AcDbCircle
 10
-75.76093968854681
 20
-52.97820323027553
 30
0.0
 40
1.999999999999985
100
AcDbArc
 50
209.9999999999998
 51
300.0000000000005
  0
ARC
  5
190
330
168
100
AcDbEntity
  8
AM_4
100
AcDbCircle
 10
-83.76093968854678
 20
-39.1217967697245
 30
0.0
 40
2.000000000000024
100
AcDbArc
 50
120.0000000000005
 51
209.9999999999995
  0
LINE
  5
191
330
168
100
AcDbEntity
  8
AM_4
100
AcDbLine
 10
-84.76093968854681
 20
-37.38974596215561
 30
0.0
 11
-74.7609396885468
 21
-54.71025403784439
 31
0.0
  0
LINE
  5
192
330
168
100
AcDbEntity
  8
AM_4
100
AcDbLine
 10
-74.7609396885468
 20
-54.71025403784439
 30
0.0
 11
-74.29246701157894
 21
-54.43978121168902
 31
0.0
  0
LINE
  5
193
330
168
100
AcDbEntity
  8
AM_4
100
AcDbLine
 10
-84.28950998722873
 20
-37.11756589719563
 30
0.0
 11
-84.76093968854681
 21
-37.38974596215561
 31
0.0
  0
LINE
  5
194
330
168
100
AcDbEntity
  8
AM_4
100
AcDbLine
 10
139.7
 20
-52.36999999999995
 30
0.0
 11
139.7
 21
52.37000000000001
 31
0.0
  0
LINE
  5
195
330
168
100
AcDbEntity
  8
AM_4
100
AcDbLine
 10
119.1
 20
-33.35999999999999
 30
0.0
 11
119.1
 21
33.36
 31
0.0
  0
CIRCLE
  5
196
330
168
100
AcDbEntity
  8
AM_4
100
AcDbCircle
 10
0.0
 20
0.0
 30
0.0
 40
65.0
  0
ARC
  5
197
330
168
100
AcDbEntity
  8
AM_4
100
AcDbCircle
 10
117.51
 20
-33.36000000000001
 30
0.0
 40
1.589999999999989
100
AcDbArc
 50
270.0
 51
0.0
  0
LINE
  5
198
330
168
100
AcDbEntity
  8
AM_4
100
AcDbLine
 10
88.89000000000001
 20
-34.95
 30
0.0
 11
117.51
 21
-34.95
 31
0.0
  0
ARC
  5
199
330
168
100
AcDbEntity
  8
AM_4
100
AcDbCircle
 10
88.88999999999999
 20
-33.36000000000001
 30
0.0
 40
1.589999999999989
100
AcDbArc
 50
179.9999991462263
 51
270.0
  0
LINE
  5
19A
330
168
100
AcDbEntity
  8
AM_4
100
AcDbLine
 10
87.3
 20
33.36000002369284
 30
0.0
 11
87.3
 21
-33.35999997630715
 31
0.0
  0
ARC
  5
19B
330
168
100
AcDbEntity
  8
AM_4
100
AcDbCircle
 10
88.89000000000004
 20
33.35999999999996
 30
0.0
 40
1.590000000000039
100
AcDbArc
 50
90.0
 51
179.9999987925817
  0
LINE
  5
19C
330
168
100
AcDbEntity
  8
AM_4
100
AcDbLine
 10
117.51
 20
34.95000000000002
 30
0.0
 11
88.89
 21
34.95
 31
0.0
  0
ARC
  5
19D
330
168
100
AcDbEntity
  8
AM_4
100
AcDbCircle
 10
117.51
 20
33.36000000000001
 30
0.0
 40
1.590000000000003
100
AcDbArc
 50
0.0
 51
90.0
  0
ARC
  5
19E
330
168
100
AcDbEntity
  8
AM_4
100
AcDbCircle
 10
136.5199999999999
 20
52.36999999999994
 30
0.0
 40
3.180000000000064
100
AcDbArc
 50
0.0
 51
90.0
  0
LINE
  5
19F
330
168
100
AcDbEntity
  8
AM_4
100
AcDbLine
 10
136.52
 20
55.55000000000001
 30
0.0
 11
63.53
 21
55.55
 31
0.0
  0
ARC
  5
1A0
330
168
100
AcDbEntity
  8
AM_4
100
AcDbCircle
 10
63.53000000000002
 20
58.73000000000002
 30
0.0
 40
3.180000000000014
100
AcDbArc
 50
179.9999991462263
 51
270.0
  0
ARC
  5
1A1
330
168
100
AcDbEntity
  8
AM_4
100
AcDbCircle
 10
-0.0000000000000142
 20
0.0000000000000213
 30
0.0
 40
92.10000000000001
100
AcDbArc
 50
130.9398237139284
 51
229.0601762860718
  0
ARC
  5
1A2
330
168
100
AcDbEntity
  8
AM_4
100
AcDbCircle
 10
63.52999999999997
 20
-58.72999999999999
 30
0.0
 40
3.179999999999986
100
AcDbArc
 50
90.0
 51
180.0
  0
LINE
  5
1A3
330
168
100
AcDbEntity
  8
AM_4
100
AcDbLine
 10
63.52999999999999
 20
-55.55
 30
0.0
 11
136.52
 21
-55.55
 31
0.0
  0
ARC
  5
1A4
330
168
100
AcDbEntity
  8
AM_4
100
AcDbCircle
 10
136.5199999999999
 20
-52.36999999999993
 30
0.0
 40
3.180000000000064
100
AcDbArc
 50
270.0
 51
0.0
  0
LINE
  5
1A5
330
168
100
AcDbEntity
  8
AM_4
100
AcDbLine
 10
-6.958292451179825
 20
79.43406659124042
 30
0.0
 11
-8.357725347000654
 21
79.43406659124042
 31
0.0
  0
LINE
  5
1A6
330
168
100
AcDbEntity
  8
AM_4
100
AcDbLine
 10
-6.647307485140565
 20
79.36006495870016
 30
0.0
 11
-6.958292451179825
 21
79.43406659124042
 31
0.0
  0
LINE
  5
1A7
330
168
100
AcDbEntity
  8
AM_4
100
AcDbLine
 10
-6.414068213241245
 20
77.06601460904047
 30
0.0
 11
-6.258575730220166
 21
77.28801943300027
 31
0.0
  0
LINE
  5
1A8
330
168
100
AcDbEntity
  8
AM_4
100
AcDbLine
 10
-6.258575730220166
 20
77.28801943300027
 30
0.0
 11
-6.180829487440455
 21
77.58402595554008
 31
0.0
  0
LINE
  5
1A9
330
168
100
AcDbEntity
  8
AM_4
100
AcDbLine
 10
-6.180829487440455
 20
77.58402595554008
 30
0.0
 11
-6.180829487440455
 21
78.69405034966044
 31
0.0
  0
LINE
  5
1AA
330
168
100
AcDbEntity
  8
AM_4
100
AcDbLine
 10
-6.180829487440455
 20
78.69405034966044
 30
0.0
 11
-6.258575730220166
 21
78.99005680616051
 31
0.0
  0
LINE
  5
1AB
330
168
100
AcDbEntity
  8
AM_4
100
AcDbLine
 10
-6.647307485140565
 20
76.91801128046062
 30
0.0
 11
-6.414068213241245
 21
77.06601460904047
 31
0.0
  0
LINE
  5
1AC
330
168
100
AcDbEntity
  8
AM_4
100
AcDbLine
 10
-6.414068213241245
 20
79.21206169870047
 30
0.0
 11
-6.647307485140565
 21
79.36006495870016
 31
0.0
  0
LINE
  5
1AD
330
168
100
AcDbEntity
  8
AM_4
100
AcDbLine
 10
-8.357725347000654
 20
79.43406659124042
 30
0.0
 11
-8.357725347000654
 21
76.84400964792036
 31
0.0
  0
LINE
  5
1AE
330
168
100
AcDbEntity
  8
AM_4
100
AcDbLine
 10
-8.357725347000654
 20
76.84400964792036
 30
0.0
 11
-6.958292451179821
 21
76.84400964792036
 31
0.0
  0
LINE
  5
1AF
330
168
100
AcDbEntity
  8
AM_4
100
AcDbLine
 10
-6.258575730220166
 20
78.99005680616051
 30
0.0
 11
-6.414068213241245
 21
79.21206169870047
 31
0.0
  0
LINE
  5
1B0
330
168
100
AcDbEntity
  8
AM_4
100
AcDbLine
 10
-6.958292451179821
 20
76.84400964792036
 30
0.0
 11
-6.647307485140565
 21
76.91801128046062
 31
0.0
  0
LINE
  5
1B1
330
168
100
AcDbEntity
  8
AM_4
100
AcDbLine
 10
-0.8940821894816531
 20
79.43406659124042
 30
0.0
 11
-0.8940821894816532
 21
76.84400964792036
 31
0.0
  0
LINE
  5
1B2
330
168
100
AcDbEntity
  8
AM_4
100
AcDbLine
 10
0.5053509628790468
 20
79.43406659124042
 30
0.0
 11
-0.8940821894816531
 21
79.43406659124042
 31
0.0
  0
LINE
  5
1B3
330
168
100
AcDbEntity
  8
AM_4
100
AcDbLine
 10
0.8163361168795378
 20
79.36006495870016
 30
0.0
 11
0.5053509628790468
 21
79.43406659124042
 31
0.0
  0
LINE
  5
1B4
330
168
100
AcDbEntity
  8
AM_4
100
AcDbLine
 10
1.049574944279238
 20
79.21206169870047
 30
0.0
 11
0.8163361168795378
 21
79.36006495870016
 31
0.0
  0
LINE
  5
1B5
330
168
100
AcDbEntity
  8
AM_4
100
AcDbLine
 10
1.205067564459168
 20
78.99005680616051
 30
0.0
 11
1.049574944279238
 21
79.21206169870047
 31
0.0
  0
LINE
  5
1B6
330
168
100
AcDbEntity
  8
AM_4
100
AcDbLine
 10
1.282813807238818
 20
78.69405034966044
 30
0.0
 11
1.205067564459168
 21
78.99005680616051
 31
0.0
  0
LINE
  5
1B7
330
168
100
AcDbEntity
  8
AM_4
100
AcDbLine
 10
1.282813807238818
 20
77.58402595554008
 30
0.0
 11
1.282813807238818
 21
78.69405034966044
 31
0.0
  0
LINE
  5
1B8
330
168
100
AcDbEntity
  8
AM_4
100
AcDbLine
 10
1.205067564459168
 20
77.28801943300027
 30
0.0
 11
1.282813807238818
 21
77.58402595554008
 31
0.0
  0
LINE
  5
1B9
330
168
100
AcDbEntity
  8
AM_4
100
AcDbLine
 10
1.049574944279238
 20
77.06601460904047
 30
0.0
 11
1.205067564459168
 21
77.28801943300027
 31
0.0
  0
LINE
  5
1BA
330
168
100
AcDbEntity
  8
AM_4
100
AcDbLine
 10
0.8163361168795378
 20
76.91801128046062
 30
0.0
 11
1.049574944279238
 21
77.06601460904047
 31
0.0
  0
LINE
  5
1BB
330
168
100
AcDbEntity
  8
AM_4
100
AcDbLine
 10
0.505350962879042
 20
76.84400964792036
 30
0.0
 11
0.8163361168795378
 21
76.91801128046062
 31
0.0
  0
LINE
  5
1BC
330
168
100
AcDbEntity
  8
AM_4
100
AcDbLine
 10
-0.8940821894816532
 20
76.84400964792036
 30
0.0
 11
0.505350962879042
 21
76.84400964792036
 31
0.0
  0
LINE
  5
1BD
330
168
100
AcDbEntity
  8
AM_4
100
AcDbLine
 10
-4.548157868361508
 20
78.99005680616051
 30
0.0
 11
-4.625904108601457
 21
78.69405034966044
 31
0.0
  0
LINE
  5
1BE
330
168
100
AcDbEntity
  8
AM_4
100
AcDbLine
 10
-4.392664836700707
 20
79.21206169870047
 30
0.0
 11
-4.548157868361508
 21
78.99005680616051
 31
0.0
  0
LINE
  5
1BF
330
168
100
AcDbEntity
  8
AM_4
100
AcDbLine
 10
-4.159426113441107
 20
79.36006495870016
 30
0.0
 11
-4.392664836700707
 21
79.21206169870047
 31
0.0
  0
LINE
  5
1C0
330
168
100
AcDbEntity
  8
AM_4
100
AcDbLine
 10
-3.848441147400377
 20
79.43406659124042
 30
0.0
 11
-4.159426113441107
 21
79.36006495870016
 31
0.0
  0
LINE
  5
1C1
330
168
100
AcDbEntity
  8
AM_4
100
AcDbLine
 10
-3.226470666680657
 20
79.43406659124042
 30
0.0
 11
-3.848441147400377
 21
79.43406659124042
 31
0.0
  0
LINE
  5
1C2
330
168
100
AcDbEntity
  8
AM_4
100
AcDbLine
 10
-2.915485700639927
 20
79.36006495870016
 30
0.0
 11
-3.226470666680657
 21
79.43406659124042
 31
0.0
  0
LINE
  5
1C3
330
168
100
AcDbEntity
  8
AM_4
100
AcDbLine
 10
-2.682246703061147
 20
79.21206169870047
 30
0.0
 11
-2.915485700639927
 21
79.36006495870016
 31
0.0
  0
LINE
  5
1C4
330
168
100
AcDbEntity
  8
AM_4
100
AcDbLine
 10
-2.526754220040067
 20
78.99005680616051
 30
0.0
 11
-2.682246703061147
 21
79.21206169870047
 31
0.0
  0
LINE
  5
1C5
330
168
100
AcDbEntity
  8
AM_4
100
AcDbLine
 10
-2.449007977260417
 20
78.69405034966044
 30
0.0
 11
-2.526754220040067
 21
78.99005680616051
 31
0.0
  0
LINE
  5
1C6
330
168
100
AcDbEntity
  8
AM_4
100
AcDbLine
 10
-2.915485700639927
 20
76.91801128046062
 30
0.0
 11
-2.682246703061147
 21
77.06601460904047
 31
0.0
  0
LINE
  5
1C7
330
168
100
AcDbEntity
  8
AM_4
100
AcDbLine
 10
-3.226470666680657
 20
76.84400964792036
 30
0.0
 11
-2.915485700639927
 21
76.91801128046062
 31
0.0
  0
LINE
  5
1C8
330
168
100
AcDbEntity
  8
AM_4
100
AcDbLine
 10
-3.848441147400377
 20
76.84400964792036
 30
0.0
 11
-3.226470666680657
 21
76.84400964792036
 31
0.0
  0
LINE
  5
1C9
330
168
100
AcDbEntity
  8
AM_4
100
AcDbLine
 10
-4.159426113441107
 20
76.91801128046062
 30
0.0
 11
-3.848441147400377
 21
76.84400964792036
 31
0.0
  0
LINE
  5
1CA
330
168
100
AcDbEntity
  8
AM_4
100
AcDbLine
 10
-4.392664836700707
 20
77.06601460904047
 30
0.0
 11
-4.159426113441107
 21
76.91801128046062
 31
0.0
  0
LINE
  5
1CB
330
168
100
AcDbEntity
  8
AM_4
100
AcDbLine
 10
-4.548157868361508
 20
77.28801943300027
 30
0.0
 11
-4.392664836700707
 21
77.06601460904047
 31
0.0
  0
LINE
  5
1CC
330
168
100
AcDbEntity
  8
AM_4
100
AcDbLine
 10
-4.625904108601447
 20
77.58402595554008
 30
0.0
 11
-4.548157868361508
 21
77.28801943300027
 31
0.0
  0
LINE
  5
1CD
330
168
100
AcDbEntity
  8
AM_4
100
AcDbLine
 10
-4.625904108601457
 20
78.69405034966044
 30
0.0
 11
-4.625904108601447
 21
77.58402595554008
 31
0.0
  0
LINE
  5
1CE
330
168
100
AcDbEntity
  8
AM_4
100
AcDbLine
 10
-2.682246703061147
 20
77.06601460904047
 30
0.0
 11
-2.526754220040067
 21
77.28801943300027
 31
0.0
  0
LINE
  5
1CF
330
168
100
AcDbEntity
  8
AM_4
100
AcDbLine
 10
-2.526754220040067
 20
77.28801943300027
 30
0.0
 11
-2.449007977260417
 21
77.58402595554008
 31
0.0
  0
LINE
  5
1D0
330
168
100
AcDbEntity
  8
AM_4
100
AcDbLine
 10
-2.449007977260417
 20
77.58402595554008
 30
0.0
 11
-2.449007977260417
 21
78.69405034966044
 31
0.0
  0
LINE
  5
1D1
330
168
100
AcDbEntity
  8
AM_4
100
AcDbLine
 10
-60.34999999999997
 20
-69.57217475399203
 30
0.0
 11
-60.35
 21
-82.82999999999997
 31
0.0
  0
ARC
  5
1D2
330
168
100
AcDbEntity
  8
AM_4
100
AcDbCircle
 10
58.22999999999977
 20
-82.82999999999998
 30
0.0
 40
2.120000000000214
100
AcDbArc
 50
328.1092081981568
 51
0.0
  0
ARC
  5
1D3
330
168
100
AcDbEntity
  8
AM_4
100
AcDbCircle
 10
-58.23000000000074
 20
-82.83000000000007
 30
0.0
 40
2.119999999999266
100
AcDbArc
 50
180.0
 51
211.8907918018562
  0
LINE
  5
1D4
330
168
100
AcDbEntity
  8
AM_4
100
AcDbLine
 10
60.34999999999998
 20
-82.83000000000001
 30
0.0
 11
60.34999999999999
 21
-58.73
 31
0.0
  0
LINE
  5
1D5
330
168
100
AcDbEntity
  8
AM_4
100
AcDbLine
 10
60.34999999999999
 20
-75.40000000000003
 30
0.0
 11
-60.35000000000002
 21
-75.40000000000003
 31
0.0
  0
LINE
  5
1D6
330
168
100
AcDbEntity
  8
AM_4
100
AcDbLine
 10
60.34999999999999
 20
-72.39999999999998
 30
0.0
 11
-60.35000000000002
 21
-72.39999999999998
 31
0.0
  0
LWPOLYLINE
  5
1D7
330
168
100
AcDbEntity
  8
AM_4
100
AcDbPolyline
 90
       13
 70
     0
 43
0.0
 10
60.03
 20
83.95000000000002
 10
59.92553602468777
 20
84.10261839880854
 10
59.80816799643501
 20
84.24555140317416
 10
59.6787891568055
 20
84.3777112066283
 10
59.53838415688989
 20
84.49809199326643
 10
59.38802156351639
 20
84.60577759261432
 10
59.228845726812
 20
84.69994845223857
 10
59.06206807100702
 20
84.77988787503556
 10
58.88895787476525
 20
84.84498747372902
 10
58.71083261120686
 20
84.89475180106471
 10
58.52904792114252
 20
84.92880212046309
 10
58.34498729582823
 20
84.94687928843337
 10
58.22999981852663
 20
84.95
  0
LWPOLYLINE
  5
1D8
330
168
100
AcDbEntity
  8
AM_4
100
AcDbPolyline
 90
       13
 70
     0
 43
0.0
 10
-58.22999993681908
 20
84.94999999999997
 10
-58.41477011168454
 20
84.94193276546105
 10
-58.59813407443283
 20
84.9177924473571
 10
-58.77869631458926
 20
84.87776276808522
 10
-58.95508264447977
 20
84.82214837767523
 10
-59.12595065762892
 20
84.75137253521908
 10
-59.28999994528372
 20
84.66597388761345
 10
-59.44598199330944
 20
84.56660237013172
 10
-59.59270968413607
 20
84.45401426002412
 10
-59.72906633143982
 20
84.32906642079112
 10
-59.85401417880031
 20
84.19270978093483
 10
-59.96660229765357
 20
84.04598209681897
 10
-60.02999999999998
 20
83.95
  0
LINE
  5
1D9
330
168
100
AcDbEntity
  8
AM_4
100
AcDbLine
 10
58.23000000000001
 20
84.95
 30
0.0
 11
-58.23
 21
84.94999999999997
 31
0.0
  0
LWPOLYLINE
  5
1DA
330
168
100
AcDbEntity
  8
AM_4
100
AcDbPolyline
 90
       13
 70
     0
 43
0.0
 10
58.22999993681907
 20
-84.95
 10
58.41477011168453
 20
-84.94193276546108
 10
58.59813407443282
 20
-84.91779244735713
 10
58.77869631458925
 20
-84.87776276808525
 10
58.95508264447976
 20
-84.82214837767526
 10
59.12595065762891
 20
-84.7513725352191
 10
59.2899999452837
 20
-84.66597388761348
 10
59.44598199330942
 20
-84.56660237013175
 10
59.59270968413605
 20
-84.45401426002415
 10
59.7290663314398
 20
-84.32906642079115
 10
59.8540141788003
 20
-84.19270978093486
 10
59.96660229765356
 20
-84.045982096819
 10
60.02999999999998
 20
-83.95000000000002
  0
LWPOLYLINE
  5
1DB
330
168
100
AcDbEntity
  8
AM_4
100
AcDbPolyline
 90
       13
 70
     0
 43
0.0
 10
-60.02999999999998
 20
-83.95000000000003
 10
-59.92553602468774
 20
-84.10261839880856
 10
-59.80816799643499
 20
-84.24555140317416
 10
-59.67878915680547
 20
-84.3777112066283
 10
-59.53838415688985
 20
-84.49809199326643
 10
-59.38802156351636
 20
-84.60577759261432
 10
-59.22884572681196
 20
-84.69994845223856
 10
-59.06206807100698
 20
-84.77988787503554
 10
-58.8889578747652
 20
-84.844987473729
 10
-58.71083261120682
 20
-84.8947518010647
 10
-58.52904792114249
 20
-84.92880212046306
 10
-58.34498729582818
 20
-84.94687928843334
 10
-58.23000000000001
 20
-84.94999999999999
  0
LINE
  5
1DC
330
168
100
AcDbEntity
  8
AM_4
100
AcDbLine
 10
58.22999999999999
 20
-84.95
 30
0.0
 11
-58.23000000000001
 21
-84.94999999999997
 31
0.0
  0
LINE
  5
1DD
330
168
100
AcDbEntity
  8
AM_4
100
AcDbLine
 10
60.03
 20
-83.95000000000002
 30
0.0
 11
-60.02999999999992
 21
-83.95000000000002
 31
0.0
  0
ARC
  5
1DE
330
168
100
AcDbEntity
  8
AM_4
100
AcDbCircle
 10
58.22999999999996
 20
82.83000000000001
 30
0.0
 40
2.12000000000004
100
AcDbArc
 50
0.0
 51
31.89079180184525
  0
LINE
  5
1DF
330
168
100
AcDbEntity
  8
AM_4
100
AcDbLine
 10
60.35000000000001
 20
58.73000004738569
 30
0.0
 11
60.35
 21
82.83
 31
0.0
  0
LINE
  5
1E0
330
168
100
AcDbEntity
  8
AM_4
100
AcDbLine
 10
-60.34999999999999
 20
82.82999999999998
 30
0.0
 11
-60.35000000000003
 21
69.572174753992
 31
0.0
  0
ARC
  5
1E1
330
168
100
AcDbEntity
  8
AM_4
100
AcDbCircle
 10
-58.22999999999983
 20
82.82999999999993
 30
0.0
 40
2.120000000000178
100
AcDbArc
 50
148.1092081981544
 51
180.0
  0
LINE
  5
1E2
330
168
100
AcDbEntity
  8
AM_4
100
AcDbLine
 10
2.915485700639807
 20
78.99005680616051
 30
0.0
 11
3.070978455440347
 21
79.21206169870047
 31
0.0
  0
LINE
  5
1E3
330
168
100
AcDbEntity
  8
AM_4
100
AcDbLine
 10
2.837739457858728
 20
78.69405034966044
 30
0.0
 11
2.915485700639807
 21
78.99005680616051
 31
0.0
  0
LINE
  5
1E4
330
168
100
AcDbEntity
  8
AM_4
100
AcDbLine
 10
8.513218376120212
 20
78.02803570759976
 30
0.0
 11
8.513218376120212
 21
78.47204545711976
 31
0.0
  0
LINE
  5
1E5
330
168
100
AcDbEntity
  8
AM_4
100
AcDbLine
 10
3.304217181239658
 20
76.91801128046062
 30
0.0
 11
3.070978455440347
 21
77.06601460904047
 31
0.0
  0
LINE
  5
1E6
330
168
100
AcDbEntity
  8
AM_4
100
AcDbLine
 10
1.205067564459168
 20
76.62200489253996
 30
0.0
 11
1.516052667660178
 21
76.91801128046062
 31
0.0
  0
LINE
  5
1E7
330
168
100
AcDbEntity
  8
AM_4
100
AcDbLine
 10
6.025337004419313
 20
76.4
 30
0.0
 11
8.824203342159535
 21
76.4
 31
0.0
  0
LINE
  5
1E8
330
168
100
AcDbEntity
  8
AM_4
100
AcDbLine
 10
4.936889074639217
 20
78.99005680616051
 30
0.0
 11
5.403367072339277
 21
78.99005680616051
 31
0.0
  0
LINE
  5
1E9
330
168
100
AcDbEntity
  8
AM_4
100
AcDbLine
 10
6.491814999579723
 20
78.47204545711976
 30
0.0
 11
6.491814999579723
 21
79.43406659124042
 31
0.0
  0
LINE
  5
1EA
330
168
100
AcDbEntity
  8
AM_4
100
AcDbLine
 10
-8.824203342159585
 20
79.87807637632034
 30
0.0
 11
-8.824203342159585
 21
76.4
 31
0.0
  0
LINE
  5
1EB
330
168
100
AcDbEntity
  8
AM_4
100
AcDbLine
 10
-8.824203342159585
 20
76.4
 30
0.0
 11
-6.958292451179825
 21
76.4
 31
0.0
  0
LINE
  5
1EC
330
168
100
AcDbEntity
  8
AM_4
100
AcDbLine
 10
3.070978455440347
 20
77.06601460904047
 30
0.0
 11
2.915485700639807
 21
77.28801943300027
 31
0.0
  0
LINE
  5
1ED
330
168
100
AcDbEntity
  8
AM_4
100
AcDbLine
 10
6.491814999579723
 20
79.43406659124042
 30
0.0
 11
8.824203342159535
 21
79.43406659124042
 31
0.0
  0
LINE
  5
1EE
330
168
100
AcDbEntity
  8
AM_4
100
AcDbLine
 10
8.824203342159535
 20
79.43406659124042
 30
0.0
 11
8.824203342159526
 21
79.87807637632034
 31
0.0
  0
LINE
  5
1EF
330
168
100
AcDbEntity
  8
AM_4
100
AcDbLine
 10
-5.947590764180855
 20
76.91801128046062
 30
0.0
 11
-5.792098281159775
 21
77.21401780300042
 31
0.0
  0
LINE
  5
1F0
330
168
100
AcDbEntity
  8
AM_4
100
AcDbLine
 10
-5.792098281159775
 20
77.21401780300042
 30
0.0
 11
-5.714352038381545
 21
77.58402595554008
 31
0.0
  0
LINE
  5
1F1
330
168
100
AcDbEntity
  8
AM_4
100
AcDbLine
 10
3.070978455440347
 20
79.21206169870047
 30
0.0
 11
3.304217181239658
 21
79.36006495870016
 31
0.0
  0
LINE
  5
1F2
330
168
100
AcDbEntity
  8
AM_4
100
AcDbLine
 10
3.304217181239658
 20
79.36006495870016
 30
0.0
 11
3.615202421599518
 21
79.43406659124042
 31
0.0
  0
LINE
  5
1F3
330
168
100
AcDbEntity
  8
AM_4
100
AcDbLine
 10
3.615202421599518
 20
79.43406659124042
 30
0.0
 11
4.314918868238637
 21
79.43406659124042
 31
0.0
  0
LINE
  5
1F4
330
168
100
AcDbEntity
  8
AM_4
100
AcDbLine
 10
8.513218376120212
 20
78.47204545711976
 30
0.0
 11
6.491814999579723
 21
78.47204545711976
 31
0.0
  0
LINE
  5
1F5
330
168
100
AcDbEntity
  8
AM_4
100
AcDbLine
 10
4.859142834399277
 20
79.21206169870047
 30
0.0
 11
4.936889074639217
 21
78.99005680616051
 31
0.0
  0
LINE
  5
1F6
330
168
100
AcDbEntity
  8
AM_4
100
AcDbLine
 10
8.824203342159526
 20
79.87807637632034
 30
0.0
 11
6.025337004419314
 21
79.87807637632034
 31
0.0
  0
LINE
  5
1F7
330
168
100
AcDbEntity
  8
AM_4
100
AcDbLine
 10
5.014635317418877
 20
79.65607148378038
 30
0.0
 11
4.703650351379618
 21
79.80407474378008
 31
0.0
  0
LINE
  5
1F8
330
168
100
AcDbEntity
  8
AM_4
100
AcDbLine
 10
4.703650351379618
 20
79.80407474378008
 30
0.0
 11
4.314918868238637
 21
79.87807637632034
 31
0.0
  0
LINE
  5
1F9
330
168
100
AcDbEntity
  8
AM_4
100
AcDbLine
 10
1.671545287838618
 20
77.21401780300042
 30
0.0
 11
1.749291528078628
 21
77.58402595554008
 31
0.0
  0
LINE
  5
1FA
330
168
100
AcDbEntity
  8
AM_4
100
AcDbLine
 10
-6.958292451179825
 20
79.87807637632034
 30
0.0
 11
-8.824203342159585
 21
79.87807637632034
 31
0.0
  0
LINE
  5
1FB
330
168
100
AcDbEntity
  8
AM_4
100
AcDbLine
 10
2.915485700639807
 20
79.65607148378038
 30
0.0
 11
2.604500734599058
 21
79.36006495870016
 31
0.0
  0
LINE
  5
1FC
330
168
100
AcDbEntity
  8
AM_4
100
AcDbLine
 10
2.604500734599058
 20
79.36006495870016
 30
0.0
 11
2.449008114419137
 21
79.06405843616037
 31
0.0
  0
LINE
  5
1FD
330
168
100
AcDbEntity
  8
AM_4
100
AcDbLine
 10
2.915485700639807
 20
77.28801943300027
 30
0.0
 11
2.837739457858728
 21
77.58402595554008
 31
0.0
  0
LINE
  5
1FE
330
168
100
AcDbEntity
  8
AM_4
100
AcDbLine
 10
2.837739457858728
 20
77.58402595554008
 30
0.0
 11
2.837739457858728
 21
78.69405034966044
 31
0.0
  0
LINE
  5
1FF
330
168
100
AcDbEntity
  8
AM_4
100
AcDbLine
 10
2.915485700639807
 20
76.62200489253996
 30
0.0
 11
3.226470940999658
 21
76.47400162999985
 31
0.0
  0
LINE
  5
200
330
168
100
AcDbEntity
  8
AM_4
100
AcDbLine
 10
2.449008114419137
 20
79.06405843616037
 30
0.0
 11
2.371261871639487
 21
78.69405034966044
 31
0.0
  0
LINE
  5
201
330
168
100
AcDbEntity
  8
AM_4
100
AcDbLine
 10
3.226470940999658
 20
79.80407474378008
 30
0.0
 11
2.915485700639807
 21
79.65607148378038
 31
0.0
  0
LINE
  5
202
330
168
100
AcDbEntity
  8
AM_4
100
AcDbLine
 10
3.615202421599518
 20
79.87807637632034
 30
0.0
 11
3.226470940999658
 21
79.80407474378008
 31
0.0
  0
LINE
  5
203
330
168
100
AcDbEntity
  8
AM_4
100
AcDbLine
 10
4.314918868238637
 20
79.87807637632034
 30
0.0
 11
3.615202421599518
 21
79.87807637632034
 31
0.0
  0
LINE
  5
204
330
168
100
AcDbEntity
  8
AM_4
100
AcDbLine
 10
5.325620829559618
 20
79.36006495870016
 30
0.0
 11
5.014635317418877
 21
79.65607148378038
 31
0.0
  0
LINE
  5
205
330
168
100
AcDbEntity
  8
AM_4
100
AcDbLine
 10
5.403367072339277
 20
78.99005680616051
 30
0.0
 11
5.325620829559618
 21
79.36006495870016
 31
0.0
  0
LINE
  5
206
330
168
100
AcDbEntity
  8
AM_4
100
AcDbLine
 10
4.625904108598488
 20
79.36006495870016
 30
0.0
 11
4.859142834399277
 21
79.21206169870047
 31
0.0
  0
LINE
  5
207
330
168
100
AcDbEntity
  8
AM_4
100
AcDbLine
 10
4.314918868238637
 20
79.43406659124042
 30
0.0
 11
4.625904108598488
 21
79.36006495870016
 31
0.0
  0
LINE
  5
208
330
168
100
AcDbEntity
  8
AM_4
100
AcDbLine
 10
3.615202421599518
 20
76.84400964792036
 30
0.0
 11
3.304217181239658
 21
76.91801128046062
 31
0.0
  0
LINE
  5
209
330
168
100
AcDbEntity
  8
AM_4
100
AcDbLine
 10
4.314918868238637
 20
76.84400964792036
 30
0.0
 11
3.615202421599518
 21
76.84400964792036
 31
0.0
  0
LINE
  5
20A
330
168
100
AcDbEntity
  8
AM_4
100
AcDbLine
 10
4.625904108598488
 20
76.91801128046062
 30
0.0
 11
4.314918868238637
 21
76.84400964792036
 31
0.0
  0
LINE
  5
20B
330
168
100
AcDbEntity
  8
AM_4
100
AcDbLine
 10
4.859142834399277
 20
77.06601460904047
 30
0.0
 11
4.625904108598488
 21
76.91801128046062
 31
0.0
  0
LINE
  5
20C
330
168
100
AcDbEntity
  8
AM_4
100
AcDbLine
 10
4.936889074639217
 20
77.28801943300027
 30
0.0
 11
4.859142834399277
 21
77.06601460904047
 31
0.0
  0
LINE
  5
20D
330
168
100
AcDbEntity
  8
AM_4
100
AcDbLine
 10
4.936889074639217
 20
77.88003246284033
 30
0.0
 11
4.936889074639217
 21
77.28801943300027
 31
0.0
  0
LINE
  5
20E
330
168
100
AcDbEntity
  8
AM_4
100
AcDbLine
 10
4.237172627998687
 20
77.88003246284033
 30
0.0
 11
4.936889074639217
 21
77.88003246284033
 31
0.0
  0
LINE
  5
20F
330
168
100
AcDbEntity
  8
AM_4
100
AcDbLine
 10
4.237172627998687
 20
78.32404221490002
 30
0.0
 11
4.237172627998687
 21
77.88003246284033
 31
0.0
  0
LINE
  5
210
330
168
100
AcDbEntity
  8
AM_4
100
AcDbLine
 10
5.403367072339277
 20
78.32404221490002
 30
0.0
 11
4.237172627998687
 21
78.32404221490002
 31
0.0
  0
LINE
  5
211
330
168
100
AcDbEntity
  8
AM_4
100
AcDbLine
 10
5.403367072339277
 20
77.21401780300042
 30
0.0
 11
5.403367072339277
 21
78.32404221490002
 31
0.0
  0
LINE
  5
212
330
168
100
AcDbEntity
  8
AM_4
100
AcDbLine
 10
5.325620829559618
 20
76.91801128046062
 30
0.0
 11
5.403367072339277
 21
77.21401780300042
 31
0.0
  0
LINE
  5
213
330
168
100
AcDbEntity
  8
AM_4
100
AcDbLine
 10
5.014635317418877
 20
76.62200489253996
 30
0.0
 11
5.325620829559618
 21
76.91801128046062
 31
0.0
  0
LINE
  5
214
330
168
100
AcDbEntity
  8
AM_4
100
AcDbLine
 10
4.703650351379618
 20
76.47400162999985
 30
0.0
 11
5.014635317418877
 21
76.62200489253996
 31
0.0
  0
LINE
  5
215
330
168
100
AcDbEntity
  8
AM_4
100
AcDbLine
 10
4.314918868238637
 20
76.4
 30
0.0
 11
4.703650351379618
 21
76.47400162999985
 31
0.0
  0
LINE
  5
216
330
168
100
AcDbEntity
  8
AM_4
100
AcDbLine
 10
3.615202421599518
 20
76.4
 30
0.0
 11
4.314918868238637
 21
76.4
 31
0.0
  0
LINE
  5
217
330
168
100
AcDbEntity
  8
AM_4
100
AcDbLine
 10
3.226470940999658
 20
76.47400162999985
 30
0.0
 11
3.615202421599518
 21
76.4
 31
0.0
  0
LINE
  5
218
330
168
100
AcDbEntity
  8
AM_4
100
AcDbLine
 10
2.604500734599067
 20
76.91801128046062
 30
0.0
 11
2.915485700639807
 21
76.62200489253996
 31
0.0
  0
LINE
  5
219
330
168
100
AcDbEntity
  8
AM_4
100
AcDbLine
 10
2.449008114419137
 20
77.21401780300042
 30
0.0
 11
2.604500734599067
 21
76.91801128046062
 31
0.0
  0
LINE
  5
21A
330
168
100
AcDbEntity
  8
AM_4
100
AcDbLine
 10
2.371261871639487
 20
77.58402595554008
 30
0.0
 11
2.449008114419137
 21
77.21401780300042
 31
0.0
  0
LINE
  5
21B
330
168
100
AcDbEntity
  8
AM_4
100
AcDbLine
 10
2.371261871639487
 20
78.69405034966044
 30
0.0
 11
2.371261871639487
 21
77.58402595554008
 31
0.0
  0
LINE
  5
21C
330
168
100
AcDbEntity
  8
AM_4
100
AcDbLine
 10
-5.014635317420417
 20
79.06405843616037
 30
0.0
 11
-5.092381557660427
 21
78.69405034966044
 31
0.0
  0
LINE
  5
21D
330
168
100
AcDbEntity
  8
AM_4
100
AcDbLine
 10
-4.859142834400747
 20
79.36006495870018
 30
0.0
 11
-5.014635317420417
 21
79.06405843616037
 31
0.0
  0
LINE
  5
21E
330
168
100
AcDbEntity
  8
AM_4
100
AcDbLine
 10
-4.548157868361508
 20
79.65607148378038
 30
0.0
 11
-4.859142834400747
 21
79.36006495870018
 31
0.0
  0
LINE
  5
21F
330
168
100
AcDbEntity
  8
AM_4
100
AcDbLine
 10
-4.237172353681058
 20
79.80407474378008
 30
0.0
 11
-4.548157868361508
 21
79.65607148378038
 31
0.0
  0
LINE
  5
220
330
168
100
AcDbEntity
  8
AM_4
100
AcDbLine
 10
-3.848441147400377
 20
79.87807637632034
 30
0.0
 11
-4.237172353681058
 21
79.80407474378008
 31
0.0
  0
LINE
  5
221
330
168
100
AcDbEntity
  8
AM_4
100
AcDbLine
 10
-3.226470666680657
 20
79.87807637632034
 30
0.0
 11
-3.848441147400377
 21
79.87807637632034
 31
0.0
  0
LINE
  5
222
330
168
100
AcDbEntity
  8
AM_4
100
AcDbLine
 10
-2.837739186080807
 20
79.80407474378008
 30
0.0
 11
-3.226470666680657
 21
79.87807637632034
 31
0.0
  0
LINE
  5
223
330
168
100
AcDbEntity
  8
AM_4
100
AcDbLine
 10
-2.526754220040067
 20
79.65607148378038
 30
0.0
 11
-2.837739186080807
 21
79.80407474378008
 31
0.0
  0
LINE
  5
224
330
168
100
AcDbEntity
  8
AM_4
100
AcDbLine
 10
-2.215768979680217
 20
79.36006495870016
 30
0.0
 11
-2.526754220040067
 21
79.65607148378038
 31
0.0
  0
LINE
  5
225
330
168
100
AcDbEntity
  8
AM_4
100
AcDbLine
 10
-2.060276496660557
 20
79.06405843616037
 30
0.0
 11
-2.215768979680217
 21
79.36006495870016
 31
0.0
  0
LINE
  5
226
330
168
100
AcDbEntity
  8
AM_4
100
AcDbLine
 10
-1.982530253880907
 20
78.69405034966044
 30
0.0
 11
-2.060276496660557
 21
79.06405843616037
 31
0.0
  0
LINE
  5
227
330
168
100
AcDbEntity
  8
AM_4
100
AcDbLine
 10
-1.982530253880907
 20
77.58402595554008
 30
0.0
 11
-1.982530253880907
 21
78.69405034966044
 31
0.0
  0
LINE
  5
228
330
168
100
AcDbEntity
  8
AM_4
100
AcDbLine
 10
-2.060276496660557
 20
77.21401780300042
 30
0.0
 11
-1.982530253880907
 21
77.58402595554008
 31
0.0
  0
LINE
  5
229
330
168
100
AcDbEntity
  8
AM_4
100
AcDbLine
 10
-2.215768979680217
 20
76.91801128046062
 30
0.0
 11
-2.060276496660557
 21
77.21401780300042
 31
0.0
  0
LINE
  5
22A
330
168
100
AcDbEntity
  8
AM_4
100
AcDbLine
 10
-2.526754220040067
 20
76.62200489253996
 30
0.0
 11
-2.215768979680217
 21
76.91801128046062
 31
0.0
  0
LINE
  5
22B
330
168
100
AcDbEntity
  8
AM_4
100
AcDbLine
 10
-2.837739186080807
 20
76.47400162999985
 30
0.0
 11
-2.526754220040067
 21
76.62200489253996
 31
0.0
  0
LINE
  5
22C
330
168
100
AcDbEntity
  8
AM_4
100
AcDbLine
 10
-3.226470666680657
 20
76.4
 30
0.0
 11
-2.837739186080807
 21
76.47400162999985
 31
0.0
  0
LINE
  5
22D
330
168
100
AcDbEntity
  8
AM_4
100
AcDbLine
 10
-3.848441147400377
 20
76.4
 30
0.0
 11
-3.226470666680657
 21
76.4
 31
0.0
  0
LINE
  5
22E
330
168
100
AcDbEntity
  8
AM_4
100
AcDbLine
 10
-4.237172353681058
 20
76.47400162999985
 30
0.0
 11
-3.848441147400377
 21
76.4
 31
0.0
  0
LINE
  5
22F
330
168
100
AcDbEntity
  8
AM_4
100
AcDbLine
 10
-4.548157868361508
 20
76.62200489253996
 30
0.0
 11
-4.237172353681058
 21
76.47400162999985
 31
0.0
  0
LINE
  5
230
330
168
100
AcDbEntity
  8
AM_4
100
AcDbLine
 10
-4.859142834400767
 20
76.91801128046062
 30
0.0
 11
-4.548157868361508
 21
76.62200489253996
 31
0.0
  0
LINE
  5
231
330
168
100
AcDbEntity
  8
AM_4
100
AcDbLine
 10
-5.014635317420417
 20
77.21401780300042
 30
0.0
 11
-4.859142834400767
 21
76.91801128046062
 31
0.0
  0
LINE
  5
232
330
168
100
AcDbEntity
  8
AM_4
100
AcDbLine
 10
-5.092381557660427
 20
77.58402595554008
 30
0.0
 11
-5.014635317420417
 21
77.21401780300042
 31
0.0
  0
LINE
  5
233
330
168
100
AcDbEntity
  8
AM_4
100
AcDbLine
 10
-5.092381557660427
 20
78.69405034966044
 30
0.0
 11
-5.092381557660427
 21
77.58402595554008
 31
0.0
  0
LINE
  5
234
330
168
100
AcDbEntity
  8
AM_4
100
AcDbLine
 10
60.03
 20
83.95000000000002
 30
0.0
 11
-60.02999999999998
 21
83.95000000000002
 31
0.0
  0
LINE
  5
235
330
168
100
AcDbEntity
  8
AM_4
100
AcDbLine
 10
-6.569561242360855
 20
79.80407474378008
 30
0.0
 11
-6.958292451179825
 21
79.87807637632034
 31
0.0
  0
LINE
  5
236
330
168
100
AcDbEntity
  8
AM_4
100
AcDbLine
 10
-6.258575730220166
 20
79.65607148378038
 30
0.0
 11
-6.569561242360855
 21
79.80407474378008
 31
0.0
  0
LINE
  5
237
330
168
100
AcDbEntity
  8
AM_4
100
AcDbLine
 10
-5.947590764180855
 20
79.36006495870016
 30
0.0
 11
-6.258575730220166
 21
79.65607148378038
 31
0.0
  0
LINE
  5
238
330
168
100
AcDbEntity
  8
AM_4
100
AcDbLine
 10
-5.792098281159775
 20
79.06405843616037
 30
0.0
 11
-5.947590764180855
 21
79.36006495870016
 31
0.0
  0
LINE
  5
239
330
168
100
AcDbEntity
  8
AM_4
100
AcDbLine
 10
-5.714352038381545
 20
78.69405034966044
 30
0.0
 11
-5.792098281159775
 21
79.06405843616037
 31
0.0
  0
LINE
  5
23A
330
168
100
AcDbEntity
  8
AM_4
100
AcDbLine
 10
-5.714352038381545
 20
77.58402595554008
 30
0.0
 11
-5.714352038381545
 21
78.69405034966044
 31
0.0
  0
LINE
  5
23B
330
168
100
AcDbEntity
  8
AM_4
100
AcDbLine
 10
-6.258575730220166
 20
76.62200489253996
 30
0.0
 11
-5.947590764180855
 21
76.91801128046062
 31
0.0
  0
LINE
  5
23C
330
168
100
AcDbEntity
  8
AM_4
100
AcDbLine
 10
-6.569561242360854
 20
76.47400162999985
 30
0.0
 11
-6.258575730220166
 21
76.62200489253996
 31
0.0
  0
LINE
  5
23D
330
168
100
AcDbEntity
  8
AM_4
100
AcDbLine
 10
-6.958292451179825
 20
76.4
 30
0.0
 11
-6.569561242360854
 21
76.47400162999985
 31
0.0
  0
LINE
  5
23E
330
168
100
AcDbEntity
  8
AM_4
100
AcDbLine
 10
-1.360559912859692
 20
79.87807637632034
 30
0.0
 11
-1.360559912859692
 21
76.4
 31
0.0
  0
LINE
  5
23F
330
168
100
AcDbEntity
  8
AM_4
100
AcDbLine
 10
0.505350962879042
 20
79.87807637632034
 30
0.0
 11
-1.360559912859692
 21
79.87807637632034
 31
0.0
  0
LINE
  5
240
330
168
100
AcDbEntity
  8
AM_4
100
AcDbLine
 10
0.8940823926794198
 20
79.80407474378008
 30
0.0
 11
0.505350962879042
 21
79.87807637632034
 31
0.0
  0
LINE
  5
241
330
168
100
AcDbEntity
  8
AM_4
100
AcDbLine
 10
1.205067564459168
 20
79.65607148378038
 30
0.0
 11
0.8940823926794198
 21
79.80407474378008
 31
0.0
  0
LINE
  5
242
330
168
100
AcDbEntity
  8
AM_4
100
AcDbLine
 10
1.516052667660178
 20
79.36006495870016
 30
0.0
 11
1.205067564459168
 21
79.65607148378038
 31
0.0
  0
LINE
  5
243
330
168
100
AcDbEntity
  8
AM_4
100
AcDbLine
 10
1.671545287838618
 20
79.06405843616037
 30
0.0
 11
1.516052667660178
 21
79.36006495870016
 31
0.0
  0
LINE
  5
244
330
168
100
AcDbEntity
  8
AM_4
100
AcDbLine
 10
1.749291528078628
 20
78.69405034966044
 30
0.0
 11
1.671545287838618
 21
79.06405843616037
 31
0.0
  0
LINE
  5
245
330
168
100
AcDbEntity
  8
AM_4
100
AcDbLine
 10
1.749291528078628
 20
77.58402595554008
 30
0.0
 11
1.749291528078628
 21
78.69405034966044
 31
0.0
  0
LINE
  5
246
330
168
100
AcDbEntity
  8
AM_4
100
AcDbLine
 10
1.516052667660178
 20
76.91801128046062
 30
0.0
 11
1.671545287838618
 21
77.21401780300042
 31
0.0
  0
LINE
  5
247
330
168
100
AcDbEntity
  8
AM_4
100
AcDbLine
 10
0.8940823926794198
 20
76.47400162999985
 30
0.0
 11
1.205067564459168
 21
76.62200489253996
 31
0.0
  0
LINE
  5
248
330
168
100
AcDbEntity
  8
AM_4
100
AcDbLine
 10
0.5053509628790466
 20
76.4
 30
0.0
 11
0.8940823926794198
 21
76.47400162999985
 31
0.0
  0
LINE
  5
249
330
168
100
AcDbEntity
  8
AM_4
100
AcDbLine
 10
-1.360559912859692
 20
76.4
 30
0.0
 11
0.5053509628790466
 21
76.4
 31
0.0
  0
LINE
  5
24A
330
168
100
AcDbEntity
  8
AM_4
100
AcDbLine
 10
6.025337004419314
 20
79.87807637632034
 30
0.0
 11
6.025337004419313
 21
76.4
 31
0.0
  0
LINE
  5
24B
330
168
100
AcDbEntity
  8
AM_4
100
AcDbLine
 10
6.491814999579723
 20
78.02803570759976
 30
0.0
 11
8.513218376120212
 21
78.02803570759976
 31
0.0
  0
LINE
  5
24C
330
168
100
AcDbEntity
  8
AM_4
100
AcDbLine
 10
6.491814999579723
 20
76.84400964792036
 30
0.0
 11
6.491814999579723
 21
78.02803570759976
 31
0.0
  0
LINE
  5
24D
330
168
100
AcDbEntity
  8
AM_4
100
AcDbLine
 10
8.824203342159535
 20
76.84400964792036
 30
0.0
 11
6.491814999579723
 21
76.84400964792036
 31
0.0
  0
LINE
  5
24E
330
168
100
AcDbEntity
  8
AM_4
100
AcDbLine
 10
8.824203342159535
 20
76.4
 30
0.0
 11
8.824203342159535
 21
76.84400964792036
 31
0.0
  0
LINE
  5
24F
330
168
100
AcDbEntity
  8
AM_4
100
AcDbLine
 10
60.35000000000002
 20
75.4
 30
0.0
 11
-60.35000000000002
 21
75.4
 31
0.0
  0
LINE
  5
250
330
168
100
AcDbEntity
  8
AM_4
100
AcDbLine
 10
60.35000000000002
 20
72.4
 30
0.0
 11
-60.35000000000002
 21
72.4
 31
0.0
  0
LINE
  5
251
330
168
100
AcDbEntity
  8
AM_4
100
AcDbLine
 10
139.7
 20
-27.57791870319441
 30
0.0
 11
119.1
 21
-27.57791870319441
 31
0.0
  0
LINE
  5
252
330
168
100
AcDbEntity
  8
AM_4
100
AcDbLine
 10
139.7
 20
27.57791870319442
 30
0.0
 11
119.1
 21
27.57791870319442
 31
0.0
  0
ENDBLK
  5
16B
330
168
100
AcDbEntity
  8
0
100
AcDbBlockEnd
  0
ENDSEC
  0
SECTION
  2
ENTITIES
  0
INSERT
  5
6F
330
1F
100
AcDbEntity
  8
0
100
AcDbBlockReference
  2
1_136311_0
 10
0.0
 20
0.0
 30
0.0
  0
POINT
  5
254
330
1F
100
AcDbEntity
  8
ConnectionPoints
100
AcDbPoint
 10
0.0
 20
0.0
 30
0.0
  0
POINT
  5
255
330
1F
100
AcDbEntity
  8
ConnectionPoints
100
AcDbPoint
 10
0.0
 20
0.0
 30
0.0
  0
POINT
  5
256
330
1F
100
AcDbEntity
  8
ConnectionPoints
100
AcDbPoint
 10
0.0
 20
0.0
 30
-22.6
  0
POINT
  5
257
330
1F
100
AcDbEntity
  8
ConnectionPoints
100
AcDbPoint
 10
0.0
 20
0.0
 30
0.0
  0
POINT
  5
258
330
1F
100
AcDbEntity
  8
ConnectionPoints
100
AcDbPoint
 10
0.0
 20
0.0
 30
0.0
  0
POINT
  5
259
330
1F
100
AcDbEntity
  8
ConnectionPoints
100
AcDbPoint
 10
-81.4929904961157
 20
-47.05
 30
0.0
  0
POINT
  5
25A
330
1F
100
AcDbEntity
  8
ConnectionPoints
100
AcDbPoint
 10
0.0
 20
0.0
 30
22.6
  0
ENDSEC
  0
SECTION
  2
OBJECTS
  0
DICTIONARY
  5
C
330
0
100
AcDbDictionary
281
     1
  3
ACAD_DETAILVIEWSTYLE
350
262
  3
ACAD_GROUP
350
D
  3
ACAD_LAYOUT
350
1A
  3
ACAD_MATERIAL
350
43
  3
ACAD_MLEADERSTYLE
350
6B
  3
ACAD_MLINESTYLE
350
17
  3
ACAD_PLOTSETTINGS
350
19
  3
ACAD_PLOTSTYLENAME
350
E
  3
ACAD_SCALELIST
350
47
  3
ACAD_SECTIONVIEWSTYLE
350
263
  3
ACAD_TABLESTYLE
350
69
  3
ACAD_VISUALSTYLE
350
2A
  3
ACDB_RECOMPOSE_DATA
350
25F
  3
AcDbVariableDictionary
350
25B
  0
SUN
  5
6D
330
29
100
AcDbSun
 90
        1
290
     0
 63
     7
421
 16777215
 40
1.0
291
     1
 91
  2455826
 92
 54000000
292
     0
 70
     2
 71
   256
280
     1
  0
DICTIONARY
  5
262
102
{ACAD_REACTORS
330
C
102
}
330
C
100
AcDbDictionary
281
     1
  0
DICTIONARY
  5
D
102
{ACAD_REACTORS
330
C
102
}
330
C
100
AcDbDictionary
281
     1
  0
DICTIONARY
  5
1A
102
{ACAD_REACTORS
330
C
102
}
330
C
100
AcDbDictionary
281
     1
  3
Layout1
350
1E
  3
Layout2
350
26
  3
Model
350
22
  0
DICTIONARY
  5
43
102
{ACAD_REACTORS
330
C
102
}
330
C
100
AcDbDictionary
281
     1
  3
ByBlock
350
45
  3
ByLayer
350
44
  3
Global
350
46
  0
DICTIONARY
  5
6B
102
{ACAD_REACTORS
330
C
102
}
330
C
100
AcDbDictionary
281
     1
  3
Standard
350
6C
  0
DICTIONARY
  5
17
102
{ACAD_REACTORS
330
C
102
}
330
C
100
AcDbDictionary
281
     1
  3
Standard
350
18
  0
DICTIONARY
  5
19
102
{ACAD_REACTORS
330
C
102
}
330
C
100
AcDbDictionary
281
     1
  0
ACDBDICTIONARYWDFLT
  5
E
102
{ACAD_REACTORS
330
C
102
}
330
C
100
AcDbDictionary
281
     1
  3
Normal
350
F
100
AcDbDictionaryWithDefault
340
F
  0
DICTIONARY
  5
47
102
{ACAD_REACTORS
330
C
102
}
330
C
100
AcDbDictionary
281
     1
  3
A0
350
48
  3
A1
350
49
  3
A2
350
4A
  3
A3
350
4B
  3
A4
350
4C
  3
A5
350
4D
  3
A6
350
4E
  3
A7
350
4F
  3
A8
350
50
  3
A9
350
51
  3
B0
350
52
  3
B1
350
53
  3
B2
350
54
  3
B3
350
55
  3
B4
350
56
  3
B5
350
57
  3
B6
350
58
  3
B7
350
59
  3
B8
350
5A
  3
B9
350
5B
  3
C0
350
5C
  3
C1
350
5D
  3
C2
350
5E
  3
C3
350
5F
  3
C4
350
60
  3
C5
350
61
  3
C6
350
62
  3
C7
350
63
  3
C8
350
64
  3
C9
350
65
  3
D0
350
66
  3
D1
350
67
  3
D2
350
68
  0
DICTIONARY
  5
263
102
{ACAD_REACTORS
330
C
102
}
330
C
100
AcDbDictionary
281
     1
  0
DICTIONARY
  5
69
102
{ACAD_REACTORS
330
C
102
}
330
C
100
AcDbDictionary
281
     1
  3
Standard
350
6A
  0
DICTIONARY
  5
2A
102
{ACAD_REACTORS
330
C
102
}
330
C
100
AcDbDictionary
281
     1
  3
2dWireframe
350
2F
  3
Basic
350
32
  3
Brighten
350
36
  3
ColorChange
350
3A
  3
Conceptual
350
34
  3
Dim
350
35
  3
EdgeColorOff
350
3D
  3
Facepattern
350
39
  3
Flat
350
2B
  3
FlatWithEdges
350
2C
  3
Gouraud
350
2D
  3
GouraudWithEdges
350
2E
  3
Hidden
350
31
  3
JitterOff
350
3B
  3
Linepattern
350
38
  3
OverhangOff
350
3C
  3
Realistic
350
33
  3
Shaded
350
42
  3
Shaded with edges
350
41
  3
Shades of Gray
350
3E
  3
Sketchy
350
3F
  3
Thicken
350
37
  3
Wireframe
350
30
  3
X-Ray
350
40
  0
XRECORD
  5
25F
102
{ACAD_REACTORS
330
C
102
}
330
C
100
AcDbXrecord
280
     1
 90
        1
330
6A
  0
DICTIONARY
  5
25B
102
{ACAD_REACTORS
330
C
102
}
330
C
100
AcDbDictionary
281
     1
  3
CANNOSCALE
350
25C
  3
CMLEADERSTYLE
350
261
  3
CTABLESTYLE
350
260
  0
LAYOUT
  5
1E
102
{ACAD_REACTORS
330
1A
102
}
330
1A
100
AcDbPlotSettings
  1

  2
none_device
  4

  6

 40
0.0
 41
0.0
 42
0.0
 43
0.0
 44
0.0
 45
0.0
 46
0.0
 47
0.0
 48
0.0
 49
0.0
140
0.0
141
0.0
142
1.0
143
1.0
 70
   688
 72
     1
 73
     0
 74
     5
  7

 75
    16
 76
     0
 77
     2
 78
   300
147
1.0
148
0.0
149
0.0
100
AcDbLayout
  1
Layout1
 70
     1
 71
     1
 10
0.0
 20
0.0
 11
420.0
 21
297.0
 12
0.0
 22
0.0
 32
0.0
 14
1.000000000000000E+20
 24
1.000000000000000E+20
 34
1.000000000000000E+20
 15
-1.000000000000000E+20
 25
-1.000000000000000E+20
 35
-1.000000000000000E+20
146
0.0
 13
0.0
 23
0.0
 33
0.0
 16
1.0
 26
0.0
 36
0.0
 17
0.0
 27
1.0
 37
0.0
 76
     0
330
1B
  0
LAYOUT
  5
26
102
{ACAD_REACTORS
330
1A
102
}
330
1A
100
AcDbPlotSettings
  1

  2
none_device
  4

  6

 40
0.0
 41
0.0
 42
0.0
 43
0.0
 44
0.0
 45
0.0
 46
0.0
 47
0.0
 48
0.0
 49
0.0
140
0.0
141
0.0
142
1.0
143
1.0
 70
   688
 72
     1
 73
     0
 74
     5
  7

 75
    16
 76
     0
 77
     2
 78
   300
147
1.0
148
0.0
149
0.0
100
AcDbLayout
  1
Layout2
 70
     1
 71
     2
 10
0.0
 20
0.0
 11
0.0
 21
0.0
 12
0.0
 22
0.0
 32
0.0
 14
0.0
 24
0.0
 34
0.0
 15
0.0
 25
0.0
 35
0.0
146
0.0
 13
0.0
 23
0.0
 33
0.0
 16
1.0
 26
0.0
 36
0.0
 17
0.0
 27
1.0
 37
0.0
 76
     0
330
23
  0
LAYOUT
  5
22
102
{ACAD_REACTORS
330
1A
102
}
330
1A
100
AcDbPlotSettings
  1

  2
none_device
  4
Letter_(8.50_x_11.00_Inches)
  6

 40
6.35
 41
6.35
 42
6.35000508
 43
6.35000508
 44
215.9
 45
279.4
 46
0.0
 47
0.0
 48
0.0
 49
0.0
140
0.0
141
0.0
142
1.0
143
1.0
 70
  1712
 72
     1
 73
     0
 74
     0
  7

 75
     0
 76
     0
 77
     2
 78
   300
147
1.0
148
0.0
149
0.0
100
AcDbLayout
  1
Model
 70
     1
 71
     0
 10
0.0
 20
0.0
 11
420.0
 21
297.0
 12
0.0
 22
0.0
 32
0.0
 14
1.000000000000000E+20
 24
1.000000000000000E+20
 34
1.000000000000000E+20
 15
-1.000000000000000E+20
 25
-1.000000000000000E+20
 35
-1.000000000000000E+20
146
0.0
 13
0.0
 23
0.0
 33
0.0
 16
1.0
 26
0.0
 36
0.0
 17
0.0
 27
1.0
 37
0.0
 76
     0
330
1F
331
29
  0
MATERIAL
  5
45
102
{ACAD_REACTORS
330
43
102
}
330
43
100
AcDbMaterial
  1
ByBlock
 72
     1
 94
      127
  0
MATERIAL
  5
44
102
{ACAD_REACTORS
330
43
102
}
330
43
100
AcDbMaterial
  1
ByLayer
 72
     1
 94
      127
  0
MATERIAL
  5
46
102
{ACAD_REACTORS
330
43
102
}
330
43
100
AcDbMaterial
  1
Global
 72
     1
 94
      127
  0
MLEADERSTYLE
  5
6C
102
{ACAD_REACTORS
330
6B
102
}
330
6B
100
AcDbMLeaderStyle
179
     2
170
     2
171
     1
172
     0
 90
        2
 40
0.0
 41
0.0
173
     1
 91
-1056964608
340
14
 92
       -2
290
     1
 42
2.0
291
     1
 43
8.0
  3
Standard
341
0
 44
4.0
300

342
11
174
     1
178
     6
175
     1
176
     0
 93
-1056964608
 45
4.0
292
     0
297
     0
 46
4.0
343
0
 94
-1056964608
 47
1.0
 49
1.0
140
1.0
293
     1
141
0.0
294
     1
177
     0
142
1.0
295
     0
296
     0
143
3.75
271
     0
272
     9
273
     9
298
     0
  0
MLINESTYLE
  5
18
102
{ACAD_REACTORS
330
17
102
}
330
17
100
AcDbMlineStyle
  2
Standard
 70
     0
  3

 62
   256
 51
90.0
 52
90.0
 71
     2
 49
0.5
 62
   256
  6
BYLAYER
 49
-0.5
 62
   256
  6
BYLAYER
  0
ACDBPLACEHOLDER
  5
F
102
{ACAD_REACTORS
330
E
102
}
330
E
  0
SCALE
  5
48
102
{ACAD_REACTORS
330
47
102
}
330
47
100
AcDbScale
 70
     0
300
1:1
140
1.0
141
1.0
290
     1
  0
SCALE
  5
49
102
{ACAD_REACTORS
330
47
102
}
330
47
100
AcDbScale
 70
     0
300
1:2
140
1.0
141
2.0
290
     0
  0
SCALE
  5
4A
102
{ACAD_REACTORS
330
47
102
}
330
47
100
AcDbScale
 70
     0
300
1:4
140
1.0
141
4.0
290
     0
  0
SCALE
  5
4B
102
{ACAD_REACTORS
330
47
102
}
330
47
100
AcDbScale
 70
     0
300
1:5
140
1.0
141
5.0
290
     0
  0
SCALE
  5
4C
102
{ACAD_REACTORS
330
47
102
}
330
47
100
AcDbScale
 70
     0
300
1:8
140
1.0
141
8.0
290
     0
  0
SCALE
  5
4D
102
{ACAD_REACTORS
330
47
102
}
330
47
100
AcDbScale
 70
     0
300
1:10
140
1.0
141
10.0
290
     0
  0
SCALE
  5
4E
102
{ACAD_REACTORS
330
47
102
}
330
47
100
AcDbScale
 70
     0
300
1:16
140
1.0
141
16.0
290
     0
  0
SCALE
  5
4F
102
{ACAD_REACTORS
330
47
102
}
330
47
100
AcDbScale
 70
     0
300
1:20
140
1.0
141
20.0
290
     0
  0
SCALE
  5
50
102
{ACAD_REACTORS
330
47
102
}
330
47
100
AcDbScale
 70
     0
300
1:30
140
1.0
141
30.0
290
     0
  0
SCALE
  5
51
102
{ACAD_REACTORS
330
47
102
}
330
47
100
AcDbScale
 70
     0
300
1:40
140
1.0
141
40.0
290
     0
  0
SCALE
  5
52
102
{ACAD_REACTORS
330
47
102
}
330
47
100
AcDbScale
 70
     0
300
1:50
140
1.0
141
50.0
290
     0
  0
SCALE
  5
53
102
{ACAD_REACTORS
330
47
102
}
330
47
100
AcDbScale
 70
     0
300
1:100
140
1.0
141
100.0
290
     0
  0
SCALE
  5
54
102
{ACAD_REACTORS
330
47
102
}
330
47
100
AcDbScale
 70
     0
300
2:1
140
2.0
141
1.0
290
     0
  0
SCALE
  5
55
102
{ACAD_REACTORS
330
47
102
}
330
47
100
AcDbScale
 70
     0
300
4:1
140
4.0
141
1.0
290
     0
  0
SCALE
  5
56
102
{ACAD_REACTORS
330
47
102
}
330
47
100
AcDbScale
 70
     0
300
8:1
140
8.0
141
1.0
290
     0
  0
SCALE
  5
57
102
{ACAD_REACTORS
330
47
102
}
330
47
100
AcDbScale
 70
     0
300
10:1
140
10.0
141
1.0
290
     0
  0
SCALE
  5
58
102
{ACAD_REACTORS
330
47
102
}
330
47
100
AcDbScale
 70
     0
300
100:1
140
100.0
141
1.0
290
     0
  0
SCALE
  5
59
102
{ACAD_REACTORS
330
47
102
}
330
47
100
AcDbScale
 70
     0
300
1/128" = 1'-0"
140
0.0078125
141
12.0
290
     0
  0
SCALE
  5
5A
102
{ACAD_REACTORS
330
47
102
}
330
47
100
AcDbScale
 70
     0
300
1/64" = 1'-0"
140
0.015625
141
12.0
290
     0
  0
SCALE
  5
5B
102
{ACAD_REACTORS
330
47
102
}
330
47
100
AcDbScale
 70
     0
300
1/32" = 1'-0"
140
0.03125
141
12.0
290
     0
  0
SCALE
  5
5C
102
{ACAD_REACTORS
330
47
102
}
330
47
100
AcDbScale
 70
     0
300
1/16" = 1'-0"
140
0.0625
141
12.0
290
     0
  0
SCALE
  5
5D
102
{ACAD_REACTORS
330
47
102
}
330
47
100
AcDbScale
 70
     0
300
3/32" = 1'-0"
140
0.09375
141
12.0
290
     0
  0
SCALE
  5
5E
102
{ACAD_REACTORS
330
47
102
}
330
47
100
AcDbScale
 70
     0
300
1/8" = 1'-0"
140
0.125
141
12.0
290
     0
  0
SCALE
  5
5F
102
{ACAD_REACTORS
330
47
102
}
330
47
100
AcDbScale
 70
     0
300
3/16" = 1'-0"
140
0.1875
141
12.0
290
     0
  0
SCALE
  5
60
102
{ACAD_REACTORS
330
47
102
}
330
47
100
AcDbScale
 70
     0
300
1/4" = 1'-0"
140
0.25
141
12.0
290
     0
  0
SCALE
  5
61
102
{ACAD_REACTORS
330
47
102
}
330
47
100
AcDbScale
 70
     0
300
3/8" = 1'-0"
140
0.375
141
12.0
290
     0
  0
SCALE
  5
62
102
{ACAD_REACTORS
330
47
102
}
330
47
100
AcDbScale
 70
     0
300
1/2" = 1'-0"
140
0.5
141
12.0
290
     0
  0
SCALE
  5
63
102
{ACAD_REACTORS
330
47
102
}
330
47
100
AcDbScale
 70
     0
300
3/4" = 1'-0"
140
0.75
141
12.0
290
     0
  0
SCALE
  5
64
102
{ACAD_REACTORS
330
47
102
}
330
47
100
AcDbScale
 70
     0
300
1" = 1'-0"
140
1.0
141
12.0
290
     0
  0
SCALE
  5
65
102
{ACAD_REACTORS
330
47
102
}
330
47
100
AcDbScale
 70
     0
300
1-1/2" = 1'-0"
140
1.5
141
12.0
290
     0
  0
SCALE
  5
66
102
{ACAD_REACTORS
330
47
102
}
330
47
100
AcDbScale
 70
     0
300
3" = 1'-0"
140
3.0
141
12.0
290
     0
  0
SCALE
  5
67
102
{ACAD_REACTORS
330
47
102
}
330
47
100
AcDbScale
 70
     0
300
6" = 1'-0"
140
6.0
141
12.0
290
     0
  0
SCALE
  5
68
102
{ACAD_REACTORS
330
47
102
}
330
47
100
AcDbScale
 70
     0
300
1'-0" = 1'-0"
140
12.0
141
12.0
290
     0
  0
TABLESTYLE
  5
6A
102
{ACAD_REACTORS
330
69
102
}
102
{ACAD_XDICTIONARY
360
25D
102
}
330
69
100
AcDbTableStyle
  3
Standard
 70
     0
 71
     0
 40
0.06
 41
0.06
280
     0
281
     0
  7
Standard
140
4.5
170
     2
 62
     0
 63
   257
283
     0
 90
        4
 91
        0
  1

274
    -2
284
     1
 64
     0
275
    -2
285
     1
 65
     0
276
    -2
286
     1
 66
     0
277
    -2
287
     1
 67
     0
278
    -2
288
     1
 68
     0
279
    -2
289
     1
 69
     0
  7
Standard
140
6.0
170
     5
 62
     0
 63
   257
283
     0
 90
        4
 91
        0
  1

274
    -2
284
     1
 64
     0
275
    -2
285
     1
 65
     0
276
    -2
286
     1
 66
     0
277
    -2
287
     1
 67
     0
278
    -2
288
     1
 68
     0
279
    -2
289
     1
 69
     0
  7
Standard
140
4.5
170
     5
 62
     0
 63
   257
283
     0
 90
        4
 91
        0
  1

274
    -2
284
     1
 64
     0
275
    -2
285
     1
 65
     0
276
    -2
286
     1
 66
     0
277
    -2
287
     1
 67
     0
278
    -2
288
     1
 68
     0
279
    -2
289
     1
 69
     0
  0
VISUALSTYLE
  5
2F
102
{ACAD_REACTORS
330
2A
102
}
330
2A
100
AcDbVisualStyle
  2
2dWireframe
 70
     4
177
     3
291
     0
 70
    58
 90
        0
176
     1
 90
        2
176
     1
 90
        0
176
     1
 90
        0
176
     1
 40
0.6
176
     1
 40
30.0
176
     1
 62
     7
420
 16777215
176
     1
 90
        1
176
     1
 90
        4
176
     1
 62
     7
176
     1
 62
   257
176
     1
 90
        1
176
     1
 90
        1
176
     1
 40
1.0
176
     1
 90
        0
176
     1
 62
   257
176
     1
 40
1.0
176
     1
 90
        1
176
     1
 90
        6
176
     1
 90
        2
176
     1
 62
     7
176
     1
 90
        5
176
     1
 90
        0
176
     1
 90
        0
176
     1
290
     0
176
     1
 90
        1
176
     1
 40
0.0
176
     1
 90
        0
176
     1
290
     1
176
     1
290
     1
176
     1
290
     0
176
     1
290
     0
176
     1
290
     0
176
     1
290
     0
176
     1
290
     0
176
     1
290
     0
176
     1
290
     0
176
     1
 90
       50
176
     1
 40
0.0
176
     1
 40
1.0
176
     1
 90
        0
176
     1
 62
    18
420
        0
176
     1
 90
       50
176
     1
 90
        3
176
     1
 62
     5
420
      255
176
     1
290
     0
176
     1
 90
       50
176
     1
 90
       50
176
     1
 90
       50
176
     1
290
     0
176
     1
 90
       50
176
     1
 62
   256
176
     0
 40
1.0
176
     0
 90
        2
176
     1
  1
strokes_ogs.tif
176
     1
290
     0
176
     1
 40
1.0
176
     1
 40
1.0
176
     1
  0
VISUALSTYLE
  5
32
102
{ACAD_REACTORS
330
2A
102
}
330
2A
100
AcDbVisualStyle
  2
Basic
 70
     7
177
     3
291
     1
 70
    58
 90
        1
176
     1
 90
        0
176
     1
 90
        1
176
     1
 90
        0
176
     1
 40
0.6
176
     1
 40
30.0
176
     1
 62
     7
420
 16777215
176
     1
 90
        0
176
     1
 90
        4
176
     1
 62
     7
176
     1
 62
   257
176
     1
 90
        1
176
     1
 90
        1
176
     1
 40
1.0
176
     1
 90
        8
176
     1
 62
     7
176
     1
 40
1.0
176
     1
 90
        1
176
     1
 90
        6
176
     1
 90
        2
176
     1
 62
     7
176
     1
 90
        5
176
     1
 90
        0
176
     1
 90
        0
176
     1
290
     0
176
     1
 90
        1
176
     1
 40
0.0
176
     1
 90
        0
176
     1
290
     0
176
     1
290
     1
176
     1
290
     1
176
     1
290
     0
176
     1
290
     0
176
     1
290
     0
176
     1
290
     0
176
     1
290
     0
176
     1
290
     0
176
     1
 90
       50
176
     1
 40
0.0
176
     1
 40
1.0
176
     1
 90
        0
176
     1
 62
    18
420
        0
176
     1
 90
       50
176
     1
 90
        3
176
     1
 62
     5
420
      255
176
     1
290
     0
176
     1
 90
       50
176
     1
 90
       50
176
     1
 90
       50
176
     1
290
     0
176
     1
 90
       50
176
     1
 62
   256
176
     0
 40
1.0
176
     0
 90
        2
176
     1
  1
strokes_ogs.tif
176
     1
290
     0
176
     1
 40
1.0
176
     1
 40
1.0
176
     1
  0
VISUALSTYLE
  5
36
102
{ACAD_REACTORS
330
2A
102
}
330
2A
100
AcDbVisualStyle
  2
Brighten
 70
    12
177
     3
291
     1
 70
    58
 90
        2
176
     1
 90
        2
176
     1
 90
        0
176
     1
 90
        0
176
     1
 40
0.6
176
     1
 40
30.0
176
     1
 62
     7
420
 16777215
176
     1
 90
        1
176
     1
 90
        4
176
     1
 62
     7
176
     1
 62
   257
176
     1
 90
        1
176
     1
 90
        1
176
     1
 40
1.0
176
     1
 90
        8
176
     1
 62
     7
176
     1
 40
1.0
176
     1
 90
        1
176
     1
 90
        6
176
     1
 90
        2
176
     1
 62
     7
176
     1
 90
        5
176
     1
 90
        0
176
     1
 90
        0
176
     1
290
     0
176
     1
 90
        1
176
     1
 40
50.0
176
     1
 90
        0
176
     1
290
     0
176
     1
290
     1
176
     1
290
     1
176
     1
290
     0
176
     1
290
     0
176
     1
290
     0
176
     1
290
     0
176
     1
290
     0
176
     1
290
     0
176
     1
 90
       50
176
     1
 40
0.0
176
     1
 40
1.0
176
     1
 90
        0
176
     1
 62
    18
420
        0
176
     1
 90
       50
176
     1
 90
        3
176
     1
 62
     5
420
      255
176
     1
290
     0
176
     1
 90
       50
176
     1
 90
       50
176
     1
 90
       50
176
     1
290
     0
176
     1
 90
       50
176
     1
 62
   256
176
     0
 40
1.0
176
     0
 90
        2
176
     1
  1
strokes_ogs.tif
176
     1
290
     0
176
     1
 40
1.0
176
     1
 40
1.0
176
     1
  0
VISUALSTYLE
  5
3A
102
{ACAD_REACTORS
330
2A
102
}
330
2A
100
AcDbVisualStyle
  2
ColorChange
 70
    16
177
     3
291
     1
 70
    58
 90
        2
176
     1
 90
        2
176
     1
 90
        3
176
     1
 90
        0
176
     1
 40
0.6
176
     1
 40
30.0
176
     1
 62
     8
420
  8421504
176
     1
 90
        1
176
     1
 90
        4
176
     1
 62
     7
176
     1
 62
   257
176
     1
 90
        1
176
     1
 90
        1
176
     1
 40
1.0
176
     1
 90
        8
176
     1
 62
     8
420
  8421504
176
     1
 40
1.0
176
     1
 90
        1
176
     1
 90
        6
176
     1
 90
        2
176
     1
 62
     7
176
     1
 90
        5
176
     1
 90
        0
176
     1
 90
        0
176
     1
290
     0
176
     1
 90
        1
176
     1
 40
0.0
176
     1
 90
        0
176
     1
290
     0
176
     1
290
     1
176
     1
290
     1
176
     1
290
     0
176
     1
290
     0
176
     1
290
     0
176
     1
290
     0
176
     1
290
     0
176
     1
290
     0
176
     1
 90
       50
176
     1
 40
0.0
176
     1
 40
1.0
176
     1
 90
        0
176
     1
 62
    18
420
        0
176
     1
 90
       50
176
     1
 90
        3
176
     1
 62
     5
420
      255
176
     1
290
     0
176
     1
 90
       50
176
     1
 90
       50
176
     1
 90
       50
176
     1
290
     0
176
     1
 90
       50
176
     1
 62
   256
176
     0
 40
1.0
176
     0
 90
        2
176
     1
  1
strokes_ogs.tif
176
     1
290
     0
176
     1
 40
1.0
176
     1
 40
1.0
176
     1
  0
VISUALSTYLE
  5
34
102
{ACAD_REACTORS
330
2A
102
}
330
2A
100
AcDbVisualStyle
  2
Conceptual
 70
     9
177
     3
291
     0
 70
    58
 90
        3
176
     1
 90
        2
176
     1
 90
        0
176
     1
 90
        0
176
     1
 40
0.6
176
     1
 40
30.0
176
     1
 62
     7
420
 16777215
176
     1
 90
        2
176
     1
 90
        2
176
     1
 62
     7
176
     1
 62
   257
176
     1
 90
        1
176
     1
 90
        1
176
     1
 40
179.0
176
     1
 90
        8
176
     1
 62
     7
176
     1
 40
1.0
176
     1
 90
        1
176
     1
 90
        6
176
     1
 90
        2
176
     1
 62
     7
176
     1
 90
        3
176
     1
 90
        0
176
     1
 90
        0
176
     1
290
     0
176
     1
 90
        1
176
     1
 40
0.0
176
     1
 90
        0
176
     1
290
     0
176
     1
290
     1
176
     1
290
     1
176
     1
290
     0
176
     1
290
     0
176
     1
290
     0
176
     1
290
     0
176
     1
290
     0
176
     1
290
     0
176
     1
 90
       50
176
     1
 40
0.0
176
     1
 40
1.0
176
     1
 90
        0
176
     1
 62
    18
420
        0
176
     1
 90
       50
176
     1
 90
        3
176
     1
 62
     5
420
      255
176
     1
290
     0
176
     1
 90
       50
176
     1
 90
       50
176
     1
 90
       50
176
     1
290
     0
176
     1
 90
       50
176
     1
 62
   256
176
     0
 40
1.0
176
     0
 90
        2
176
     1
  1
strokes_ogs.tif
176
     1
290
     0
176
     1
 40
1.0
176
     1
 40
1.0
176
     1
  0
VISUALSTYLE
  5
35
102
{ACAD_REACTORS
330
2A
102
}
330
2A
100
AcDbVisualStyle
  2
Dim
 70
    11
177
     3
291
     1
 70
    58
 90
        2
176
     1
 90
        2
176
     1
 90
        0
176
     1
 90
        0
176
     1
 40
0.6
176
     1
 40
30.0
176
     1
 62
     7
420
 16777215
176
     1
 90
        1
176
     1
 90
        4
176
     1
 62
     7
176
     1
 62
   257
176
     1
 90
        1
176
     1
 90
        1
176
     1
 40
1.0
176
     1
 90
        8
176
     1
 62
     7
176
     1
 40
1.0
176
     1
 90
        1
176
     1
 90
        6
176
     1
 90
        2
176
     1
 62
     7
176
     1
 90
        5
176
     1
 90
        0
176
     1
 90
        0
176
     1
290
     0
176
     1
 90
        1
176
     1
 40
-50.0
176
     1
 90
        0
176
     1
290
     0
176
     1
290
     1
176
     1
290
     1
176
     1
290
     0
176
     1
290
     0
176
     1
290
     0
176
     1
290
     0
176
     1
290
     0
176
     1
290
     0
176
     1
 90
       50
176
     1
 40
0.0
176
     1
 40
1.0
176
     1
 90
        0
176
     1
 62
    18
420
        0
176
     1
 90
       50
176
     1
 90
        3
176
     1
 62
     5
420
      255
176
     1
290
     0
176
     1
 90
       50
176
     1
 90
       50
176
     1
 90
       50
176
     1
290
     0
176
     1
 90
       50
176
     1
 62
   256
176
     0
 40
1.0
176
     0
 90
        2
176
     1
  1
strokes_ogs.tif
176
     1
290
     0
176
     1
 40
1.0
176
     1
 40
1.0
176
     1
  0
VISUALSTYLE
  5
3D
102
{ACAD_REACTORS
330
2A
102
}
330
2A
100
AcDbVisualStyle
  2
EdgeColorOff
 70
    22
177
     3
291
     1
 70
    58
 90
        2
176
     0
 90
        2
176
     0
 90
        0
176
     0
 90
        0
176
     0
 40
0.6
176
     0
 40
30.0
176
     0
 62
     7
420
 16777215
176
     0
 90
        1
176
     0
 90
        4
176
     0
 62
     7
176
     0
 62
   257
176
     0
 90
        1
176
     0
 90
        1
176
     0
 40
1.0
176
     0
 90
        8
176
     2
 62
     7
176
     0
 40
1.0
176
     0
 90
        1
176
     0
 90
        6
176
     0
 90
        2
176
     0
 62
     7
176
     0
 90
        5
176
     0
 90
        0
176
     0
 90
        0
176
     0
290
     0
176
     0
 90
        1
176
     0
 40
0.0
176
     0
 90
        0
176
     0
290
     0
176
     0
290
     1
176
     0
290
     1
176
     0
290
     0
176
     0
290
     0
176
     0
290
     0
176
     0
290
     0
176
     0
290
     0
176
     0
290
     0
176
     0
 90
       50
176
     0
 40
0.0
176
     0
 40
1.0
176
     0
 90
        0
176
     0
 62
    18
420
        0
176
     0
 90
       50
176
     0
 90
        3
176
     0
 62
     5
420
      255
176
     0
290
     0
176
     0
 90
       50
176
     0
 90
       50
176
     0
 90
       50
176
     0
290
     0
176
     0
 90
       50
176
     0
 62
   256
176
     0
 40
1.0
176
     0
 90
        2
176
     0
  1
strokes_ogs.tif
176
     0
290
     0
176
     0
 40
1.0
176
     0
 40
1.0
176
     0
  0
VISUALSTYLE
  5
39
102
{ACAD_REACTORS
330
2A
102
}
330
2A
100
AcDbVisualStyle
  2
Facepattern
 70
    15
177
     3
291
     1
 70
    58
 90
        2
176
     1
 90
        2
176
     1
 90
        0
176
     1
 90
        0
176
     1
 40
0.6
176
     1
 40
30.0
176
     1
 62
     7
420
 16777215
176
     1
 90
        1
176
     1
 90
        4
176
     1
 62
     7
176
     1
 62
   257
176
     1
 90
        1
176
     1
 90
        1
176
     1
 40
1.0
176
     1
 90
        8
176
     1
 62
     7
176
     1
 40
1.0
176
     1
 90
        1
176
     1
 90
        6
176
     1
 90
        2
176
     1
 62
     7
176
     1
 90
        5
176
     1
 90
        0
176
     1
 90
        0
176
     1
290
     0
176
     1
 90
        1
176
     1
 40
0.0
176
     1
 90
        0
176
     1
290
     0
176
     1
290
     1
176
     1
290
     1
176
     1
290
     0
176
     1
290
     0
176
     1
290
     0
176
     1
290
     0
176
     1
290
     0
176
     1
290
     0
176
     1
 90
       50
176
     1
 40
0.0
176
     1
 40
1.0
176
     1
 90
        0
176
     1
 62
    18
420
        0
176
     1
 90
       50
176
     1
 90
        3
176
     1
 62
     5
420
      255
176
     1
290
     0
176
     1
 90
       50
176
     1
 90
       50
176
     1
 90
       50
176
     1
290
     0
176
     1
 90
       50
176
     1
 62
   256
176
     0
 40
1.0
176
     0
 90
        2
176
     1
  1
strokes_ogs.tif
176
     1
290
     0
176
     1
 40
1.0
176
     1
 40
1.0
176
     1
  0
VISUALSTYLE
  5
2B
102
{ACAD_REACTORS
330
2A
102
}
330
2A
100
AcDbVisualStyle
  2
Flat
 70
     0
177
     3
291
     1
 70
    58
 90
        2
176
     1
 90
        1
176
     1
 90
        1
176
     1
 90
        2
176
     1
 40
0.6
176
     1
 40
30.0
176
     1
 62
     7
420
 16777215
176
     1
 90
        0
176
     1
 90
        0
176
     1
 62
     7
176
     1
 62
   257
176
     1
 90
        1
176
     1
 90
        1
176
     1
 40
1.0
176
     1
 90
        8
176
     1
 62
     7
176
     1
 40
1.0
176
     1
 90
        1
176
     1
 90
        6
176
     1
 90
        2
176
     1
 62
     7
176
     1
 90
        5
176
     1
 90
        0
176
     1
 90
        0
176
     1
290
     0
176
     1
 90
       13
176
     1
 40
0.0
176
     1
 90
        0
176
     1
290
     0
176
     1
290
     1
176
     1
290
     1
176
     1
290
     0
176
     1
290
     0
176
     1
290
     0
176
     1
290
     0
176
     1
290
     0
176
     1
290
     0
176
     1
 90
       50
176
     1
 40
0.0
176
     1
 40
1.0
176
     1
 90
        0
176
     1
 62
    18
420
        0
176
     1
 90
       50
176
     1
 90
        3
176
     1
 62
     5
420
      255
176
     1
290
     0
176
     1
 90
       50
176
     1
 90
       50
176
     1
 90
       50
176
     1
290
     0
176
     1
 90
       50
176
     1
 62
   256
176
     0
 40
1.0
176
     0
 90
        2
176
     1
  1
strokes_ogs.tif
176
     1
290
     0
176
     1
 40
1.0
176
     1
 40
1.0
176
     1
  0
VISUALSTYLE
  5
2C
102
{ACAD_REACTORS
330
2A
102
}
330
2A
100
AcDbVisualStyle
  2
FlatWithEdges
 70
     1
177
     3
291
     1
 70
    58
 90
        2
176
     1
 90
        1
176
     1
 90
        1
176
     1
 90
        2
176
     1
 40
0.6
176
     1
 40
30.0
176
     1
 62
     7
420
 16777215
176
     1
 90
        1
176
     1
 90
        0
176
     1
 62
     7
176
     1
 62
   257
176
     1
 90
        1
176
     1
 90
        1
176
     1
 40
1.0
176
     1
 90
        0
176
     1
 62
   257
176
     1
 40
1.0
176
     1
 90
        1
176
     1
 90
        6
176
     1
 90
        2
176
     1
 62
     7
176
     1
 90
        5
176
     1
 90
        0
176
     1
 90
        0
176
     1
290
     0
176
     1
 90
       13
176
     1
 40
0.0
176
     1
 90
        0
176
     1
290
     0
176
     1
290
     1
176
     1
290
     1
176
     1
290
     0
176
     1
290
     0
176
     1
290
     0
176
     1
290
     0
176
     1
290
     0
176
     1
290
     0
176
     1
 90
       50
176
     1
 40
0.0
176
     1
 40
1.0
176
     1
 90
        0
176
     1
 62
    18
420
        0
176
     1
 90
       50
176
     1
 90
        3
176
     1
 62
     5
420
      255
176
     1
290
     0
176
     1
 90
       50
176
     1
 90
       50
176
     1
 90
       50
176
     1
290
     0
176
     1
 90
       50
176
     1
 62
   256
176
     0
 40
1.0
176
     0
 90
        2
176
     1
  1
strokes_ogs.tif
176
     1
290
     0
176
     1
 40
1.0
176
     1
 40
1.0
176
     1
  0
VISUALSTYLE
  5
2D
102
{ACAD_REACTORS
330
2A
102
}
330
2A
100
AcDbVisualStyle
  2
Gouraud
 70
     2
177
     3
291
     1
 70
    58
 90
        2
176
     1
 90
        2
176
     1
 90
        1
176
     1
 90
        2
176
     1
 40
0.6
176
     1
 40
30.0
176
     1
 62
     7
420
 16777215
176
     1
 90
        0
176
     1
 90
        0
176
     1
 62
     7
176
     1
 62
   257
176
     1
 90
        1
176
     1
 90
        1
176
     1
 40
1.0
176
     1
 90
        0
176
     1
 62
     7
176
     1
 40
1.0
176
     1
 90
        1
176
     1
 90
        6
176
     1
 90
        2
176
     1
 62
     7
176
     1
 90
        5
176
     1
 90
        0
176
     1
 90
        0
176
     1
290
     0
176
     1
 90
       13
176
     1
 40
0.0
176
     1
 90
        0
176
     1
290
     0
176
     1
290
     1
176
     1
290
     1
176
     1
290
     0
176
     1
290
     0
176
     1
290
     0
176
     1
290
     0
176
     1
290
     0
176
     1
290
     0
176
     1
 90
       50
176
     1
 40
0.0
176
     1
 40
1.0
176
     1
 90
        0
176
     1
 62
    18
420
        0
176
     1
 90
       50
176
     1
 90
        3
176
     1
 62
     5
420
      255
176
     1
290
     0
176
     1
 90
       50
176
     1
 90
       50
176
     1
 90
       50
176
     1
290
     0
176
     1
 90
       50
176
     1
 62
   256
176
     0
 40
1.0
176
     0
 90
        2
176
     1
  1
strokes_ogs.tif
176
     1
290
     0
176
     1
 40
1.0
176
     1
 40
1.0
176
     1
  0
VISUALSTYLE
  5
2E
102
{ACAD_REACTORS
330
2A
102
}
330
2A
100
AcDbVisualStyle
  2
GouraudWithEdges
 70
     3
177
     3
291
     1
 70
    58
 90
        2
176
     1
 90
        2
176
     1
 90
        1
176
     1
 90
        2
176
     1
 40
0.6
176
     1
 40
30.0
176
     1
 62
     7
420
 16777215
176
     1
 90
        1
176
     1
 90
        0
176
     1
 62
     7
176
     1
 62
   257
176
     1
 90
        1
176
     1
 90
        1
176
     1
 40
1.0
176
     1
 90
        0
176
     1
 62
   257
176
     1
 40
1.0
176
     1
 90
        1
176
     1
 90
        6
176
     1
 90
        2
176
     1
 62
     7
176
     1
 90
        5
176
     1
 90
        0
176
     1
 90
        0
176
     1
290
     0
176
     1
 90
       13
176
     1
 40
0.0
176
     1
 90
        0
176
     1
290
     0
176
     1
290
     1
176
     1
290
     1
176
     1
290
     0
176
     1
290
     0
176
     1
290
     0
176
     1
290
     0
176
     1
290
     0
176
     1
290
     0
176
     1
 90
       50
176
     1
 40
0.0
176
     1
 40
1.0
176
     1
 90
        0
176
     1
 62
    18
420
        0
176
     1
 90
       50
176
     1
 90
        3
176
     1
 62
     5
420
      255
176
     1
290
     0
176
     1
 90
       50
176
     1
 90
       50
176
     1
 90
       50
176
     1
290
     0
176
     1
 90
       50
176
     1
 62
   256
176
     0
 40
1.0
176
     0
 90
        2
176
     1
  1
strokes_ogs.tif
176
     1
290
     0
176
     1
 40
1.0
176
     1
 40
1.0
176
     1
  0
VISUALSTYLE
  5
31
102
{ACAD_REACTORS
330
2A
102
}
330
2A
100
AcDbVisualStyle
  2
Hidden
 70
     6
177
     3
291
     0
 70
    58
 90
        1
176
     1
 90
        2
176
     1
 90
        2
176
     1
 90
        0
176
     1
 40
0.6
176
     1
 40
30.0
176
     1
 62
     7
420
 16777215
176
     1
 90
        2
176
     1
 90
        2
176
     1
 62
     7
176
     1
 62
   257
176
     1
 90
        2
176
     1
 90
        1
176
     1
 40
40.0
176
     1
 90
        0
176
     1
 62
   257
176
     1
 40
1.0
176
     1
 90
        1
176
     1
 90
        6
176
     1
 90
        2
176
     1
 62
     7
176
     1
 90
        3
176
     1
 90
        0
176
     1
 90
        0
176
     1
290
     0
176
     1
 90
        1
176
     1
 40
0.0
176
     1
 90
        0
176
     1
290
     0
176
     1
290
     1
176
     1
290
     1
176
     1
290
     0
176
     1
290
     0
176
     1
290
     0
176
     1
290
     0
176
     1
290
     0
176
     1
290
     0
176
     1
 90
       50
176
     1
 40
0.0
176
     1
 40
1.0
176
     1
 90
        0
176
     1
 62
    18
420
        0
176
     1
 90
       50
176
     1
 90
        3
176
     1
 62
     5
420
      255
176
     1
290
     0
176
     1
 90
       50
176
     1
 90
       50
176
     1
 90
       50
176
     1
290
     0
176
     1
 90
       50
176
     1
 62
   256
176
     0
 40
1.0
176
     0
 90
        2
176
     1
  1
strokes_ogs.tif
176
     1
290
     0
176
     1
 40
1.0
176
     1
 40
1.0
176
     1
  0
VISUALSTYLE
  5
3B
102
{ACAD_REACTORS
330
2A
102
}
330
2A
100
AcDbVisualStyle
  2
JitterOff
 70
    20
177
     3
291
     1
 70
    58
 90
        2
176
     0
 90
        2
176
     0
 90
        0
176
     0
 90
        0
176
     0
 40
0.6
176
     0
 40
30.0
176
     0
 62
     7
420
 16777215
176
     0
 90
        1
176
     0
 90
        4
176
     0
 62
     7
176
     0
 62
   257
176
     0
 90
        1
176
     0
 90
        1
176
     0
 40
1.0
176
     0
 90
       10
176
     2
 62
     7
176
     0
 40
1.0
176
     0
 90
        1
176
     0
 90
        6
176
     0
 90
        2
176
     0
 62
     7
176
     0
 90
        5
176
     0
 90
        0
176
     0
 90
        0
176
     0
290
     0
176
     0
 90
        1
176
     0
 40
0.0
176
     0
 90
        0
176
     0
290
     0
176
     0
290
     1
176
     0
290
     1
176
     0
290
     0
176
     0
290
     0
176
     0
290
     0
176
     0
290
     0
176
     0
290
     0
176
     0
290
     0
176
     0
 90
       50
176
     0
 40
0.0
176
     0
 40
1.0
176
     0
 90
        0
176
     0
 62
    18
420
        0
176
     0
 90
       50
176
     0
 90
        3
176
     0
 62
     5
420
      255
176
     0
290
     0
176
     0
 90
       50
176
     0
 90
       50
176
     0
 90
       50
176
     0
290
     0
176
     0
 90
       50
176
     0
 62
   256
176
     0
 40
1.0
176
     0
 90
        2
176
     0
  1
strokes_ogs.tif
176
     0
290
     0
176
     0
 40
1.0
176
     0
 40
1.0
176
     0
  0
VISUALSTYLE
  5
38
102
{ACAD_REACTORS
330
2A
102
}
330
2A
100
AcDbVisualStyle
  2
Linepattern
 70
    14
177
     3
291
     1
 70
    58
 90
        2
176
     1
 90
        2
176
     1
 90
        0
176
     1
 90
        0
176
     1
 40
0.6
176
     1
 40
30.0
176
     1
 62
     7
420
 16777215
176
     1
 90
        1
176
     1
 90
        4
176
     1
 62
     7
176
     1
 62
   257
176
     1
 90
        7
176
     1
 90
        7
176
     1
 40
1.0
176
     1
 90
        8
176
     1
 62
     7
176
     1
 40
1.0
176
     1
 90
        1
176
     1
 90
        6
176
     1
 90
        2
176
     1
 62
     7
176
     1
 90
        5
176
     1
 90
        0
176
     1
 90
        0
176
     1
290
     0
176
     1
 90
        1
176
     1
 40
0.0
176
     1
 90
        0
176
     1
290
     0
176
     1
290
     1
176
     1
290
     1
176
     1
290
     0
176
     1
290
     0
176
     1
290
     0
176
     1
290
     0
176
     1
290
     0
176
     1
290
     0
176
     1
 90
       50
176
     1
 40
0.0
176
     1
 40
1.0
176
     1
 90
        0
176
     1
 62
    18
420
        0
176
     1
 90
       50
176
     1
 90
        3
176
     1
 62
     5
420
      255
176
     1
290
     0
176
     1
 90
       50
176
     1
 90
       50
176
     1
 90
       50
176
     1
290
     0
176
     1
 90
       50
176
     1
 62
   256
176
     0
 40
1.0
176
     0
 90
        2
176
     1
  1
strokes_ogs.tif
176
     1
290
     0
176
     1
 40
1.0
176
     1
 40
1.0
176
     1
  0
VISUALSTYLE
  5
3C
102
{ACAD_REACTORS
330
2A
102
}
330
2A
100
AcDbVisualStyle
  2
OverhangOff
 70
    21
177
     3
291
     1
 70
    58
 90
        2
176
     0
 90
        2
176
     0
 90
        0
176
     0
 90
        0
176
     0
 40
0.6
176
     0
 40
30.0
176
     0
 62
     7
420
 16777215
176
     0
 90
        1
176
     0
 90
        4
176
     0
 62
     7
176
     0
 62
   257
176
     0
 90
        1
176
     0
 90
        1
176
     0
 40
1.0
176
     0
 90
        9
176
     2
 62
     7
176
     0
 40
1.0
176
     0
 90
        1
176
     0
 90
        6
176
     0
 90
        2
176
     0
 62
     7
176
     0
 90
        5
176
     0
 90
        0
176
     0
 90
        0
176
     0
290
     0
176
     0
 90
        1
176
     0
 40
0.0
176
     0
 90
        0
176
     0
290
     0
176
     0
290
     1
176
     0
290
     1
176
     0
290
     0
176
     0
290
     0
176
     0
290
     0
176
     0
290
     0
176
     0
290
     0
176
     0
290
     0
176
     0
 90
       50
176
     0
 40
0.0
176
     0
 40
1.0
176
     0
 90
        0
176
     0
 62
    18
420
        0
176
     0
 90
       50
176
     0
 90
        3
176
     0
 62
     5
420
      255
176
     0
290
     0
176
     0
 90
       50
176
     0
 90
       50
176
     0
 90
       50
176
     0
290
     0
176
     0
 90
       50
176
     0
 62
   256
176
     0
 40
1.0
176
     0
 90
        2
176
     0
  1
strokes_ogs.tif
176
     0
290
     0
176
     0
 40
1.0
176
     0
 40
1.0
176
     0
  0
VISUALSTYLE
  5
33
102
{ACAD_REACTORS
330
2A
102
}
330
2A
100
AcDbVisualStyle
  2
Realistic
 70
     8
177
     3
291
     0
 70
    58
 90
        2
176
     1
 90
        3
176
     1
 90
        0
176
     1
 90
        2
176
     1
 40
0.6
176
     1
 40
30.0
176
     1
 62
     7
420
 16777215
176
     1
 90
        0
176
     1
 90
        0
176
     1
 62
     7
176
     1
 62
   257
176
     1
 90
        1
176
     1
 90
        1
176
     1
 40
1.0
176
     1
 90
        8
176
     1
 62
   257
176
     1
 40
1.0
176
     1
 90
        1
176
     1
 90
        6
176
     1
 90
        2
176
     1
 62
     7
176
     1
 90
        3
176
     1
 90
        0
176
     1
 90
        0
176
     1
290
     0
176
     1
 90
       13
176
     1
 40
0.0
176
     1
 90
        0
176
     1
290
     0
176
     1
290
     1
176
     1
290
     1
176
     1
290
     0
176
     1
290
     0
176
     1
290
     0
176
     1
290
     0
176
     1
290
     0
176
     1
290
     0
176
     1
 90
       50
176
     1
 40
0.0
176
     1
 40
1.0
176
     1
 90
        0
176
     1
 62
    18
420
        0
176
     1
 90
       50
176
     1
 90
        3
176
     1
 62
     5
420
      255
176
     1
290
     0
176
     1
 90
       50
176
     1
 90
       50
176
     1
 90
       50
176
     1
290
     0
176
     1
 90
       50
176
     1
 62
   256
176
     0
 40
1.0
176
     0
 90
        2
176
     1
  1
strokes_ogs.tif
176
     1
290
     0
176
     1
 40
1.0
176
     1
 40
1.0
176
     1
  0
VISUALSTYLE
  5
42
102
{ACAD_REACTORS
330
2A
102
}
330
2A
100
AcDbVisualStyle
  2
Shaded
 70
    27
177
     3
291
     0
 70
    58
 90
        2
176
     1
 90
        2
176
     1
 90
        1
176
     1
 90
        2
176
     1
 40
0.6
176
     1
 40
30.0
176
     1
 62
     7
420
 16777215
176
     1
 90
        0
176
     1
 90
        4
176
     1
 62
     7
176
     1
 62
   257
176
     1
 90
        1
176
     1
 90
        1
176
     1
 40
1.0
176
     1
 90
        8
176
     1
 62
   257
176
     1
 40
1.0
176
     1
 90
        1
176
     1
 90
        6
176
     1
 90
        2
176
     1
 62
     8
420
  7895160
176
     1
 90
        3
176
     1
 90
        0
176
     1
 90
        0
176
     1
290
     0
176
     1
 90
        5
176
     1
 40
0.0
176
     1
 90
        0
176
     1
290
     0
176
     1
290
     1
176
     1
290
     1
176
     1
290
     0
176
     1
290
     0
176
     1
290
     0
176
     1
290
     0
176
     1
290
     0
176
     1
290
     0
176
     1
 90
       50
176
     1
 40
0.0
176
     1
 40
1.0
176
     1
 90
        0
176
     1
 62
    18
420
        0
176
     1
 90
       50
176
     1
 90
        3
176
     1
 62
     5
420
      255
176
     1
290
     0
176
     1
 90
       50
176
     1
 90
       50
176
     1
 90
       50
176
     1
290
     0
176
     1
 90
       50
176
     1
 62
   256
176
     0
 40
1.0
176
     0
 90
        2
176
     1
  1
strokes_ogs.tif
176
     1
290
     0
176
     1
 40
1.0
176
     1
 40
1.0
176
     1
  0
VISUALSTYLE
  5
41
102
{ACAD_REACTORS
330
2A
102
}
330
2A
100
AcDbVisualStyle
  2
Shaded with edges
 70
    26
177
     3
291
     0
 70
    58
 90
        2
176
     1
 90
        2
176
     1
 90
        1
176
     1
 90
        2
176
     1
 40
0.6
176
     1
 40
30.0
176
     1
 62
     7
420
 16777215
176
     1
 90
        1
176
     1
 90
       10
176
     1
 62
     7
176
     1
 62
   257
176
     1
 90
        2
176
     1
 90
        1
176
     1
 40
1.0
176
     1
 90
        8
176
     1
 62
   257
176
     1
 40
1.0
176
     1
 90
        1
176
     1
 90
        6
176
     1
 90
        2
176
     1
 62
     7
176
     1
 90
        3
176
     1
 90
        0
176
     1
 90
        0
176
     1
290
     0
176
     1
 90
        5
176
     1
 40
0.0
176
     1
 90
        0
176
     1
290
     0
176
     1
290
     1
176
     1
290
     1
176
     1
290
     0
176
     1
290
     0
176
     1
290
     0
176
     1
290
     0
176
     1
290
     0
176
     1
290
     0
176
     1
 90
       50
176
     1
 40
0.0
176
     1
 40
1.0
176
     1
 90
        0
176
     1
 62
    18
420
        0
176
     1
 90
       50
176
     1
 90
        3
176
     1
 62
     5
420
      255
176
     1
290
     0
176
     1
 90
       50
176
     1
 90
       50
176
     1
 90
       50
176
     1
290
     0
176
     1
 90
       50
176
     1
 62
   256
176
     0
 40
1.0
176
     0
 90
        2
176
     1
  1
strokes_ogs.tif
176
     1
290
     0
176
     1
 40
1.0
176
     1
 40
1.0
176
     1
  0
VISUALSTYLE
  5
3E
102
{ACAD_REACTORS
330
2A
102
}
330
2A
100
AcDbVisualStyle
  2
Shades of Gray
 70
    23
177
     3
291
     0
 70
    58
 90
        2
176
     1
 90
        2
176
     1
 90
        3
176
     1
 90
        0
176
     1
 40
0.6
176
     1
 40
30.0
176
     1
 62
     7
420
 16777215
176
     1
 90
        2
176
     1
 90
        2
176
     1
 62
     7
176
     1
 62
     7
176
     1
 90
        1
176
     1
 90
        1
176
     1
 40
40.0
176
     1
 90
        8
176
     1
 62
     7
176
     1
 40
1.0
176
     1
 90
        1
176
     1
 90
        6
176
     1
 90
        2
176
     1
 62
     7
176
     1
 90
        3
176
     1
 90
        0
176
     1
 90
        0
176
     1
290
     0
176
     1
 90
        1
176
     1
 40
0.0
176
     1
 90
        0
176
     1
290
     0
176
     1
290
     1
176
     1
290
     1
176
     1
290
     0
176
     1
290
     0
176
     1
290
     0
176
     1
290
     0
176
     1
290
     0
176
     1
290
     0
176
     1
 90
       50
176
     1
 40
0.0
176
     1
 40
1.0
176
     1
 90
        0
176
     1
 62
    18
420
        0
176
     1
 90
       50
176
     1
 90
        3
176
     1
 62
     5
420
      255
176
     1
290
     0
176
     1
 90
       50
176
     1
 90
       50
176
     1
 90
       50
176
     1
290
     0
176
     1
 90
       50
176
     1
 62
   256
176
     0
 40
1.0
176
     0
 90
        2
176
     1
  1
strokes_ogs.tif
176
     1
290
     0
176
     1
 40
1.0
176
     1
 40
1.0
176
     1
  0
VISUALSTYLE
  5
3F
102
{ACAD_REACTORS
330
2A
102
}
330
2A
100
AcDbVisualStyle
  2
Sketchy
 70
    24
177
     3
291
     0
 70
    58
 90
        1
176
     1
 90
        2
176
     1
 90
        2
176
     1
 90
        0
176
     1
 40
0.6
176
     1
 40
30.0
176
     1
 62
     7
420
 16777215
176
     1
 90
        2
176
     1
 90
        2
176
     1
 62
     7
176
     1
 62
     7
176
     1
 90
        1
176
     1
 90
        1
176
     1
 40
40.0
176
     1
 90
       11
176
     1
 62
     7
176
     1
 40
1.0
176
     1
 90
        1
176
     1
 90
        6
176
     1
 90
        2
176
     1
 62
     7
176
     1
 90
        6
176
     1
 90
        0
176
     1
 90
        0
176
     1
290
     0
176
     1
 90
        1
176
     1
 40
0.0
176
     1
 90
        0
176
     1
290
     0
176
     1
290
     1
176
     1
290
     1
176
     1
290
     0
176
     1
290
     0
176
     1
290
     0
176
     1
290
     0
176
     1
290
     0
176
     1
290
     0
176
     1
 90
       50
176
     1
 40
0.0
176
     1
 40
1.0
176
     1
 90
        0
176
     1
 62
    18
420
        0
176
     1
 90
       50
176
     1
 90
        3
176
     1
 62
     5
420
      255
176
     1
290
     0
176
     1
 90
       50
176
     1
 90
       50
176
     1
 90
       50
176
     1
290
     0
176
     1
 90
       50
176
     1
 62
   256
176
     0
 40
1.0
176
     0
 90
        2
176
     1
  1
strokes_ogs.tif
176
     1
290
     0
176
     1
 40
1.0
176
     1
 40
1.0
176
     1
  0
VISUALSTYLE
  5
37
102
{ACAD_REACTORS
330
2A
102
}
330
2A
100
AcDbVisualStyle
  2
Thicken
 70
    13
177
     3
291
     1
 70
    58
 90
        2
176
     1
 90
        2
176
     1
 90
        0
176
     1
 90
        0
176
     1
 40
0.6
176
     1
 40
30.0
176
     1
 62
     7
420
 16777215
176
     1
 90
        1
176
     1
 90
        4
176
     1
 62
     7
176
     1
 62
   257
176
     1
 90
        1
176
     1
 90
        1
176
     1
 40
1.0
176
     1
 90
       12
176
     1
 62
     7
176
     1
 40
1.0
176
     1
 90
        1
176
     1
 90
        6
176
     1
 90
        2
176
     1
 62
     7
176
     1
 90
        5
176
     1
 90
        0
176
     1
 90
        0
176
     1
290
     0
176
     1
 90
        1
176
     1
 40
0.0
176
     1
 90
        0
176
     1
290
     0
176
     1
290
     1
176
     1
290
     1
176
     1
290
     0
176
     1
290
     0
176
     1
290
     0
176
     1
290
     0
176
     1
290
     0
176
     1
290
     0
176
     1
 90
       50
176
     1
 40
0.0
176
     1
 40
1.0
176
     1
 90
        0
176
     1
 62
    18
420
        0
176
     1
 90
       50
176
     1
 90
        3
176
     1
 62
     5
420
      255
176
     1
290
     0
176
     1
 90
       50
176
     1
 90
       50
176
     1
 90
       50
176
     1
290
     0
176
     1
 90
       50
176
     1
 62
   256
176
     0
 40
1.0
176
     0
 90
        2
176
     1
  1
strokes_ogs.tif
176
     1
290
     0
176
     1
 40
1.0
176
     1
 40
1.0
176
     1
  0
VISUALSTYLE
  5
30
102
{ACAD_REACTORS
330
2A
102
}
330
2A
100
AcDbVisualStyle
  2
Wireframe
 70
     5
177
     3
291
     0
 70
    58
 90
        0
176
     1
 90
        2
176
     1
 90
        0
176
     1
 90
        0
176
     1
 40
0.6
176
     1
 40
30.0
176
     1
 62
     7
420
 16777215
176
     1
 90
        1
176
     1
 90
        4
176
     1
 62
     7
176
     1
 62
   257
176
     1
 90
        1
176
     1
 90
        1
176
     1
 40
1.0
176
     1
 90
        0
176
     1
 62
   257
176
     1
 40
1.0
176
     1
 90
        1
176
     1
 90
        6
176
     1
 90
        2
176
     1
 62
     7
176
     1
 90
        3
176
     1
 90
        0
176
     1
 90
        0
176
     1
290
     0
176
     1
 90
        1
176
     1
 40
0.0
176
     1
 90
        0
176
     1
290
     0
176
     1
290
     1
176
     1
290
     1
176
     1
290
     0
176
     1
290
     0
176
     1
290
     0
176
     1
290
     0
176
     1
290
     0
176
     1
290
     0
176
     1
 90
       50
176
     1
 40
0.0
176
     1
 40
1.0
176
     1
 90
        0
176
     1
 62
    18
420
        0
176
     1
 90
       50
176
     1
 90
        3
176
     1
 62
     5
420
      255
176
     1
290
     0
176
     1
 90
       50
176
     1
 90
       50
176
     1
 90
       50
176
     1
290
     0
176
     1
 90
       50
176
     1
 62
   256
176
     0
 40
1.0
176
     0
 90
        2
176
     1
  1
strokes_ogs.tif
176
     1
290
     0
176
     1
 40
1.0
176
     1
 40
1.0
176
     1
  0
VISUALSTYLE
  5
40
102
{ACAD_REACTORS
330
2A
102
}
330
2A
100
AcDbVisualStyle
  2
X-Ray
 70
    25
177
     3
291
     0
 70
    58
 90
        2
176
     1
 90
        2
176
     1
 90
        1
176
     1
 90
        1
176
     1
 40
0.5
176
     1
 40
30.0
176
     1
 62
     7
420
 16777215
176
     1
 90
        1
176
     1
 90
        0
176
     1
 62
     7
176
     1
 62
   257
176
     1
 90
        1
176
     1
 90
        1
176
     1
 40
1.0
176
     1
 90
        8
176
     1
 62
     7
176
     1
 40
1.0
176
     1
 90
        1
176
     1
 90
        6
176
     1
 90
        2
176
     1
 62
     7
176
     1
 90
        3
176
     1
 90
        0
176
     1
 90
        0
176
     1
290
     0
176
     1
 90
       13
176
     1
 40
0.0
176
     1
 90
        0
176
     1
290
     0
176
     1
290
     1
176
     1
290
     1
176
     1
290
     0
176
     1
290
     0
176
     1
290
     0
176
     1
290
     0
176
     1
290
     0
176
     1
290
     0
176
     1
 90
       50
176
     1
 40
0.0
176
     1
 40
1.0
176
     1
 90
        0
176
     1
 62
    18
420
        0
176
     1
 90
       50
176
     1
 90
        3
176
     1
 62
     5
420
      255
176
     1
290
     0
176
     1
 90
       50
176
     1
 90
       50
176
     1
 90
       50
176
     1
290
     0
176
     1
 90
       50
176
     1
 62
   256
176
     0
 40
1.0
176
     0
 90
        2
176
     1
  1
strokes_ogs.tif
176
     1
290
     0
176
     1
 40
1.0
176
     1
 40
1.0
176
     1
  0
DICTIONARYVAR
  5
25C
102
{ACAD_REACTORS
330
25B
102
}
330
25B
100
DictionaryVariables
280
     0
  1
1:1
  0
DICTIONARYVAR
  5
261
102
{ACAD_REACTORS
330
25B
102
}
330
25B
100
DictionaryVariables
280
     0
  1
Standard
  0
DICTIONARYVAR
  5
260
102
{ACAD_REACTORS
330
25B
102
}
330
25B
100
DictionaryVariables
280
     0
  1
Standard
  0
DICTIONARY
  5
25D
330
6A
100
AcDbDictionary
280
     1
281
     1
  3
ACAD_ROUNDTRIP_2008_TABLESTYLE_CELLSTYLEMAP
360
25E
  0
CELLSTYLEMAP
  5
25E
102
{ACAD_REACTORS
330
25D
102
}
330
25D
100
AcDbCellStyleMap
 90
        3
300
CELLSTYLE
  1
TABLEFORMAT_BEGIN
 90
        5
170
     1
 91
        0
 92
    32768
 62
   257
 93
        1
300
CONTENTFORMAT
  1
CONTENTFORMAT_BEGIN
 90
        0
 91
        0
 92
        4
 93
        0
300

 40
0.0
140
1.0
 94
        5
 62
     0
340
11
144
6.0
309
CONTENTFORMAT_END
171
     1
301
MARGIN
  1
CELLMARGIN_BEGIN
 40
1.5
 40
1.5
 40
1.5
 40
1.5
 40
1.5
 40
1.5
309
CELLMARGIN_END
 94
        6
 95
        1
302
GRIDFORMAT
  1
GRIDFORMAT_BEGIN
 90
        0
 91
        1
 62
     0
 92
       -2
340
14
 93
        0
 40
0.045
309
GRIDFORMAT_END
 95
        2
302
GRIDFORMAT
  1
GRIDFORMAT_BEGIN
 90
        0
 91
        1
 62
     0
 92
       -2
340
14
 93
        0
 40
0.045
309
GRIDFORMAT_END
 95
        4
302
GRIDFORMAT
  1
GRIDFORMAT_BEGIN
 90
        0
 91
        1
 62
     0
 92
       -2
340
14
 93
        0
 40
0.045
309
GRIDFORMAT_END
 95
        8
302
GRIDFORMAT
  1
GRIDFORMAT_BEGIN
 90
        0
 91
        1
 62
     0
 92
       -2
340
14
 93
        0
 40
0.045
309
GRIDFORMAT_END
 95
       16
302
GRIDFORMAT
  1
GRIDFORMAT_BEGIN
 90
        0
 91
        1
 62
     0
 92
       -2
340
14
 93
        0
 40
0.045
309
GRIDFORMAT_END
 95
       32
302
GRIDFORMAT
  1
GRIDFORMAT_BEGIN
 90
        0
 91
        1
 62
     0
 92
       -2
340
14
 93
        0
 40
0.045
309
GRIDFORMAT_END
309
TABLEFORMAT_END
  1
CELLSTYLE_BEGIN
 90
        1
 91
        1
300
_TITLE
309
CELLSTYLE_END
300
CELLSTYLE
  1
TABLEFORMAT_BEGIN
 90
        5
170
     1
 91
        0
 92
        0
 62
   257
 93
        1
300
CONTENTFORMAT
  1
CONTENTFORMAT_BEGIN
 90
        0
 91
        0
 92
        4
 93
        0
300

 40
0.0
140
1.0
 94
        5
 62
     0
340
11
144
4.5
309
CONTENTFORMAT_END
171
     1
301
MARGIN
  1
CELLMARGIN_BEGIN
 40
1.5
 40
1.5
 40
1.5
 40
1.5
 40
1.5
 40
1.5
309
CELLMARGIN_END
 94
        6
 95
        1
302
GRIDFORMAT
  1
GRIDFORMAT_BEGIN
 90
        0
 91
        1
 62
     0
 92
       -2
340
14
 93
        0
 40
0.045
309
GRIDFORMAT_END
 95
        2
302
GRIDFORMAT
  1
GRIDFORMAT_BEGIN
 90
        0
 91
        1
 62
     0
 92
       -2
340
14
 93
        0
 40
0.045
309
GRIDFORMAT_END
 95
        4
302
GRIDFORMAT
  1
GRIDFORMAT_BEGIN
 90
        0
 91
        1
 62
     0
 92
       -2
340
14
 93
        0
 40
0.045
309
GRIDFORMAT_END
 95
        8
302
GRIDFORMAT
  1
GRIDFORMAT_BEGIN
 90
        0
 91
        1
 62
     0
 92
       -2
340
14
 93
        0
 40
0.045
309
GRIDFORMAT_END
 95
       16
302
GRIDFORMAT
  1
GRIDFORMAT_BEGIN
 90
        0
 91
        1
 62
     0
 92
       -2
340
14
 93
        0
 40
0.045
309
GRIDFORMAT_END
 95
       32
302
GRIDFORMAT
  1
GRIDFORMAT_BEGIN
 90
        0
 91
        1
 62
     0
 92
       -2
340
14
 93
        0
 40
0.045
309
GRIDFORMAT_END
309
TABLEFORMAT_END
  1
CELLSTYLE_BEGIN
 90
        2
 91
        1
300
_HEADER
309
CELLSTYLE_END
300
CELLSTYLE
  1
TABLEFORMAT_BEGIN
 90
        5
170
     1
 91
        0
 92
        0
 62
   257
 93
        1
300
CONTENTFORMAT
  1
CONTENTFORMAT_BEGIN
 90
        0
 91
        0
 92
        4
 93
        0
300

 40
0.0
140
1.0
 94
        2
 62
     0
340
11
144
4.5
309
CONTENTFORMAT_END
171
     1
301
MARGIN
  1
CELLMARGIN_BEGIN
 40
1.5
 40
1.5
 40
1.5
 40
1.5
 40
1.5
 40
1.5
309
CELLMARGIN_END
 94
        6
 95
        1
302
GRIDFORMAT
  1
GRIDFORMAT_BEGIN
 90
        0
 91
        1
 62
     0
 92
       -2
340
14
 93
        0
 40
0.045
309
GRIDFORMAT_END
 95
        2
302
GRIDFORMAT
  1
GRIDFORMAT_BEGIN
 90
        0
 91
        1
 62
     0
 92
       -2
340
14
 93
        0
 40
0.045
309
GRIDFORMAT_END
 95
        4
302
GRIDFORMAT
  1
GRIDFORMAT_BEGIN
 90
        0
 91
        1
 62
     0
 92
       -2
340
14
 93
        0
 40
0.045
309
GRIDFORMAT_END
 95
        8
302
GRIDFORMAT
  1
GRIDFORMAT_BEGIN
 90
        0
 91
        1
 62
     0
 92
       -2
340
14
 93
        0
 40
0.045
309
GRIDFORMAT_END
 95
       16
302
GRIDFORMAT
  1
GRIDFORMAT_BEGIN
 90
        0
 91
        1
 62
     0
 92
       -2
340
14
 93
        0
 40
0.045
309
GRIDFORMAT_END
 95
       32
302
GRIDFORMAT
  1
GRIDFORMAT_BEGIN
 90
        0
 91
        1
 62
     0
 92
       -2
340
14
 93
        0
 40
0.045
309
GRIDFORMAT_END
309
TABLEFORMAT_END
  1
CELLSTYLE_BEGIN
 90
        3
 91
        2
300
_DATA
309
CELLSTYLE_END
  0
ENDSEC
  0
EOF