0
SECTION
  2
HEADER
  9
$ACADVER
  1
AC1027
  9
$ACADMAINTVER
 70
     8
  9
$DWGCODEPAGE
  3
ANSI_1252
  9
$REQUIREDVERSIONS
160
                 0
  9
$COMMENTS
  1
File was created by Cadenas
  9
$CUSTOMPROPERTYTAG
  1
NN
  9
$CUSTOMPROPERTY
  1
Grip Tight Medium Duty Wide Slot Take Up Metric Bore
  9
$CUSTOMPROPERTYTAG
  1
NT
  9
$CUSTOMPROPERTY
  1
GT Wide Slot Take-Up Bearings -(Medium Duty)
  9
$CUSTOMPROPERTYTAG
  1
NB
  9
$CUSTOMPROPERTY
  1
136306
  9
$CUSTOMPROPERTYTAG
  1
NBSYN
  9
$CUSTOMPROPERTY
  1
$PN.$LUBE.
  9
$CUSTOMPROPERTYTAG
  1
LINA
  9
$CUSTOMPROPERTY
  1
136306
  9
$CUSTOMPROPERTYTAG
  1
SERIES
  9
$CUSTOMPROPERTY
  1
209
  9
$CUSTOMPROPERTYTAG
  1
SS
  9
$CUSTOMPROPERTY
  1
40
  9
$CUSTOMPROPERTYTAG
  1
PN
  9
$CUSTOMPROPERTY
  1
136306
  9
$CUSTOMPROPERTYTAG
  1
DESCRIPTION
  9
$CUSTOMPROPERTY
  1
WSTU-GTM-40M
  9
$CUSTOMPROPERTYTAG
  1
A
  9
$CUSTOMPROPERTY
  1
46.8
  9
$CUSTOMPROPERTYTAG
  1
B
  9
$CUSTOMPROPERTY
  1
142.9
  9
$CUSTOMPROPERTYTAG
  1
C
  9
$CUSTOMPROPERTY
  1
17.5
  9
$CUSTOMPROPERTYTAG
  1
D
  9
$CUSTOMPROPERTY
  1
82.6
  9
$CUSTOMPROPERTYTAG
  1
E
  9
$CUSTOMPROPERTY
  1
87.3
  9
$CUSTOMPROPERTYTAG
  1
F
  9
$CUSTOMPROPERTY
  1
25.4
  9
$CUSTOMPROPERTYTAG
  1
G
  9
$CUSTOMPROPERTY
  1
15.9
  9
$CUSTOMPROPERTYTAG
  1
H
  9
$CUSTOMPROPERTY
  1
19.1
  9
$CUSTOMPROPERTYTAG
  1
J
  9
$CUSTOMPROPERTY
  1
82.6
  9
$CUSTOMPROPERTYTAG
  1
K
  9
$CUSTOMPROPERTY
  1
49.2
  9
$CUSTOMPROPERTYTAG
  1
L
  9
$CUSTOMPROPERTY
  1
67.9
  9
$CUSTOMPROPERTYTAG
  1
M
  9
$CUSTOMPROPERTY
  1
101.6
  9
$CUSTOMPROPERTYTAG
  1
N
  9
$CUSTOMPROPERTY
  1
120.7
  9
$CUSTOMPROPERTYTAG
  1
R
  9
$CUSTOMPROPERTY
  1
16.7
  9
$CUSTOMPROPERTYTAG
  1
S
  9
$CUSTOMPROPERTY
  1
30.2
  9
$CUSTOMPROPERTYTAG
  1
T
  9
$CUSTOMPROPERTY
  1
49.2
  9
$CUSTOMPROPERTYTAG
  1
Z
  9
$CUSTOMPROPERTY
  1
29.4
  9
$CUSTOMPROPERTYTAG
  1
COMPANY
  9
$CUSTOMPROPERTY
  1
baldor
  9
$INSBASE
 10
0.0
 20
0.0
 30
0.0
  9
$EXTMIN
 10
1.000000000000000E+20
 20
1.000000000000000E+20
 30
1.000000000000000E+20
  9
$EXTMAX
 10
-1.000000000000000E+20
 20
-1.000000000000000E+20
 30
-1.000000000000000E+20
  9
$LIMMIN
 10
0.0
 20
0.0
  9
$LIMMAX
 10
420.0
 20
297.0
  9
$ORTHOMODE
 70
     0
  9
$REGENMODE
 70
     1
  9
$FILLMODE
 70
     1
  9
$QTEXTMODE
 70
     0
  9
$MIRRTEXT
 70
     1
  9
$LTSCALE
 40
1.0
  9
$ATTMODE
 70
     1
  9
$TEXTSIZE
 40
2.5
  9
$TRACEWID
 40
1.0
  9
$TEXTSTYLE
  7
Standard
  9
$CLAYER
  8
0
  9
$CELTYPE
  6
ByLayer
  9
$CECOLOR
 62
   256
  9
$CELTSCALE
 40
1.0
  9
$DISPSILH
 70
     0
  9
$DIMSCALE
 40
1.0
  9
$DIMASZ
 40
2.5
  9
$DIMEXO
 40
0.625
  9
$DIMDLI
 40
3.75
  9
$DIMRND
 40
0.0
  9
$DIMDLE
 40
0.0
  9
$DIMEXE
 40
1.25
  9
$DIMTP
 40
0.0
  9
$DIMTM
 40
0.0
  9
$DIMTXT
 40
2.5
  9
$DIMCEN
 40
2.5
  9
$DIMTSZ
 40
0.0
  9
$DIMTOL
 70
     0
  9
$DIMLIM
 70
     0
  9
$DIMTIH
 70
     0
  9
$DIMTOH
 70
     0
  9
$DIMSE1
 70
     0
  9
$DIMSE2
 70
     0
  9
$DIMTAD
 70
     1
  9
$DIMZIN
 70
     8
  9
$DIMBLK
  1

  9
$DIMASO
 70
     1
  9
$DIMSHO
 70
     1
  9
$DIMPOST
  1

  9
$DIMAPOST
  1

  9
$DIMALT
 70
     0
  9
$DIMALTD
 70
     3
  9
$DIMALTF
 40
0.03937007874016
  9
$DIMLFAC
 40
1.0
  9
$DIMTOFL
 70
     1
  9
$DIMTVP
 40
0.0
  9
$DIMTIX
 70
     0
  9
$DIMSOXD
 70
     0
  9
$DIMSAH
 70
     0
  9
$DIMBLK1
  1

  9
$DIMBLK2
  1

  9
$DIMSTYLE
  2
ISO-25
  9
$DIMCLRD
 70
     0
  9
$DIMCLRE
 70
     0
  9
$DIMCLRT
 70
     0
  9
$DIMTFAC
 40
1.0
  9
$DIMGAP
 40
0.625
  9
$DIMJUST
 70
     0
  9
$DIMSD1
 70
     0
  9
$DIMSD2
 70
     0
  9
$DIMTOLJ
 70
     0
  9
$DIMTZIN
 70
     8
  9
$DIMALTZ
 70
     0
  9
$DIMALTTZ
 70
     0
  9
$DIMUPT
 70
     0
  9
$DIMDEC
 70
     2
  9
$DIMTDEC
 70
     2
  9
$DIMALTU
 70
     2
  9
$DIMALTTD
 70
     3
  9
$DIMTXSTY
  7
Standard
  9
$DIMAUNIT
 70
     0
  9
$DIMADEC
 70
     0
  9
$DIMALTRND
 40
0.0
  9
$DIMAZIN
 70
     0
  9
$DIMDSEP
 70
    44
  9
$DIMATFIT
 70
     3
  9
$DIMFRAC
 70
     0
  9
$DIMLDRBLK
  1

  9
$DIMLUNIT
 70
     2
  9
$DIMLWD
 70
    -2
  9
$DIMLWE
 70
    -2
  9
$DIMTMOVE
 70
     0
  9
$DIMFXL
 40
1.0
  9
$DIMFXLON
 70
     0
  9
$DIMJOGANG
 40
0.7853981633974483
  9
$DIMTFILL
 70
     0
  9
$DIMTFILLCLR
 70
     0
  9
$DIMARCSYM
 70
     0
  9
$DIMLTYPE
  6

  9
$DIMLTEX1
  6

  9
$DIMLTEX2
  6

  9
$DIMTXTDIRECTION
 70
     0
  9
$LUNITS
 70
     2
  9
$LUPREC
 70
     4
  9
$SKETCHINC
 40
1.0
  9
$FILLETRAD
 40
10.0
  9
$AUNITS
 70
     0
  9
$AUPREC
 70
     0
  9
$MENU
  1
.
  9
$ELEVATION
 40
0.0
  9
$PELEVATION
 40
0.0
  9
$THICKNESS
 40
0.0
  9
$LIMCHECK
 70
     0
  9
$CHAMFERA
 40
0.0
  9
$CHAMFERB
 40
0.0
  9
$CHAMFERC
 40
0.0
  9
$CHAMFERD
 40
0.0
  9
$SKPOLY
 70
     0
  9
$TDCREATE
 40
2458168.964032616
  9
$TDUCREATE
 40
2458168.922365949
  9
$TDUPDATE
 40
2458168.964032801
  9
$TDUUPDATE
 40
2458168.922366134
  9
$TDINDWG
 40
0.0000000116
  9
$TDUSRTIMER
 40
0.0000000116
  9
$USRTIMER
 70
     1
  9
$ANGBASE
 50
0.0
  9
$ANGDIR
 70
     0
  9
$PDMODE
 70
     0
  9
$PDSIZE
 40
0.0
  9
$PLINEWID
 40
0.0
  9
$SPLFRAME
 70
     0
  9
$SPLINETYPE
 70
     6
  9
$SPLINESEGS
 70
     8
  9
$HANDSEED
  5
22E
  9
$SURFTAB1
 70
     6
  9
$SURFTAB2
 70
     6
  9
$SURFTYPE
 70
     6
  9
$SURFU
 70
     6
  9
$SURFV
 70
     6
  9
$UCSBASE
  2

  9
$UCSNAME
  2

  9
$UCSORG
 10
0.0
 20
0.0
 30
0.0
  9
$UCSXDIR
 10
1.0
 20
0.0
 30
0.0
  9
$UCSYDIR
 10
0.0
 20
1.0
 30
0.0
  9
$UCSORTHOREF
  2

  9
$UCSORTHOVIEW
 70
     0
  9
$UCSORGTOP
 10
0.0
 20
0.0
 30
0.0
  9
$UCSORGBOTTOM
 10
0.0
 20
0.0
 30
0.0
  9
$UCSORGLEFT
 10
0.0
 20
0.0
 30
0.0
  9
$UCSORGRIGHT
 10
0.0
 20
0.0
 30
0.0
  9
$UCSORGFRONT
 10
0.0
 20
0.0
 30
0.0
  9
$UCSORGBACK
 10
0.0
 20
0.0
 30
0.0
  9
$PUCSBASE
  2

  9
$PUCSNAME
  2

  9
$PUCSORG
 10
0.0
 20
0.0
 30
0.0
  9
$PUCSXDIR
 10
1.0
 20
0.0
 30
0.0
  9
$PUCSYDIR
 10
0.0
 20
1.0
 30
0.0
  9
$PUCSORTHOREF
  2

  9
$PUCSORTHOVIEW
 70
     0
  9
$PUCSORGTOP
 10
0.0
 20
0.0
 30
0.0
  9
$PUCSORGBOTTOM
 10
0.0
 20
0.0
 30
0.0
  9
$PUCSORGLEFT
 10
0.0
 20
0.0
 30
0.0
  9
$PUCSORGRIGHT
 10
0.0
 20
0.0
 30
0.0
  9
$PUCSORGFRONT
 10
0.0
 20
0.0
 30
0.0
  9
$PUCSORGBACK
 10
0.0
 20
0.0
 30
0.0
  9
$USERI1
 70
     0
  9
$USERI2
 70
     0
  9
$USERI3
 70
     0
  9
$USERI4
 70
     0
  9
$USERI5
 70
     0
  9
$USERR1
 40
0.0
  9
$USERR2
 40
0.0
  9
$USERR3
 40
0.0
  9
$USERR4
 40
0.0
  9
$USERR5
 40
0.0
  9
$WORLDVIEW
 70
     1
  9
$SHADEDGE
 70
     3
  9
$SHADEDIF
 70
    70
  9
$TILEMODE
 70
     1
  9
$MAXACTVP
 70
    64
  9
$PINSBASE
 10
0.0
 20
0.0
 30
0.0
  9
$PLIMCHECK
 70
     0
  9
$PEXTMIN
 10
1.000000000000000E+20
 20
1.000000000000000E+20
 30
1.000000000000000E+20
  9
$PEXTMAX
 10
-1.000000000000000E+20
 20
-1.000000000000000E+20
 30
-1.000000000000000E+20
  9
$PLIMMIN
 10
0.0
 20
0.0
  9
$PLIMMAX
 10
420.0
 20
297.0
  9
$UNITMODE
 70
     0
  9
$VISRETAIN
 70
     1
  9
$PLINEGEN
 70
     0
  9
$PSLTSCALE
 70
     1
  9
$TREEDEPTH
 70
  3020
  9
$CMLSTYLE
  2
Standard
  9
$CMLJUST
 70
     0
  9
$CMLSCALE
 40
20.0
  9
$PROXYGRAPHICS
 70
     1
  9
$MEASUREMENT
 70
     1
  9
$CELWEIGHT
370
    -1
  9
$ENDCAPS
280
     0
  9
$JOINSTYLE
280
     0
  9
$LWDISPLAY
290
     0
  9
$INSUNITS
 70
     4
  9
$HYPERLINKBASE
  1

  9
$STYLESHEET
  1

  9
$XEDIT
290
     1
  9
$CEPSNTYPE
380
     0
  9
$PSTYLEMODE
290
     1
  9
$FINGERPRINTGUID
  2
{0028A1A3-6E72-4C80-9599-D0EA1B43683D}
  9
$VERSIONGUID
  2
{FAEB1C32-E019-11D5-929B-00C0DF256EC4}
  9
$EXTNAMES
290
     1
  9
$PSVPSCALE
 40
0.0
  9
$OLESTARTUP
290
     0
  9
$SORTENTS
280
   127
  9
$INDEXCTL
280
     0
  9
$HIDETEXT
280
     1
  9
$XCLIPFRAME
280
     2
  9
$HALOGAP
280
     0
  9
$OBSCOLOR
 70
   257
  9
$OBSLTYPE
280
     0
  9
$INTERSECTIONDISPLAY
280
     0
  9
$INTERSECTIONCOLOR
 70
   257
  9
$DIMASSOC
280
     2
  9
$PROJECTNAME
  1

  9
$CAMERADISPLAY
290
     0
  9
$LENSLENGTH
 40
50.0
  9
$CAMERAHEIGHT
 40
0.0
  9
$STEPSPERSEC
 40
2.0
  9
$STEPSIZE
 40
6.0
  9
$3DDWFPREC
 40
2.0
  9
$PSOLWIDTH
 40
5.0
  9
$PSOLHEIGHT
 40
80.0
  9
$LOFTANG1
 40
1.570796326794897
  9
$LOFTANG2
 40
1.570796326794897
  9
$LOFTMAG1
 40
0.0
  9
$LOFTMAG2
 40
0.0
  9
$LOFTPARAM
 70
     7
  9
$LOFTNORMALS
280
     1
  9
$LATITUDE
 40
37.795
  9
$LONGITUDE
 40
-122.394
  9
$NORTHDIRECTION
 40
0.0
  9
$TIMEZONE
 70
 -8000
  9
$LIGHTGLYPHDISPLAY
280
     1
  9
$TILEMODELIGHTSYNCH
280
     1
  9
$CMATERIAL
347
44
  9
$SOLIDHIST
280
     0
  9
$SHOWHIST
280
     1
  9
$DWFFRAME
280
     2
  9
$DGNFRAME
280
     2
  9
$REALWORLDSCALE
290
     1
  9
$INTERFERECOLOR
 62
   256
  9
$CSHADOW
280
     0
  9
$SHADOWPLANELOCATION
 40
0.0
  0
ENDSEC
  0
SECTION
  2
CLASSES
  0
CLASS
  1
ACDBDICTIONARYWDFLT
  2
AcDbDictionaryWithDefault
  3
ObjectDBX Classes
 90
        0
 91
        4
280
     0
281
     0
  0
CLASS
  1
VISUALSTYLE
  2
AcDbVisualStyle
  3
ObjectDBX Classes
 90
     4095
 91
        4
280
     0
281
     0
  0
CLASS
  1
MATERIAL
  2
AcDbMaterial
  3
ObjectDBX Classes
 90
     1153
 91
        4
280
     0
281
     0
  0
CLASS
  1
SCALE
  2
AcDbScale
  3
ObjectDBX Classes
 90
     1153
 91
        4
280
     0
281
     0
  0
CLASS
  1
TABLESTYLE
  2
AcDbTableStyle
  3
ObjectDBX Classes
 90
     4095
 91
        4
280
     0
281
     0
  0
CLASS
  1
MLEADERSTYLE
  2
AcDbMLeaderStyle
  3
ACDB_MLEADERSTYLE_CLASS
 90
     4095
 91
        4
280
     0
281
     0
  0
CLASS
  1
SUN
  2
AcDbSun
  3
SCENEOE
 90
     1153
 91
        4
280
     0
281
     0
  0
CLASS
  1
DICTIONARYVAR
  2
AcDbDictionaryVar
  3
ObjectDBX Classes
 90
        0
 91
        4
280
     0
281
     0
  0
CLASS
  1
CELLSTYLEMAP
  2
AcDbCellStyleMap
  3
ObjectDBX Classes
 90
     1152
 91
        4
280
     0
281
     0
  0
ENDSEC
  0
SECTION
  2
TABLES
  0
TABLE
  2
VPORT
  5
8
330
0
100
AcDbSymbolTable
 70
     1
  0
VPORT
  5
29
330
8
100
AcDbSymbolTableRecord
100
AcDbViewportTableRecord
  2
*Active
 70
     0
 10
0.0
 20
0.0
 11
1.0
 21
1.0
 12
-2.690000114440807
 22
0.0
 13
0.0
 23
0.0
 14
10.0
 24
10.0
 15
10.0
 25
10.0
 16
0.0
 26
0.0
 36
1.0
 17
0.0
 27
0.0
 37
0.0
 40
123.114
 41
0.8521955242014744
 42
50.0
 43
0.0
 44
0.0
 50
0.0
 51
0.0
 71
     0
 72
   100
 73
     1
 74
     3
 75
     0
 76
     0
 77
     0
 78
     0
281
     0
 65
     1
110
0.0
120
0.0
130
0.0
111
1.0
121
0.0
131
0.0
112
0.0
122
1.0
132
0.0
 79
     0
146
0.0
348
2F
 60
     3
 61
     5
292
     1
282
     1
141
0.0
142
0.0
 63
   250
361
6D
  0
ENDTAB
  0
TABLE
  2
LTYPE
  5
5
330
0
100
AcDbSymbolTable
 70
     3
  0
LTYPE
  5
14
330
5
100
AcDbSymbolTableRecord
100
AcDbLinetypeTableRecord
  2
ByBlock
 70
     0
  3

 72
    65
 73
     0
 40
0.0
  0
LTYPE
  5
15
330
5
100
AcDbSymbolTableRecord
100
AcDbLinetypeTableRecord
  2
ByLayer
 70
     0
  3

 72
    65
 73
     0
 40
0.0
  0
LTYPE
  5
16
330
5
100
AcDbSymbolTableRecord
100
AcDbLinetypeTableRecord
  2
Continuous
 70
     0
  3
Solid line
 72
    65
 73
     0
 40
0.0
  0
LTYPE
  5
9F
330
5
100
AcDbSymbolTableRecord
100
AcDbLinetypeTableRecord
  2
Dashed
 70
     0
  3

 72
    65
 73
     2
 40
2.0
 49
1.0
 74
     0
 49
-1.0
 74
     0
  0
LTYPE
  5
194
330
5
100
AcDbSymbolTableRecord
100
AcDbLinetypeTableRecord
  2
Center
 70
     0
  3

 72
    65
 73
     4
 40
1.5
 49
0.45
 74
     0
 49
-0.5
 74
     0
 49
0.05
 74
     0
 49
-0.5
 74
     0
  0
ENDTAB
  0
TABLE
  2
LAYER
  5
2
330
0
100
AcDbSymbolTable
 70
     7
  0
LAYER
  5
10
330
2
100
AcDbSymbolTableRecord
100
AcDbLayerTableRecord
  2
0
 70
     0
 62
     7
  6
Continuous
370
    -3
390
F
347
46
348
0
  0
LAYER
  5
72
330
2
100
AcDbSymbolTableRecord
100
AcDbLayerTableRecord
  2
AM_6
 70
     0
 62
    -2
  6
Continuous
370
    35
390
F
347
46
348
0
  0
LAYER
  5
A0
330
2
100
AcDbSymbolTableRecord
100
AcDbLayerTableRecord
  2
AM_9
 70
     0
 62
     6
  6
Dashed
370
    25
390
F
347
46
348
0
  0
LAYER
  5
195
330
2
100
AcDbSymbolTableRecord
100
AcDbLayerTableRecord
  2
AM_7
 70
     0
 62
     7
  6
Center
370
    25
390
F
347
46
348
0
  0
LAYER
  5
197
330
2
100
AcDbSymbolTableRecord
100
AcDbLayerTableRecord
  2
AM_4
 70
     0
 62
     7
  6
Continuous
370
    50
390
F
347
46
348
0
  0
LAYER
  5
1A8
330
2
100
AcDbSymbolTableRecord
100
AcDbLayerTableRecord
  2
AM_5
 70
     0
 62
     3
  6
Continuous
370
    25
390
F
347
46
348
0
  0
LAYER
  5
21D
330
2
100
AcDbSymbolTableRecord
100
AcDbLayerTableRecord
  2
ConnectionPoints
 70
     0
 62
     7
  6
Continuous
370
    50
390
F
347
46
348
0
  0
ENDTAB
  0
TABLE
  2
STYLE
  5
3
330
0
100
AcDbSymbolTable
 70
     1
  0
STYLE
  5
11
330
3
100
AcDbSymbolTableRecord
100
AcDbTextStyleTableRecord
  2
Standard
 70
     0
 40
0.0
 41
1.0
 50
0.0
 71
     0
 42
2.5
  3
txt
  4

  0
ENDTAB
  0
TABLE
  2
VIEW
  5
6
330
0
100
AcDbSymbolTable
 70
     0
  0
ENDTAB
  0
TABLE
  2
UCS
  5
7
330
0
100
AcDbSymbolTable
 70
     0
  0
ENDTAB
  0
TABLE
  2
APPID
  5
9
330
0
100
AcDbSymbolTable
 70
     1
  0
APPID
  5
12
330
9
100
AcDbSymbolTableRecord
100
AcDbRegAppTableRecord
  2
ACAD
 70
     0
  0
ENDTAB
  0
TABLE
  2
DIMSTYLE
  5
A
330
0
100
AcDbSymbolTable
 70
     1
100
AcDbDimStyleTable
  0
DIMSTYLE
105
27
330
A
100
AcDbSymbolTableRecord
100
AcDbDimStyleTableRecord
  2
ISO-25
 70
     0
 41
2.5
 42
0.625
 43
3.75
 44
1.25
 73
     0
 74
     0
 77
     1
 78
     8
140
2.5
141
2.5
143
0.03937007874016
147
0.625
171
     3
172
     1
178
     0
271
     2
272
     2
274
     3
278
    44
283
     0
284
     8
340
11
  0
ENDTAB
  0
TABLE
  2
BLOCK_RECORD
  5
1
330
0
100
AcDbSymbolTable
 70
     6
  0
BLOCK_RECORD
  5
1F
330
1
100
AcDbSymbolTableRecord
100
AcDbBlockTableRecord
  2
*Model_Space
340
22
 70
     0
280
     1
281
     0
  0
BLOCK_RECORD
  5
1B
330
1
100
AcDbSymbolTableRecord
100
AcDbBlockTableRecord
  2
*Paper_Space
340
1E
 70
     0
280
     1
281
     0
  0
BLOCK_RECORD
  5
23
330
1
100
AcDbSymbolTableRecord
100
AcDbBlockTableRecord
  2
*Paper_Space0
340
26
 70
     0
280
     1
281
     0
  0
BLOCK_RECORD
  5
6E
330
1
100
AcDbSymbolTableRecord
100
AcDbBlockTableRecord
  2
1_136306_2
340
0
102
{BLKREFS
331
6F
102
}
 70
     0
280
     1
281
     0
  0
BLOCK_RECORD
  5
8E
330
1
100
AcDbSymbolTableRecord
100
AcDbBlockTableRecord
  2
2_405016_Metric_0_in_136306_2
340
0
102
{BLKREFS
331
8F
102
}
 70
     0
280
     1
281
     0
  0
BLOCK_RECORD
  5
10D
330
1
100
AcDbSymbolTableRecord
100
AcDbBlockTableRecord
  2
3_129522_0_in_136306_2
340
0
102
{BLKREFS
331
10E
102
}
 70
     0
280
     1
281
     0
  0
BLOCK_RECORD
  5
150
330
1
100
AcDbSymbolTableRecord
100
AcDbBlockTableRecord
  2
4_129959_0_in_136306_2
340
0
102
{BLKREFS
331
151
102
}
 70
     0
280
     1
281
     0
  0
BLOCK_RECORD
  5
1AA
330
1
100
AcDbSymbolTableRecord
100
AcDbBlockTableRecord
  2
5_WSTU_GT_09_0_in_136306_2
340
0
102
{BLKREFS
331
1AB
102
}
 70
     0
280
     1
281
     0
  0
ENDTAB
  0
ENDSEC
  0
SECTION
  2
BLOCKS
  0
BLOCK
  5
20
330
1F
100
AcDbEntity
  8
0
100
AcDbBlockBegin
  2
*Model_Space
 70
     0
 10
0.0
 20
0.0
 30
0.0
  3
*Model_Space
  1

  0
ENDBLK
  5
21
330
1F
100
AcDbEntity
  8
0
100
AcDbBlockEnd
  0
BLOCK
  5
1C
330
1B
100
AcDbEntity
 67
     1
  8
0
100
AcDbBlockBegin
  2
*Paper_Space
 70
     0
 10
0.0
 20
0.0
 30
0.0
  3
*Paper_Space
  1

  0
ENDBLK
  5
1D
330
1B
100
AcDbEntity
 67
     1
  8
0
100
AcDbBlockEnd
  0
BLOCK
  5
24
330
23
100
AcDbEntity
  8
0
100
AcDbBlockBegin
  2
*Paper_Space0
 70
     0
 10
0.0
 20
0.0
 30
0.0
  3
*Paper_Space0
  1

  0
ENDBLK
  5
25
330
23
100
AcDbEntity
  8
0
100
AcDbBlockEnd
  0
BLOCK
  5
70
330
6E
100
AcDbEntity
  8
0
100
AcDbBlockBegin
  2
1_136306_2
 70
     2
 10
0.0
 20
0.0
 30
0.0
  3
1_136306_2
  1

  0
ATTDEF
  5
73
330
6E
100
AcDbEntity
  8
AM_6
100
AcDbText
 10
53.73999977111816
 20
60.35
 30
0.0
 40
0.5
  1
Grip Tight Medium Duty Wide Slot Take Up Metric Bore
100
AcDbAttributeDefinition
  3

  2
NN
 70
     8
280
     0
  0
ATTDEF
  5
74
330
6E
100
AcDbEntity
  8
AM_6
100
AcDbText
 10
53.73999977111816
 20
59.85
 30
0.0
 40
0.5
  1
GT Wide Slot Take-Up Bearings -(Medium Duty)
100
AcDbAttributeDefinition
  3

  2
NT
 70
     8
280
     0
  0
ATTDEF
  5
75
330
6E
100
AcDbEntity
  8
AM_6
100
AcDbText
 10
53.73999977111816
 20
59.35
 30
0.0
 40
0.5
  1
136306
100
AcDbAttributeDefinition
  3

  2
NB
 70
     8
280
     0
  0
ATTDEF
  5
76
330
6E
100
AcDbEntity
  8
AM_6
100
AcDbText
 10
53.73999977111816
 20
58.85
 30
0.0
 40
0.5
  1
$PN.$LUBE.
100
AcDbAttributeDefinition
  3

  2
NBSYN
 70
     8
280
     0
  0
ATTDEF
  5
77
330
6E
100
AcDbEntity
  8
AM_6
100
AcDbText
 10
53.73999977111816
 20
58.35
 30
0.0
 40
0.5
  1
136306
100
AcDbAttributeDefinition
  3

  2
LINA
 70
     8
280
     0
  0
ATTDEF
  5
78
330
6E
100
AcDbEntity
  8
AM_6
100
AcDbText
 10
53.73999977111816
 20
57.85
 30
0.0
 40
0.5
  1
209
100
AcDbAttributeDefinition
  3

  2
SERIES
 70
     8
280
     0
  0
ATTDEF
  5
79
330
6E
100
AcDbEntity
  8
AM_6
100
AcDbText
 10
53.73999977111816
 20
57.35
 30
0.0
 40
0.5
  1
40
100
AcDbAttributeDefinition
  3

  2
SS
 70
     8
280
     0
  0
ATTDEF
  5
7A
330
6E
100
AcDbEntity
  8
AM_6
100
AcDbText
 10
53.73999977111816
 20
56.85
 30
0.0
 40
0.5
  1
136306
100
AcDbAttributeDefinition
  3

  2
PN
 70
     8
280
     0
  0
ATTDEF
  5
7B
330
6E
100
AcDbEntity
  8
AM_6
100
AcDbText
 10
53.73999977111816
 20
56.35
 30
0.0
 40
0.5
  1
WSTU-GTM-40M
100
AcDbAttributeDefinition
  3

  2
DESCRIPTION
 70
     8
280
     0
  0
ATTDEF
  5
7C
330
6E
100
AcDbEntity
  8
AM_6
100
AcDbText
 10
53.73999977111816
 20
55.85
 30
0.0
 40
0.5
  1
46.8
100
AcDbAttributeDefinition
  3

  2
A
 70
     8
280
     0
  0
ATTDEF
  5
7D
330
6E
100
AcDbEntity
  8
AM_6
100
AcDbText
 10
53.73999977111816
 20
55.35
 30
0.0
 40
0.5
  1
142.9
100
AcDbAttributeDefinition
  3

  2
B
 70
     8
280
     0
  0
ATTDEF
  5
7E
330
6E
100
AcDbEntity
  8
AM_6
100
AcDbText
 10
53.73999977111816
 20
54.85
 30
0.0
 40
0.5
  1
17.5
100
AcDbAttributeDefinition
  3

  2
C
 70
     8
280
     0
  0
ATTDEF
  5
7F
330
6E
100
AcDbEntity
  8
AM_6
100
AcDbText
 10
53.73999977111816
 20
54.35
 30
0.0
 40
0.5
  1
82.6
100
AcDbAttributeDefinition
  3

  2
D
 70
     8
280
     0
  0
ATTDEF
  5
80
330
6E
100
AcDbEntity
  8
AM_6
100
AcDbText
 10
53.73999977111816
 20
53.85
 30
0.0
 40
0.5
  1
87.3
100
AcDbAttributeDefinition
  3

  2
E
 70
     8
280
     0
  0
ATTDEF
  5
81
330
6E
100
AcDbEntity
  8
AM_6
100
AcDbText
 10
53.73999977111816
 20
53.35
 30
0.0
 40
0.5
  1
25.4
100
AcDbAttributeDefinition
  3

  2
F
 70
     8
280
     0
  0
ATTDEF
  5
82
330
6E
100
AcDbEntity
  8
AM_6
100
AcDbText
 10
53.73999977111816
 20
52.85
 30
0.0
 40
0.5
  1
15.9
100
AcDbAttributeDefinition
  3

  2
G
 70
     8
280
     0
  0
ATTDEF
  5
83
330
6E
100
AcDbEntity
  8
AM_6
100
AcDbText
 10
53.73999977111816
 20
52.35
 30
0.0
 40
0.5
  1
19.1
100
AcDbAttributeDefinition
  3

  2
H
 70
     8
280
     0
  0
ATTDEF
  5
84
330
6E
100
AcDbEntity
  8
AM_6
100
AcDbText
 10
53.73999977111816
 20
51.85
 30
0.0
 40
0.5
  1
82.6
100
AcDbAttributeDefinition
  3

  2
J
 70
     8
280
     0
  0
ATTDEF
  5
85
330
6E
100
AcDbEntity
  8
AM_6
100
AcDbText
 10
53.73999977111816
 20
51.35
 30
0.0
 40
0.5
  1
49.2
100
AcDbAttributeDefinition
  3

  2
K
 70
     8
280
     0
  0
ATTDEF
  5
86
330
6E
100
AcDbEntity
  8
AM_6
100
AcDbText
 10
53.73999977111816
 20
50.85
 30
0.0
 40
0.5
  1
67.9
100
AcDbAttributeDefinition
  3

  2
L
 70
     8
280
     0
  0
ATTDEF
  5
87
330
6E
100
AcDbEntity
  8
AM_6
100
AcDbText
 10
53.73999977111816
 20
50.35
 30
0.0
 40
0.5
  1
101.6
100
AcDbAttributeDefinition
  3

  2
M
 70
     8
280
     0
  0
ATTDEF
  5
88
330
6E
100
AcDbEntity
  8
AM_6
100
AcDbText
 10
53.73999977111816
 20
49.85
 30
0.0
 40
0.5
  1
120.7
100
AcDbAttributeDefinition
  3

  2
N
 70
     8
280
     0
  0
ATTDEF
  5
89
330
6E
100
AcDbEntity
  8
AM_6
100
AcDbText
 10
53.73999977111816
 20
49.35
 30
0.0
 40
0.5
  1
16.7
100
AcDbAttributeDefinition
  3

  2
R
 70
     8
280
     0
  0
ATTDEF
  5
8A
330
6E
100
AcDbEntity
  8
AM_6
100
AcDbText
 10
53.73999977111816
 20
48.85
 30
0.0
 40
0.5
  1
30.2
100
AcDbAttributeDefinition
  3

  2
S
 70
     8
280
     0
  0
ATTDEF
  5
8B
330
6E
100
AcDbEntity
  8
AM_6
100
AcDbText
 10
53.73999977111816
 20
48.35
 30
0.0
 40
0.5
  1
49.2
100
AcDbAttributeDefinition
  3

  2
T
 70
     8
280
     0
  0
ATTDEF
  5
8C
330
6E
100
AcDbEntity
  8
AM_6
100
AcDbText
 10
53.73999977111816
 20
47.85
 30
0.0
 40
0.5
  1
29.4
100
AcDbAttributeDefinition
  3

  2
Z
 70
     8
280
     0
  0
ATTDEF
  5
8D
330
6E
100
AcDbEntity
  8
AM_6
100
AcDbText
 10
53.73999977111816
 20
47.35
 30
0.0
 40
0.5
  1
baldor
100
AcDbAttributeDefinition
  3

  2
COMPANY
 70
     8
280
     0
  0
INSERT
  5
8F
330
6E
100
AcDbEntity
  8
0
100
AcDbBlockReference
  2
2_405016_Metric_0_in_136306_2
 10
0.0
 20
0.0
 30
0.0
  0
INSERT
  5
10E
330
6E
100
AcDbEntity
  8
0
100
AcDbBlockReference
  2
3_129522_0_in_136306_2
 10
0.0
 20
0.0
 30
0.0
  0
INSERT
  5
151
330
6E
100
AcDbEntity
  8
0
100
AcDbBlockReference
  2
4_129959_0_in_136306_2
 10
0.0
 20
0.0
 30
0.0
  0
INSERT
  5
1AB
330
6E
100
AcDbEntity
  8
0
100
AcDbBlockReference
  2
5_WSTU_GT_09_0_in_136306_2
 10
0.0
 20
0.0
 30
0.0
  0
ENDBLK
  5
71
330
6E
100
AcDbEntity
  8
0
100
AcDbBlockEnd
  0
BLOCK
  5
90
330
8E
100
AcDbEntity
  8
0
100
AcDbBlockBegin
  2
2_405016_Metric_0_in_136306_2
 70
     2
 10
0.0
 20
0.0
 30
0.0
  3
2_405016_Metric_0_in_136306_2
  1

  0
ATTDEF
  5
92
330
8E
100
AcDbEntity
  8
AM_6
100
AcDbText
 10
10.55625000000005
 20
-22.24490184921519
 30
0.0
 40
0.5
  1
405016 -Metric
100
AcDbAttributeDefinition
  3

  2
NN
 70
     8
280
     0
  0
ATTDEF
  5
93
330
8E
100
AcDbEntity
  8
AM_6
100
AcDbText
 10
10.55625000000005
 20
-22.74490184921519
 30
0.0
 40
0.5
  1
Grease Fitting
100
AcDbAttributeDefinition
  3

  2
NT
 70
     8
280
     0
  0
ATTDEF
  5
94
330
8E
100
AcDbEntity
  8
AM_6
100
AcDbText
 10
10.55625000000005
 20
-23.24490184921519
 30
0.0
 40
0.5
  1
405016-Metric
100
AcDbAttributeDefinition
  3

  2
NB
 70
     8
280
     0
  0
ATTDEF
  5
95
330
8E
100
AcDbEntity
  8
AM_6
100
AcDbText
 10
10.55625000000005
 20
-23.74490184921519
 30
0.0
 40
0.5
  1
$MN.-Metric
100
AcDbAttributeDefinition
  3

  2
NBSYN
 70
     8
280
     0
  0
ATTDEF
  5
96
330
8E
100
AcDbEntity
  8
AM_6
100
AcDbText
 10
10.55625000000005
 20
-24.24490184921519
 30
0.0
 40
0.5
  1
405016
100
AcDbAttributeDefinition
  3

  2
LINA
 70
     8
280
     0
  0
ATTDEF
  5
97
330
8E
100
AcDbEntity
  8
AM_6
100
AcDbText
 10
10.55625000000005
 20
-24.74490184921519
 30
0.0
 40
0.5
  1
405016
100
AcDbAttributeDefinition
  3

  2
MN
 70
     8
280
     0
  0
ATTDEF
  5
98
330
8E
100
AcDbEntity
  8
AM_6
100
AcDbText
 10
10.55625000000005
 20
-25.24490184921519
 30
0.0
 40
0.5
  1
7/16 HEX
100
AcDbAttributeDefinition
  3

  2
H
 70
     8
280
     0
  0
ATTDEF
  5
99
330
8E
100
AcDbEntity
  8
AM_6
100
AcDbText
 10
10.55625000000005
 20
-25.74490184921519
 30
0.0
 40
0.5
  1
9.728
100
AcDbAttributeDefinition
  3

  2
NDR
 70
     8
280
     0
  0
ATTDEF
  5
9A
330
8E
100
AcDbEntity
  8
AM_6
100
AcDbText
 10
10.55625000000005
 20
-26.24490184921519
 30
0.0
 40
0.5
  1
8.560
100
AcDbAttributeDefinition
  3

  2
KDR
 70
     8
280
     0
  0
ATTDEF
  5
9B
330
8E
100
AcDbEntity
  8
AM_6
100
AcDbText
 10
10.55625000000005
 20
-26.74490184921519
 30
0.0
 40
0.5
  1
4.0005
100
AcDbAttributeDefinition
  3

  2
BZE
 70
     8
280
     0
  0
ATTDEF
  5
9C
330
8E
100
AcDbEntity
  8
AM_6
100
AcDbText
 10
10.55625000000005
 20
-27.24490184921519
 30
0.0
 40
0.5
  1
11.1125
100
AcDbAttributeDefinition
  3

  2
HEX
 70
     8
280
     0
  0
ATTDEF
  5
9D
330
8E
100
AcDbEntity
  8
AM_6
100
AcDbText
 10
10.55625000000005
 20
-27.74490184921519
 30
0.0
 40
0.5
  1
7.143750
100
AcDbAttributeDefinition
  3

  2
HEX2
 70
     8
280
     0
  0
ATTDEF
  5
9E
330
8E
100
AcDbEntity
  8
AM_6
100
AcDbText
 10
10.55625000000005
 20
-28.24490184921519
 30
0.0
 40
0.5
  1
baldor
100
AcDbAttributeDefinition
  3

  2
COMPANY
 70
     8
280
     0
  0
LWPOLYLINE
  5
A1
330
8E
100
AcDbEntity
  8
AM_9
100
AcDbPolyline
 90
        5
 70
     0
 43
0.0
 10
-4.549376881905939
 20
-37.60716575011958
 10
-4.680053692952525
 20
-36.76722104716566
 10
-4.730040525586982
 20
-35.89453519314443
 10
-4.684077415975235
 20
-34.97541173564804
 10
-4.549376881905939
 20
-34.03529075011958
  0
LINE
  5
A2
330
8E
100
AcDbEntity
  8
AM_9
100
AcDbLine
 10
-3.837282897828233
 20
-33.86926331106881
 30
0.0
 11
-4.549376881905939
 21
-34.03529075011958
 31
0.0
  0
LWPOLYLINE
  5
A3
330
8E
100
AcDbEntity
  8
AM_9
100
AcDbPolyline
 90
        5
 70
     0
 43
0.0
 10
-4.549376881905939
 20
-34.03529075011958
 10
-5.050422008373633
 20
-33.23708835050992
 10
-5.477080537076167
 20
-32.40674219793953
 10
-5.81777375853646
 20
-31.53065630374617
 10
-6.06899892960875
 20
-30.63309494714501
  0
LINE
  5
A4
330
8E
100
AcDbEntity
  8
AM_9
100
AcDbLine
 10
-5.333905179049323
 20
-30.46170502447114
 30
0.0
 11
-6.06899892960875
 21
-30.63309494714501
 31
0.0
  0
LINE
  5
A5
330
8E
100
AcDbEntity
  8
AM_9
100
AcDbLine
 10
-6.06899892960875
 20
-30.63309494714501
 30
0.0
 11
-6.887292896806425
 21
-30.74610033531011
 31
0.0
  0
LWPOLYLINE
  5
A6
330
8E
100
AcDbEntity
  8
AM_9
100
AcDbPolyline
 90
        3
 70
     0
 43
0.0
 10
-7.147354260923542
 20
-30.77492744350232
 10
-7.395910919975462
 20
-30.79531207475421
 10
-7.588696252319892
 20
-30.80279169482686
  0
LINE
  5
A7
330
8E
100
AcDbEntity
  8
AM_9
100
AcDbLine
 10
-5.124603175496353
 20
-37.68901273917561
 30
0.0
 11
-4.549376881905939
 21
-37.60716575011958
 31
0.0
  0
LWPOLYLINE
  5
A8
330
8E
100
AcDbEntity
  8
AM_9
100
AcDbPolyline
 90
        4
 70
     0
 43
0.0
 10
-6.06899892960875
 20
-37.77684494714501
 10
-5.830160733401209
 20
-37.76615077826178
 10
-5.503852774457661
 20
-37.73578491330026
 10
-5.124603175496353
 20
-37.68901273917561
  0
LINE
  5
A9
330
8E
100
AcDbEntity
  8
AM_9
100
AcDbLine
 10
-3.837282897828233
 20
-37.4411383110688
 30
0.0
 11
-4.549376881905939
 21
-37.60716575011958
 31
0.0
  0
LINE
  5
AA
330
8E
100
AcDbEntity
  8
AM_9
100
AcDbLine
 10
-11.49136154692728
 20
-38.10285201901979
 30
0.0
 11
-9.58764791636241
 21
-38.57342881516681
 31
0.0
  0
LINE
  5
AB
330
8E
100
AcDbEntity
  8
AM_9
100
AcDbLine
 10
-11.16548248281835
 20
-31.80607452079887
 30
0.0
 11
-12.66477284326564
 21
-33.07007472781639
 31
0.0
  0
LWPOLYLINE
  5
AC
330
8E
100
AcDbEntity
  8
AM_9
100
AcDbPolyline
 90
        3
 70
     0
 43
0.0
 10
-6.830431020205953
 20
-30.62599925250316
 10
-6.382400080731245
 20
-30.55866661256951
 10
-5.996343371387016
 20
-30.50656484729698
  0
ELLIPSE
  5
AD
330
8E
100
AcDbEntity
  8
AM_9
100
AcDbEllipse
 10
-10.14553017344
 20
-35.13588496698488
 30
0.0
 11
-0.8025283190312502
 21
3.442055068134785
 31
0.0
210
0.0
220
0.0
230
1.0
 40
0.3659981507706688
 41
0.1896066801697227
 42
4.145181672147547
  0
LWPOLYLINE
  5
AE
330
8E
100
AcDbEntity
  8
AM_9
100
AcDbPolyline
 90
       10
 70
     0
 43
0.0
 10
-9.716040557161556
 20
-31.83118404690596
 10
-9.839011928779593
 20
-31.74716168351311
 10
-10.03195409158366
 20
-31.64687118428471
 10
-10.22446949620227
 20
-31.58309972433931
 10
-10.41731908272459
 20
-31.55409241290749
 10
-10.60895042329952
 20
-31.55981377262052
 10
-10.80951150178414
 20
-31.60490010679977
 10
-10.9919054269326
 20
-31.68555669284415
 10
-11.15352127286066
 20
-31.79612637153119
 10
-11.17604877109689
 20
-31.81509042338476
  0
LWPOLYLINE
  5
AF
330
8E
100
AcDbEntity
  8
AM_9
100
AcDbPolyline
 90
        3
 70
     0
 43
0.0
 10
-9.600678310627103
 20
-31.92504555311512
 10
-9.644416830387138
 20
-31.88770008250515
 10
-9.686961829182774
 20
-31.85344276422232
  0
LINE
  5
B0
330
8E
100
AcDbEntity
  8
AM_9
100
AcDbLine
 10
-8.243765876746059
 20
-37.79128213907025
 30
0.0
 11
-8.234826261856929
 21
-37.76982962342441
 31
0.0
  0
LWPOLYLINE
  5
B1
330
8E
100
AcDbEntity
  8
AM_9
100
AcDbPolyline
 90
       10
 70
     0
 43
0.0
 10
-9.602933982863295
 20
-38.56954080195698
 10
-9.482902003853308
 20
-38.59420417842212
 10
-9.290331218873382
 20
-38.60574042668973
 10
-9.082485144109832
 20
-38.57828226618673
 10
-8.891550469266662
 20
-38.51277263541168
 10
-8.720730426543108
 20
-38.41503400360894
 10
-8.570101463478963
 20
-38.28926093954994
 10
-8.43773369434433
 20
-38.13628040739367
 10
-8.321604708182345
 20
-37.95335708619821
 10
-8.243765876746059
 20
-37.79128213907025
  0
LWPOLYLINE
  5
B2
330
8E
100
AcDbEntity
  8
AM_9
100
AcDbPolyline
 90
        3
 70
     0
 43
0.0
 10
-0.0000000000000026
 20
-25.390778983853
 10
1.382816900963396
 20
-26.16668148362153
 10
2.778124999999996
 20
-26.895
  0
LWPOLYLINE
  5
B3
330
8E
100
AcDbEntity
  8
AM_9
100
AcDbPolyline
 90
        3
 70
     0
 43
0.0
 10
-2.778125000000003
 20
-26.895
 10
-1.389062500000003
 20
-26.17007281403006
 10
-0.0000000000000026
 20
-25.390778983853
  0
LWPOLYLINE
  5
B4
330
8E
100
AcDbEntity
  8
AM_9
100
AcDbPolyline
 90
        6
 70
     0
 43
0.0
 10
-3.837282897828233
 20
-37.4411383110688
 10
-3.973124856539691
 20
-37.43971497347935
 10
-4.16544852425725
 20
-37.45086209670619
 10
-4.429920560679957
 20
-37.47781574339293
 10
-4.766969289547205
 20
-37.52142327771371
 10
-5.333905179049323
 20
-37.60545502447113
  0
LINE
  5
B5
330
8E
100
AcDbEntity
  8
AM_9
100
AcDbLine
 10
-3.612873806460206
 20
-35.30043625721736
 30
0.0
 11
-3.605746149316372
 21
-35.60134298235551
 31
0.0
  0
LWPOLYLINE
  5
B6
330
8E
100
AcDbEntity
  8
AM_9
100
AcDbPolyline
 90
        3
 70
     0
 43
0.0
 10
-3.837282897828233
 20
-33.86926331106881
 10
-3.705296695971726
 20
-34.47716981401241
 10
-3.630713635388024
 20
-35.03933565868783
  0
LWPOLYLINE
  5
B7
330
8E
100
AcDbEntity
  8
AM_9
100
AcDbPolyline
 90
        3
 70
     0
 43
0.0
 10
-5.333905179049323
 20
-30.46170502447114
 10
-4.936675458173815
 20
-31.03501849892114
 10
-4.652368396663761
 20
-31.50876708490539
  0
LWPOLYLINE
  5
B8
330
8E
100
AcDbEntity
  8
AM_9
100
AcDbPolyline
 90
        3
 70
     0
 43
0.0
 10
-5.736282007269862
 20
-30.47773773910477
 10
-5.560509266840905
 20
-30.46396339412863
 10
-5.333905179049323
 20
-30.46170502447114
  0
LINE
  5
B9
330
8E
100
AcDbEntity
  8
AM_9
100
AcDbLine
 10
-4.477259168340677
 20
-31.84374187574991
 30
0.0
 11
-4.485689043732696
 21
-31.82664667849584
 31
0.0
  0
LINE
  5
BA
330
8E
100
AcDbEntity
  8
AM_9
100
AcDbLine
 10
-3.605746148079324
 20
-35.6027681062321
 30
0.0
 11
-3.605746148079324
 21
-35.58167328227923
 31
0.0
  0
LWPOLYLINE
  5
BB
330
8E
100
AcDbEntity
  8
AM_9
100
AcDbPolyline
 90
        4
 70
     0
 43
0.0
 10
-3.606063825225085
 20
-35.66507028172107
 10
-3.608061141866098
 20
-35.77398433551978
 10
-3.66071979005763
 20
-36.46052124034202
 10
-3.837282897828232
 20
-37.4411383110688
  0
LINE
  5
BC
330
8E
100
AcDbEntity
  8
AM_9
100
AcDbLine
 10
-3.605746149316372
 20
-35.60134298235551
 30
0.0
 11
-3.606063825225085
 21
-35.66507028172107
 31
0.0
  0
LWPOLYLINE
  5
BD
330
8E
100
AcDbEntity
  8
AM_9
100
AcDbPolyline
 90
        3
 70
     0
 43
0.0
 10
-4.237665179193488
 20
-32.39118939076992
 10
-4.060772684155618
 20
-32.90892471870116
 10
-3.837282897828233
 20
-33.86926331106881
  0
LINE
  5
BE
330
8E
100
AcDbEntity
  8
AM_9
100
AcDbLine
 10
-4.485106171058628
 20
-31.82782873077597
 30
0.0
 11
-4.359717359090001
 21
-32.09620180452612
 31
0.0
  0
ELLIPSE
  5
BF
330
8E
100
AcDbEntity
  8
AM_9
100
AcDbEllipse
 10
-5.115285751734321
 20
-33.96306421886845
 30
0.0
 11
-0.8110435929052996
 21
3.478577195640699
 31
0.0
210
0.0
220
0.0
230
1.0
 40
0.3659981507706597
 41
2.150416404658174
 42
6.139946939636936
  0
LINE
  5
C0
330
8E
100
AcDbEntity
  8
AM_9
100
AcDbLine
 10
-7.682914944389595
 20
-33.83414347944735
 30
0.0
 11
-7.588696252319892
 21
-34.37466669482686
 31
0.0
  0
LWPOLYLINE
  5
C1
330
8E
100
AcDbEntity
  8
AM_9
100
AcDbPolyline
 90
        3
 70
     0
 43
0.0
 10
-7.760864787992072
 20
-33.06345337203565
 10
-7.698114323064442
 20
-33.72564052161345
 10
-7.682914944389595
 20
-33.83414347944735
  0
LWPOLYLINE
  5
C2
330
8E
100
AcDbEntity
  8
AM_9
100
AcDbPolyline
 90
        3
 70
     0
 43
0.0
 10
-6.609853898455277
 20
-31.92592592808984
 10
-6.646959991776585
 20
-31.55364633553605
 10
-6.830431020205953
 20
-30.62599925250316
  0
LINE
  5
C3
330
8E
100
AcDbEntity
  8
AM_9
100
AcDbLine
 10
-6.830431020205953
 20
-30.62599925250316
 30
0.0
 11
-7.588696252319892
 21
-30.80279169482686
 31
0.0
  0
LWPOLYLINE
  5
C4
330
8E
100
AcDbEntity
  8
AM_9
100
AcDbPolyline
 90
        3
 70
     0
 43
0.0
 10
-7.682848580896108
 20
-31.38676475508455
 10
-7.697739397127515
 20
-31.49987070916352
 10
-7.760864787992072
 20
-32.19428852429534
  0
LINE
  5
C5
330
8E
100
AcDbEntity
  8
AM_9
100
AcDbLine
 10
-7.588696252319892
 20
-30.80279169482686
 30
0.0
 11
-7.682848580896108
 21
-31.38676475508455
 31
0.0
  0
LINE
  5
C6
330
8E
100
AcDbEntity
  8
AM_9
100
AcDbLine
 10
-6.887292896806425
 20
-30.74610033531011
 30
0.0
 11
-7.147354260923542
 21
-30.77492744350232
 31
0.0
  0
ELLIPSE
  5
C7
330
8E
100
AcDbEntity
  8
AM_9
100
AcDbEllipse
 10
-6.266296641270933
 20
-34.2314268150738
 30
0.0
 11
-0.8110435929053237
 21
3.478577195640807
 31
0.0
210
0.0
220
0.0
230
1.0
 40
0.3659981507706655
 41
2.150416404658192
 42
6.139946939636901
  0
ELLIPSE
  5
C8
330
8E
100
AcDbEntity
  8
AM_9
100
AcDbEllipse
 10
-6.266296641270916
 20
-34.23142681507381
 30
0.0
 11
-0.8110435929053277
 21
3.47857719564082
 31
0.0
210
0.0
220
0.0
230
1.0
 40
0.3659981507706696
 41
1.287367354808388
 42
1.951156734850505
  0
LWPOLYLINE
  5
C9
330
8E
100
AcDbEntity
  8
AM_9
100
AcDbPolyline
 90
        3
 70
     0
 43
0.0
 10
-7.760864787992072
 20
-32.19428852429534
 10
-7.784509761460653
 20
-32.6320930938689
 10
-7.760864787992072
 20
-33.06345337203565
  0
ELLIPSE
  5
CA
330
8E
100
AcDbEntity
  8
AM_9
100
AcDbEllipse
 10
-6.266296641270666
 20
-34.23142681507411
 30
0.0
 11
-0.8110435929054906
 21
3.478577195641236
 31
0.0
210
0.0
220
0.0
230
1.0
 40
0.3659981507706814
 41
0.0560213022650853
 42
0.8626327579757492
  0
LWPOLYLINE
  5
CB
330
8E
100
AcDbEntity
  8
AM_9
100
AcDbPolyline
 90
        4
 70
     0
 43
0.0
 10
-6.394696383113796
 20
-37.25881628774231
 10
-6.366872942376648
 20
-37.27210121299699
 10
-6.291286256827262
 20
-37.31402093061632
 10
-6.251141470511012
 20
-37.34127697904347
  0
LWPOLYLINE
  5
CC
330
8E
100
AcDbEntity
  8
AM_9
100
AcDbPolyline
 90
        8
 70
     0
 43
0.0
 10
-7.684538057173945
 20
-37.30224482477361
 10
-7.563300615775671
 20
-37.24896854078391
 10
-7.322188248925624
 20
-37.17591436611538
 10
-7.074917101405798
 20
-37.14136773103228
 10
-6.842746451225188
 20
-37.14431465265598
 10
-6.642203036624292
 20
-37.17574613406951
 10
-6.482819406075506
 20
-37.22264711235641
 10
-6.394696383113796
 20
-37.25881628774231
  0
LWPOLYLINE
  5
CD
330
8E
100
AcDbEntity
  8
AM_9
100
AcDbPolyline
 90
        8
 70
     0
 43
0.0
 10
-8.25516405085749
 20
-37.81767501950562
 10
-8.250777258561778
 20
-37.80851148086519
 10
-8.224995701164643
 20
-37.76314960463617
 10
-8.170923616743984
 20
-37.68626963864034
 10
-8.081969072781563
 20
-37.58520128915714
 10
-7.952019139659204
 20
-37.46945152295339
 10
-7.777843045164184
 20
-37.35197245830884
 10
-7.684538057173945
 20
-37.30224482477361
  0
LWPOLYLINE
  5
CE
330
8E
100
AcDbEntity
  8
AM_9
100
AcDbPolyline
 90
        3
 70
     0
 43
0.0
 10
-6.241837744928979
 20
-37.34855836973971
 10
-6.259563084606875
 20
-37.33148985460216
 10
-6.278462652646305
 20
-37.3116132856116
  0
LWPOLYLINE
  5
CF
330
8E
100
AcDbEntity
  8
AM_9
100
AcDbPolyline
 90
        3
 70
     0
 43
0.0
 10
-7.638428119105879
 20
-31.47072457852883
 10
-7.627095214148736
 20
-31.43581330034283
 10
-7.622744426414251
 20
-31.42438549841289
  0
LWPOLYLINE
  5
D0
330
8E
100
AcDbEntity
  8
AM_9
100
AcDbPolyline
 90
       17
 70
     0
 43
0.0
 10
-7.623289597782353
 20
-31.42561519598986
 10
-7.638094611317919
 20
-31.45421624631865
 10
-7.678132496489377
 20
-31.51719264693147
 10
-7.749949035661402
 20
-31.60796709899428
 10
-7.860065027075102
 20
-31.71822781866817
 10
-8.013494866388887
 20
-31.83675788647178
 10
-8.210260769935715
 20
-31.94864730205108
 10
-8.44124240200796
 20
-32.03732382258457
 10
-8.688301070710667
 20
-32.09033397121378
 10
-8.9301805160886
 20
-32.1042126929815
 10
-9.147103897302648
 20
-32.08461319670864
 10
-9.326438688262481
 20
-32.04323448553452
 10
-9.462537701307511
 20
-31.99351374778109
 10
-9.556405089402782
 20
-31.94702899810234
 10
-9.612488287963794
 20
-31.91217903717001
 10
-9.63568134739963
 20
-31.89497634387266
 10
-9.636203801961452
 20
-31.89454550689139
  0
LINE
  5
D1
330
8E
100
AcDbEntity
  8
AM_9
100
AcDbLine
 10
-4.498867597488414
 20
-30.95040698714611
 30
0.0
 11
-5.749702073295884
 21
-31.24204383472277
 31
0.0
  0
LINE
  5
D2
330
8E
100
AcDbEntity
  8
AM_9
100
AcDbLine
 10
-4.48086943017289
 20
-36.68408460301416
 30
0.0
 11
-3.412724916061098
 21
-36.43504261954087
 31
0.0
  0
LWPOLYLINE
  5
D3
330
8E
100
AcDbEntity
  8
AM_9
100
AcDbPolyline
 90
       20
 70
     0
 43
0.0
 10
-3.412894494842747
 20
-36.4350821492517
 10
-3.284291520882656
 20
-36.36897056608314
 10
-3.167739146394209
 20
-36.22739677942889
 10
-3.070557447853725
 20
-36.00844987254283
 10
-3.001126812430813
 20
-35.73117718386942
 10
-2.957268343506166
 20
-35.38713980143761
 10
-2.942714645652547
 20
-35.00598889147064
 10
-2.956956816676947
 20
-34.57617048344426
 10
-2.998748603033095
 20
-34.13411945689948
 10
-3.069253891791884
 20
-33.66682779519101
 10
-3.162573084305299
 20
-33.21318536004807
 10
-3.28128033679263
 20
-32.76043103280826
 10
-3.415613668153262
 20
-32.34573983368015
 10
-3.569173128090978
 20
-31.95795336822162
 10
-3.729407788863489
 20
-31.62881015362552
 10
-3.900563582124103
 20
-31.34968684955892
 10
-4.068570560479346
 20
-31.14363114871167
 10
-4.237973131810885
 20
-31.00524012688495
 10
-4.397035613753723
 20
-30.94581586980424
 10
-4.498659790440591
 20
-30.95035854774171
  0
LINE
  5
D4
330
8E
100
AcDbEntity
  8
AM_9
100
AcDbLine
 10
-4.498659790440591
 20
-30.95035854774171
 30
0.0
 11
-4.547549295795375
 21
-30.96672297245754
 31
0.0
  0
LWPOLYLINE
  5
D5
330
8E
100
AcDbEntity
  8
AM_9
100
AcDbPolyline
 90
        3
 70
     0
 43
0.0
 10
-6.830431020205953
 20
-34.19787425250315
 10
-6.69114354935373
 20
-33.49623035747346
 10
-6.609853898455524
 20
-32.79509077583033
  0
LWPOLYLINE
  5
D6
330
8E
100
AcDbEntity
  8
AM_9
100
AcDbPolyline
 90
        5
 70
     0
 43
0.0
 10
-4.547549295794522
 20
-34.88827702754266
 10
-4.40418573089837
 20
-35.2823333905603
 10
-4.243653641815982
 20
-35.64169258101902
 10
-4.079360450144664
 20
-35.93628096276115
 10
-3.926555654003309
 20
-36.15062773929734
  0
ARC
  5
D7
330
8E
100
AcDbEntity
  8
AM_9
100
AcDbCircle
 10
0.000000000000004
 20
-32.92750000000001
 30
0.0
 40
5.079999999999994
100
AcDbArc
 50
219.3474724372828
 51
0.0
  0
LWPOLYLINE
  5
D8
330
8E
100
AcDbEntity
  8
AM_9
100
AcDbPolyline
 90
        6
 70
     0
 43
0.0
 10
-3.926555654003309
 20
-36.15062773929734
 10
-3.906600444275937
 20
-36.17450398452264
 10
-3.739733627290441
 20
-36.33648510379631
 10
-3.574110867010546
 20
-36.42664742480979
 10
-3.423743718108897
 20
-36.43738010504425
 10
-3.412894494842747
 20
-36.4350821492517
  0
LINE
  5
D9
330
8E
100
AcDbEntity
  8
AM_9
100
AcDbLine
 10
-5.996343371387016
 20
-30.50656484729698
 30
0.0
 11
-5.736282007269862
 21
-30.47773773910477
 31
0.0
  0
ELLIPSE
  5
DA
330
8E
100
AcDbEntity
  8
AM_9
100
AcDbEllipse
 10
-5.115285751734402
 20
-33.96306421886847
 30
0.0
 11
-0.8110435929053295
 21
3.478577195640796
 31
0.0
210
0.0
220
0.0
230
1.0
 40
0.3659981507705671
 41
0.056021302265008
 42
0.862632757975739
  0
LINE
  5
DB
330
8E
100
AcDbEntity
  8
AM_9
100
AcDbLine
 10
-6.609853898455524
 20
-32.79509077583033
 30
0.0
 11
-6.609853898455277
 21
-31.92592592808984
 31
0.0
  0
ELLIPSE
  5
DC
330
8E
100
AcDbEntity
  8
AM_9
100
AcDbEllipse
 10
-5.115285751734433
 20
-33.96306421886847
 30
0.0
 11
-0.8110435929053055
 21
3.478577195640753
 31
0.0
210
0.0
220
0.0
230
1.0
 40
0.3659981507706582
 41
1.144545279139734
 42
1.951156734850505
  0
LWPOLYLINE
  5
DD
330
8E
100
AcDbEntity
  8
AM_9
100
AcDbPolyline
 90
        3
 70
     0
 43
0.0
 10
-5.333905179049323
 20
-37.60545502447113
 10
-5.495237602967162
 20
-36.86041542538193
 10
-5.736282007269853
 20
-36.11665993102582
  0
LINE
  5
DE
330
8E
100
AcDbEntity
  8
AM_9
100
AcDbLine
 10
-5.736282007269853
 20
-36.11665993102582
 30
0.0
 11
-5.99634337138701
 21
-35.53012942772722
 31
0.0
  0
LWPOLYLINE
  5
DF
330
8E
100
AcDbEntity
  8
AM_9
100
AcDbPolyline
 90
        3
 70
     0
 43
0.0
 10
-5.99634337138701
 20
-35.53012942772722
 10
-6.253713524124907
 20
-35.05910892482294
 10
-6.830431020205953
 20
-34.19787425250315
  0
LINE
  5
E0
330
8E
100
AcDbEntity
  8
AM_9
100
AcDbLine
 10
-6.830431020205953
 20
-34.19787425250315
 30
0.0
 11
-7.588696252319892
 21
-34.37466669482686
 31
0.0
  0
LWPOLYLINE
  5
E1
330
8E
100
AcDbEntity
  8
AM_9
100
AcDbPolyline
 90
        3
 70
     0
 43
0.0
 10
-7.588696252319892
 20
-34.37466669482686
 10
-7.397029361446427
 20
-35.08843506077802
 10
-7.147354260923541
 20
-35.7984920239326
  0
LINE
  5
E2
330
8E
100
AcDbEntity
  8
AM_9
100
AcDbLine
 10
-7.147354260923541
 20
-35.7984920239326
 30
0.0
 11
-6.887292896806425
 21
-36.38502252723111
 31
0.0
  0
LWPOLYLINE
  5
E3
330
8E
100
AcDbEntity
  8
AM_9
100
AcDbPolyline
 90
        3
 70
     0
 43
0.0
 10
-6.887292896806425
 20
-36.38502252723111
 10
-6.507011440078411
 20
-37.0887295930775
 10
-6.06899892960875
 20
-37.77684494714501
  0
LINE
  5
E4
330
8E
100
AcDbEntity
  8
AM_9
100
AcDbLine
 10
-5.333905179049323
 20
-37.60545502447113
 30
0.0
 11
-6.06899892960875
 21
-37.77684494714501
 31
0.0
  0
LWPOLYLINE
  5
E5
330
8E
100
AcDbEntity
  8
AM_9
100
AcDbPolyline
 90
        3
 70
     0
 43
0.0
 10
2.778124999999997
 20
-25.625
 10
1.389062499999997
 20
-24.96086468596994
 10
-0.0000000000000025
 20
-24.35109601614701
  0
LWPOLYLINE
  5
E6
330
8E
100
AcDbEntity
  8
AM_9
100
AcDbPolyline
 90
        3
 70
     0
 43
0.0
 10
-0.0000000000000025
 20
-24.35109601614701
 10
-1.382816900963402
 20
-24.95801041734187
 10
-2.778125000000003
 20
-25.625
  0
LWPOLYLINE
  5
E7
330
8E
100
AcDbEntity
  8
AM_9
100
AcDbPolyline
 90
        3
 70
     0
 43
0.0
 10
2.778124999999996
 20
-26.895
 10
4.167187499999996
 20
-27.55913531403006
 10
5.556249999999998
 20
-28.168903983853
  0
LWPOLYLINE
  5
E8
330
8E
100
AcDbEntity
  8
AM_9
100
AcDbPolyline
 90
        3
 70
     0
 43
0.0
 10
-5.556250000000004
 20
-28.168903983853
 10
-4.173433099036604
 20
-27.56198958265813
 10
-2.778125000000003
 20
-26.895
  0
LINE
  5
E9
330
8E
100
AcDbEntity
  8
AM_9
100
AcDbLine
 10
-0.0000000000000026
 20
-25.390778983853
 30
0.0
 11
-0.0000000000000025
 21
-24.35109601614701
 31
0.0
  0
LWPOLYLINE
  5
EA
330
8E
100
AcDbEntity
  8
AM_9
100
AcDbPolyline
 90
        3
 70
     0
 43
0.0
 10
5.556249999999998
 20
-27.12922101614701
 10
4.173433099036598
 20
-26.35331851637848
 10
2.778124999999997
 20
-25.625
  0
LWPOLYLINE
  5
EB
330
8E
100
AcDbEntity
  8
AM_9
100
AcDbPolyline
 90
        3
 70
     0
 43
0.0
 10
-2.778125000000003
 20
-25.625
 10
-4.167187500000003
 20
-26.34992718596994
 10
-5.556250000000004
 20
-27.12922101614701
  0
ELLIPSE
  5
EC
330
8E
100
AcDbEntity
  8
AM_9
100
AcDbEllipse
 10
-0.0000000000000009
 20
-32.92749999999999
 30
0.0
 11
-5.079999999999996
 21
7.569789948686661E-8
 31
0.0
210
0.0
220
0.0
230
1.0
 40
0.8660254037844382
 41
0.4619460369188761
 42
5.821239302964528
  0
LWPOLYLINE
  5
ED
330
8E
100
AcDbEntity
  8
AM_9
100
AcDbPolyline
 90
        7
 70
     0
 43
0.0
 10
-4.547549295794532
 20
-34.88827702754266
 10
-4.680277139818007
 20
-34.48201089390838
 10
-4.804994146739737
 20
-34.07416923971288
 10
-4.917691338485698
 20
-33.64829675767452
 10
-5.008516140987743
 20
-33.20511714162146
 10
-5.065126856945114
 20
-32.76132388347287
 10
-5.079999999236804
 20
-32.41334199862464
  0
LINE
  5
EE
330
8E
100
AcDbEntity
  8
AM_9
100
AcDbLine
 10
-5.080000000000003
 20
-31.0621875
 30
0.0
 11
-5.080000000000003
 21
-32.41561088939235
 31
0.0
  0
LINE
  5
EF
330
8E
100
AcDbEntity
  8
AM_9
100
AcDbLine
 10
5.079999999999995
 20
-32.9275
 30
0.0
 11
5.079999999999996
 21
-31.0621875
 31
0.0
  0
LWPOLYLINE
  5
F0
330
8E
100
AcDbEntity
  8
AM_9
100
AcDbPolyline
 90
        8
 70
     0
 43
0.0
 10
-5.079999999236804
 20
-32.41334199862464
 10
-5.079458245572026
 20
-32.34958631698213
 10
-5.050335633392996
 20
-31.96171697599754
 10
-4.982589552160021
 20
-31.63331484601792
 10
-4.878563523460396
 20
-31.35259458609682
 10
-4.75220799763814
 20
-31.14256082294767
 10
-4.610115106939386
 20
-31.00226857346145
 10
-4.547549295794531
 20
-30.96672297245734
  0
LINE
  5
F1
330
8E
100
AcDbEntity
  8
AM_9
100
AcDbLine
 10
-5.556250000000005
 20
-33.725153983853
 30
0.0
 11
-5.556250000000004
 21
-27.12922101614701
 31
0.0
  0
LWPOLYLINE
  5
F2
330
8E
100
AcDbEntity
  8
AM_9
100
AcDbPolyline
 90
        3
 70
     0
 43
0.0
 10
-2.778125000000003
 20
-35.229375
 10
-4.167187500000003
 20
-34.50444781403006
 10
-5.556250000000005
 20
-33.725153983853
  0
LINE
  5
F3
330
8E
100
AcDbEntity
  8
AM_9
100
AcDbLine
 10
-2.448942805455684
 20
-35.39222623506571
 30
0.0
 11
-2.778125000000003
 21
-35.229375
 31
0.0
  0
LWPOLYLINE
  5
F4
330
8E
100
AcDbEntity
  8
AM_9
100
AcDbPolyline
 90
        3
 70
     0
 43
0.0
 10
-0.0000000000000036
 20
-36.503278983853
 10
-1.382816900963402
 20
-35.89636458265813
 10
-2.448942805455684
 20
-35.39222623506571
  0
LWPOLYLINE
  5
F5
330
8E
100
AcDbEntity
  8
AM_9
100
AcDbPolyline
 90
        3
 70
     0
 43
0.0
 10
-2.778125000000003
 20
-33.95937500000001
 10
-1.389062500000003
 20
-34.68430218596994
 10
-0.0000000000000038
 20
-35.46359601614701
  0
LWPOLYLINE
  5
F6
330
8E
100
AcDbEntity
  8
AM_9
100
AcDbPolyline
 90
        3
 70
     0
 43
0.0
 10
-5.556250000000005
 20
-32.68547101614701
 10
-4.173433099036604
 20
-33.29238541734188
 10
-2.778125000000003
 20
-33.95937500000001
  0
LINE
  5
F7
330
8E
100
AcDbEntity
  8
AM_9
100
AcDbLine
 10
-0.0000000000000036
 20
-36.503278983853
 30
0.0
 11
-0.0000000000000038
 21
-35.46359601614701
 31
0.0
  0
LWPOLYLINE
  5
F8
330
8E
100
AcDbEntity
  8
AM_9
100
AcDbPolyline
 90
        3
 70
     0
 43
0.0
 10
2.500293240820365
 20
-35.36705107943437
 10
1.389062499999996
 20
-35.89351031403006
 10
-0.0000000000000036
 20
-36.503278983853
  0
LINE
  5
F9
330
8E
100
AcDbEntity
  8
AM_9
100
AcDbLine
 10
2.778124999999996
 20
-35.229375
 30
0.0
 11
2.500293240820365
 21
-35.36705107943437
 31
0.0
  0
LWPOLYLINE
  5
FA
330
8E
100
AcDbEntity
  8
AM_9
100
AcDbPolyline
 90
        3
 70
     0
 43
0.0
 10
5.556249999999997
 20
-33.725153983853
 10
4.173433099036598
 20
-34.50105648362153
 10
2.778124999999996
 20
-35.229375
  0
LINE
  5
FB
330
8E
100
AcDbEntity
  8
AM_9
100
AcDbLine
 10
5.556249999999997
 20
-33.725153983853
 30
0.0
 11
5.556249999999998
 21
-27.12922101614701
 31
0.0
  0
LWPOLYLINE
  5
FC
330
8E
100
AcDbEntity
  8
AM_9
100
AcDbPolyline
 90
        3
 70
     0
 43
0.0
 10
2.778124999999997
 20
-33.95937500000001
 10
4.167187499999996
 20
-33.29523968596995
 10
5.556249999999997
 20
-32.68547101614701
  0
LWPOLYLINE
  5
FD
330
8E
100
AcDbEntity
  8
AM_9
100
AcDbPolyline
 90
        3
 70
     0
 43
0.0
 10
-0.0000000000000038
 20
-35.46359601614701
 10
1.382816900963396
 20
-34.68769351637848
 10
2.778124999999997
 20
-33.95937500000001
  0
LINE
  5
FE
330
8E
100
AcDbEntity
  8
AM_9
100
AcDbLine
 10
-5.080000000000003
 20
-28.8
 30
0.0
 11
-5.080000000000003
 21
-29.7921875
 31
0.0
  0
LINE
  5
FF
330
8E
100
AcDbEntity
  8
AM_9
100
AcDbLine
 10
5.079999999999996
 20
-29.7921875
 30
0.0
 11
5.079999999999996
 21
-28.8
 31
0.0
  0
LINE
  5
100
330
8E
100
AcDbEntity
  8
AM_9
100
AcDbLine
 10
-4.702588083318103
 20
-26.10267350379018
 30
0.0
 11
-4.857153757791755
 21
-28.57197524036602
 31
0.0
  0
LINE
  5
101
330
8E
100
AcDbEntity
  8
AM_9
100
AcDbLine
 10
4.857153757791748
 20
-28.57197524036602
 30
0.0
 11
4.702588083318096
 21
-26.10267350379018
 31
0.0
  0
ELLIPSE
  5
102
330
8E
100
AcDbEntity
  8
AM_9
100
AcDbEllipse
 10
-0.0000000000000028
 20
-26.021875
 30
0.0
 11
4.106358510281482
 21
0.0
 31
0.0
210
0.0
220
0.0
230
1.0
 40
0.8660254037844384
 41
0.0
 42
6.283185307179586
  0
ELLIPSE
  5
103
330
8E
100
AcDbEntity
  8
AM_9
100
AcDbEllipse
 10
-11.90625
 20
-35.54640353647999
 30
0.0
 11
-0.5968279661269396
 21
2.559803407425775
 31
0.0
210
0.0
220
0.0
230
1.0
 40
0.3659981507706673
 41
0.0
 42
6.283185307179586
  0
ELLIPSE
  5
104
330
8E
100
AcDbEntity
  8
AM_9
100
AcDbEllipse
 10
-9.474104895899874
 20
-34.97933959258696
 30
0.0
 11
-0.7681852811307903
 21
3.29475730323713
 31
0.0
210
0.0
220
0.0
230
1.0
 40
0.3659981507706665
 41
0.0
 42
6.283185307179586
  0
ELLIPSE
  5
105
330
8E
100
AcDbEntity
  8
AM_9
100
AcDbEllipse
 10
-5.115285751734385
 20
-33.96306421886847
 30
0.0
 11
-0.6344163215614947
 21
2.721020384145685
 31
0.0
210
0.0
220
0.0
230
1.0
 40
0.3659981507706661
 41
0.0
 42
6.283185307179586
  0
ELLIPSE
  5
106
330
8E
100
AcDbEntity
  8
AM_9
100
AcDbEllipse
 10
-0.0000000000000009
 20
-31.0621875
 30
0.0
 11
-5.080000000000002
 21
6.221205739668556E-16
 31
0.0
210
0.0
220
0.0
230
1.0
 40
0.86602540378444
 41
0.0
 42
6.283185307179586
  0
ELLIPSE
  5
107
330
8E
100
AcDbEntity
  8
AM_9
100
AcDbEllipse
 10
0.0000000000000009
 20
-31.06218749999999
 30
0.0
 11
-5.556249999999986
 21
6.804443777762464E-16
 31
0.0
210
0.0
220
0.0
230
1.0
 40
0.8660254037844434
 41
0.0
 42
6.283185307179586
  0
ELLIPSE
  5
108
330
8E
100
AcDbEntity
  8
AM_9
100
AcDbEllipse
 10
-0.0000000000000053
 20
-29.79218749999995
 30
0.0
 11
-5.556250000000055
 21
6.804443777762548E-16
 31
0.0
210
0.0
220
0.0
230
1.0
 40
0.8660254037844397
 41
0.0
 42
6.283185307179586
  0
ELLIPSE
  5
109
330
8E
100
AcDbEntity
  8
AM_9
100
AcDbEllipse
 10
0.0000000000000018
 20
-29.79218750000001
 30
0.0
 11
-5.080000000000005
 21
6.221205739668560E-16
 31
0.0
210
0.0
220
0.0
230
1.0
 40
0.8660254037844375
 41
0.0
 42
6.283185307179586
  0
ELLIPSE
  5
10A
330
8E
100
AcDbEntity
  8
AM_9
100
AcDbEllipse
 10
-0.0000000000000027
 20
-28.8
 30
0.0
 11
-5.080000000000002
 21
6.221205739668556E-16
 31
0.0
210
0.0
220
0.0
230
1.0
 40
0.8660254037844387
 41
0.0
 42
6.283185307179586
  0
ELLIPSE
  5
10B
330
8E
100
AcDbEntity
  8
AM_9
100
AcDbEllipse
 10
0.0000000000000044
 20
-28.8
 30
0.0
 11
-4.864285115153664
 21
5.957031196413049E-16
 31
0.0
210
0.0
220
0.0
230
1.0
 40
0.8660254037844399
 41
0.0
 42
6.283185307179586
  0
ELLIPSE
  5
10C
330
8E
100
AcDbEntity
  8
AM_9
100
AcDbEllipse
 10
-0.0000000000000044
 20
-26.32344199719767
 30
0.0
 11
-4.709492504676832
 21
5.767464921460933E-16
 31
0.0
210
0.0
220
0.0
230
1.0
 40
0.8660254037844273
 41
0.0
 42
6.283185307179586
  0
ENDBLK
  5
91
330
8E
100
AcDbEntity
  8
0
100
AcDbBlockEnd
  0
BLOCK
  5
10F
330
10D
100
AcDbEntity
  8
0
100
AcDbBlockBegin
  2
3_129522_0_in_136306_2
 70
     2
 10
0.0
 20
0.0
 30
0.0
  3
3_129522_0_in_136306_2
  1

  0
ATTDEF
  5
111
330
10D
100
AcDbEntity
  8
AM_6
100
AcDbText
 10
19.13
 20
42.49605175065156
 30
0.0
 40
0.5
  1
INS-GT-M B
100
AcDbAttributeDefinition
  3

  2
NN
 70
     8
280
     0
  0
ATTDEF
  5
112
330
10D
100
AcDbEntity
  8
AM_6
100
AcDbText
 10
19.13
 20
41.99605175065156
 30
0.0
 40
0.5
  1
GT Normal Duty Bearing Inserts
100
AcDbAttributeDefinition
  3

  2
NT
 70
     8
280
     0
  0
ATTDEF
  5
113
330
10D
100
AcDbEntity
  8
AM_6
100
AcDbText
 10
19.13
 20
41.49605175065156
 30
0.0
 40
0.5
  1
129522
100
AcDbAttributeDefinition
  3

  2
NB
 70
     8
280
     0
  0
ATTDEF
  5
114
330
10D
100
AcDbEntity
  8
AM_6
100
AcDbText
 10
19.13
 20
40.99605175065156
 30
0.0
 40
0.5
  1
$PN.
100
AcDbAttributeDefinition
  3

  2
NBSYN
 70
     8
280
     0
  0
ATTDEF
  5
115
330
10D
100
AcDbEntity
  8
AM_6
100
AcDbText
 10
19.13
 20
40.49605175065156
 30
0.0
 40
0.5
  1
129522
100
AcDbAttributeDefinition
  3

  2
LINA
 70
     8
280
     0
  0
ATTDEF
  5
116
330
10D
100
AcDbEntity
  8
AM_6
100
AcDbText
 10
19.13
 20
39.99605175065156
 30
0.0
 40
0.5
  1
209
100
AcDbAttributeDefinition
  3

  2
SERIES
 70
     8
280
     0
  0
ATTDEF
  5
117
330
10D
100
AcDbEntity
  8
AM_6
100
AcDbText
 10
19.13
 20
39.49605175065156
 30
0.0
 40
0.5
  1
129522
100
AcDbAttributeDefinition
  3

  2
PN
 70
     8
280
     0
  0
ATTDEF
  5
118
330
10D
100
AcDbEntity
  8
AM_6
100
AcDbText
 10
19.13
 20
38.99605175065156
 30
0.0
 40
0.5
  1
INS-GT-09
100
AcDbAttributeDefinition
  3

  2
DESCRIPTION
 70
     8
280
     0
  0
ATTDEF
  5
119
330
10D
100
AcDbEntity
  8
AM_6
100
AcDbText
 10
19.13
 20
38.49605175065156
 30
0.0
 40
0.5
  1
47.0
100
AcDbAttributeDefinition
  3

  2
A
 70
     8
280
     0
  0
ATTDEF
  5
11A
330
10D
100
AcDbEntity
  8
AM_6
100
AcDbText
 10
19.13
 20
37.99605175065156
 30
0.0
 40
0.5
  1
22.1
100
AcDbAttributeDefinition
  3

  2
C
 70
     8
280
     0
  0
ATTDEF
  5
11B
330
10D
100
AcDbEntity
  8
AM_6
100
AcDbText
 10
19.13
 20
37.49605175065156
 30
0.0
 40
0.5
  1
85.0
100
AcDbAttributeDefinition
  3

  2
D
 70
     8
280
     0
  0
ATTDEF
  5
11C
330
10D
100
AcDbEntity
  8
AM_6
100
AcDbText
 10
19.13
 20
36.99605175065156
 30
0.0
 40
0.5
  1
6.4
100
AcDbAttributeDefinition
  3

  2
J
 70
     8
280
     0
  0
ATTDEF
  5
11D
330
10D
100
AcDbEntity
  8
AM_6
100
AcDbText
 10
19.13
 20
36.49605175065156
 30
0.0
 40
0.5
  1
72.6
100
AcDbAttributeDefinition
  3

  2
L
 70
     8
280
     0
  0
ATTDEF
  5
11E
330
10D
100
AcDbEntity
  8
AM_6
100
AcDbText
 10
19.13
 20
35.99605175065156
 30
0.0
 40
0.5
  1
#10 - 32 x 1/4
100
AcDbAttributeDefinition
  3

  2
N
 70
     8
280
     0
  0
ATTDEF
  5
11F
330
10D
100
AcDbEntity
  8
AM_6
100
AcDbText
 10
19.13
 20
35.49605175065156
 30
0.0
 40
0.5
  1
15.7
100
AcDbAttributeDefinition
  3

  2
W
 70
     8
280
     0
  0
ATTDEF
  5
120
330
10D
100
AcDbEntity
  8
AM_6
100
AcDbText
 10
19.13
 20
34.99605175065156
 30
0.0
 40
0.5
  1
32.0
100
AcDbAttributeDefinition
  3

  2
X
 70
     8
280
     0
  0
ATTDEF
  5
121
330
10D
100
AcDbEntity
  8
AM_6
100
AcDbText
 10
19.13
 20
34.49605175065156
 30
0.0
 40
0.5
  1
31.2
100
AcDbAttributeDefinition
  3

  2
Y
 70
     8
280
     0
  0
ATTDEF
  5
122
330
10D
100
AcDbEntity
  8
AM_6
100
AcDbText
 10
19.13
 20
33.99605175065156
 30
0.0
 40
0.5
  1
baldor
100
AcDbAttributeDefinition
  3

  2
COMPANY
 70
     8
280
     0
  0
LINE
  5
123
330
10D
100
AcDbEntity
  8
AM_9
100
AcDbLine
 10
-24.0
 20
-27.08095238095238
 30
0.0
 11
-12.00000000000007
 21
-27.08095238095238
 31
0.0
  0
LINE
  5
124
330
10D
100
AcDbEntity
  8
AM_9
100
AcDbLine
 10
-12.00000000000007
 20
27.08095238095238
 30
0.0
 11
-24.0
 21
27.08095238095238
 31
0.0
  0
LINE
  5
125
330
10D
100
AcDbEntity
  8
AM_9
100
AcDbLine
 10
-12.00000000000007
 20
27.08095238095238
 30
0.0
 11
-12.00000000000007
 21
-27.08095238095238
 31
0.0
  0
LINE
  5
126
330
10D
100
AcDbEntity
  8
AM_9
100
AcDbLine
 10
-12.00000000000007
 20
-27.08095238095238
 30
0.0
 11
14.13
 21
-27.99343208777175
 31
0.0
  0
LINE
  5
127
330
10D
100
AcDbEntity
  8
AM_9
100
AcDbLine
 10
14.13
 20
27.99343208777175
 30
0.0
 11
-12.00000000000007
 21
27.08095238095238
 31
0.0
  0
LINE
  5
128
330
10D
100
AcDbEntity
  8
AM_9
100
AcDbLine
 10
-20.0
 20
-29.67380952380953
 30
0.0
 11
-16.0
 21
-29.67380952380953
 31
0.0
  0
LINE
  5
129
330
10D
100
AcDbEntity
  8
AM_9
100
AcDbLine
 10
-16.0
 20
29.67380952380953
 30
0.0
 11
-20.0
 21
29.67380952380953
 31
0.0
  0
LINE
  5
12A
330
10D
100
AcDbEntity
  8
AM_9
100
AcDbLine
 10
-20.0
 20
32.26666666666667
 30
0.0
 11
-20.0
 21
-32.26666666666667
 31
0.0
  0
LINE
  5
12B
330
10D
100
AcDbEntity
  8
AM_9
100
AcDbLine
 10
-23.116
 20
-32.26666666666667
 30
0.0
 11
-20.0
 21
-32.26666666666667
 31
0.0
  0
LINE
  5
12C
330
10D
100
AcDbEntity
  8
AM_9
100
AcDbLine
 10
-20.0
 20
32.26666666666667
 30
0.0
 11
-23.116
 21
32.26666666666667
 31
0.0
  0
LINE
  5
12D
330
10D
100
AcDbEntity
  8
AM_9
100
AcDbLine
 10
-24.0
 20
31.38266666666666
 30
0.0
 11
-24.0
 21
-31.38266666666666
 31
0.0
  0
LINE
  5
12E
330
10D
100
AcDbEntity
  8
AM_9
100
AcDbLine
 10
-23.116
 20
32.26666666666667
 30
0.0
 11
-23.116
 21
-32.26666666666667
 31
0.0
  0
LINE
  5
12F
330
10D
100
AcDbEntity
  8
AM_9
100
AcDbLine
 10
-24.0
 20
-31.38266666666666
 30
0.0
 11
-23.116
 21
-32.26666666666667
 31
0.0
  0
LINE
  5
130
330
10D
100
AcDbEntity
  8
AM_9
100
AcDbLine
 10
-23.116
 20
32.26666666666667
 30
0.0
 11
-24.0
 21
31.38266666666666
 31
0.0
  0
LINE
  5
131
330
10D
100
AcDbEntity
  8
AM_9
100
AcDbLine
 10
14.13
 20
31.38266666666666
 30
0.0
 11
14.13
 21
-31.38266666666666
 31
0.0
  0
LINE
  5
132
330
10D
100
AcDbEntity
  8
AM_9
100
AcDbLine
 10
14.13
 20
31.38266666666666
 30
0.0
 11
13.246
 21
32.26666666666667
 31
0.0
  0
LINE
  5
133
330
10D
100
AcDbEntity
  8
AM_9
100
AcDbLine
 10
13.246
 20
-32.26666666666667
 30
0.0
 11
14.13
 21
-31.38266666666666
 31
0.0
  0
LINE
  5
134
330
10D
100
AcDbEntity
  8
AM_9
100
AcDbLine
 10
-16.0
 20
32.26666666666667
 30
0.0
 11
-16.0
 21
-32.26666666666667
 31
0.0
  0
LINE
  5
135
330
10D
100
AcDbEntity
  8
AM_9
100
AcDbLine
 10
-16.0
 20
-32.26666666666667
 30
0.0
 11
-11.05
 21
-32.26666666666667
 31
0.0
  0
LINE
  5
136
330
10D
100
AcDbEntity
  8
AM_9
100
AcDbLine
 10
-11.05
 20
32.26666666666667
 30
0.0
 11
-16.0
 21
32.26666666666667
 31
0.0
  0
LINE
  5
137
330
10D
100
AcDbEntity
  8
AM_9
100
AcDbLine
 10
13.246
 20
32.26666666666667
 30
0.0
 11
13.246
 21
-32.26666666666667
 31
0.0
  0
LINE
  5
138
330
10D
100
AcDbEntity
  8
AM_9
100
AcDbLine
 10
11.05
 20
-32.26666666666667
 30
0.0
 11
13.246
 21
-32.26666666666667
 31
0.0
  0
LINE
  5
139
330
10D
100
AcDbEntity
  8
AM_9
100
AcDbLine
 10
13.246
 20
32.26666666666667
 30
0.0
 11
11.05
 21
32.26666666666667
 31
0.0
  0
LINE
  5
13A
330
10D
100
AcDbEntity
  8
AM_9
100
AcDbLine
 10
-7.680000000000001
 20
-40.29
 30
0.0
 11
-5.120000000000001
 21
-40.29
 31
0.0
  0
LINE
  5
13B
330
10D
100
AcDbEntity
  8
AM_9
100
AcDbLine
 10
-5.120000000000001
 20
40.29
 30
0.0
 11
-7.680000000000001
 21
40.29
 31
0.0
  0
LINE
  5
13C
330
10D
100
AcDbEntity
  8
AM_9
100
AcDbLine
 10
-11.05
 20
39.69396884512427
 30
0.0
 11
-11.05
 21
-39.69396884504441
 31
0.0
  0
ARC
  5
13D
330
10D
100
AcDbEntity
  8
AM_9
100
AcDbCircle
 10
-10.16600000000002
 20
-39.69396883195164
 30
0.0
 40
0.8839999999999755
100
AcDbArc
 50
179.9999991462263
 51
248.5875329531169
  0
ARC
  5
13E
330
10D
100
AcDbEntity
  8
AM_9
100
AcDbCircle
 10
-10.16600000000002
 20
39.69396883195164
 30
0.0
 40
0.8839999999999762
100
AcDbArc
 50
111.4124670468831
 51
179.9999991462263
  0
LINE
  5
13F
330
10D
100
AcDbEntity
  8
AM_9
100
AcDbLine
 10
11.05
 20
39.69396883195164
 30
0.0
 11
11.05
 21
-39.69396883187178
 31
0.0
  0
ARC
  5
140
330
10D
100
AcDbEntity
  8
AM_9
100
AcDbCircle
 10
10.16600000000001
 20
-39.69396883195164
 30
0.0
 40
0.8839999999999884
100
AcDbArc
 50
291.4124617569393
 51
0.0
  0
ARC
  5
141
330
10D
100
AcDbEntity
  8
AM_9
100
AcDbCircle
 10
10.16600000000001
 20
39.69396883195164
 30
0.0
 40
0.8839999999999861
100
AcDbArc
 50
0.0
 51
68.5875382430607
  0
LINE
  5
142
330
10D
100
AcDbEntity
  8
AM_9
100
AcDbLine
 10
-10.48873015873016
 20
40.5169519694739
 30
0.0
 11
-10.48873015873016
 21
-40.5169519694739
 31
0.0
  0
ARC
  5
143
330
10D
100
AcDbEntity
  8
AM_9
100
AcDbCircle
 10
0.0000000000896208
 20
-13.76999999973595
 30
0.0
 40
28.73000000027853
100
AcDbArc
 50
248.5875329531418
 51
253.9103822016455
  0
ARC
  5
144
330
10D
100
AcDbEntity
  8
AM_9
100
AcDbCircle
 10
-0.0000000000008171
 20
13.77000000000236
 30
0.0
 40
28.7299999999975
100
AcDbArc
 50
106.0896177983284
 51
111.4124670468843
  0
LINE
  5
145
330
10D
100
AcDbEntity
  8
AM_9
100
AcDbLine
 10
-7.962248062015507
 20
41.37462834017024
 30
0.0
 11
-7.962248062015507
 21
-41.37462834017024
 31
0.0
  0
LINE
  5
146
330
10D
100
AcDbEntity
  8
AM_9
100
AcDbLine
 10
-7.680000000000001
 20
41.16228504524585
 30
0.0
 11
-7.680000000000001
 21
-41.16228504514933
 31
0.0
  0
ARC
  5
147
330
10D
100
AcDbEntity
  8
AM_9
100
AcDbCircle
 10
-7.900999999999988
 20
-41.16228504524587
 30
0.0
 40
0.2209999999999917
100
AcDbArc
 50
253.9103822016666
 51
0.0
  0
ARC
  5
148
330
10D
100
AcDbEntity
  8
AM_9
100
AcDbCircle
 10
-7.900999999999987
 20
41.16228504524587
 30
0.0
 40
0.2209999999999859
100
AcDbArc
 50
0.0
 51
106.0896177983336
  0
LINE
  5
149
330
10D
100
AcDbEntity
  8
AM_9
100
AcDbLine
 10
-5.120000000000001
 20
41.85492264543431
 30
0.0
 11
-5.120000000000001
 21
-41.85492264541909
 31
0.0
  0
ARC
  5
14A
330
10D
100
AcDbEntity
  8
AM_9
100
AcDbCircle
 10
-4.898999999999993
 20
-41.85492264543431
 30
0.0
 40
0.2210000000000081
100
AcDbArc
 50
180.0
 51
260.1052784005647
  0
ARC
  5
14B
330
10D
100
AcDbEntity
  8
AM_9
100
AcDbCircle
 10
-4.898999999999993
 20
41.85492264543431
 30
0.0
 40
0.221000000000008
100
AcDbArc
 50
99.89472159943533
 51
180.0
  0
LINE
  5
14C
330
10D
100
AcDbEntity
  8
AM_9
100
AcDbLine
 10
-4.936976274441943
 20
42.07263530602049
 30
0.0
 11
-4.936976274441943
 21
-42.07263530602049
 31
0.0
  0
LINE
  5
14D
330
10D
100
AcDbEntity
  8
AM_9
100
AcDbLine
 10
10.48873008274664
 20
40.5169519992706
 30
0.0
 11
10.48873008274664
 21
-40.5169519992706
 31
0.0
  0
ARC
  5
14E
330
10D
100
AcDbEntity
  8
AM_9
100
AcDbCircle
 10
-0.0000000000000986
 20
-13.76999999999926
 30
0.0
 40
28.73000000000072
100
AcDbArc
 50
260.1051557282056
 51
291.4124668841162
  0
ARC
  5
14F
330
10D
100
AcDbEntity
  8
AM_9
100
AcDbCircle
 10
-0.0000000000000338
 20
13.76999999999991
 30
0.0
 40
28.73000000000009
100
AcDbArc
 50
68.58753311588346
 51
99.89484427179477
  0
ENDBLK
  5
110
330
10D
100
AcDbEntity
  8
0
100
AcDbBlockEnd
  0
BLOCK
  5
152
330
150
100
AcDbEntity
  8
0
100
AcDbBlockBegin
  2
4_129959_0_in_136306_2
 70
     2
 10
0.0
 20
0.0
 30
0.0
  3
4_129959_0_in_136306_2
  1

  0
ATTDEF
  5
154
330
150
100
AcDbEntity
  8
AM_6
100
AcDbText
 10
21.7
 20
33.95
 30
0.0
 40
0.5
  1
Grip Tight Normal Duty Adapter and Nut Metric Bore
100
AcDbAttributeDefinition
  3

  2
NN
 70
     8
280
     0
  0
ATTDEF
  5
155
330
150
100
AcDbEntity
  8
AM_6
100
AcDbText
 10
21.7
 20
33.45
 30
0.0
 40
0.5
  1
GT and GTM Adapter & Lock Nut Assemblies
100
AcDbAttributeDefinition
  3

  2
NT
 70
     8
280
     0
  0
ATTDEF
  5
156
330
150
100
AcDbEntity
  8
AM_6
100
AcDbText
 10
21.7
 20
32.95
 30
0.0
 40
0.5
  1
129959
100
AcDbAttributeDefinition
  3

  2
NB
 70
     8
280
     0
  0
ATTDEF
  5
157
330
150
100
AcDbEntity
  8
AM_6
100
AcDbText
 10
21.7
 20
32.45
 30
0.0
 40
0.5
  1
$PN.
100
AcDbAttributeDefinition
  3

  2
NBSYN
 70
     8
280
     0
  0
ATTDEF
  5
158
330
150
100
AcDbEntity
  8
AM_6
100
AcDbText
 10
21.7
 20
31.95
 30
0.0
 40
0.5
  1
129959
100
AcDbAttributeDefinition
  3

  2
LINA
 70
     8
280
     0
  0
ATTDEF
  5
159
330
150
100
AcDbEntity
  8
AM_6
100
AcDbText
 10
21.7
 20
31.45
 30
0.0
 40
0.5
  1
209
100
AcDbAttributeDefinition
  3

  2
SERIES
 70
     8
280
     0
  0
ATTDEF
  5
15A
330
150
100
AcDbEntity
  8
AM_6
100
AcDbText
 10
21.7
 20
30.95
 30
0.0
 40
0.5
  1
40
100
AcDbAttributeDefinition
  3

  2
SS
 70
     8
280
     0
  0
ATTDEF
  5
15B
330
150
100
AcDbEntity
  8
AM_6
100
AcDbText
 10
21.7
 20
30.45
 30
0.0
 40
0.5
  1
129959
100
AcDbAttributeDefinition
  3

  2
PN
 70
     8
280
     0
  0
ATTDEF
  5
15C
330
150
100
AcDbEntity
  8
AM_6
100
AcDbText
 10
21.7
 20
29.95
 30
0.0
 40
0.5
  1
AN-GTM-09-40M
100
AcDbAttributeDefinition
  3

  2
DESCRIPTION
 70
     8
280
     0
  0
ATTDEF
  5
15D
330
150
100
AcDbEntity
  8
AM_6
100
AcDbText
 10
21.7
 20
29.45
 30
0.0
 40
0.5
  1
46.8
100
AcDbAttributeDefinition
  3

  2
A
 70
     8
280
     0
  0
ATTDEF
  5
15E
330
150
100
AcDbEntity
  8
AM_6
100
AcDbText
 10
21.7
 20
28.95
 30
0.0
 40
0.5
  1
22.0
100
AcDbAttributeDefinition
  3

  2
C
 70
     8
280
     0
  0
ATTDEF
  5
15F
330
150
100
AcDbEntity
  8
AM_6
100
AcDbText
 10
21.7
 20
28.45
 30
0.0
 40
0.5
  1
85.0
100
AcDbAttributeDefinition
  3

  2
D
 70
     8
280
     0
  0
ATTDEF
  5
160
330
150
100
AcDbEntity
  8
AM_6
100
AcDbText
 10
21.7
 20
27.95
 30
0.0
 40
0.5
  1
6.3
100
AcDbAttributeDefinition
  3

  2
J
 70
     8
280
     0
  0
ATTDEF
  5
161
330
150
100
AcDbEntity
  8
AM_6
100
AcDbText
 10
21.7
 20
27.45
 30
0.0
 40
0.5
  1
67.9
100
AcDbAttributeDefinition
  3

  2
L
 70
     8
280
     0
  0
ATTDEF
  5
162
330
150
100
AcDbEntity
  8
AM_6
100
AcDbText
 10
21.7
 20
26.95
 30
0.0
 40
0.5
  1
10 - 32 x 1/4
100
AcDbAttributeDefinition
  3

  2
N
 70
     8
280
     0
  0
ATTDEF
  5
163
330
150
100
AcDbEntity
  8
AM_6
100
AcDbText
 10
21.7
 20
26.45
 30
0.0
 40
0.5
  1
16.7
100
AcDbAttributeDefinition
  3

  2
W
 70
     8
280
     0
  0
ATTDEF
  5
164
330
150
100
AcDbEntity
  8
AM_6
100
AcDbText
 10
21.7
 20
25.95
 30
0.0
 40
0.5
  1
29.4
100
AcDbAttributeDefinition
  3

  2
X
 70
     8
280
     0
  0
ATTDEF
  5
165
330
150
100
AcDbEntity
  8
AM_6
100
AcDbText
 10
21.7
 20
25.45
 30
0.0
 40
0.5
  1
30.2
100
AcDbAttributeDefinition
  3

  2
Y
 70
     8
280
     0
  0
ATTDEF
  5
166
330
150
100
AcDbEntity
  8
AM_6
100
AcDbText
 10
21.7
 20
24.95
 30
0.0
 40
0.5
  1
baldor
100
AcDbAttributeDefinition
  3

  2
COMPANY
 70
     8
280
     0
  0
LWPOLYLINE
  5
167
330
150
100
AcDbEntity
  8
AM_9
100
AcDbPolyline
 90
        5
 70
     0
 43
0.0
 10
-28.52
 20
1.171027199108119
 10
-28.63818081809386
 20
0.6157546904929291
 10
-28.6830971775639
 20
0.024213891565664
 10
-28.64422034465414
 20
-0.572973777513795
 10
-28.52
 20
-1.171027199108133
  0
LWPOLYLINE
  5
168
330
150
100
AcDbEntity
  8
AM_9
100
AcDbPolyline
 90
       13
 70
     0
 43
0.0
 10
-24.31282675809474
 20
1.112796706178362
 10
-24.50835556394849
 20
1.40581816467689
 10
-24.76793467725357
 20
1.68766572728917
 10
-25.07909733998964
 20
1.930181887237239
 10
-25.42542213299686
 20
2.119320946823587
 10
-25.81019697445081
 20
2.253335686512697
 10
-26.21175102844552
 20
2.322894818461791
 10
-26.62824920713521
 20
2.324899360868415
 10
-27.03930031288791
 20
2.257933153199388
 10
-27.43519008512233
 20
2.12173344572689
 10
-27.8022868871754
 20
1.920697755177524
 10
-28.27808315773357
 20
1.503288439493826
 10
-28.52
 20
1.171027199108119
  0
LWPOLYLINE
  5
169
330
150
100
AcDbEntity
  8
AM_9
100
AcDbPolyline
 90
       15
 70
     0
 43
0.0
 10
-28.52
 20
-1.171027199108133
 10
-28.44262483510292
 20
-1.29126635331956
 10
-28.19809589469411
 20
-1.590197682530379
 10
-27.90846175496436
 20
-1.845743876705776
 10
-27.57034946613949
 20
-2.057082894503524
 10
-27.20240320498655
 20
-2.210989973129388
 10
-26.80238003228901
 20
-2.305067440252636
 10
-26.3922963513791
 20
-2.332423501134498
 10
-25.97642430133657
 20
-2.29027742501918
 10
-25.57345125033874
 20
-2.179475308359427
 10
-25.19536750464913
 20
-2.001795735787239
 10
-24.85307376651517
 20
-1.762526830821565
 10
-24.56284397667497
 20
-1.472848174241996
 10
-24.32691491257581
 20
-1.13751526163099
 10
-24.21401574605062
 20
-0.9153106815920208
  0
LINE
  5
16A
330
150
100
AcDbEntity
  8
AM_9
100
AcDbLine
 10
-28.52
 20
1.171027199108119
 30
0.0
 11
-28.52
 21
3.15
 31
0.0
  0
LINE
  5
16B
330
150
100
AcDbEntity
  8
AM_9
100
AcDbLine
 10
-28.52
 20
-3.15
 30
0.0
 11
-28.52
 21
-1.171027199108133
 31
0.0
  0
LINE
  5
16C
330
150
100
AcDbEntity
  8
AM_9
100
AcDbLine
 10
-14.7
 20
25.86645176088058
 30
0.0
 11
-29.4
 21
25.86645176088058
 31
0.0
  0
LINE
  5
16D
330
150
100
AcDbEntity
  8
AM_9
100
AcDbLine
 10
-14.7
 20
26.93424060721365
 30
0.0
 11
-15.58000000000001
 21
27.69973313285707
 31
0.0
  0
LINE
  5
16E
330
150
100
AcDbEntity
  8
AM_9
100
AcDbLine
 10
-15.58000000000001
 20
27.69973313285707
 30
0.0
 11
-28.52
 21
27.69973313285707
 31
0.0
  0
LINE
  5
16F
330
150
100
AcDbEntity
  8
AM_9
100
AcDbLine
 10
-28.52
 20
27.69973313285707
 30
0.0
 11
-29.4
 21
26.93424060721365
 31
0.0
  0
LINE
  5
170
330
150
100
AcDbEntity
  8
AM_9
100
AcDbLine
 10
-14.7
 20
-25.86645176088059
 30
0.0
 11
-29.4
 21
-25.86645176088059
 31
0.0
  0
LINE
  5
171
330
150
100
AcDbEntity
  8
AM_9
100
AcDbLine
 10
-29.4
 20
-26.93424060721366
 30
0.0
 11
-28.52
 21
-27.69973313285709
 31
0.0
  0
LINE
  5
172
330
150
100
AcDbEntity
  8
AM_9
100
AcDbLine
 10
-28.52
 20
-27.69973313285709
 30
0.0
 11
-15.58000000000001
 21
-27.69973313285708
 31
0.0
  0
LINE
  5
173
330
150
100
AcDbEntity
  8
AM_9
100
AcDbLine
 10
-15.58000000000001
 20
-27.69973313285708
 30
0.0
 11
-14.7
 21
-26.93424060721366
 31
0.0
  0
LINE
  5
174
330
150
100
AcDbEntity
  8
AM_9
100
AcDbLine
 10
-14.7
 20
29.01645176088058
 30
0.0
 11
-29.4
 21
29.01645176088058
 31
0.0
  0
LINE
  5
175
330
150
100
AcDbEntity
  8
AM_9
100
AcDbLine
 10
-14.7
 20
-29.01645176088059
 30
0.0
 11
-29.4
 21
-29.01645176088059
 31
0.0
  0
LINE
  5
176
330
150
100
AcDbEntity
  8
AM_9
100
AcDbLine
 10
-22.05
 20
25.32777777777778
 30
0.0
 11
-29.4
 21
25.32777777777778
 31
0.0
  0
LINE
  5
177
330
150
100
AcDbEntity
  8
AM_9
100
AcDbLine
 10
16.7
 20
19.96089927833914
 30
0.0
 11
-30.1
 21
19.96089927833915
 31
0.0
  0
LINE
  5
178
330
150
100
AcDbEntity
  8
AM_9
100
AcDbLine
 10
-30.09999999999999
 20
-20.0
 30
0.0
 11
16.7
 21
-20.0
 31
0.0
  0
LINE
  5
179
330
150
100
AcDbEntity
  8
AM_9
100
AcDbLine
 10
-22.04999999999999
 20
25.29691339196332
 30
0.0
 11
-11.02500000000029
 21
25.29691339196332
 31
0.0
  0
LINE
  5
17A
330
150
100
AcDbEntity
  8
AM_9
100
AcDbLine
 10
-22.04999999999999
 20
-25.32777777777777
 30
0.0
 11
-11.02500000000029
 21
-25.32777777777777
 31
0.0
  0
LINE
  5
17B
330
150
100
AcDbEntity
  8
AM_9
100
AcDbLine
 10
-11.02500000000029
 20
25.29691339196332
 30
0.0
 11
15.8649999627171
 21
26.23703753711411
 31
0.0
  0
LINE
  5
17C
330
150
100
AcDbEntity
  8
AM_9
100
AcDbLine
 10
-11.02500000000029
 20
25.29691339196332
 30
0.0
 11
-11.02500000000029
 21
-25.32777777777777
 31
0.0
  0
LINE
  5
17D
330
150
100
AcDbEntity
  8
AM_9
100
AcDbLine
 10
16.7
 20
18.06294549623621
 30
0.0
 11
16.7
 21
-18.06294549623622
 31
0.0
  0
LINE
  5
17E
330
150
100
AcDbEntity
  8
AM_9
100
AcDbLine
 10
-11.02500000000029
 20
-25.32777777777777
 30
0.0
 11
15.86500000000001
 21
-26.26679726941087
 31
0.0
  0
LINE
  5
17F
330
150
100
AcDbEntity
  8
AM_9
100
AcDbLine
 10
-18.375
 20
-27.75277777777777
 30
0.0
 11
-14.7
 21
-27.75277777777777
 31
0.0
  0
LINE
  5
180
330
150
100
AcDbEntity
  8
AM_9
100
AcDbLine
 10
-14.7
 20
27.75277777777777
 30
0.0
 11
-18.375
 21
27.75277777777777
 31
0.0
  0
LINE
  5
181
330
150
100
AcDbEntity
  8
AM_9
100
AcDbLine
 10
-22.04999999999999
 20
30.51727777777778
 30
0.0
 11
-22.04999999999999
 21
-30.51727777777778
 31
0.0
  0
LINE
  5
182
330
150
100
AcDbEntity
  8
AM_9
100
AcDbLine
 10
-18.375
 20
30.51727777777778
 30
0.0
 11
-18.375
 21
-30.51727777777778
 31
0.0
  0
LINE
  5
183
330
150
100
AcDbEntity
  8
AM_9
100
AcDbLine
 10
-22.04999999999999
 20
-30.51727777777778
 30
0.0
 11
-18.375
 21
-30.51727777777778
 31
0.0
  0
LINE
  5
184
330
150
100
AcDbEntity
  8
AM_9
100
AcDbLine
 10
-18.375
 20
30.51727777777778
 30
0.0
 11
-22.04999999999999
 21
30.51727777777778
 31
0.0
  0
LINE
  5
185
330
150
100
AcDbEntity
  8
AM_9
100
AcDbLine
 10
-14.7
 20
-30.08424060721366
 30
0.0
 11
-15.58000000000001
 21
-30.84973313285708
 31
0.0
  0
LINE
  5
186
330
150
100
AcDbEntity
  8
AM_9
100
AcDbLine
 10
-15.58
 20
-33.95
 30
0.0
 11
-14.7
 21
-33.07
 31
0.0
  0
LINE
  5
187
330
150
100
AcDbEntity
  8
AM_9
100
AcDbLine
 10
-15.58000000000001
 20
30.84973313285707
 30
0.0
 11
-14.7
 21
30.08424060721365
 31
0.0
  0
LINE
  5
188
330
150
100
AcDbEntity
  8
AM_9
100
AcDbLine
 10
-14.7
 20
33.07
 30
0.0
 11
-15.58
 21
33.95
 31
0.0
  0
LINE
  5
189
330
150
100
AcDbEntity
  8
AM_9
100
AcDbLine
 10
-14.7
 20
33.07
 30
0.0
 11
-14.7
 21
-33.07
 31
0.0
  0
LINE
  5
18A
330
150
100
AcDbEntity
  8
AM_9
100
AcDbLine
 10
-24.39748962495936
 20
-3.149999999999999
 30
0.0
 11
-14.7
 21
-3.15
 31
0.0
  0
LINE
  5
18B
330
150
100
AcDbEntity
  8
AM_9
100
AcDbLine
 10
-15.58000000000001
 20
-30.84973313285708
 30
0.0
 11
-28.52
 21
-30.84973313285708
 31
0.0
  0
LINE
  5
18C
330
150
100
AcDbEntity
  8
AM_9
100
AcDbLine
 10
-15.86499999999999
 20
-33.95
 30
0.0
 11
-15.58
 21
-33.95
 31
0.0
  0
LINE
  5
18D
330
150
100
AcDbEntity
  8
AM_9
100
AcDbLine
 10
-14.7
 20
3.15
 30
0.0
 11
-24.39748962495936
 21
3.149999999999999
 31
0.0
  0
LINE
  5
18E
330
150
100
AcDbEntity
  8
AM_9
100
AcDbLine
 10
-28.52
 20
30.84973313285707
 30
0.0
 11
-15.58000000000001
 21
30.84973313285707
 31
0.0
  0
LINE
  5
18F
330
150
100
AcDbEntity
  8
AM_9
100
AcDbLine
 10
-15.58
 20
33.95
 30
0.0
 11
-15.86499999999999
 21
33.95
 31
0.0
  0
LINE
  5
190
330
150
100
AcDbEntity
  8
AM_9
100
AcDbLine
 10
-15.58
 20
33.95
 30
0.0
 11
-15.58
 21
-33.95
 31
0.0
  0
LINE
  5
191
330
150
100
AcDbEntity
  8
AM_9
100
AcDbLine
 10
-28.52
 20
-30.84973313285708
 30
0.0
 11
-29.4
 21
-30.08424060721366
 31
0.0
  0
LINE
  5
192
330
150
100
AcDbEntity
  8
AM_9
100
AcDbLine
 10
-29.4
 20
30.08424060721365
 30
0.0
 11
-28.52
 21
30.84973313285707
 31
0.0
  0
CIRCLE
  5
193
330
150
100
AcDbEntity
  8
AM_9
100
AcDbCircle
 10
-26.43333333333333
 20
0.0000000000000001
 30
0.0
 40
1.981200000000002
  0
LINE
  5
196
330
150
100
AcDbEntity
  8
AM_7
100
AcDbLine
 10
-26.43333333333333
 20
-2.533650000000002
 30
0.0
 11
-26.43333333333333
 21
2.533650000000002
 31
0.0
  0
LINE
  5
198
330
150
100
AcDbEntity
  8
AM_4
100
AcDbLine
 10
-30.1
 20
25.29691339196332
 30
0.0
 11
-29.4
 21
25.29691339196332
 31
0.0
  0
LINE
  5
199
330
150
100
AcDbEntity
  8
AM_4
100
AcDbLine
 10
-30.1
 20
25.29691339196332
 30
0.0
 11
-30.09999999999999
 21
-25.32777777777777
 31
0.0
  0
LINE
  5
19A
330
150
100
AcDbEntity
  8
AM_4
100
AcDbLine
 10
-30.09999999999999
 20
-25.32777777777777
 30
0.0
 11
-29.4
 21
-25.32777777777777
 31
0.0
  0
LINE
  5
19B
330
150
100
AcDbEntity
  8
AM_4
100
AcDbLine
 10
15.8649999627171
 20
26.23703753711411
 30
0.0
 11
16.7
 21
26.26622941803581
 31
0.0
  0
LINE
  5
19C
330
150
100
AcDbEntity
  8
AM_4
100
AcDbLine
 10
16.7
 20
-18.06294549623622
 30
0.0
 11
16.7
 21
-26.29595611193648
 31
0.0
  0
LINE
  5
19D
330
150
100
AcDbEntity
  8
AM_4
100
AcDbLine
 10
16.7
 20
26.26622941803581
 30
0.0
 11
16.7
 21
18.06294549623621
 31
0.0
  0
LINE
  5
19E
330
150
100
AcDbEntity
  8
AM_4
100
AcDbLine
 10
15.86500000000001
 20
-26.26679726941087
 30
0.0
 11
16.7
 21
-26.29595611193648
 31
0.0
  0
LINE
  5
19F
330
150
100
AcDbEntity
  8
AM_4
100
AcDbLine
 10
-29.4
 20
-3.15
 30
0.0
 11
-24.39748962495936
 21
-3.149999999999999
 31
0.0
  0
LINE
  5
1A0
330
150
100
AcDbEntity
  8
AM_4
100
AcDbLine
 10
-28.52
 20
-33.95
 30
0.0
 11
-15.86499999999999
 21
-33.95
 31
0.0
  0
LINE
  5
1A1
330
150
100
AcDbEntity
  8
AM_4
100
AcDbLine
 10
-24.39748962495936
 20
3.149999999999999
 30
0.0
 11
-29.4
 21
3.15
 31
0.0
  0
LINE
  5
1A2
330
150
100
AcDbEntity
  8
AM_4
100
AcDbLine
 10
-15.86499999999999
 20
33.95
 30
0.0
 11
-28.52
 21
33.95
 31
0.0
  0
LINE
  5
1A3
330
150
100
AcDbEntity
  8
AM_4
100
AcDbLine
 10
-28.51999999999999
 20
-3.15
 30
0.0
 11
-28.52
 21
-33.95
 31
0.0
  0
LINE
  5
1A4
330
150
100
AcDbEntity
  8
AM_4
100
AcDbLine
 10
-29.4
 20
33.07
 30
0.0
 11
-29.4
 21
-33.07
 31
0.0
  0
LINE
  5
1A5
330
150
100
AcDbEntity
  8
AM_4
100
AcDbLine
 10
-29.4
 20
-33.07
 30
0.0
 11
-28.52
 21
-33.95
 31
0.0
  0
LINE
  5
1A6
330
150
100
AcDbEntity
  8
AM_4
100
AcDbLine
 10
-28.52
 20
33.95
 30
0.0
 11
-29.4
 21
33.07
 31
0.0
  0
LINE
  5
1A7
330
150
100
AcDbEntity
  8
AM_4
100
AcDbLine
 10
-28.52
 20
33.95
 30
0.0
 11
-28.51999999999999
 21
3.15
 31
0.0
  0
ARC
  5
1A9
330
150
100
AcDbEntity
  8
AM_5
100
AcDbCircle
 10
-26.43333944446481
 20
0.0000000000000001
 30
0.0
 40
2.413
100
AcDbArc
 50
74.99999999999996
 51
15.0
  0
ENDBLK
  5
153
330
150
100
AcDbEntity
  8
0
100
AcDbBlockEnd
  0
BLOCK
  5
1AC
330
1AA
100
AcDbEntity
  8
0
100
AcDbBlockBegin
  2
5_WSTU_GT_09_0_in_136306_2
 70
     2
 10
0.0
 20
0.0
 30
0.0
  3
5_WSTU_GT_09_0_in_136306_2
  1

  0
ATTDEF
  5
1AE
330
1AA
100
AcDbEntity
  8
AM_6
100
AcDbText
 10
53.73999977111816
 20
60.35
 30
0.0
 40
0.5
  1
GTNWSTUB-M-b
100
AcDbAttributeDefinition
  3

  2
NN
 70
     8
280
     0
  0
ATTDEF
  5
1AF
330
1AA
100
AcDbEntity
  8
AM_6
100
AcDbText
 10
53.73999977111816
 20
59.85
 30
0.0
 40
0.5
  1
Grip Tight Adapter Ball Bearings
100
AcDbAttributeDefinition
  3

  2
NT
 70
     8
280
     0
  0
ATTDEF
  5
1B0
330
1AA
100
AcDbEntity
  8
AM_6
100
AcDbText
 10
53.73999977111816
 20
59.35
 30
0.0
 40
0.5
  1
WSTU-GT-09
100
AcDbAttributeDefinition
  3

  2
NB
 70
     8
280
     0
  0
ATTDEF
  5
1B1
330
1AA
100
AcDbEntity
  8
AM_6
100
AcDbText
 10
53.73999977111816
 20
58.85
 30
0.0
 40
0.5
  1
$PN.$LUBE.
100
AcDbAttributeDefinition
  3

  2
NBSYN
 70
     8
280
     0
  0
ATTDEF
  5
1B2
330
1AA
100
AcDbEntity
  8
AM_6
100
AcDbText
 10
53.73999977111816
 20
58.35
 30
0.0
 40
0.5
  1
WSTU-GT-09
100
AcDbAttributeDefinition
  3

  2
LINA
 70
     8
280
     0
  0
ATTDEF
  5
1B3
330
1AA
100
AcDbEntity
  8
AM_6
100
AcDbText
 10
53.73999977111816
 20
57.85
 30
0.0
 40
0.5
  1
209
100
AcDbAttributeDefinition
  3

  2
SERIES
 70
     8
280
     0
  0
ATTDEF
  5
1B4
330
1AA
100
AcDbEntity
  8
AM_6
100
AcDbText
 10
53.73999977111816
 20
57.35
 30
0.0
 40
0.5
  1
45
100
AcDbAttributeDefinition
  3

  2
SS
 70
     8
280
     0
  0
ATTDEF
  5
1B5
330
1AA
100
AcDbEntity
  8
AM_6
100
AcDbText
 10
53.73999977111816
 20
56.85
 30
0.0
 40
0.5
  1
WSTU-GT-09
100
AcDbAttributeDefinition
  3

  2
PN
 70
     8
280
     0
  0
ATTDEF
  5
1B6
330
1AA
100
AcDbEntity
  8
AM_6
100
AcDbText
 10
53.73999977111816
 20
56.35
 30
0.0
 40
0.5
  1
WSTU-GT-09
100
AcDbAttributeDefinition
  3

  2
DESCRIPTION
 70
     8
280
     0
  0
ATTDEF
  5
1B7
330
1AA
100
AcDbEntity
  8
AM_6
100
AcDbText
 10
53.73999977111816
 20
55.85
 30
0.0
 40
0.5
  1
2.7
100
AcDbAttributeDefinition
  3

  2
WEIGHT
 70
     8
280
     0
  0
ATTDEF
  5
1B8
330
1AA
100
AcDbEntity
  8
AM_6
100
AcDbText
 10
53.73999977111816
 20
55.35
 30
0.0
 40
0.5
  1
85.0
100
AcDbAttributeDefinition
  3

  2
BOD
 70
     8
280
     0
  0
ATTDEF
  5
1B9
330
1AA
100
AcDbEntity
  8
AM_6
100
AcDbText
 10
53.73999977111816
 20
54.85
 30
0.0
 40
0.5
  1
46.8
100
AcDbAttributeDefinition
  3

  2
A
 70
     8
280
     0
  0
ATTDEF
  5
1BA
330
1AA
100
AcDbEntity
  8
AM_6
100
AcDbText
 10
53.73999977111816
 20
54.35
 30
0.0
 40
0.5
  1
142.9
100
AcDbAttributeDefinition
  3

  2
B
 70
     8
280
     0
  0
ATTDEF
  5
1BB
330
1AA
100
AcDbEntity
  8
AM_6
100
AcDbText
 10
53.73999977111816
 20
53.85
 30
0.0
 40
0.5
  1
17.5
100
AcDbAttributeDefinition
  3

  2
C
 70
     8
280
     0
  0
ATTDEF
  5
1BC
330
1AA
100
AcDbEntity
  8
AM_6
100
AcDbText
 10
53.73999977111816
 20
53.35
 30
0.0
 40
0.5
  1
87.3
100
AcDbAttributeDefinition
  3

  2
E
 70
     8
280
     0
  0
ATTDEF
  5
1BD
330
1AA
100
AcDbEntity
  8
AM_6
100
AcDbText
 10
53.73999977111816
 20
52.85
 30
0.0
 40
0.5
  1
25.4
100
AcDbAttributeDefinition
  3

  2
F
 70
     8
280
     0
  0
ATTDEF
  5
1BE
330
1AA
100
AcDbEntity
  8
AM_6
100
AcDbText
 10
53.73999977111816
 20
52.35
 30
0.0
 40
0.5
  1
15.9
100
AcDbAttributeDefinition
  3

  2
G
 70
     8
280
     0
  0
ATTDEF
  5
1BF
330
1AA
100
AcDbEntity
  8
AM_6
100
AcDbText
 10
53.73999977111816
 20
51.85
 30
0.0
 40
0.5
  1
19.1
100
AcDbAttributeDefinition
  3

  2
H
 70
     8
280
     0
  0
ATTDEF
  5
1C0
330
1AA
100
AcDbEntity
  8
AM_6
100
AcDbText
 10
53.73999977111816
 20
51.35
 30
0.0
 40
0.5
  1
82.6
100
AcDbAttributeDefinition
  3

  2
J
 70
     8
280
     0
  0
ATTDEF
  5
1C1
330
1AA
100
AcDbEntity
  8
AM_6
100
AcDbText
 10
53.73999977111816
 20
50.85
 30
0.0
 40
0.5
  1
49.2
100
AcDbAttributeDefinition
  3

  2
K
 70
     8
280
     0
  0
ATTDEF
  5
1C2
330
1AA
100
AcDbEntity
  8
AM_6
100
AcDbText
 10
53.73999977111816
 20
50.35
 30
0.0
 40
0.5
  1
67.9
100
AcDbAttributeDefinition
  3

  2
L
 70
     8
280
     0
  0
ATTDEF
  5
1C3
330
1AA
100
AcDbEntity
  8
AM_6
100
AcDbText
 10
53.73999977111816
 20
49.85
 30
0.0
 40
0.5
  1
101.6
100
AcDbAttributeDefinition
  3

  2
M
 70
     8
280
     0
  0
ATTDEF
  5
1C4
330
1AA
100
AcDbEntity
  8
AM_6
100
AcDbText
 10
53.73999977111816
 20
49.35
 30
0.0
 40
0.5
  1
120.7
100
AcDbAttributeDefinition
  3

  2
N
 70
     8
280
     0
  0
ATTDEF
  5
1C5
330
1AA
100
AcDbEntity
  8
AM_6
100
AcDbText
 10
53.73999977111816
 20
48.85
 30
0.0
 40
0.5
  1
16.7
100
AcDbAttributeDefinition
  3

  2
R
 70
     8
280
     0
  0
ATTDEF
  5
1C6
330
1AA
100
AcDbEntity
  8
AM_6
100
AcDbText
 10
53.73999977111816
 20
48.35
 30
0.0
 40
0.5
  1
30.2
100
AcDbAttributeDefinition
  3

  2
S
 70
     8
280
     0
  0
ATTDEF
  5
1C7
330
1AA
100
AcDbEntity
  8
AM_6
100
AcDbText
 10
53.73999977111816
 20
47.85
 30
0.0
 40
0.5
  1
49.2
100
AcDbAttributeDefinition
  3

  2
T
 70
     8
280
     0
  0
ATTDEF
  5
1C8
330
1AA
100
AcDbEntity
  8
AM_6
100
AcDbText
 10
53.73999977111816
 20
47.35
 30
0.0
 40
0.5
  1
29.4
100
AcDbAttributeDefinition
  3

  2
Z
 70
     8
280
     0
  0
ATTDEF
  5
1C9
330
1AA
100
AcDbEntity
  8
AM_6
100
AcDbText
 10
53.73999977111816
 20
46.85
 30
0.0
 40
0.5
  1
baldor
100
AcDbAttributeDefinition
  3

  2
COMPANY
 70
     8
280
     0
  0
LWPOLYLINE
  5
1CA
330
1AA
100
AcDbEntity
  8
AM_9
100
AcDbPolyline
 90
        3
 70
     0
 43
0.0
 10
9.882997928076684
 20
-26.46864267786401
 10
9.924628143345018
 20
-26.7340474415984
 10
9.999999999999998
 20
-27.8
  0
LWPOLYLINE
  5
1CB
330
1AA
100
AcDbEntity
  8
AM_9
100
AcDbPolyline
 90
       28
 70
     0
 43
0.0
 10
-10.00000000000001
 20
-27.79999999999999
 10
-9.942837477856422
 20
-26.87159955806305
 10
-9.772760845726346
 20
-25.94407206633602
 10
-9.478636180722066
 20
-24.99648335855676
 10
-9.068493277211168
 20
-24.07161788403938
 10
-8.550108421498056
 20
-23.18750673798275
 10
-7.920133435825704
 20
-22.34584112528239
 10
-7.190538621830057
 20
-21.56443718879328
 10
-6.374583716549363
 20
-20.85918445107525
 10
-5.467071829985588
 20
-20.23241180819736
 10
-4.486759149189461
 20
-19.69976168521797
 10
-3.451909353278066
 20
-19.27314544360016
 10
-2.37665439446189
 20
-18.9612487869462
 10
-1.26714093913988
 20
-18.76443247030408
 10
-0.1447750990303376
 20
-18.68741281915567
 10
0.9631181171620248
 20
-18.73173928491155
 10
2.062323381839752
 20
-18.892853946059
 10
3.132182955775924
 20
-19.16699017947268
 10
4.160634129102893
 20
-19.55138736620108
 10
5.14067824267166
 20
-20.03969091083207
 10
6.05472877644865
 20
-20.62132144920686
 10
6.904924439429961
 20
-21.30035038751406
 10
7.671463078099307
 20
-22.06007743598951
 10
8.340333014381066
 20
-22.88481181805302
 10
8.907904662021682
 20
-23.77317474801497
 10
9.364441278372281
 20
-24.70842019823037
 10
9.700953381066004
 20
-25.67144360083731
 10
9.882997928076684
 20
-26.46864267786401
  0
ELLIPSE
  5
1CC
330
1AA
100
AcDbEntity
  8
AM_9
100
AcDbEllipse
 10
-0.0000000000000031
 20
-28.80000000000001
 30
0.0
 11
-8.0
 21
9.797174393178826E-16
 31
0.0
210
0.0
220
0.0
230
1.0
 40
0.8660254037844388
 41
0.0
 42
6.283185307179586
  0
ELLIPSE
  5
1CD
330
1AA
100
AcDbEntity
  8
AM_9
100
AcDbEllipse
 10
-0.0000000000000062
 20
-27.80000000000001
 30
0.0
 11
10.00000000000001
 21
0.0
 31
0.0
210
0.0
220
0.0
230
1.0
 40
0.866025403784439
 41
0.0
 42
2.908933027625511
  0
LINE
  5
1CE
330
1AA
100
AcDbEntity
  8
AM_9
100
AcDbLine
 10
9.9998634778647
 20
-27.8467369128325
 30
0.0
 11
9.999998591704095
 21
-27.79525313442321
 31
0.0
  0
LWPOLYLINE
  5
1CF
330
1AA
100
AcDbEntity
  8
AM_9
100
AcDbPolyline
 90
       50
 70
     0
 43
0.0
 10
-9.999775575422865
 20
-27.85992288637528
 10
-9.988030413772428
 20
-28.23748939926461
 10
-9.937617948978454
 20
-28.79747246113455
 10
-9.848056654288476
 20
-29.3531711515402
 10
-9.719731455581023
 20
-29.90250001444337
 10
-9.55314518848085
 20
-30.44340041095504
 10
-9.34891962898069
 20
-30.97383920476339
 10
-9.107798747579553
 20
-31.4918086448332
 10
-8.830653519387203
 20
-31.99532812419125
 10
-8.518487410095277
 20
-32.48244830048584
 10
-8.17244154107564
 20
-32.95125778345902
 10
-7.793798541212072
 20
-33.39989227689581
 10
-7.383984228472837
 20
-33.82654575100602
 10
-6.944566517005588
 20
-34.22948296502853
 10
-6.477251277012226
 20
-34.60705250298323
 10
-5.983875228174272
 20
-34.95769945371812
 10
-5.466396261992783
 20
-35.27997695951479
 10
-4.926881814410435
 20
-35.57255604945577
 10
-4.367496020925815
 20
-35.8342334206504
 10
-3.790486382445037
 20
-36.06393708344651
 10
-3.198170574198729
 20
-36.26073000467333
 10
-2.592923877469616
 20
-36.42381204024763
 10
-1.977167541325819
 20
-36.55252053729187
 10
-1.3533582185223
 20
-36.64633001294315
 10
-0.7239784844167405
 20
-36.70485129749915
 10
-0.0915283469030389
 20
-36.72783048110803
 10
0.5414824130122676
 20
-36.71514794130392
 10
1.17253555646782
 20
-36.66681826471547
 10
1.799111886588587
 20
-36.5829915208261
 10
2.418712345413878
 20
-36.46395183429077
 10
3.028854335189981
 20
-36.31011842009448
 10
3.627078985899977
 20
-36.12204718095335
 10
4.2109591999183
 20
-35.90043264185945
 10
4.778108731972265
 20
-35.64610999471861
 10
5.326192528332437
 20
-35.36005692720054
 10
5.852938473495901
 20
-35.04339481010205
 10
6.35615057003969
 20
-34.6973887325477
 10
6.833723405704617
 20
-34.32344582649861
 10
7.283657550696612
 20
-33.92311133642257
 10
7.704075302128743
 20
-33.49806198810789
 10
8.093235990180977
 20
-33.05009640203958
 10
8.449549928798536
 20
-32.58112257124489
 10
8.771590076018144
 20
-32.09314274736488
 10
9.058100591118109
 20
-31.58823639855443
 10
9.308001734404877
 20
-31.06854215749498
 10
9.52039091479632
 20
-30.53623981522635
 10
9.694540089880517
 20
-29.99353340910179
 10
9.829890093898102
 20
-29.44263630551211
 10
9.92604275252287
 20
-28.88575892339751
 10
9.952690101148063
 20
-28.66898790403513
  0
LINE
  5
1D0
330
1AA
100
AcDbEntity
  8
AM_9
100
AcDbLine
 10
-9.99999408905649
 20
-27.80972497135516
 30
0.0
 11
-9.999775575422865
 21
-27.85992288637528
 31
0.0
  0
LWPOLYLINE
  5
1D1
330
1AA
100
AcDbEntity
  8
AM_9
100
AcDbPolyline
 90
       29
 70
     0
 43
0.0
 10
9.999999999999998
 20
-27.8
 10
9.937293853818094
 20
-28.75638753458504
 10
9.751641618242164
 20
-29.69282743484135
 10
9.446742597726889
 20
-30.59223049169116
 10
9.02433637477575
 20
-31.44597953930862
 10
8.490076700778657
 20
-32.24884760975847
 10
7.853946203929393
 20
-32.98783808564149
 10
7.112816314053175
 20
-33.66341843067801
 10
6.280504122335962
 20
-34.26475514402396
 10
5.372165854783546
 20
-34.78270706962611
 10
4.38768308522728
 20
-35.21594954643786
 10
3.3433940483344
 20
-35.55895419365312
 10
2.259089785056218
 20
-35.8063539541192
 10
1.156774598207802
 20
-35.95431660062525
 10
0.0360177050238764
 20
-36.00629389577588
 10
-1.081603291116897
 20
-35.96145862238479
 10
-2.171846231261225
 20
-35.82119558928495
 10
-3.238292721913323
 20
-35.58757270570587
 10
-4.261293792698432
 20
-35.2641445851579
 10
-5.236158744413451
 20
-34.84916911418254
 10
-6.149116191840943
 20
-34.34766002842746
 10
-6.983836545730845
 20
-33.76705315437942
 10
-7.742030998600555
 20
-33.09962727628235
 10
-8.405208367421416
 20
-32.35841735391516
 10
-8.96093407940617
 20
-31.55526000694119
 10
-9.40264445656673
 20
-30.69400288298746
 10
-9.726793742358888
 20
-29.78309229387119
 10
-9.926860430472395
 20
-28.83895135905636
 10
-10.00000000000001
 20
-27.79999999999999
  0
ELLIPSE
  5
1D2
330
1AA
100
AcDbEntity
  8
AM_9
100
AcDbEllipse
 10
-0.0000000000000044
 20
-27.79999999999998
 30
0.0
 11
10.00000000000002
 21
0.0
 31
0.0
210
0.0
220
0.0
230
1.0
 40
0.8660254037844392
 41
3.483200889039782
 42
6.068741868512812
  0
LINE
  5
1D3
330
1AA
100
AcDbEntity
  8
AM_9
100
AcDbLine
 10
-15.86500000000001
 20
-37.22458864782792
 30
0.0
 11
15.865
 21
-37.22458864782792
 31
0.0
  0
LINE
  5
1D4
330
1AA
100
AcDbEntity
  8
AM_9
100
AcDbLine
 10
-15.865
 20
37.22458864782795
 30
0.0
 11
15.865
 21
37.22458864782795
 31
0.0
  0
LINE
  5
1D5
330
1AA
100
AcDbEntity
  8
AM_9
100
AcDbLine
 10
-18.37
 20
54.46405843616035
 30
0.0
 11
-15.03
 21
54.46405843616035
 31
0.0
  0
LINE
  5
1D6
330
1AA
100
AcDbEntity
  8
AM_9
100
AcDbLine
 10
-18.37
 20
52.98402595554006
 30
0.0
 11
-15.03
 21
52.98402595554006
 31
0.0
  0
LINE
  5
1D7
330
1AA
100
AcDbEntity
  8
AM_9
100
AcDbLine
 10
-18.37
 20
54.09405034966043
 30
0.0
 11
-15.03
 21
54.09405034966043
 31
0.0
  0
LINE
  5
1D8
330
1AA
100
AcDbEntity
  8
AM_9
100
AcDbLine
 10
-18.37
 20
51.87400162999984
 30
0.0
 11
-15.03
 21
51.87400162999984
 31
0.0
  0
LINE
  5
1D9
330
1AA
100
AcDbEntity
  8
AM_9
100
AcDbLine
 10
-18.37
 20
55.20407474378005
 30
0.0
 11
-15.03
 21
55.20407474378005
 31
0.0
  0
LINE
  5
1DA
330
1AA
100
AcDbEntity
  8
AM_9
100
AcDbLine
 10
-18.37
 20
53.28003246284032
 30
0.0
 11
-15.03
 21
53.28003246284032
 31
0.0
  0
LINE
  5
1DB
330
1AA
100
AcDbEntity
  8
AM_9
100
AcDbLine
 10
-18.37
 20
52.46601460904044
 30
0.0
 11
-15.03
 21
52.46601460904044
 31
0.0
  0
LINE
  5
1DC
330
1AA
100
AcDbEntity
  8
AM_9
100
AcDbLine
 10
-18.37
 20
52.68801943300026
 30
0.0
 11
-15.03
 21
52.68801943300026
 31
0.0
  0
LINE
  5
1DD
330
1AA
100
AcDbEntity
  8
AM_9
100
AcDbLine
 10
-18.37
 20
54.61206169870045
 30
0.0
 11
-15.03
 21
54.61206169870045
 31
0.0
  0
LINE
  5
1DE
330
1AA
100
AcDbEntity
  8
AM_9
100
AcDbLine
 10
-18.37
 20
55.05607148378037
 30
0.0
 11
-15.03
 21
55.05607148378037
 31
0.0
  0
LINE
  5
1DF
330
1AA
100
AcDbEntity
  8
AM_9
100
AcDbLine
 10
-18.37
 20
52.02200489253995
 30
0.0
 11
-15.03
 21
52.02200489253995
 31
0.0
  0
LINE
  5
1E0
330
1AA
100
AcDbEntity
  8
AM_9
100
AcDbLine
 10
-18.37
 20
54.76006495870015
 30
0.0
 11
-15.03
 21
54.76006495870015
 31
0.0
  0
LINE
  5
1E1
330
1AA
100
AcDbEntity
  8
AM_9
100
AcDbLine
 10
-18.37
 20
52.3180112804606
 30
0.0
 11
-15.03
 21
52.3180112804606
 31
0.0
  0
LINE
  5
1E2
330
1AA
100
AcDbEntity
  8
AM_9
100
AcDbLine
 10
-18.37
 20
54.3900568061605
 30
0.0
 11
-15.03
 21
54.3900568061605
 31
0.0
  0
LINE
  5
1E3
330
1AA
100
AcDbEntity
  8
AM_9
100
AcDbLine
 10
-18.37
 20
52.6140178030004
 30
0.0
 11
-15.03
 21
52.6140178030004
 31
0.0
  0
LINE
  5
1E4
330
1AA
100
AcDbEntity
  8
AM_9
100
AcDbLine
 10
-18.37
 20
53.7240422149
 30
0.0
 11
-15.03
 21
53.7240422149
 31
0.0
  0
LINE
  5
1E5
330
1AA
100
AcDbEntity
  8
AM_9
100
AcDbLine
 10
-18.37
 20
53.42803570759974
 30
0.0
 11
-15.03
 21
53.42803570759974
 31
0.0
  0
LINE
  5
1E6
330
1AA
100
AcDbEntity
  8
AM_9
100
AcDbLine
 10
-18.37
 20
53.87204545711975
 30
0.0
 11
-15.03
 21
53.87204545711975
 31
0.0
  0
LINE
  5
1E7
330
1AA
100
AcDbEntity
  8
AM_9
100
AcDbLine
 10
-15.03
 20
51.8
 30
0.0
 11
-15.03
 21
55.27807637632031
 31
0.0
  0
LINE
  5
1E8
330
1AA
100
AcDbEntity
  8
AM_9
100
AcDbLine
 10
-18.37
 20
51.8
 30
0.0
 11
-15.03
 21
51.8
 31
0.0
  0
LINE
  5
1E9
330
1AA
100
AcDbEntity
  8
AM_9
100
AcDbLine
 10
-18.37
 20
52.24400964792034
 30
0.0
 11
-15.03
 21
52.24400964792034
 31
0.0
  0
LINE
  5
1EA
330
1AA
100
AcDbEntity
  8
AM_9
100
AcDbLine
 10
-18.37
 20
55.27807637632031
 30
0.0
 11
-15.03
 21
55.27807637632031
 31
0.0
  0
LINE
  5
1EB
330
1AA
100
AcDbEntity
  8
AM_9
100
AcDbLine
 10
-18.37
 20
54.83406659124041
 30
0.0
 11
-15.03
 21
54.83406659124041
 31
0.0
  0
LINE
  5
1EC
330
1AA
100
AcDbEntity
  8
AM_9
100
AcDbLine
 10
-15.865
 20
-42.5
 30
0.0
 11
15.865
 21
-42.5
 31
0.0
  0
LINE
  5
1ED
330
1AA
100
AcDbEntity
  8
AM_9
100
AcDbLine
 10
15.865
 20
42.5
 30
0.0
 11
-15.865
 21
42.5
 31
0.0
  0
LINE
  5
1EE
330
1AA
100
AcDbEntity
  8
AM_9
100
AcDbLine
 10
-15.865
 20
18.80057911342095
 30
0.0
 11
-15.865
 21
-18.80057911342094
 31
0.0
  0
LINE
  5
1EF
330
1AA
100
AcDbEntity
  8
AM_9
100
AcDbLine
 10
15.865
 20
-18.80057911342095
 30
0.0
 11
15.865
 21
18.80057911342094
 31
0.0
  0
LINE
  5
1F0
330
1AA
100
AcDbEntity
  8
AM_9
100
AcDbLine
 10
-15.865
 20
-23.64499998576937
 30
0.0
 11
15.865
 21
-23.64499998576937
 31
0.0
  0
LINE
  5
1F1
330
1AA
100
AcDbEntity
  8
AM_9
100
AcDbLine
 10
-15.865
 20
-24.6
 30
0.0
 11
15.865
 21
-24.6
 31
0.0
  0
LINE
  5
1F2
330
1AA
100
AcDbEntity
  8
AM_9
100
AcDbLine
 10
-15.865
 20
24.59999999999999
 30
0.0
 11
15.865
 21
24.59999999999999
 31
0.0
  0
LINE
  5
1F3
330
1AA
100
AcDbEntity
  8
AM_9
100
AcDbLine
 10
-15.865
 20
23.64500000000001
 30
0.0
 11
15.865
 21
23.64500000000001
 31
0.0
  0
LINE
  5
1F4
330
1AA
100
AcDbEntity
  8
AM_7
100
AcDbLine
 10
0.0000000000000053
 20
-13.335
 30
0.0
 11
0.0000000000000053
 21
13.335
 31
0.0
  0
LINE
  5
1F5
330
1AA
100
AcDbEntity
  8
AM_7
100
AcDbLine
 10
48.73999977111816
 20
0.0
 30
0.0
 11
-54.12
 21
0.0
 31
0.0
  0
LINE
  5
1F6
330
1AA
100
AcDbEntity
  8
AM_4
100
AcDbLine
 10
-8.75
 20
-50.80000000000001
 30
0.0
 11
-8.750000000000005
 21
-60.35
 31
0.0
  0
LINE
  5
1F7
330
1AA
100
AcDbEntity
  8
AM_4
100
AcDbLine
 10
-18.37
 20
-59.35000000000003
 30
0.0
 11
-18.37
 21
-50.80000000000001
 31
0.0
  0
LINE
  5
1F8
330
1AA
100
AcDbEntity
  8
AM_4
100
AcDbLine
 10
-17.36999999999999
 20
-60.35
 30
0.0
 11
-18.36999999999999
 21
-59.35000000000003
 31
0.0
  0
LINE
  5
1F9
330
1AA
100
AcDbEntity
  8
AM_4
100
AcDbLine
 10
-17.36999999999999
 20
-60.35
 30
0.0
 11
-8.750000000000005
 21
-60.35
 31
0.0
  0
LINE
  5
1FA
330
1AA
100
AcDbEntity
  8
AM_4
100
AcDbLine
 10
15.865
 20
-47.8
 30
0.0
 11
18.37
 21
-50.8
 31
0.0
  0
LINE
  5
1FB
330
1AA
100
AcDbEntity
  8
AM_4
100
AcDbLine
 10
8.750000000000009
 20
-60.35
 30
0.0
 11
8.750000000000004
 21
-50.8
 31
0.0
  0
LINE
  5
1FC
330
1AA
100
AcDbEntity
  8
AM_4
100
AcDbLine
 10
8.750000000000004
 20
-50.8
 30
0.0
 11
-8.75
 21
-50.80000000000001
 31
0.0
  0
LINE
  5
1FD
330
1AA
100
AcDbEntity
  8
AM_4
100
AcDbLine
 10
-18.37
 20
-50.80000000000001
 30
0.0
 11
-15.865
 21
-47.80000000000005
 31
0.0
  0
LINE
  5
1FE
330
1AA
100
AcDbEntity
  8
AM_4
100
AcDbLine
 10
18.37
 20
-50.8
 30
0.0
 11
18.37
 21
-59.35
 31
0.0
  0
LINE
  5
1FF
330
1AA
100
AcDbEntity
  8
AM_4
100
AcDbLine
 10
-18.36999999999999
 20
-59.07666666666668
 30
0.0
 11
-8.750000000000005
 21
-59.07666666666668
 31
0.0
  0
LINE
  5
200
330
1AA
100
AcDbEntity
  8
AM_4
100
AcDbLine
 10
-18.37
 20
50.8
 30
0.0
 11
-18.36999999999999
 21
59.35
 31
0.0
  0
LINE
  5
201
330
1AA
100
AcDbEntity
  8
AM_4
100
AcDbLine
 10
-8.749999999999993
 20
60.35
 30
0.0
 11
-8.749999999999998
 21
50.8
 31
0.0
  0
LINE
  5
202
330
1AA
100
AcDbEntity
  8
AM_4
100
AcDbLine
 10
-17.36999999999999
 20
60.35
 30
0.0
 11
-8.749999999999993
 21
60.35
 31
0.0
  0
LINE
  5
203
330
1AA
100
AcDbEntity
  8
AM_4
100
AcDbLine
 10
-18.37
 20
59.35
 30
0.0
 11
-17.37
 21
60.35
 31
0.0
  0
LINE
  5
204
330
1AA
100
AcDbEntity
  8
AM_4
100
AcDbLine
 10
18.37
 20
59.35
 30
0.0
 11
18.37
 21
50.8
 31
0.0
  0
LINE
  5
205
330
1AA
100
AcDbEntity
  8
AM_4
100
AcDbLine
 10
8.75
 20
50.8
 30
0.0
 11
8.750000000000009
 21
60.35
 31
0.0
  0
LINE
  5
206
330
1AA
100
AcDbEntity
  8
AM_4
100
AcDbLine
 10
17.37
 20
60.35
 30
0.0
 11
18.37
 21
59.34999999999999
 31
0.0
  0
LINE
  5
207
330
1AA
100
AcDbEntity
  8
AM_4
100
AcDbLine
 10
8.750000000000009
 20
60.35
 30
0.0
 11
17.37
 21
60.35
 31
0.0
  0
LINE
  5
208
330
1AA
100
AcDbEntity
  8
AM_4
100
AcDbLine
 10
18.37
 20
50.8
 30
0.0
 11
15.865
 21
47.8
 31
0.0
  0
LINE
  5
209
330
1AA
100
AcDbEntity
  8
AM_4
100
AcDbLine
 10
-8.749999999999998
 20
50.8
 30
0.0
 11
8.75
 21
50.8
 31
0.0
  0
LINE
  5
20A
330
1AA
100
AcDbEntity
  8
AM_4
100
AcDbLine
 10
-15.86499999999999
 20
47.8
 30
0.0
 11
-18.37
 21
50.8
 31
0.0
  0
LINE
  5
20B
330
1AA
100
AcDbEntity
  8
AM_4
100
AcDbLine
 10
8.749999999999996
 20
59.07666666666667
 30
0.0
 11
18.37
 21
59.07666666666667
 31
0.0
  0
LINE
  5
20C
330
1AA
100
AcDbEntity
  8
AM_4
100
AcDbLine
 10
-18.36999999999999
 20
59.07666666666667
 30
0.0
 11
-8.749999999999993
 21
59.07666666666667
 31
0.0
  0
LINE
  5
20D
330
1AA
100
AcDbEntity
  8
AM_4
100
AcDbLine
 10
8.750000000000009
 20
-60.35
 30
0.0
 11
17.37000000000002
 21
-60.35
 31
0.0
  0
LINE
  5
20E
330
1AA
100
AcDbEntity
  8
AM_4
100
AcDbLine
 10
18.37
 20
-59.35
 30
0.0
 11
17.37000000000001
 21
-60.34999999999999
 31
0.0
  0
LINE
  5
20F
330
1AA
100
AcDbEntity
  8
AM_4
100
AcDbLine
 10
8.750000000000009
 20
-59.07666666666668
 30
0.0
 11
18.37
 21
-59.07666666666668
 31
0.0
  0
LINE
  5
210
330
1AA
100
AcDbEntity
  8
AM_4
100
AcDbLine
 10
-15.86499999999999
 20
43.21
 30
0.0
 11
15.86500000000001
 21
43.21
 31
0.0
  0
LINE
  5
211
330
1AA
100
AcDbEntity
  8
AM_4
100
AcDbLine
 10
-15.865
 20
-43.20999999999999
 30
0.0
 11
15.86500000000001
 21
-43.20999999999999
 31
0.0
  0
LINE
  5
212
330
1AA
100
AcDbEntity
  8
AM_4
100
AcDbLine
 10
-15.865
 20
-41.3
 30
0.0
 11
15.86500000000001
 21
-41.3
 31
0.0
  0
LINE
  5
213
330
1AA
100
AcDbEntity
  8
AM_4
100
AcDbLine
 10
-15.86499999999999
 20
41.29999999999999
 30
0.0
 11
15.86500000000001
 21
41.29999999999999
 31
0.0
  0
ARC
  5
214
330
1AA
100
AcDbEntity
  8
AM_4
100
AcDbCircle
 10
0.0000000000000142
 20
0.0
 30
0.0
 40
24.6
100
AcDbArc
 50
130.1595800877771
 51
229.8404199122229
  0
ARC
  5
215
330
1AA
100
AcDbEntity
  8
AM_4
100
AcDbCircle
 10
0.0000000000000284
 20
-0.0000000000000036
 30
0.0
 40
24.59999999999998
100
AcDbArc
 50
310.1595800877771
 51
49.84041991222295
  0
LINE
  5
216
330
1AA
100
AcDbEntity
  8
AM_4
100
AcDbLine
 10
-15.86499999999998
 20
18.80057911342095
 30
0.0
 11
-15.86499999999999
 21
47.8
 31
0.0
  0
LINE
  5
217
330
1AA
100
AcDbEntity
  8
AM_4
100
AcDbLine
 10
-15.865
 20
-47.80000000000005
 30
0.0
 11
-15.86499999999999
 21
-18.80057911342094
 31
0.0
  0
CIRCLE
  5
218
330
1AA
100
AcDbEntity
  8
AM_4
100
AcDbCircle
 10
0.0000000000000053
 20
0.0
 30
0.0
 40
12.7
  0
LINE
  5
219
330
1AA
100
AcDbEntity
  8
AM_4
100
AcDbLine
 10
-15.865
 20
-39.39000000000001
 30
0.0
 11
15.86500000000001
 21
-39.39000000000001
 31
0.0
  0
LINE
  5
21A
330
1AA
100
AcDbEntity
  8
AM_4
100
AcDbLine
 10
15.86500000000001
 20
-18.80057911342094
 30
0.0
 11
15.865
 21
-47.8
 31
0.0
  0
LINE
  5
21B
330
1AA
100
AcDbEntity
  8
AM_4
100
AcDbLine
 10
15.865
 20
47.8
 30
0.0
 11
15.865
 21
18.80057911342094
 31
0.0
  0
LINE
  5
21C
330
1AA
100
AcDbEntity
  8
AM_4
100
AcDbLine
 10
-15.86499999999999
 20
39.38999999999999
 30
0.0
 11
15.86500000000001
 21
39.38999999999999
 31
0.0
  0
ENDBLK
  5
1AD
330
1AA
100
AcDbEntity
  8
0
100
AcDbBlockEnd
  0
ENDSEC
  0
SECTION
  2
ENTITIES
  0
INSERT
  5
6F
330
1F
100
AcDbEntity
  8
0
100
AcDbBlockReference
  2
1_136306_2
 10
0.0
 20
0.0
 30
0.0
  0
POINT
  5
21E
330
1F
100
AcDbEntity
  8
ConnectionPoints
100
AcDbPoint
 10
0.0
 20
0.0
 30
0.0
  0
POINT
  5
21F
330
1F
100
AcDbEntity
  8
ConnectionPoints
100
AcDbPoint
 10
0.0
 20
0.0
 30
0.0
  0
POINT
  5
220
330
1F
100
AcDbEntity
  8
ConnectionPoints
100
AcDbPoint
 10
16.7
 20
0.0
 30
-0.000000000000001
  0
POINT
  5
221
330
1F
100
AcDbEntity
  8
ConnectionPoints
100
AcDbPoint
 10
0.0
 20
0.0
 30
0.0
  0
POINT
  5
222
330
1F
100
AcDbEntity
  8
ConnectionPoints
100
AcDbPoint
 10
0.0
 20
0.0
 30
0.0
  0
POINT
  5
223
330
1F
100
AcDbEntity
  8
ConnectionPoints
100
AcDbPoint
 10
-0.0000000000000031
 20
-28.8
 30
-49.88306325798368
  0
POINT
  5
224
330
1F
100
AcDbEntity
  8
ConnectionPoints
100
AcDbPoint
 10
-16.7
 20
0.0
 30
0.000000000000001
  0
ENDSEC
  0
SECTION
  2
OBJECTS
  0
DICTIONARY
  5
C
330
0
100
AcDbDictionary
281
     1
  3
ACAD_DETAILVIEWSTYLE
350
22C
  3
ACAD_GROUP
350
D
  3
ACAD_LAYOUT
350
1A
  3
ACAD_MATERIAL
350
43
  3
ACAD_MLEADERSTYLE
350
6B
  3
ACAD_MLINESTYLE
350
17
  3
ACAD_PLOTSETTINGS
350
19
  3
ACAD_PLOTSTYLENAME
350
E
  3
ACAD_SCALELIST
350
47
  3
ACAD_SECTIONVIEWSTYLE
350
22D
  3
ACAD_TABLESTYLE
350
69
  3
ACAD_VISUALSTYLE
350
2A
  3
ACDB_RECOMPOSE_DATA
350
229
  3
AcDbVariableDictionary
350
225
  0
SUN
  5
6D
330
29
100
AcDbSun
 90
        1
290
     0
 63
     7
421
 16777215
 40
1.0
291
     1
 91
  2455826
 92
 54000000
292
     0
 70
     2
 71
   256
280
     1
  0
DICTIONARY
  5
22C
102
{ACAD_REACTORS
330
C
102
}
330
C
100
AcDbDictionary
281
     1
  0
DICTIONARY
  5
D
102
{ACAD_REACTORS
330
C
102
}
330
C
100
AcDbDictionary
281
     1
  0
DICTIONARY
  5
1A
102
{ACAD_REACTORS
330
C
102
}
330
C
100
AcDbDictionary
281
     1
  3
Layout1
350
1E
  3
Layout2
350
26
  3
Model
350
22
  0
DICTIONARY
  5
43
102
{ACAD_REACTORS
330
C
102
}
330
C
100
AcDbDictionary
281
     1
  3
ByBlock
350
45
  3
ByLayer
350
44
  3
Global
350
46
  0
DICTIONARY
  5
6B
102
{ACAD_REACTORS
330
C
102
}
330
C
100
AcDbDictionary
281
     1
  3
Standard
350
6C
  0
DICTIONARY
  5
17
102
{ACAD_REACTORS
330
C
102
}
330
C
100
AcDbDictionary
281
     1
  3
Standard
350
18
  0
DICTIONARY
  5
19
102
{ACAD_REACTORS
330
C
102
}
330
C
100
AcDbDictionary
281
     1
  0
ACDBDICTIONARYWDFLT
  5
E
102
{ACAD_REACTORS
330
C
102
}
330
C
100
AcDbDictionary
281
     1
  3
Normal
350
F
100
AcDbDictionaryWithDefault
340
F
  0
DICTIONARY
  5
47
102
{ACAD_REACTORS
330
C
102
}
330
C
100
AcDbDictionary
281
     1
  3
A0
350
48
  3
A1
350
49
  3
A2
350
4A
  3
A3
350
4B
  3
A4
350
4C
  3
A5
350
4D
  3
A6
350
4E
  3
A7
350
4F
  3
A8
350
50
  3
A9
350
51
  3
B0
350
52
  3
B1
350
53
  3
B2
350
54
  3
B3
350
55
  3
B4
350
56
  3
B5
350
57
  3
B6
350
58
  3
B7
350
59
  3
B8
350
5A
  3
B9
350
5B
  3
C0
350
5C
  3
C1
350
5D
  3
C2
350
5E
  3
C3
350
5F
  3
C4
350
60
  3
C5
350
61
  3
C6
350
62
  3
C7
350
63
  3
C8
350
64
  3
C9
350
65
  3
D0
350
66
  3
D1
350
67
  3
D2
350
68
  0
DICTIONARY
  5
22D
102
{ACAD_REACTORS
330
C
102
}
330
C
100
AcDbDictionary
281
     1
  0
DICTIONARY
  5
69
102
{ACAD_REACTORS
330
C
102
}
330
C
100
AcDbDictionary
281
     1
  3
Standard
350
6A
  0
DICTIONARY
  5
2A
102
{ACAD_REACTORS
330
C
102
}
330
C
100
AcDbDictionary
281
     1
  3
2dWireframe
350
2F
  3
Basic
350
32
  3
Brighten
350
36
  3
ColorChange
350
3A
  3
Conceptual
350
34
  3
Dim
350
35
  3
EdgeColorOff
350
3D
  3
Facepattern
350
39
  3
Flat
350
2B
  3
FlatWithEdges
350
2C
  3
Gouraud
350
2D
  3
GouraudWithEdges
350
2E
  3
Hidden
350
31
  3
JitterOff
350
3B
  3
Linepattern
350
38
  3
OverhangOff
350
3C
  3
Realistic
350
33
  3
Shaded
350
42
  3
Shaded with edges
350
41
  3
Shades of Gray
350
3E
  3
Sketchy
350
3F
  3
Thicken
350
37
  3
Wireframe
350
30
  3
X-Ray
350
40
  0
XRECORD
  5
229
102
{ACAD_REACTORS
330
C
102
}
330
C
100
AcDbXrecord
280
     1
 90
        1
330
6A
  0
DICTIONARY
  5
225
102
{ACAD_REACTORS
330
C
102
}
330
C
100
AcDbDictionary
281
     1
  3
CANNOSCALE
350
226
  3
CMLEADERSTYLE
350
22B
  3
CTABLESTYLE
350
22A
  0
LAYOUT
  5
1E
102
{ACAD_REACTORS
330
1A
102
}
330
1A
100
AcDbPlotSettings
  1

  2
none_device
  4

  6

 40
0.0
 41
0.0
 42
0.0
 43
0.0
 44
0.0
 45
0.0
 46
0.0
 47
0.0
 48
0.0
 49
0.0
140
0.0
141
0.0
142
1.0
143
1.0
 70
   688
 72
     1
 73
     0
 74
     5
  7

 75
    16
 76
     0
 77
     2
 78
   300
147
1.0
148
0.0
149
0.0
100
AcDbLayout
  1
Layout1
 70
     1
 71
     1
 10
0.0
 20
0.0
 11
420.0
 21
297.0
 12
0.0
 22
0.0
 32
0.0
 14
1.000000000000000E+20
 24
1.000000000000000E+20
 34
1.000000000000000E+20
 15
-1.000000000000000E+20
 25
-1.000000000000000E+20
 35
-1.000000000000000E+20
146
0.0
 13
0.0
 23
0.0
 33
0.0
 16
1.0
 26
0.0
 36
0.0
 17
0.0
 27
1.0
 37
0.0
 76
     0
330
1B
  0
LAYOUT
  5
26
102
{ACAD_REACTORS
330
1A
102
}
330
1A
100
AcDbPlotSettings
  1

  2
none_device
  4

  6

 40
0.0
 41
0.0
 42
0.0
 43
0.0
 44
0.0
 45
0.0
 46
0.0
 47
0.0
 48
0.0
 49
0.0
140
0.0
141
0.0
142
1.0
143
1.0
 70
   688
 72
     1
 73
     0
 74
     5
  7

 75
    16
 76
     0
 77
     2
 78
   300
147
1.0
148
0.0
149
0.0
100
AcDbLayout
  1
Layout2
 70
     1
 71
     2
 10
0.0
 20
0.0
 11
0.0
 21
0.0
 12
0.0
 22
0.0
 32
0.0
 14
0.0
 24
0.0
 34
0.0
 15
0.0
 25
0.0
 35
0.0
146
0.0
 13
0.0
 23
0.0
 33
0.0
 16
1.0
 26
0.0
 36
0.0
 17
0.0
 27
1.0
 37
0.0
 76
     0
330
23
  0
LAYOUT
  5
22
102
{ACAD_REACTORS
330
1A
102
}
330
1A
100
AcDbPlotSettings
  1

  2
none_device
  4
Letter_(8.50_x_11.00_Inches)
  6

 40
6.35
 41
6.35
 42
6.35000508
 43
6.35000508
 44
215.9
 45
279.4
 46
0.0
 47
0.0
 48
0.0
 49
0.0
140
0.0
141
0.0
142
1.0
143
1.0
 70
  1712
 72
     1
 73
     0
 74
     0
  7

 75
     0
 76
     0
 77
     2
 78
   300
147
1.0
148
0.0
149
0.0
100
AcDbLayout
  1
Model
 70
     1
 71
     0
 10
0.0
 20
0.0
 11
420.0
 21
297.0
 12
0.0
 22
0.0
 32
0.0
 14
1.000000000000000E+20
 24
1.000000000000000E+20
 34
1.000000000000000E+20
 15
-1.000000000000000E+20
 25
-1.000000000000000E+20
 35
-1.000000000000000E+20
146
0.0
 13
0.0
 23
0.0
 33
0.0
 16
1.0
 26
0.0
 36
0.0
 17
0.0
 27
1.0
 37
0.0
 76
     0
330
1F
331
29
  0
MATERIAL
  5
45
102
{ACAD_REACTORS
330
43
102
}
330
43
100
AcDbMaterial
  1
ByBlock
 72
     1
 94
      127
  0
MATERIAL
  5
44
102
{ACAD_REACTORS
330
43
102
}
330
43
100
AcDbMaterial
  1
ByLayer
 72
     1
 94
      127
  0
MATERIAL
  5
46
102
{ACAD_REACTORS
330
43
102
}
330
43
100
AcDbMaterial
  1
Global
 72
     1
 94
      127
  0
MLEADERSTYLE
  5
6C
102
{ACAD_REACTORS
330
6B
102
}
330
6B
100
AcDbMLeaderStyle
179
     2
170
     2
171
     1
172
     0
 90
        2
 40
0.0
 41
0.0
173
     1
 91
-1056964608
340
14
 92
       -2
290
     1
 42
2.0
291
     1
 43
8.0
  3
Standard
341
0
 44
4.0
300

342
11
174
     1
178
     6
175
     1
176
     0
 93
-1056964608
 45
4.0
292
     0
297
     0
 46
4.0
343
0
 94
-1056964608
 47
1.0
 49
1.0
140
1.0
293
     1
141
0.0
294
     1
177
     0
142
1.0
295
     0
296
     0
143
3.75
271
     0
272
     9
273
     9
298
     0
  0
MLINESTYLE
  5
18
102
{ACAD_REACTORS
330
17
102
}
330
17
100
AcDbMlineStyle
  2
Standard
 70
     0
  3

 62
   256
 51
90.0
 52
90.0
 71
     2
 49
0.5
 62
   256
  6
BYLAYER
 49
-0.5
 62
   256
  6
BYLAYER
  0
ACDBPLACEHOLDER
  5
F
102
{ACAD_REACTORS
330
E
102
}
330
E
  0
SCALE
  5
48
102
{ACAD_REACTORS
330
47
102
}
330
47
100
AcDbScale
 70
     0
300
1:1
140
1.0
141
1.0
290
     1
  0
SCALE
  5
49
102
{ACAD_REACTORS
330
47
102
}
330
47
100
AcDbScale
 70
     0
300
1:2
140
1.0
141
2.0
290
     0
  0
SCALE
  5
4A
102
{ACAD_REACTORS
330
47
102
}
330
47
100
AcDbScale
 70
     0
300
1:4
140
1.0
141
4.0
290
     0
  0
SCALE
  5
4B
102
{ACAD_REACTORS
330
47
102
}
330
47
100
AcDbScale
 70
     0
300
1:5
140
1.0
141
5.0
290
     0
  0
SCALE
  5
4C
102
{ACAD_REACTORS
330
47
102
}
330
47
100
AcDbScale
 70
     0
300
1:8
140
1.0
141
8.0
290
     0
  0
SCALE
  5
4D
102
{ACAD_REACTORS
330
47
102
}
330
47
100
AcDbScale
 70
     0
300
1:10
140
1.0
141
10.0
290
     0
  0
SCALE
  5
4E
102
{ACAD_REACTORS
330
47
102
}
330
47
100
AcDbScale
 70
     0
300
1:16
140
1.0
141
16.0
290
     0
  0
SCALE
  5
4F
102
{ACAD_REACTORS
330
47
102
}
330
47
100
AcDbScale
 70
     0
300
1:20
140
1.0
141
20.0
290
     0
  0
SCALE
  5
50
102
{ACAD_REACTORS
330
47
102
}
330
47
100
AcDbScale
 70
     0
300
1:30
140
1.0
141
30.0
290
     0
  0
SCALE
  5
51
102
{ACAD_REACTORS
330
47
102
}
330
47
100
AcDbScale
 70
     0
300
1:40
140
1.0
141
40.0
290
     0
  0
SCALE
  5
52
102
{ACAD_REACTORS
330
47
102
}
330
47
100
AcDbScale
 70
     0
300
1:50
140
1.0
141
50.0
290
     0
  0
SCALE
  5
53
102
{ACAD_REACTORS
330
47
102
}
330
47
100
AcDbScale
 70
     0
300
1:100
140
1.0
141
100.0
290
     0
  0
SCALE
  5
54
102
{ACAD_REACTORS
330
47
102
}
330
47
100
AcDbScale
 70
     0
300
2:1
140
2.0
141
1.0
290
     0
  0
SCALE
  5
55
102
{ACAD_REACTORS
330
47
102
}
330
47
100
AcDbScale
 70
     0
300
4:1
140
4.0
141
1.0
290
     0
  0
SCALE
  5
56
102
{ACAD_REACTORS
330
47
102
}
330
47
100
AcDbScale
 70
     0
300
8:1
140
8.0
141
1.0
290
     0
  0
SCALE
  5
57
102
{ACAD_REACTORS
330
47
102
}
330
47
100
AcDbScale
 70
     0
300
10:1
140
10.0
141
1.0
290
     0
  0
SCALE
  5
58
102
{ACAD_REACTORS
330
47
102
}
330
47
100
AcDbScale
 70
     0
300
100:1
140
100.0
141
1.0
290
     0
  0
SCALE
  5
59
102
{ACAD_REACTORS
330
47
102
}
330
47
100
AcDbScale
 70
     0
300
1/128" = 1'-0"
140
0.0078125
141
12.0
290
     0
  0
SCALE
  5
5A
102
{ACAD_REACTORS
330
47
102
}
330
47
100
AcDbScale
 70
     0
300
1/64" = 1'-0"
140
0.015625
141
12.0
290
     0
  0
SCALE
  5
5B
102
{ACAD_REACTORS
330
47
102
}
330
47
100
AcDbScale
 70
     0
300
1/32" = 1'-0"
140
0.03125
141
12.0
290
     0
  0
SCALE
  5
5C
102
{ACAD_REACTORS
330
47
102
}
330
47
100
AcDbScale
 70
     0
300
1/16" = 1'-0"
140
0.0625
141
12.0
290
     0
  0
SCALE
  5
5D
102
{ACAD_REACTORS
330
47
102
}
330
47
100
AcDbScale
 70
     0
300
3/32" = 1'-0"
140
0.09375
141
12.0
290
     0
  0
SCALE
  5
5E
102
{ACAD_REACTORS
330
47
102
}
330
47
100
AcDbScale
 70
     0
300
1/8" = 1'-0"
140
0.125
141
12.0
290
     0
  0
SCALE
  5
5F
102
{ACAD_REACTORS
330
47
102
}
330
47
100
AcDbScale
 70
     0
300
3/16" = 1'-0"
140
0.1875
141
12.0
290
     0
  0
SCALE
  5
60
102
{ACAD_REACTORS
330
47
102
}
330
47
100
AcDbScale
 70
     0
300
1/4" = 1'-0"
140
0.25
141
12.0
290
     0
  0
SCALE
  5
61
102
{ACAD_REACTORS
330
47
102
}
330
47
100
AcDbScale
 70
     0
300
3/8" = 1'-0"
140
0.375
141
12.0
290
     0
  0
SCALE
  5
62
102
{ACAD_REACTORS
330
47
102
}
330
47
100
AcDbScale
 70
     0
300
1/2" = 1'-0"
140
0.5
141
12.0
290
     0
  0
SCALE
  5
63
102
{ACAD_REACTORS
330
47
102
}
330
47
100
AcDbScale
 70
     0
300
3/4" = 1'-0"
140
0.75
141
12.0
290
     0
  0
SCALE
  5
64
102
{ACAD_REACTORS
330
47
102
}
330
47
100
AcDbScale
 70
     0
300
1" = 1'-0"
140
1.0
141
12.0
290
     0
  0
SCALE
  5
65
102
{ACAD_REACTORS
330
47
102
}
330
47
100
AcDbScale
 70
     0
300
1-1/2" = 1'-0"
140
1.5
141
12.0
290
     0
  0
SCALE
  5
66
102
{ACAD_REACTORS
330
47
102
}
330
47
100
AcDbScale
 70
     0
300
3" = 1'-0"
140
3.0
141
12.0
290
     0
  0
SCALE
  5
67
102
{ACAD_REACTORS
330
47
102
}
330
47
100
AcDbScale
 70
     0
300
6" = 1'-0"
140
6.0
141
12.0
290
     0
  0
SCALE
  5
68
102
{ACAD_REACTORS
330
47
102
}
330
47
100
AcDbScale
 70
     0
300
1'-0" = 1'-0"
140
12.0
141
12.0
290
     0
  0
TABLESTYLE
  5
6A
102
{ACAD_REACTORS
330
69
102
}
102
{ACAD_XDICTIONARY
360
227
102
}
330
69
100
AcDbTableStyle
  3
Standard
 70
     0
 71
     0
 40
0.06
 41
0.06
280
     0
281
     0
  7
Standard
140
4.5
170
     2
 62
     0
 63
   257
283
     0
 90
        4
 91
        0
  1

274
    -2
284
     1
 64
     0
275
    -2
285
     1
 65
     0
276
    -2
286
     1
 66
     0
277
    -2
287
     1
 67
     0
278
    -2
288
     1
 68
     0
279
    -2
289
     1
 69
     0
  7
Standard
140
6.0
170
     5
 62
     0
 63
   257
283
     0
 90
        4
 91
        0
  1

274
    -2
284
     1
 64
     0
275
    -2
285
     1
 65
     0
276
    -2
286
     1
 66
     0
277
    -2
287
     1
 67
     0
278
    -2
288
     1
 68
     0
279
    -2
289
     1
 69
     0
  7
Standard
140
4.5
170
     5
 62
     0
 63
   257
283
     0
 90
        4
 91
        0
  1

274
    -2
284
     1
 64
     0
275
    -2
285
     1
 65
     0
276
    -2
286
     1
 66
     0
277
    -2
287
     1
 67
     0
278
    -2
288
     1
 68
     0
279
    -2
289
     1
 69
     0
  0
VISUALSTYLE
  5
2F
102
{ACAD_REACTORS
330
2A
102
}
330
2A
100
AcDbVisualStyle
  2
2dWireframe
 70
     4
177
     3
291
     0
 70
    58
 90
        0
176
     1
 90
        2
176
     1
 90
        0
176
     1
 90
        0
176
     1
 40
0.6
176
     1
 40
30.0
176
     1
 62
     7
420
 16777215
176
     1
 90
        1
176
     1
 90
        4
176
     1
 62
     7
176
     1
 62
   257
176
     1
 90
        1
176
     1
 90
        1
176
     1
 40
1.0
176
     1
 90
        0
176
     1
 62
   257
176
     1
 40
1.0
176
     1
 90
        1
176
     1
 90
        6
176
     1
 90
        2
176
     1
 62
     7
176
     1
 90
        5
176
     1
 90
        0
176
     1
 90
        0
176
     1
290
     0
176
     1
 90
        1
176
     1
 40
0.0
176
     1
 90
        0
176
     1
290
     1
176
     1
290
     1
176
     1
290
     0
176
     1
290
     0
176
     1
290
     0
176
     1
290
     0
176
     1
290
     0
176
     1
290
     0
176
     1
290
     0
176
     1
 90
       50
176
     1
 40
0.0
176
     1
 40
1.0
176
     1
 90
        0
176
     1
 62
    18
420
        0
176
     1
 90
       50
176
     1
 90
        3
176
     1
 62
     5
420
      255
176
     1
290
     0
176
     1
 90
       50
176
     1
 90
       50
176
     1
 90
       50
176
     1
290
     0
176
     1
 90
       50
176
     1
 62
   256
176
     0
 40
1.0
176
     0
 90
        2
176
     1
  1
strokes_ogs.tif
176
     1
290
     0
176
     1
 40
1.0
176
     1
 40
1.0
176
     1
  0
VISUALSTYLE
  5
32
102
{ACAD_REACTORS
330
2A
102
}
330
2A
100
AcDbVisualStyle
  2
Basic
 70
     7
177
     3
291
     1
 70
    58
 90
        1
176
     1
 90
        0
176
     1
 90
        1
176
     1
 90
        0
176
     1
 40
0.6
176
     1
 40
30.0
176
     1
 62
     7
420
 16777215
176
     1
 90
        0
176
     1
 90
        4
176
     1
 62
     7
176
     1
 62
   257
176
     1
 90
        1
176
     1
 90
        1
176
     1
 40
1.0
176
     1
 90
        8
176
     1
 62
     7
176
     1
 40
1.0
176
     1
 90
        1
176
     1
 90
        6
176
     1
 90
        2
176
     1
 62
     7
176
     1
 90
        5
176
     1
 90
        0
176
     1
 90
        0
176
     1
290
     0
176
     1
 90
        1
176
     1
 40
0.0
176
     1
 90
        0
176
     1
290
     0
176
     1
290
     1
176
     1
290
     1
176
     1
290
     0
176
     1
290
     0
176
     1
290
     0
176
     1
290
     0
176
     1
290
     0
176
     1
290
     0
176
     1
 90
       50
176
     1
 40
0.0
176
     1
 40
1.0
176
     1
 90
        0
176
     1
 62
    18
420
        0
176
     1
 90
       50
176
     1
 90
        3
176
     1
 62
     5
420
      255
176
     1
290
     0
176
     1
 90
       50
176
     1
 90
       50
176
     1
 90
       50
176
     1
290
     0
176
     1
 90
       50
176
     1
 62
   256
176
     0
 40
1.0
176
     0
 90
        2
176
     1
  1
strokes_ogs.tif
176
     1
290
     0
176
     1
 40
1.0
176
     1
 40
1.0
176
     1
  0
VISUALSTYLE
  5
36
102
{ACAD_REACTORS
330
2A
102
}
330
2A
100
AcDbVisualStyle
  2
Brighten
 70
    12
177
     3
291
     1
 70
    58
 90
        2
176
     1
 90
        2
176
     1
 90
        0
176
     1
 90
        0
176
     1
 40
0.6
176
     1
 40
30.0
176
     1
 62
     7
420
 16777215
176
     1
 90
        1
176
     1
 90
        4
176
     1
 62
     7
176
     1
 62
   257
176
     1
 90
        1
176
     1
 90
        1
176
     1
 40
1.0
176
     1
 90
        8
176
     1
 62
     7
176
     1
 40
1.0
176
     1
 90
        1
176
     1
 90
        6
176
     1
 90
        2
176
     1
 62
     7
176
     1
 90
        5
176
     1
 90
        0
176
     1
 90
        0
176
     1
290
     0
176
     1
 90
        1
176
     1
 40
50.0
176
     1
 90
        0
176
     1
290
     0
176
     1
290
     1
176
     1
290
     1
176
     1
290
     0
176
     1
290
     0
176
     1
290
     0
176
     1
290
     0
176
     1
290
     0
176
     1
290
     0
176
     1
 90
       50
176
     1
 40
0.0
176
     1
 40
1.0
176
     1
 90
        0
176
     1
 62
    18
420
        0
176
     1
 90
       50
176
     1
 90
        3
176
     1
 62
     5
420
      255
176
     1
290
     0
176
     1
 90
       50
176
     1
 90
       50
176
     1
 90
       50
176
     1
290
     0
176
     1
 90
       50
176
     1
 62
   256
176
     0
 40
1.0
176
     0
 90
        2
176
     1
  1
strokes_ogs.tif
176
     1
290
     0
176
     1
 40
1.0
176
     1
 40
1.0
176
     1
  0
VISUALSTYLE
  5
3A
102
{ACAD_REACTORS
330
2A
102
}
330
2A
100
AcDbVisualStyle
  2
ColorChange
 70
    16
177
     3
291
     1
 70
    58
 90
        2
176
     1
 90
        2
176
     1
 90
        3
176
     1
 90
        0
176
     1
 40
0.6
176
     1
 40
30.0
176
     1
 62
     8
420
  8421504
176
     1
 90
        1
176
     1
 90
        4
176
     1
 62
     7
176
     1
 62
   257
176
     1
 90
        1
176
     1
 90
        1
176
     1
 40
1.0
176
     1
 90
        8
176
     1
 62
     8
420
  8421504
176
     1
 40
1.0
176
     1
 90
        1
176
     1
 90
        6
176
     1
 90
        2
176
     1
 62
     7
176
     1
 90
        5
176
     1
 90
        0
176
     1
 90
        0
176
     1
290
     0
176
     1
 90
        1
176
     1
 40
0.0
176
     1
 90
        0
176
     1
290
     0
176
     1
290
     1
176
     1
290
     1
176
     1
290
     0
176
     1
290
     0
176
     1
290
     0
176
     1
290
     0
176
     1
290
     0
176
     1
290
     0
176
     1
 90
       50
176
     1
 40
0.0
176
     1
 40
1.0
176
     1
 90
        0
176
     1
 62
    18
420
        0
176
     1
 90
       50
176
     1
 90
        3
176
     1
 62
     5
420
      255
176
     1
290
     0
176
     1
 90
       50
176
     1
 90
       50
176
     1
 90
       50
176
     1
290
     0
176
     1
 90
       50
176
     1
 62
   256
176
     0
 40
1.0
176
     0
 90
        2
176
     1
  1
strokes_ogs.tif
176
     1
290
     0
176
     1
 40
1.0
176
     1
 40
1.0
176
     1
  0
VISUALSTYLE
  5
34
102
{ACAD_REACTORS
330
2A
102
}
330
2A
100
AcDbVisualStyle
  2
Conceptual
 70
     9
177
     3
291
     0
 70
    58
 90
        3
176
     1
 90
        2
176
     1
 90
        0
176
     1
 90
        0
176
     1
 40
0.6
176
     1
 40
30.0
176
     1
 62
     7
420
 16777215
176
     1
 90
        2
176
     1
 90
        2
176
     1
 62
     7
176
     1
 62
   257
176
     1
 90
        1
176
     1
 90
        1
176
     1
 40
179.0
176
     1
 90
        8
176
     1
 62
     7
176
     1
 40
1.0
176
     1
 90
        1
176
     1
 90
        6
176
     1
 90
        2
176
     1
 62
     7
176
     1
 90
        3
176
     1
 90
        0
176
     1
 90
        0
176
     1
290
     0
176
     1
 90
        1
176
     1
 40
0.0
176
     1
 90
        0
176
     1
290
     0
176
     1
290
     1
176
     1
290
     1
176
     1
290
     0
176
     1
290
     0
176
     1
290
     0
176
     1
290
     0
176
     1
290
     0
176
     1
290
     0
176
     1
 90
       50
176
     1
 40
0.0
176
     1
 40
1.0
176
     1
 90
        0
176
     1
 62
    18
420
        0
176
     1
 90
       50
176
     1
 90
        3
176
     1
 62
     5
420
      255
176
     1
290
     0
176
     1
 90
       50
176
     1
 90
       50
176
     1
 90
       50
176
     1
290
     0
176
     1
 90
       50
176
     1
 62
   256
176
     0
 40
1.0
176
     0
 90
        2
176
     1
  1
strokes_ogs.tif
176
     1
290
     0
176
     1
 40
1.0
176
     1
 40
1.0
176
     1
  0
VISUALSTYLE
  5
35
102
{ACAD_REACTORS
330
2A
102
}
330
2A
100
AcDbVisualStyle
  2
Dim
 70
    11
177
     3
291
     1
 70
    58
 90
        2
176
     1
 90
        2
176
     1
 90
        0
176
     1
 90
        0
176
     1
 40
0.6
176
     1
 40
30.0
176
     1
 62
     7
420
 16777215
176
     1
 90
        1
176
     1
 90
        4
176
     1
 62
     7
176
     1
 62
   257
176
     1
 90
        1
176
     1
 90
        1
176
     1
 40
1.0
176
     1
 90
        8
176
     1
 62
     7
176
     1
 40
1.0
176
     1
 90
        1
176
     1
 90
        6
176
     1
 90
        2
176
     1
 62
     7
176
     1
 90
        5
176
     1
 90
        0
176
     1
 90
        0
176
     1
290
     0
176
     1
 90
        1
176
     1
 40
-50.0
176
     1
 90
        0
176
     1
290
     0
176
     1
290
     1
176
     1
290
     1
176
     1
290
     0
176
     1
290
     0
176
     1
290
     0
176
     1
290
     0
176
     1
290
     0
176
     1
290
     0
176
     1
 90
       50
176
     1
 40
0.0
176
     1
 40
1.0
176
     1
 90
        0
176
     1
 62
    18
420
        0
176
     1
 90
       50
176
     1
 90
        3
176
     1
 62
     5
420
      255
176
     1
290
     0
176
     1
 90
       50
176
     1
 90
       50
176
     1
 90
       50
176
     1
290
     0
176
     1
 90
       50
176
     1
 62
   256
176
     0
 40
1.0
176
     0
 90
        2
176
     1
  1
strokes_ogs.tif
176
     1
290
     0
176
     1
 40
1.0
176
     1
 40
1.0
176
     1
  0
VISUALSTYLE
  5
3D
102
{ACAD_REACTORS
330
2A
102
}
330
2A
100
AcDbVisualStyle
  2
EdgeColorOff
 70
    22
177
     3
291
     1
 70
    58
 90
        2
176
     0
 90
        2
176
     0
 90
        0
176
     0
 90
        0
176
     0
 40
0.6
176
     0
 40
30.0
176
     0
 62
     7
420
 16777215
176
     0
 90
        1
176
     0
 90
        4
176
     0
 62
     7
176
     0
 62
   257
176
     0
 90
        1
176
     0
 90
        1
176
     0
 40
1.0
176
     0
 90
        8
176
     2
 62
     7
176
     0
 40
1.0
176
     0
 90
        1
176
     0
 90
        6
176
     0
 90
        2
176
     0
 62
     7
176
     0
 90
        5
176
     0
 90
        0
176
     0
 90
        0
176
     0
290
     0
176
     0
 90
        1
176
     0
 40
0.0
176
     0
 90
        0
176
     0
290
     0
176
     0
290
     1
176
     0
290
     1
176
     0
290
     0
176
     0
290
     0
176
     0
290
     0
176
     0
290
     0
176
     0
290
     0
176
     0
290
     0
176
     0
 90
       50
176
     0
 40
0.0
176
     0
 40
1.0
176
     0
 90
        0
176
     0
 62
    18
420
        0
176
     0
 90
       50
176
     0
 90
        3
176
     0
 62
     5
420
      255
176
     0
290
     0
176
     0
 90
       50
176
     0
 90
       50
176
     0
 90
       50
176
     0
290
     0
176
     0
 90
       50
176
     0
 62
   256
176
     0
 40
1.0
176
     0
 90
        2
176
     0
  1
strokes_ogs.tif
176
     0
290
     0
176
     0
 40
1.0
176
     0
 40
1.0
176
     0
  0
VISUALSTYLE
  5
39
102
{ACAD_REACTORS
330
2A
102
}
330
2A
100
AcDbVisualStyle
  2
Facepattern
 70
    15
177
     3
291
     1
 70
    58
 90
        2
176
     1
 90
        2
176
     1
 90
        0
176
     1
 90
        0
176
     1
 40
0.6
176
     1
 40
30.0
176
     1
 62
     7
420
 16777215
176
     1
 90
        1
176
     1
 90
        4
176
     1
 62
     7
176
     1
 62
   257
176
     1
 90
        1
176
     1
 90
        1
176
     1
 40
1.0
176
     1
 90
        8
176
     1
 62
     7
176
     1
 40
1.0
176
     1
 90
        1
176
     1
 90
        6
176
     1
 90
        2
176
     1
 62
     7
176
     1
 90
        5
176
     1
 90
        0
176
     1
 90
        0
176
     1
290
     0
176
     1
 90
        1
176
     1
 40
0.0
176
     1
 90
        0
176
     1
290
     0
176
     1
290
     1
176
     1
290
     1
176
     1
290
     0
176
     1
290
     0
176
     1
290
     0
176
     1
290
     0
176
     1
290
     0
176
     1
290
     0
176
     1
 90
       50
176
     1
 40
0.0
176
     1
 40
1.0
176
     1
 90
        0
176
     1
 62
    18
420
        0
176
     1
 90
       50
176
     1
 90
        3
176
     1
 62
     5
420
      255
176
     1
290
     0
176
     1
 90
       50
176
     1
 90
       50
176
     1
 90
       50
176
     1
290
     0
176
     1
 90
       50
176
     1
 62
   256
176
     0
 40
1.0
176
     0
 90
        2
176
     1
  1
strokes_ogs.tif
176
     1
290
     0
176
     1
 40
1.0
176
     1
 40
1.0
176
     1
  0
VISUALSTYLE
  5
2B
102
{ACAD_REACTORS
330
2A
102
}
330
2A
100
AcDbVisualStyle
  2
Flat
 70
     0
177
     3
291
     1
 70
    58
 90
        2
176
     1
 90
        1
176
     1
 90
        1
176
     1
 90
        2
176
     1
 40
0.6
176
     1
 40
30.0
176
     1
 62
     7
420
 16777215
176
     1
 90
        0
176
     1
 90
        0
176
     1
 62
     7
176
     1
 62
   257
176
     1
 90
        1
176
     1
 90
        1
176
     1
 40
1.0
176
     1
 90
        8
176
     1
 62
     7
176
     1
 40
1.0
176
     1
 90
        1
176
     1
 90
        6
176
     1
 90
        2
176
     1
 62
     7
176
     1
 90
        5
176
     1
 90
        0
176
     1
 90
        0
176
     1
290
     0
176
     1
 90
       13
176
     1
 40
0.0
176
     1
 90
        0
176
     1
290
     0
176
     1
290
     1
176
     1
290
     1
176
     1
290
     0
176
     1
290
     0
176
     1
290
     0
176
     1
290
     0
176
     1
290
     0
176
     1
290
     0
176
     1
 90
       50
176
     1
 40
0.0
176
     1
 40
1.0
176
     1
 90
        0
176
     1
 62
    18
420
        0
176
     1
 90
       50
176
     1
 90
        3
176
     1
 62
     5
420
      255
176
     1
290
     0
176
     1
 90
       50
176
     1
 90
       50
176
     1
 90
       50
176
     1
290
     0
176
     1
 90
       50
176
     1
 62
   256
176
     0
 40
1.0
176
     0
 90
        2
176
     1
  1
strokes_ogs.tif
176
     1
290
     0
176
     1
 40
1.0
176
     1
 40
1.0
176
     1
  0
VISUALSTYLE
  5
2C
102
{ACAD_REACTORS
330
2A
102
}
330
2A
100
AcDbVisualStyle
  2
FlatWithEdges
 70
     1
177
     3
291
     1
 70
    58
 90
        2
176
     1
 90
        1
176
     1
 90
        1
176
     1
 90
        2
176
     1
 40
0.6
176
     1
 40
30.0
176
     1
 62
     7
420
 16777215
176
     1
 90
        1
176
     1
 90
        0
176
     1
 62
     7
176
     1
 62
   257
176
     1
 90
        1
176
     1
 90
        1
176
     1
 40
1.0
176
     1
 90
        0
176
     1
 62
   257
176
     1
 40
1.0
176
     1
 90
        1
176
     1
 90
        6
176
     1
 90
        2
176
     1
 62
     7
176
     1
 90
        5
176
     1
 90
        0
176
     1
 90
        0
176
     1
290
     0
176
     1
 90
       13
176
     1
 40
0.0
176
     1
 90
        0
176
     1
290
     0
176
     1
290
     1
176
     1
290
     1
176
     1
290
     0
176
     1
290
     0
176
     1
290
     0
176
     1
290
     0
176
     1
290
     0
176
     1
290
     0
176
     1
 90
       50
176
     1
 40
0.0
176
     1
 40
1.0
176
     1
 90
        0
176
     1
 62
    18
420
        0
176
     1
 90
       50
176
     1
 90
        3
176
     1
 62
     5
420
      255
176
     1
290
     0
176
     1
 90
       50
176
     1
 90
       50
176
     1
 90
       50
176
     1
290
     0
176
     1
 90
       50
176
     1
 62
   256
176
     0
 40
1.0
176
     0
 90
        2
176
     1
  1
strokes_ogs.tif
176
     1
290
     0
176
     1
 40
1.0
176
     1
 40
1.0
176
     1
  0
VISUALSTYLE
  5
2D
102
{ACAD_REACTORS
330
2A
102
}
330
2A
100
AcDbVisualStyle
  2
Gouraud
 70
     2
177
     3
291
     1
 70
    58
 90
        2
176
     1
 90
        2
176
     1
 90
        1
176
     1
 90
        2
176
     1
 40
0.6
176
     1
 40
30.0
176
     1
 62
     7
420
 16777215
176
     1
 90
        0
176
     1
 90
        0
176
     1
 62
     7
176
     1
 62
   257
176
     1
 90
        1
176
     1
 90
        1
176
     1
 40
1.0
176
     1
 90
        0
176
     1
 62
     7
176
     1
 40
1.0
176
     1
 90
        1
176
     1
 90
        6
176
     1
 90
        2
176
     1
 62
     7
176
     1
 90
        5
176
     1
 90
        0
176
     1
 90
        0
176
     1
290
     0
176
     1
 90
       13
176
     1
 40
0.0
176
     1
 90
        0
176
     1
290
     0
176
     1
290
     1
176
     1
290
     1
176
     1
290
     0
176
     1
290
     0
176
     1
290
     0
176
     1
290
     0
176
     1
290
     0
176
     1
290
     0
176
     1
 90
       50
176
     1
 40
0.0
176
     1
 40
1.0
176
     1
 90
        0
176
     1
 62
    18
420
        0
176
     1
 90
       50
176
     1
 90
        3
176
     1
 62
     5
420
      255
176
     1
290
     0
176
     1
 90
       50
176
     1
 90
       50
176
     1
 90
       50
176
     1
290
     0
176
     1
 90
       50
176
     1
 62
   256
176
     0
 40
1.0
176
     0
 90
        2
176
     1
  1
strokes_ogs.tif
176
     1
290
     0
176
     1
 40
1.0
176
     1
 40
1.0
176
     1
  0
VISUALSTYLE
  5
2E
102
{ACAD_REACTORS
330
2A
102
}
330
2A
100
AcDbVisualStyle
  2
GouraudWithEdges
 70
     3
177
     3
291
     1
 70
    58
 90
        2
176
     1
 90
        2
176
     1
 90
        1
176
     1
 90
        2
176
     1
 40
0.6
176
     1
 40
30.0
176
     1
 62
     7
420
 16777215
176
     1
 90
        1
176
     1
 90
        0
176
     1
 62
     7
176
     1
 62
   257
176
     1
 90
        1
176
     1
 90
        1
176
     1
 40
1.0
176
     1
 90
        0
176
     1
 62
   257
176
     1
 40
1.0
176
     1
 90
        1
176
     1
 90
        6
176
     1
 90
        2
176
     1
 62
     7
176
     1
 90
        5
176
     1
 90
        0
176
     1
 90
        0
176
     1
290
     0
176
     1
 90
       13
176
     1
 40
0.0
176
     1
 90
        0
176
     1
290
     0
176
     1
290
     1
176
     1
290
     1
176
     1
290
     0
176
     1
290
     0
176
     1
290
     0
176
     1
290
     0
176
     1
290
     0
176
     1
290
     0
176
     1
 90
       50
176
     1
 40
0.0
176
     1
 40
1.0
176
     1
 90
        0
176
     1
 62
    18
420
        0
176
     1
 90
       50
176
     1
 90
        3
176
     1
 62
     5
420
      255
176
     1
290
     0
176
     1
 90
       50
176
     1
 90
       50
176
     1
 90
       50
176
     1
290
     0
176
     1
 90
       50
176
     1
 62
   256
176
     0
 40
1.0
176
     0
 90
        2
176
     1
  1
strokes_ogs.tif
176
     1
290
     0
176
     1
 40
1.0
176
     1
 40
1.0
176
     1
  0
VISUALSTYLE
  5
31
102
{ACAD_REACTORS
330
2A
102
}
330
2A
100
AcDbVisualStyle
  2
Hidden
 70
     6
177
     3
291
     0
 70
    58
 90
        1
176
     1
 90
        2
176
     1
 90
        2
176
     1
 90
        0
176
     1
 40
0.6
176
     1
 40
30.0
176
     1
 62
     7
420
 16777215
176
     1
 90
        2
176
     1
 90
        2
176
     1
 62
     7
176
     1
 62
   257
176
     1
 90
        2
176
     1
 90
        1
176
     1
 40
40.0
176
     1
 90
        0
176
     1
 62
   257
176
     1
 40
1.0
176
     1
 90
        1
176
     1
 90
        6
176
     1
 90
        2
176
     1
 62
     7
176
     1
 90
        3
176
     1
 90
        0
176
     1
 90
        0
176
     1
290
     0
176
     1
 90
        1
176
     1
 40
0.0
176
     1
 90
        0
176
     1
290
     0
176
     1
290
     1
176
     1
290
     1
176
     1
290
     0
176
     1
290
     0
176
     1
290
     0
176
     1
290
     0
176
     1
290
     0
176
     1
290
     0
176
     1
 90
       50
176
     1
 40
0.0
176
     1
 40
1.0
176
     1
 90
        0
176
     1
 62
    18
420
        0
176
     1
 90
       50
176
     1
 90
        3
176
     1
 62
     5
420
      255
176
     1
290
     0
176
     1
 90
       50
176
     1
 90
       50
176
     1
 90
       50
176
     1
290
     0
176
     1
 90
       50
176
     1
 62
   256
176
     0
 40
1.0
176
     0
 90
        2
176
     1
  1
strokes_ogs.tif
176
     1
290
     0
176
     1
 40
1.0
176
     1
 40
1.0
176
     1
  0
VISUALSTYLE
  5
3B
102
{ACAD_REACTORS
330
2A
102
}
330
2A
100
AcDbVisualStyle
  2
JitterOff
 70
    20
177
     3
291
     1
 70
    58
 90
        2
176
     0
 90
        2
176
     0
 90
        0
176
     0
 90
        0
176
     0
 40
0.6
176
     0
 40
30.0
176
     0
 62
     7
420
 16777215
176
     0
 90
        1
176
     0
 90
        4
176
     0
 62
     7
176
     0
 62
   257
176
     0
 90
        1
176
     0
 90
        1
176
     0
 40
1.0
176
     0
 90
       10
176
     2
 62
     7
176
     0
 40
1.0
176
     0
 90
        1
176
     0
 90
        6
176
     0
 90
        2
176
     0
 62
     7
176
     0
 90
        5
176
     0
 90
        0
176
     0
 90
        0
176
     0
290
     0
176
     0
 90
        1
176
     0
 40
0.0
176
     0
 90
        0
176
     0
290
     0
176
     0
290
     1
176
     0
290
     1
176
     0
290
     0
176
     0
290
     0
176
     0
290
     0
176
     0
290
     0
176
     0
290
     0
176
     0
290
     0
176
     0
 90
       50
176
     0
 40
0.0
176
     0
 40
1.0
176
     0
 90
        0
176
     0
 62
    18
420
        0
176
     0
 90
       50
176
     0
 90
        3
176
     0
 62
     5
420
      255
176
     0
290
     0
176
     0
 90
       50
176
     0
 90
       50
176
     0
 90
       50
176
     0
290
     0
176
     0
 90
       50
176
     0
 62
   256
176
     0
 40
1.0
176
     0
 90
        2
176
     0
  1
strokes_ogs.tif
176
     0
290
     0
176
     0
 40
1.0
176
     0
 40
1.0
176
     0
  0
VISUALSTYLE
  5
38
102
{ACAD_REACTORS
330
2A
102
}
330
2A
100
AcDbVisualStyle
  2
Linepattern
 70
    14
177
     3
291
     1
 70
    58
 90
        2
176
     1
 90
        2
176
     1
 90
        0
176
     1
 90
        0
176
     1
 40
0.6
176
     1
 40
30.0
176
     1
 62
     7
420
 16777215
176
     1
 90
        1
176
     1
 90
        4
176
     1
 62
     7
176
     1
 62
   257
176
     1
 90
        7
176
     1
 90
        7
176
     1
 40
1.0
176
     1
 90
        8
176
     1
 62
     7
176
     1
 40
1.0
176
     1
 90
        1
176
     1
 90
        6
176
     1
 90
        2
176
     1
 62
     7
176
     1
 90
        5
176
     1
 90
        0
176
     1
 90
        0
176
     1
290
     0
176
     1
 90
        1
176
     1
 40
0.0
176
     1
 90
        0
176
     1
290
     0
176
     1
290
     1
176
     1
290
     1
176
     1
290
     0
176
     1
290
     0
176
     1
290
     0
176
     1
290
     0
176
     1
290
     0
176
     1
290
     0
176
     1
 90
       50
176
     1
 40
0.0
176
     1
 40
1.0
176
     1
 90
        0
176
     1
 62
    18
420
        0
176
     1
 90
       50
176
     1
 90
        3
176
     1
 62
     5
420
      255
176
     1
290
     0
176
     1
 90
       50
176
     1
 90
       50
176
     1
 90
       50
176
     1
290
     0
176
     1
 90
       50
176
     1
 62
   256
176
     0
 40
1.0
176
     0
 90
        2
176
     1
  1
strokes_ogs.tif
176
     1
290
     0
176
     1
 40
1.0
176
     1
 40
1.0
176
     1
  0
VISUALSTYLE
  5
3C
102
{ACAD_REACTORS
330
2A
102
}
330
2A
100
AcDbVisualStyle
  2
OverhangOff
 70
    21
177
     3
291
     1
 70
    58
 90
        2
176
     0
 90
        2
176
     0
 90
        0
176
     0
 90
        0
176
     0
 40
0.6
176
     0
 40
30.0
176
     0
 62
     7
420
 16777215
176
     0
 90
        1
176
     0
 90
        4
176
     0
 62
     7
176
     0
 62
   257
176
     0
 90
        1
176
     0
 90
        1
176
     0
 40
1.0
176
     0
 90
        9
176
     2
 62
     7
176
     0
 40
1.0
176
     0
 90
        1
176
     0
 90
        6
176
     0
 90
        2
176
     0
 62
     7
176
     0
 90
        5
176
     0
 90
        0
176
     0
 90
        0
176
     0
290
     0
176
     0
 90
        1
176
     0
 40
0.0
176
     0
 90
        0
176
     0
290
     0
176
     0
290
     1
176
     0
290
     1
176
     0
290
     0
176
     0
290
     0
176
     0
290
     0
176
     0
290
     0
176
     0
290
     0
176
     0
290
     0
176
     0
 90
       50
176
     0
 40
0.0
176
     0
 40
1.0
176
     0
 90
        0
176
     0
 62
    18
420
        0
176
     0
 90
       50
176
     0
 90
        3
176
     0
 62
     5
420
      255
176
     0
290
     0
176
     0
 90
       50
176
     0
 90
       50
176
     0
 90
       50
176
     0
290
     0
176
     0
 90
       50
176
     0
 62
   256
176
     0
 40
1.0
176
     0
 90
        2
176
     0
  1
strokes_ogs.tif
176
     0
290
     0
176
     0
 40
1.0
176
     0
 40
1.0
176
     0
  0
VISUALSTYLE
  5
33
102
{ACAD_REACTORS
330
2A
102
}
330
2A
100
AcDbVisualStyle
  2
Realistic
 70
     8
177
     3
291
     0
 70
    58
 90
        2
176
     1
 90
        3
176
     1
 90
        0
176
     1
 90
        2
176
     1
 40
0.6
176
     1
 40
30.0
176
     1
 62
     7
420
 16777215
176
     1
 90
        0
176
     1
 90
        0
176
     1
 62
     7
176
     1
 62
   257
176
     1
 90
        1
176
     1
 90
        1
176
     1
 40
1.0
176
     1
 90
        8
176
     1
 62
   257
176
     1
 40
1.0
176
     1
 90
        1
176
     1
 90
        6
176
     1
 90
        2
176
     1
 62
     7
176
     1
 90
        3
176
     1
 90
        0
176
     1
 90
        0
176
     1
290
     0
176
     1
 90
       13
176
     1
 40
0.0
176
     1
 90
        0
176
     1
290
     0
176
     1
290
     1
176
     1
290
     1
176
     1
290
     0
176
     1
290
     0
176
     1
290
     0
176
     1
290
     0
176
     1
290
     0
176
     1
290
     0
176
     1
 90
       50
176
     1
 40
0.0
176
     1
 40
1.0
176
     1
 90
        0
176
     1
 62
    18
420
        0
176
     1
 90
       50
176
     1
 90
        3
176
     1
 62
     5
420
      255
176
     1
290
     0
176
     1
 90
       50
176
     1
 90
       50
176
     1
 90
       50
176
     1
290
     0
176
     1
 90
       50
176
     1
 62
   256
176
     0
 40
1.0
176
     0
 90
        2
176
     1
  1
strokes_ogs.tif
176
     1
290
     0
176
     1
 40
1.0
176
     1
 40
1.0
176
     1
  0
VISUALSTYLE
  5
42
102
{ACAD_REACTORS
330
2A
102
}
330
2A
100
AcDbVisualStyle
  2
Shaded
 70
    27
177
     3
291
     0
 70
    58
 90
        2
176
     1
 90
        2
176
     1
 90
        1
176
     1
 90
        2
176
     1
 40
0.6
176
     1
 40
30.0
176
     1
 62
     7
420
 16777215
176
     1
 90
        0
176
     1
 90
        4
176
     1
 62
     7
176
     1
 62
   257
176
     1
 90
        1
176
     1
 90
        1
176
     1
 40
1.0
176
     1
 90
        8
176
     1
 62
   257
176
     1
 40
1.0
176
     1
 90
        1
176
     1
 90
        6
176
     1
 90
        2
176
     1
 62
     8
420
  7895160
176
     1
 90
        3
176
     1
 90
        0
176
     1
 90
        0
176
     1
290
     0
176
     1
 90
        5
176
     1
 40
0.0
176
     1
 90
        0
176
     1
290
     0
176
     1
290
     1
176
     1
290
     1
176
     1
290
     0
176
     1
290
     0
176
     1
290
     0
176
     1
290
     0
176
     1
290
     0
176
     1
290
     0
176
     1
 90
       50
176
     1
 40
0.0
176
     1
 40
1.0
176
     1
 90
        0
176
     1
 62
    18
420
        0
176
     1
 90
       50
176
     1
 90
        3
176
     1
 62
     5
420
      255
176
     1
290
     0
176
     1
 90
       50
176
     1
 90
       50
176
     1
 90
       50
176
     1
290
     0
176
     1
 90
       50
176
     1
 62
   256
176
     0
 40
1.0
176
     0
 90
        2
176
     1
  1
strokes_ogs.tif
176
     1
290
     0
176
     1
 40
1.0
176
     1
 40
1.0
176
     1
  0
VISUALSTYLE
  5
41
102
{ACAD_REACTORS
330
2A
102
}
330
2A
100
AcDbVisualStyle
  2
Shaded with edges
 70
    26
177
     3
291
     0
 70
    58
 90
        2
176
     1
 90
        2
176
     1
 90
        1
176
     1
 90
        2
176
     1
 40
0.6
176
     1
 40
30.0
176
     1
 62
     7
420
 16777215
176
     1
 90
        1
176
     1
 90
       10
176
     1
 62
     7
176
     1
 62
   257
176
     1
 90
        2
176
     1
 90
        1
176
     1
 40
1.0
176
     1
 90
        8
176
     1
 62
   257
176
     1
 40
1.0
176
     1
 90
        1
176
     1
 90
        6
176
     1
 90
        2
176
     1
 62
     7
176
     1
 90
        3
176
     1
 90
        0
176
     1
 90
        0
176
     1
290
     0
176
     1
 90
        5
176
     1
 40
0.0
176
     1
 90
        0
176
     1
290
     0
176
     1
290
     1
176
     1
290
     1
176
     1
290
     0
176
     1
290
     0
176
     1
290
     0
176
     1
290
     0
176
     1
290
     0
176
     1
290
     0
176
     1
 90
       50
176
     1
 40
0.0
176
     1
 40
1.0
176
     1
 90
        0
176
     1
 62
    18
420
        0
176
     1
 90
       50
176
     1
 90
        3
176
     1
 62
     5
420
      255
176
     1
290
     0
176
     1
 90
       50
176
     1
 90
       50
176
     1
 90
       50
176
     1
290
     0
176
     1
 90
       50
176
     1
 62
   256
176
     0
 40
1.0
176
     0
 90
        2
176
     1
  1
strokes_ogs.tif
176
     1
290
     0
176
     1
 40
1.0
176
     1
 40
1.0
176
     1
  0
VISUALSTYLE
  5
3E
102
{ACAD_REACTORS
330
2A
102
}
330
2A
100
AcDbVisualStyle
  2
Shades of Gray
 70
    23
177
     3
291
     0
 70
    58
 90
        2
176
     1
 90
        2
176
     1
 90
        3
176
     1
 90
        0
176
     1
 40
0.6
176
     1
 40
30.0
176
     1
 62
     7
420
 16777215
176
     1
 90
        2
176
     1
 90
        2
176
     1
 62
     7
176
     1
 62
     7
176
     1
 90
        1
176
     1
 90
        1
176
     1
 40
40.0
176
     1
 90
        8
176
     1
 62
     7
176
     1
 40
1.0
176
     1
 90
        1
176
     1
 90
        6
176
     1
 90
        2
176
     1
 62
     7
176
     1
 90
        3
176
     1
 90
        0
176
     1
 90
        0
176
     1
290
     0
176
     1
 90
        1
176
     1
 40
0.0
176
     1
 90
        0
176
     1
290
     0
176
     1
290
     1
176
     1
290
     1
176
     1
290
     0
176
     1
290
     0
176
     1
290
     0
176
     1
290
     0
176
     1
290
     0
176
     1
290
     0
176
     1
 90
       50
176
     1
 40
0.0
176
     1
 40
1.0
176
     1
 90
        0
176
     1
 62
    18
420
        0
176
     1
 90
       50
176
     1
 90
        3
176
     1
 62
     5
420
      255
176
     1
290
     0
176
     1
 90
       50
176
     1
 90
       50
176
     1
 90
       50
176
     1
290
     0
176
     1
 90
       50
176
     1
 62
   256
176
     0
 40
1.0
176
     0
 90
        2
176
     1
  1
strokes_ogs.tif
176
     1
290
     0
176
     1
 40
1.0
176
     1
 40
1.0
176
     1
  0
VISUALSTYLE
  5
3F
102
{ACAD_REACTORS
330
2A
102
}
330
2A
100
AcDbVisualStyle
  2
Sketchy
 70
    24
177
     3
291
     0
 70
    58
 90
        1
176
     1
 90
        2
176
     1
 90
        2
176
     1
 90
        0
176
     1
 40
0.6
176
     1
 40
30.0
176
     1
 62
     7
420
 16777215
176
     1
 90
        2
176
     1
 90
        2
176
     1
 62
     7
176
     1
 62
     7
176
     1
 90
        1
176
     1
 90
        1
176
     1
 40
40.0
176
     1
 90
       11
176
     1
 62
     7
176
     1
 40
1.0
176
     1
 90
        1
176
     1
 90
        6
176
     1
 90
        2
176
     1
 62
     7
176
     1
 90
        6
176
     1
 90
        0
176
     1
 90
        0
176
     1
290
     0
176
     1
 90
        1
176
     1
 40
0.0
176
     1
 90
        0
176
     1
290
     0
176
     1
290
     1
176
     1
290
     1
176
     1
290
     0
176
     1
290
     0
176
     1
290
     0
176
     1
290
     0
176
     1
290
     0
176
     1
290
     0
176
     1
 90
       50
176
     1
 40
0.0
176
     1
 40
1.0
176
     1
 90
        0
176
     1
 62
    18
420
        0
176
     1
 90
       50
176
     1
 90
        3
176
     1
 62
     5
420
      255
176
     1
290
     0
176
     1
 90
       50
176
     1
 90
       50
176
     1
 90
       50
176
     1
290
     0
176
     1
 90
       50
176
     1
 62
   256
176
     0
 40
1.0
176
     0
 90
        2
176
     1
  1
strokes_ogs.tif
176
     1
290
     0
176
     1
 40
1.0
176
     1
 40
1.0
176
     1
  0
VISUALSTYLE
  5
37
102
{ACAD_REACTORS
330
2A
102
}
330
2A
100
AcDbVisualStyle
  2
Thicken
 70
    13
177
     3
291
     1
 70
    58
 90
        2
176
     1
 90
        2
176
     1
 90
        0
176
     1
 90
        0
176
     1
 40
0.6
176
     1
 40
30.0
176
     1
 62
     7
420
 16777215
176
     1
 90
        1
176
     1
 90
        4
176
     1
 62
     7
176
     1
 62
   257
176
     1
 90
        1
176
     1
 90
        1
176
     1
 40
1.0
176
     1
 90
       12
176
     1
 62
     7
176
     1
 40
1.0
176
     1
 90
        1
176
     1
 90
        6
176
     1
 90
        2
176
     1
 62
     7
176
     1
 90
        5
176
     1
 90
        0
176
     1
 90
        0
176
     1
290
     0
176
     1
 90
        1
176
     1
 40
0.0
176
     1
 90
        0
176
     1
290
     0
176
     1
290
     1
176
     1
290
     1
176
     1
290
     0
176
     1
290
     0
176
     1
290
     0
176
     1
290
     0
176
     1
290
     0
176
     1
290
     0
176
     1
 90
       50
176
     1
 40
0.0
176
     1
 40
1.0
176
     1
 90
        0
176
     1
 62
    18
420
        0
176
     1
 90
       50
176
     1
 90
        3
176
     1
 62
     5
420
      255
176
     1
290
     0
176
     1
 90
       50
176
     1
 90
       50
176
     1
 90
       50
176
     1
290
     0
176
     1
 90
       50
176
     1
 62
   256
176
     0
 40
1.0
176
     0
 90
        2
176
     1
  1
strokes_ogs.tif
176
     1
290
     0
176
     1
 40
1.0
176
     1
 40
1.0
176
     1
  0
VISUALSTYLE
  5
30
102
{ACAD_REACTORS
330
2A
102
}
330
2A
100
AcDbVisualStyle
  2
Wireframe
 70
     5
177
     3
291
     0
 70
    58
 90
        0
176
     1
 90
        2
176
     1
 90
        0
176
     1
 90
        0
176
     1
 40
0.6
176
     1
 40
30.0
176
     1
 62
     7
420
 16777215
176
     1
 90
        1
176
     1
 90
        4
176
     1
 62
     7
176
     1
 62
   257
176
     1
 90
        1
176
     1
 90
        1
176
     1
 40
1.0
176
     1
 90
        0
176
     1
 62
   257
176
     1
 40
1.0
176
     1
 90
        1
176
     1
 90
        6
176
     1
 90
        2
176
     1
 62
     7
176
     1
 90
        3
176
     1
 90
        0
176
     1
 90
        0
176
     1
290
     0
176
     1
 90
        1
176
     1
 40
0.0
176
     1
 90
        0
176
     1
290
     0
176
     1
290
     1
176
     1
290
     1
176
     1
290
     0
176
     1
290
     0
176
     1
290
     0
176
     1
290
     0
176
     1
290
     0
176
     1
290
     0
176
     1
 90
       50
176
     1
 40
0.0
176
     1
 40
1.0
176
     1
 90
        0
176
     1
 62
    18
420
        0
176
     1
 90
       50
176
     1
 90
        3
176
     1
 62
     5
420
      255
176
     1
290
     0
176
     1
 90
       50
176
     1
 90
       50
176
     1
 90
       50
176
     1
290
     0
176
     1
 90
       50
176
     1
 62
   256
176
     0
 40
1.0
176
     0
 90
        2
176
     1
  1
strokes_ogs.tif
176
     1
290
     0
176
     1
 40
1.0
176
     1
 40
1.0
176
     1
  0
VISUALSTYLE
  5
40
102
{ACAD_REACTORS
330
2A
102
}
330
2A
100
AcDbVisualStyle
  2
X-Ray
 70
    25
177
     3
291
     0
 70
    58
 90
        2
176
     1
 90
        2
176
     1
 90
        1
176
     1
 90
        1
176
     1
 40
0.5
176
     1
 40
30.0
176
     1
 62
     7
420
 16777215
176
     1
 90
        1
176
     1
 90
        0
176
     1
 62
     7
176
     1
 62
   257
176
     1
 90
        1
176
     1
 90
        1
176
     1
 40
1.0
176
     1
 90
        8
176
     1
 62
     7
176
     1
 40
1.0
176
     1
 90
        1
176
     1
 90
        6
176
     1
 90
        2
176
     1
 62
     7
176
     1
 90
        3
176
     1
 90
        0
176
     1
 90
        0
176
     1
290
     0
176
     1
 90
       13
176
     1
 40
0.0
176
     1
 90
        0
176
     1
290
     0
176
     1
290
     1
176
     1
290
     1
176
     1
290
     0
176
     1
290
     0
176
     1
290
     0
176
     1
290
     0
176
     1
290
     0
176
     1
290
     0
176
     1
 90
       50
176
     1
 40
0.0
176
     1
 40
1.0
176
     1
 90
        0
176
     1
 62
    18
420
        0
176
     1
 90
       50
176
     1
 90
        3
176
     1
 62
     5
420
      255
176
     1
290
     0
176
     1
 90
       50
176
     1
 90
       50
176
     1
 90
       50
176
     1
290
     0
176
     1
 90
       50
176
     1
 62
   256
176
     0
 40
1.0
176
     0
 90
        2
176
     1
  1
strokes_ogs.tif
176
     1
290
     0
176
     1
 40
1.0
176
     1
 40
1.0
176
     1
  0
DICTIONARYVAR
  5
226
102
{ACAD_REACTORS
330
225
102
}
330
225
100
DictionaryVariables
280
     0
  1
1:1
  0
DICTIONARYVAR
  5
22B
102
{ACAD_REACTORS
330
225
102
}
330
225
100
DictionaryVariables
280
     0
  1
Standard
  0
DICTIONARYVAR
  5
22A
102
{ACAD_REACTORS
330
225
102
}
330
225
100
DictionaryVariables
280
     0
  1
Standard
  0
DICTIONARY
  5
227
330
6A
100
AcDbDictionary
280
     1
281
     1
  3
ACAD_ROUNDTRIP_2008_TABLESTYLE_CELLSTYLEMAP
360
228
  0
CELLSTYLEMAP
  5
228
102
{ACAD_REACTORS
330
227
102
}
330
227
100
AcDbCellStyleMap
 90
        3
300
CELLSTYLE
  1
TABLEFORMAT_BEGIN
 90
        5
170
     1
 91
        0
 92
    32768
 62
   257
 93
        1
300
CONTENTFORMAT
  1
CONTENTFORMAT_BEGIN
 90
        0
 91
        0
 92
        4
 93
        0
300

 40
0.0
140
1.0
 94
        5
 62
     0
340
11
144
6.0
309
CONTENTFORMAT_END
171
     1
301
MARGIN
  1
CELLMARGIN_BEGIN
 40
1.5
 40
1.5
 40
1.5
 40
1.5
 40
1.5
 40
1.5
309
CELLMARGIN_END
 94
        6
 95
        1
302
GRIDFORMAT
  1
GRIDFORMAT_BEGIN
 90
        0
 91
        1
 62
     0
 92
       -2
340
14
 93
        0
 40
0.045
309
GRIDFORMAT_END
 95
        2
302
GRIDFORMAT
  1
GRIDFORMAT_BEGIN
 90
        0
 91
        1
 62
     0
 92
       -2
340
14
 93
        0
 40
0.045
309
GRIDFORMAT_END
 95
        4
302
GRIDFORMAT
  1
GRIDFORMAT_BEGIN
 90
        0
 91
        1
 62
     0
 92
       -2
340
14
 93
        0
 40
0.045
309
GRIDFORMAT_END
 95
        8
302
GRIDFORMAT
  1
GRIDFORMAT_BEGIN
 90
        0
 91
        1
 62
     0
 92
       -2
340
14
 93
        0
 40
0.045
309
GRIDFORMAT_END
 95
       16
302
GRIDFORMAT
  1
GRIDFORMAT_BEGIN
 90
        0
 91
        1
 62
     0
 92
       -2
340
14
 93
        0
 40
0.045
309
GRIDFORMAT_END
 95
       32
302
GRIDFORMAT
  1
GRIDFORMAT_BEGIN
 90
        0
 91
        1
 62
     0
 92
       -2
340
14
 93
        0
 40
0.045
309
GRIDFORMAT_END
309
TABLEFORMAT_END
  1
CELLSTYLE_BEGIN
 90
        1
 91
        1
300
_TITLE
309
CELLSTYLE_END
300
CELLSTYLE
  1
TABLEFORMAT_BEGIN
 90
        5
170
     1
 91
        0
 92
        0
 62
   257
 93
        1
300
CONTENTFORMAT
  1
CONTENTFORMAT_BEGIN
 90
        0
 91
        0
 92
        4
 93
        0
300

 40
0.0
140
1.0
 94
        5
 62
     0
340
11
144
4.5
309
CONTENTFORMAT_END
171
     1
301
MARGIN
  1
CELLMARGIN_BEGIN
 40
1.5
 40
1.5
 40
1.5
 40
1.5
 40
1.5
 40
1.5
309
CELLMARGIN_END
 94
        6
 95
        1
302
GRIDFORMAT
  1
GRIDFORMAT_BEGIN
 90
        0
 91
        1
 62
     0
 92
       -2
340
14
 93
        0
 40
0.045
309
GRIDFORMAT_END
 95
        2
302
GRIDFORMAT
  1
GRIDFORMAT_BEGIN
 90
        0
 91
        1
 62
     0
 92
       -2
340
14
 93
        0
 40
0.045
309
GRIDFORMAT_END
 95
        4
302
GRIDFORMAT
  1
GRIDFORMAT_BEGIN
 90
        0
 91
        1
 62
     0
 92
       -2
340
14
 93
        0
 40
0.045
309
GRIDFORMAT_END
 95
        8
302
GRIDFORMAT
  1
GRIDFORMAT_BEGIN
 90
        0
 91
        1
 62
     0
 92
       -2
340
14
 93
        0
 40
0.045
309
GRIDFORMAT_END
 95
       16
302
GRIDFORMAT
  1
GRIDFORMAT_BEGIN
 90
        0
 91
        1
 62
     0
 92
       -2
340
14
 93
        0
 40
0.045
309
GRIDFORMAT_END
 95
       32
302
GRIDFORMAT
  1
GRIDFORMAT_BEGIN
 90
        0
 91
        1
 62
     0
 92
       -2
340
14
 93
        0
 40
0.045
309
GRIDFORMAT_END
309
TABLEFORMAT_END
  1
CELLSTYLE_BEGIN
 90
        2
 91
        1
300
_HEADER
309
CELLSTYLE_END
300
CELLSTYLE
  1
TABLEFORMAT_BEGIN
 90
        5
170
     1
 91
        0
 92
        0
 62
   257
 93
        1
300
CONTENTFORMAT
  1
CONTENTFORMAT_BEGIN
 90
        0
 91
        0
 92
        4
 93
        0
300

 40
0.0
140
1.0
 94
        2
 62
     0
340
11
144
4.5
309
CONTENTFORMAT_END
171
     1
301
MARGIN
  1
CELLMARGIN_BEGIN
 40
1.5
 40
1.5
 40
1.5
 40
1.5
 40
1.5
 40
1.5
309
CELLMARGIN_END
 94
        6
 95
        1
302
GRIDFORMAT
  1
GRIDFORMAT_BEGIN
 90
        0
 91
        1
 62
     0
 92
       -2
340
14
 93
        0
 40
0.045
309
GRIDFORMAT_END
 95
        2
302
GRIDFORMAT
  1
GRIDFORMAT_BEGIN
 90
        0
 91
        1
 62
     0
 92
       -2
340
14
 93
        0
 40
0.045
309
GRIDFORMAT_END
 95
        4
302
GRIDFORMAT
  1
GRIDFORMAT_BEGIN
 90
        0
 91
        1
 62
     0
 92
       -2
340
14
 93
        0
 40
0.045
309
GRIDFORMAT_END
 95
        8
302
GRIDFORMAT
  1
GRIDFORMAT_BEGIN
 90
        0
 91
        1
 62
     0
 92
       -2
340
14
 93
        0
 40
0.045
309
GRIDFORMAT_END
 95
       16
302
GRIDFORMAT
  1
GRIDFORMAT_BEGIN
 90
        0
 91
        1
 62
     0
 92
       -2
340
14
 93
        0
 40
0.045
309
GRIDFORMAT_END
 95
       32
302
GRIDFORMAT
  1
GRIDFORMAT_BEGIN
 90
        0
 91
        1
 62
     0
 92
       -2
340
14
 93
        0
 40
0.045
309
GRIDFORMAT_END
309
TABLEFORMAT_END
  1
CELLSTYLE_BEGIN
 90
        3
 91
        2
300
_DATA
309
CELLSTYLE_END
  0
ENDSEC
  0
EOF