0
SECTION
  2
HEADER
  9
$ACADVER
  1
AC1027
  9
$ACADMAINTVER
 70
   105
  9
$DWGCODEPAGE
  3
ANSI_1252
  9
$REQUIREDVERSIONS
160
                 0
  9
$COMMENTS
  1
File was created by Cadenas
  9
$CUSTOMPROPERTYTAG
  1
NN
  9
$CUSTOMPROPERTY
  1
Grip Tight Medium Duty Wide Slot Take Up Metric Bore
  9
$CUSTOMPROPERTYTAG
  1
NT
  9
$CUSTOMPROPERTY
  1
GT Wide Slot Take-Up Bearings -(Medium Duty)
  9
$CUSTOMPROPERTYTAG
  1
NB
  9
$CUSTOMPROPERTY
  1
136304
  9
$CUSTOMPROPERTYTAG
  1
NBSYN
  9
$CUSTOMPROPERTY
  1
$PN.$LUBE.
  9
$CUSTOMPROPERTYTAG
  1
LINA
  9
$CUSTOMPROPERTY
  1
136304
  9
$CUSTOMPROPERTYTAG
  1
SERIES
  9
$CUSTOMPROPERTY
  1
207
  9
$CUSTOMPROPERTYTAG
  1
SS
  9
$CUSTOMPROPERTY
  1
30
  9
$CUSTOMPROPERTYTAG
  1
PN
  9
$CUSTOMPROPERTY
  1
136304
  9
$CUSTOMPROPERTYTAG
  1
DESCRIPTION
  9
$CUSTOMPROPERTY
  1
WSTU-GTM-30M
  9
$CUSTOMPROPERTYTAG
  1
A
  9
$CUSTOMPROPERTY
  1
41.3
  9
$CUSTOMPROPERTYTAG
  1
B
  9
$CUSTOMPROPERTY
  1
123.8
  9
$CUSTOMPROPERTYTAG
  1
C
  9
$CUSTOMPROPERTY
  1
13.5
  9
$CUSTOMPROPERTYTAG
  1
D
  9
$CUSTOMPROPERTY
  1
63.5
  9
$CUSTOMPROPERTYTAG
  1
E
  9
$CUSTOMPROPERTY
  1
77.8
  9
$CUSTOMPROPERTYTAG
  1
F
  9
$CUSTOMPROPERTY
  1
19.1
  9
$CUSTOMPROPERTYTAG
  1
G
  9
$CUSTOMPROPERTY
  1
12.7
  9
$CUSTOMPROPERTYTAG
  1
H
  9
$CUSTOMPROPERTY
  1
15.9
  9
$CUSTOMPROPERTYTAG
  1
J
  9
$CUSTOMPROPERTY
  1
63.5
  9
$CUSTOMPROPERTYTAG
  1
K
  9
$CUSTOMPROPERTY
  1
36.5
  9
$CUSTOMPROPERTYTAG
  1
L
  9
$CUSTOMPROPERTY
  1
58.3
  9
$CUSTOMPROPERTYTAG
  1
M
  9
$CUSTOMPROPERTY
  1
88.8
  9
$CUSTOMPROPERTYTAG
  1
N
  9
$CUSTOMPROPERTY
  1
104.8
  9
$CUSTOMPROPERTYTAG
  1
R
  9
$CUSTOMPROPERTY
  1
14.3
  9
$CUSTOMPROPERTYTAG
  1
S
  9
$CUSTOMPROPERTY
  1
27.0
  9
$CUSTOMPROPERTYTAG
  1
T
  9
$CUSTOMPROPERTY
  1
41.3
  9
$CUSTOMPROPERTYTAG
  1
Z
  9
$CUSTOMPROPERTY
  1
26.6
  9
$CUSTOMPROPERTYTAG
  1
COMPANY
  9
$CUSTOMPROPERTY
  1
baldor
  9
$INSBASE
 10
0.0
 20
0.0
 30
0.0
  9
$EXTMIN
 10
1.000000000000000E+20
 20
1.000000000000000E+20
 30
1.000000000000000E+20
  9
$EXTMAX
 10
-1.000000000000000E+20
 20
-1.000000000000000E+20
 30
-1.000000000000000E+20
  9
$LIMMIN
 10
0.0
 20
0.0
  9
$LIMMAX
 10
420.0
 20
297.0
  9
$ORTHOMODE
 70
     0
  9
$REGENMODE
 70
     1
  9
$FILLMODE
 70
     1
  9
$QTEXTMODE
 70
     0
  9
$MIRRTEXT
 70
     1
  9
$LTSCALE
 40
1.0
  9
$ATTMODE
 70
     1
  9
$TEXTSIZE
 40
2.5
  9
$TRACEWID
 40
1.0
  9
$TEXTSTYLE
  7
Standard
  9
$CLAYER
  8
0
  9
$CELTYPE
  6
ByLayer
  9
$CECOLOR
 62
   256
  9
$CELTSCALE
 40
1.0
  9
$DISPSILH
 70
     0
  9
$DIMSCALE
 40
1.0
  9
$DIMASZ
 40
2.5
  9
$DIMEXO
 40
0.625
  9
$DIMDLI
 40
3.75
  9
$DIMRND
 40
0.0
  9
$DIMDLE
 40
0.0
  9
$DIMEXE
 40
1.25
  9
$DIMTP
 40
0.0
  9
$DIMTM
 40
0.0
  9
$DIMTXT
 40
2.5
  9
$DIMCEN
 40
2.5
  9
$DIMTSZ
 40
0.0
  9
$DIMTOL
 70
     0
  9
$DIMLIM
 70
     0
  9
$DIMTIH
 70
     0
  9
$DIMTOH
 70
     0
  9
$DIMSE1
 70
     0
  9
$DIMSE2
 70
     0
  9
$DIMTAD
 70
     1
  9
$DIMZIN
 70
     8
  9
$DIMBLK
  1

  9
$DIMASO
 70
     1
  9
$DIMSHO
 70
     1
  9
$DIMPOST
  1

  9
$DIMAPOST
  1

  9
$DIMALT
 70
     0
  9
$DIMALTD
 70
     3
  9
$DIMALTF
 40
0.03937007874016
  9
$DIMLFAC
 40
1.0
  9
$DIMTOFL
 70
     1
  9
$DIMTVP
 40
0.0
  9
$DIMTIX
 70
     0
  9
$DIMSOXD
 70
     0
  9
$DIMSAH
 70
     0
  9
$DIMBLK1
  1

  9
$DIMBLK2
  1

  9
$DIMSTYLE
  2
ISO-25
  9
$DIMCLRD
 70
     0
  9
$DIMCLRE
 70
     0
  9
$DIMCLRT
 70
     0
  9
$DIMTFAC
 40
1.0
  9
$DIMGAP
 40
0.625
  9
$DIMJUST
 70
     0
  9
$DIMSD1
 70
     0
  9
$DIMSD2
 70
     0
  9
$DIMTOLJ
 70
     0
  9
$DIMTZIN
 70
     8
  9
$DIMALTZ
 70
     0
  9
$DIMALTTZ
 70
     0
  9
$DIMUPT
 70
     0
  9
$DIMDEC
 70
     2
  9
$DIMTDEC
 70
     2
  9
$DIMALTU
 70
     2
  9
$DIMALTTD
 70
     3
  9
$DIMTXSTY
  7
Standard
  9
$DIMAUNIT
 70
     0
  9
$DIMADEC
 70
     0
  9
$DIMALTRND
 40
0.0
  9
$DIMAZIN
 70
     0
  9
$DIMDSEP
 70
    44
  9
$DIMATFIT
 70
     3
  9
$DIMFRAC
 70
     0
  9
$DIMLDRBLK
  1

  9
$DIMLUNIT
 70
     2
  9
$DIMLWD
 70
    -2
  9
$DIMLWE
 70
    -2
  9
$DIMTMOVE
 70
     0
  9
$DIMFXL
 40
1.0
  9
$DIMFXLON
 70
     0
  9
$DIMJOGANG
 40
0.7853981633974483
  9
$DIMTFILL
 70
     0
  9
$DIMTFILLCLR
 70
     0
  9
$DIMARCSYM
 70
     0
  9
$DIMLTYPE
  6

  9
$DIMLTEX1
  6

  9
$DIMLTEX2
  6

  9
$DIMTXTDIRECTION
 70
     0
  9
$LUNITS
 70
     2
  9
$LUPREC
 70
     4
  9
$SKETCHINC
 40
1.0
  9
$FILLETRAD
 40
10.0
  9
$AUNITS
 70
     0
  9
$AUPREC
 70
     0
  9
$MENU
  1
.
  9
$ELEVATION
 40
0.0
  9
$PELEVATION
 40
0.0
  9
$THICKNESS
 40
0.0
  9
$LIMCHECK
 70
     0
  9
$CHAMFERA
 40
0.0
  9
$CHAMFERB
 40
0.0
  9
$CHAMFERC
 40
0.0
  9
$CHAMFERD
 40
0.0
  9
$SKPOLY
 70
     0
  9
$TDCREATE
 40
2458168.993014537
  9
$TDUCREATE
 40
2458168.95134787
  9
$TDUPDATE
 40
2458168.993014722
  9
$TDUUPDATE
 40
2458168.951348056
  9
$TDINDWG
 40
0.0000000116
  9
$TDUSRTIMER
 40
0.0000000116
  9
$USRTIMER
 70
     1
  9
$ANGBASE
 50
0.0
  9
$ANGDIR
 70
     0
  9
$PDMODE
 70
     0
  9
$PDSIZE
 40
0.0
  9
$PLINEWID
 40
0.0
  9
$SPLFRAME
 70
     0
  9
$SPLINETYPE
 70
     6
  9
$SPLINESEGS
 70
     8
  9
$HANDSEED
  5
230
  9
$SURFTAB1
 70
     6
  9
$SURFTAB2
 70
     6
  9
$SURFTYPE
 70
     6
  9
$SURFU
 70
     6
  9
$SURFV
 70
     6
  9
$UCSBASE
  2

  9
$UCSNAME
  2

  9
$UCSORG
 10
0.0
 20
0.0
 30
0.0
  9
$UCSXDIR
 10
1.0
 20
0.0
 30
0.0
  9
$UCSYDIR
 10
0.0
 20
1.0
 30
0.0
  9
$UCSORTHOREF
  2

  9
$UCSORTHOVIEW
 70
     0
  9
$UCSORGTOP
 10
0.0
 20
0.0
 30
0.0
  9
$UCSORGBOTTOM
 10
0.0
 20
0.0
 30
0.0
  9
$UCSORGLEFT
 10
0.0
 20
0.0
 30
0.0
  9
$UCSORGRIGHT
 10
0.0
 20
0.0
 30
0.0
  9
$UCSORGFRONT
 10
0.0
 20
0.0
 30
0.0
  9
$UCSORGBACK
 10
0.0
 20
0.0
 30
0.0
  9
$PUCSBASE
  2

  9
$PUCSNAME
  2

  9
$PUCSORG
 10
0.0
 20
0.0
 30
0.0
  9
$PUCSXDIR
 10
1.0
 20
0.0
 30
0.0
  9
$PUCSYDIR
 10
0.0
 20
1.0
 30
0.0
  9
$PUCSORTHOREF
  2

  9
$PUCSORTHOVIEW
 70
     0
  9
$PUCSORGTOP
 10
0.0
 20
0.0
 30
0.0
  9
$PUCSORGBOTTOM
 10
0.0
 20
0.0
 30
0.0
  9
$PUCSORGLEFT
 10
0.0
 20
0.0
 30
0.0
  9
$PUCSORGRIGHT
 10
0.0
 20
0.0
 30
0.0
  9
$PUCSORGFRONT
 10
0.0
 20
0.0
 30
0.0
  9
$PUCSORGBACK
 10
0.0
 20
0.0
 30
0.0
  9
$USERI1
 70
     0
  9
$USERI2
 70
     0
  9
$USERI3
 70
     0
  9
$USERI4
 70
     0
  9
$USERI5
 70
     0
  9
$USERR1
 40
0.0
  9
$USERR2
 40
0.0
  9
$USERR3
 40
0.0
  9
$USERR4
 40
0.0
  9
$USERR5
 40
0.0
  9
$WORLDVIEW
 70
     1
  9
$SHADEDGE
 70
     3
  9
$SHADEDIF
 70
    70
  9
$TILEMODE
 70
     1
  9
$MAXACTVP
 70
    64
  9
$PINSBASE
 10
0.0
 20
0.0
 30
0.0
  9
$PLIMCHECK
 70
     0
  9
$PEXTMIN
 10
1.000000000000000E+20
 20
1.000000000000000E+20
 30
1.000000000000000E+20
  9
$PEXTMAX
 10
-1.000000000000000E+20
 20
-1.000000000000000E+20
 30
-1.000000000000000E+20
  9
$PLIMMIN
 10
0.0
 20
0.0
  9
$PLIMMAX
 10
420.0
 20
297.0
  9
$UNITMODE
 70
     0
  9
$VISRETAIN
 70
     1
  9
$PLINEGEN
 70
     0
  9
$PSLTSCALE
 70
     1
  9
$TREEDEPTH
 70
  3020
  9
$CMLSTYLE
  2
Standard
  9
$CMLJUST
 70
     0
  9
$CMLSCALE
 40
20.0
  9
$PROXYGRAPHICS
 70
     1
  9
$MEASUREMENT
 70
     1
  9
$CELWEIGHT
370
    -1
  9
$ENDCAPS
280
     0
  9
$JOINSTYLE
280
     0
  9
$LWDISPLAY
290
     0
  9
$INSUNITS
 70
     4
  9
$HYPERLINKBASE
  1

  9
$STYLESHEET
  1

  9
$XEDIT
290
     1
  9
$CEPSNTYPE
380
     0
  9
$PSTYLEMODE
290
     1
  9
$FINGERPRINTGUID
  2
{A1D3A35C-B055-41B8-BCB0-6BA5916CEB48}
  9
$VERSIONGUID
  2
{FAEB1C32-E019-11D5-929B-00C0DF256EC4}
  9
$EXTNAMES
290
     1
  9
$PSVPSCALE
 40
0.0
  9
$OLESTARTUP
290
     0
  9
$SORTENTS
280
   127
  9
$INDEXCTL
280
     0
  9
$HIDETEXT
280
     1
  9
$XCLIPFRAME
280
     2
  9
$HALOGAP
280
     0
  9
$OBSCOLOR
 70
   257
  9
$OBSLTYPE
280
     0
  9
$INTERSECTIONDISPLAY
280
     0
  9
$INTERSECTIONCOLOR
 70
   257
  9
$DIMASSOC
280
     2
  9
$PROJECTNAME
  1

  9
$CAMERADISPLAY
290
     0
  9
$LENSLENGTH
 40
50.0
  9
$CAMERAHEIGHT
 40
0.0
  9
$STEPSPERSEC
 40
2.0
  9
$STEPSIZE
 40
6.0
  9
$3DDWFPREC
 40
2.0
  9
$PSOLWIDTH
 40
5.0
  9
$PSOLHEIGHT
 40
80.0
  9
$LOFTANG1
 40
1.570796326794897
  9
$LOFTANG2
 40
1.570796326794897
  9
$LOFTMAG1
 40
0.0
  9
$LOFTMAG2
 40
0.0
  9
$LOFTPARAM
 70
     7
  9
$LOFTNORMALS
280
     1
  9
$LATITUDE
 40
37.795
  9
$LONGITUDE
 40
-122.394
  9
$NORTHDIRECTION
 40
0.0
  9
$TIMEZONE
 70
 -8000
  9
$LIGHTGLYPHDISPLAY
280
     1
  9
$TILEMODELIGHTSYNCH
280
     1
  9
$CMATERIAL
347
44
  9
$SOLIDHIST
280
     0
  9
$SHOWHIST
280
     1
  9
$DWFFRAME
280
     2
  9
$DGNFRAME
280
     2
  9
$REALWORLDSCALE
290
     1
  9
$INTERFERECOLOR
 62
   256
  9
$CSHADOW
280
     0
  9
$SHADOWPLANELOCATION
 40
0.0
  0
ENDSEC
  0
SECTION
  2
CLASSES
  0
CLASS
  1
ACDBDICTIONARYWDFLT
  2
AcDbDictionaryWithDefault
  3
ObjectDBX Classes
 90
        0
 91
        4
280
     0
281
     0
  0
CLASS
  1
VISUALSTYLE
  2
AcDbVisualStyle
  3
ObjectDBX Classes
 90
     4095
 91
        4
280
     0
281
     0
  0
CLASS
  1
MATERIAL
  2
AcDbMaterial
  3
ObjectDBX Classes
 90
     1153
 91
        4
280
     0
281
     0
  0
CLASS
  1
SCALE
  2
AcDbScale
  3
ObjectDBX Classes
 90
     1153
 91
        4
280
     0
281
     0
  0
CLASS
  1
TABLESTYLE
  2
AcDbTableStyle
  3
ObjectDBX Classes
 90
     4095
 91
        4
280
     0
281
     0
  0
CLASS
  1
MLEADERSTYLE
  2
AcDbMLeaderStyle
  3
ACDB_MLEADERSTYLE_CLASS
 90
     4095
 91
        4
280
     0
281
     0
  0
CLASS
  1
SUN
  2
AcDbSun
  3
SCENEOE
 90
     1153
 91
        4
280
     0
281
     0
  0
CLASS
  1
DICTIONARYVAR
  2
AcDbDictionaryVar
  3
ObjectDBX Classes
 90
        0
 91
        4
280
     0
281
     0
  0
CLASS
  1
CELLSTYLEMAP
  2
AcDbCellStyleMap
  3
ObjectDBX Classes
 90
     1152
 91
        4
280
     0
281
     0
  0
ENDSEC
  0
SECTION
  2
TABLES
  0
TABLE
  2
VPORT
  5
8
330
0
100
AcDbSymbolTable
 70
     1
  0
VPORT
  5
29
330
8
100
AcDbSymbolTableRecord
100
AcDbViewportTableRecord
  2
*Active
 70
     0
 10
0.0
 20
0.0
 11
1.0
 21
1.0
 12
2.91142868586951
 22
0.25
 13
0.0
 23
0.0
 14
10.0
 24
10.0
 15
10.0
 25
10.0
 16
0.0
 26
0.0
 36
1.0
 17
0.0
 27
0.0
 37
0.0
 40
107.406
 41
0.9181657870060685
 42
50.0
 43
0.0
 44
0.0
 50
0.0
 51
0.0
 71
     0
 72
   100
 73
     1
 74
     3
 75
     0
 76
     0
 77
     0
 78
     0
281
     0
 65
     1
110
0.0
120
0.0
130
0.0
111
1.0
121
0.0
131
0.0
112
0.0
122
1.0
132
0.0
 79
     0
146
0.0
348
2F
 60
     3
 61
     5
292
     1
282
     1
141
0.0
142
0.0
 63
   250
361
6D
  0
ENDTAB
  0
TABLE
  2
LTYPE
  5
5
330
0
100
AcDbSymbolTable
 70
     3
  0
LTYPE
  5
14
330
5
100
AcDbSymbolTableRecord
100
AcDbLinetypeTableRecord
  2
ByBlock
 70
     0
  3

 72
    65
 73
     0
 40
0.0
  0
LTYPE
  5
15
330
5
100
AcDbSymbolTableRecord
100
AcDbLinetypeTableRecord
  2
ByLayer
 70
     0
  3

 72
    65
 73
     0
 40
0.0
  0
LTYPE
  5
16
330
5
100
AcDbSymbolTableRecord
100
AcDbLinetypeTableRecord
  2
Continuous
 70
     0
  3
Solid line
 72
    65
 73
     0
 40
0.0
  0
LTYPE
  5
9B
330
5
100
AcDbSymbolTableRecord
100
AcDbLinetypeTableRecord
  2
Dashed
 70
     0
  3

 72
    65
 73
     2
 40
2.0
 49
1.0
 74
     0
 49
-1.0
 74
     0
  0
LTYPE
  5
18A
330
5
100
AcDbSymbolTableRecord
100
AcDbLinetypeTableRecord
  2
Center
 70
     0
  3

 72
    65
 73
     4
 40
1.5
 49
0.45
 74
     0
 49
-0.5
 74
     0
 49
0.05
 74
     0
 49
-0.5
 74
     0
  0
ENDTAB
  0
TABLE
  2
LAYER
  5
2
330
0
100
AcDbSymbolTable
 70
     8
  0
LAYER
  5
10
330
2
100
AcDbSymbolTableRecord
100
AcDbLayerTableRecord
  2
0
 70
     0
 62
     7
  6
Continuous
370
    -3
390
F
347
46
348
0
  0
LAYER
  5
6E
330
2
100
AcDbSymbolTableRecord
100
AcDbLayerTableRecord
  2
AM_6
 70
     0
 62
    -2
  6
Continuous
370
    35
390
F
347
46
348
0
  0
LAYER
  5
9C
330
2
100
AcDbSymbolTableRecord
100
AcDbLayerTableRecord
  2
AM_9
 70
     0
 62
     6
  6
Dashed
370
    25
390
F
347
46
348
0
  0
LAYER
  5
188
330
2
100
AcDbSymbolTableRecord
100
AcDbLayerTableRecord
  2
AM_5
 70
     0
 62
     3
  6
Continuous
370
    25
390
F
347
46
348
0
  0
LAYER
  5
18B
330
2
100
AcDbSymbolTableRecord
100
AcDbLayerTableRecord
  2
AM_7
 70
     0
 62
     7
  6
Center
370
    25
390
F
347
46
348
0
  0
LAYER
  5
18D
330
2
100
AcDbSymbolTableRecord
100
AcDbLayerTableRecord
  2
AM_0
 70
     0
 62
     7
  6
Continuous
370
    50
390
F
347
46
348
0
  0
LAYER
  5
206
330
2
100
AcDbSymbolTableRecord
100
AcDbLayerTableRecord
  2
AM_4
 70
     0
 62
     3
  6
Continuous
370
    25
390
F
347
46
348
0
  0
LAYER
  5
21E
330
2
100
AcDbSymbolTableRecord
100
AcDbLayerTableRecord
  2
ConnectionPoints
 70
     0
 62
     7
  6
Continuous
370
    50
390
F
347
46
348
0
  0
ENDTAB
  0
TABLE
  2
STYLE
  5
3
330
0
100
AcDbSymbolTable
 70
     1
  0
STYLE
  5
11
330
3
100
AcDbSymbolTableRecord
100
AcDbTextStyleTableRecord
  2
Standard
 70
     0
 40
0.0
 41
1.0
 50
0.0
 71
     0
 42
2.5
  3
txt
  4

  0
ENDTAB
  0
TABLE
  2
VIEW
  5
6
330
0
100
AcDbSymbolTable
 70
     0
  0
ENDTAB
  0
TABLE
  2
UCS
  5
7
330
0
100
AcDbSymbolTable
 70
     0
  0
ENDTAB
  0
TABLE
  2
APPID
  5
9
330
0
100
AcDbSymbolTable
 70
     1
  0
APPID
  5
12
330
9
100
AcDbSymbolTableRecord
100
AcDbRegAppTableRecord
  2
ACAD
 70
     0
  0
ENDTAB
  0
TABLE
  2
DIMSTYLE
  5
A
330
0
100
AcDbSymbolTable
 70
     1
100
AcDbDimStyleTable
  0
DIMSTYLE
105
27
330
A
100
AcDbSymbolTableRecord
100
AcDbDimStyleTableRecord
  2
ISO-25
 70
     0
 41
2.5
 42
0.625
 43
3.75
 44
1.25
 73
     0
 74
     0
 77
     1
 78
     8
140
2.5
141
2.5
143
0.03937007874016
147
0.625
171
     3
172
     1
178
     0
271
     2
272
     2
274
     3
278
    44
283
     0
284
     8
340
11
  0
ENDTAB
  0
TABLE
  2
BLOCK_RECORD
  5
1
330
0
100
AcDbSymbolTable
 70
     5
  0
BLOCK_RECORD
  5
1F
330
1
100
AcDbSymbolTableRecord
100
AcDbBlockTableRecord
  2
*Model_Space
340
22
 70
     0
280
     1
281
     0
  0
BLOCK_RECORD
  5
1B
330
1
100
AcDbSymbolTableRecord
100
AcDbBlockTableRecord
  2
*Paper_Space
340
1E
 70
     0
280
     1
281
     0
  0
BLOCK_RECORD
  5
23
330
1
100
AcDbSymbolTableRecord
100
AcDbBlockTableRecord
  2
*Paper_Space0
340
26
 70
     0
280
     1
281
     0
  0
BLOCK_RECORD
  5
8A
330
1
100
AcDbSymbolTableRecord
100
AcDbBlockTableRecord
  2
1_405016_Metric_0_in_136304_2
340
0
102
{BLKREFS
331
8B
102
}
 70
     0
280
     1
281
     0
  0
BLOCK_RECORD
  5
102
330
1
100
AcDbSymbolTableRecord
100
AcDbBlockTableRecord
  2
2_129520_0_in_136304_2
340
0
102
{BLKREFS
331
103
102
}
 70
     0
280
     1
281
     0
  0
BLOCK_RECORD
  5
145
330
1
100
AcDbSymbolTableRecord
100
AcDbBlockTableRecord
  2
3_129954_0_in_136304_2
340
0
102
{BLKREFS
331
146
102
}
 70
     0
280
     1
281
     0
  0
BLOCK_RECORD
  5
1A2
330
1
100
AcDbSymbolTableRecord
100
AcDbBlockTableRecord
  2
4_WSTU_GT_07_0_in_136304_2
340
0
102
{BLKREFS
331
1A3
102
}
 70
     0
280
     1
281
     0
  0
ENDTAB
  0
ENDSEC
  0
SECTION
  2
BLOCKS
  0
BLOCK
  5
20
330
1F
100
AcDbEntity
  8
0
100
AcDbBlockBegin
  2
*Model_Space
 70
     0
 10
0.0
 20
0.0
 30
0.0
  3
*Model_Space
  1

  0
ENDBLK
  5
21
330
1F
100
AcDbEntity
  8
0
100
AcDbBlockEnd
  0
BLOCK
  5
1C
330
1B
100
AcDbEntity
 67
     1
  8
0
100
AcDbBlockBegin
  2
*Paper_Space
 70
     0
 10
0.0
 20
0.0
 30
0.0
  3
*Paper_Space
  1

  0
ENDBLK
  5
1D
330
1B
100
AcDbEntity
 67
     1
  8
0
100
AcDbBlockEnd
  0
BLOCK
  5
24
330
23
100
AcDbEntity
  8
0
100
AcDbBlockBegin
  2
*Paper_Space0
 70
     0
 10
0.0
 20
0.0
 30
0.0
  3
*Paper_Space0
  1

  0
ENDBLK
  5
25
330
23
100
AcDbEntity
  8
0
100
AcDbBlockEnd
  0
BLOCK
  5
8C
330
8A
100
AcDbEntity
  8
0
100
AcDbBlockBegin
  2
1_405016_Metric_0_in_136304_2
 70
     2
 10
0.0
 20
0.0
 30
0.0
  3
1_405016_Metric_0_in_136304_2
  1

  0
ATTDEF
  5
8E
330
8A
100
AcDbEntity
  8
AM_6
100
AcDbText
 10
10.55625
 20
-17.44490184921518
 30
0.0
 40
0.5
  1
405016 -Metric
100
AcDbAttributeDefinition
  3

  2
NN
 70
     8
280
     0
  0
ATTDEF
  5
8F
330
8A
100
AcDbEntity
  8
AM_6
100
AcDbText
 10
10.55625
 20
-17.94490184921518
 30
0.0
 40
0.5
  1
Grease Fitting
100
AcDbAttributeDefinition
  3

  2
NT
 70
     8
280
     0
  0
ATTDEF
  5
90
330
8A
100
AcDbEntity
  8
AM_6
100
AcDbText
 10
10.55625
 20
-18.44490184921518
 30
0.0
 40
0.5
  1
405016-Metric
100
AcDbAttributeDefinition
  3

  2
NB
 70
     8
280
     0
  0
ATTDEF
  5
91
330
8A
100
AcDbEntity
  8
AM_6
100
AcDbText
 10
10.55625
 20
-18.94490184921518
 30
0.0
 40
0.5
  1
$MN.-Metric
100
AcDbAttributeDefinition
  3

  2
NBSYN
 70
     8
280
     0
  0
ATTDEF
  5
92
330
8A
100
AcDbEntity
  8
AM_6
100
AcDbText
 10
10.55625
 20
-19.44490184921518
 30
0.0
 40
0.5
  1
405016
100
AcDbAttributeDefinition
  3

  2
LINA
 70
     8
280
     0
  0
ATTDEF
  5
93
330
8A
100
AcDbEntity
  8
AM_6
100
AcDbText
 10
10.55625
 20
-19.94490184921518
 30
0.0
 40
0.5
  1
405016
100
AcDbAttributeDefinition
  3

  2
MN
 70
     8
280
     0
  0
ATTDEF
  5
94
330
8A
100
AcDbEntity
  8
AM_6
100
AcDbText
 10
10.55625
 20
-20.44490184921518
 30
0.0
 40
0.5
  1
7/16 HEX
100
AcDbAttributeDefinition
  3

  2
H
 70
     8
280
     0
  0
ATTDEF
  5
95
330
8A
100
AcDbEntity
  8
AM_6
100
AcDbText
 10
10.55625
 20
-20.94490184921518
 30
0.0
 40
0.5
  1
9.728
100
AcDbAttributeDefinition
  3

  2
NDR
 70
     8
280
     0
  0
ATTDEF
  5
96
330
8A
100
AcDbEntity
  8
AM_6
100
AcDbText
 10
10.55625
 20
-21.44490184921518
 30
0.0
 40
0.5
  1
8.560
100
AcDbAttributeDefinition
  3

  2
KDR
 70
     8
280
     0
  0
ATTDEF
  5
97
330
8A
100
AcDbEntity
  8
AM_6
100
AcDbText
 10
10.55625
 20
-21.94490184921518
 30
0.0
 40
0.5
  1
4.0005
100
AcDbAttributeDefinition
  3

  2
BZE
 70
     8
280
     0
  0
ATTDEF
  5
98
330
8A
100
AcDbEntity
  8
AM_6
100
AcDbText
 10
10.55625
 20
-22.44490184921518
 30
0.0
 40
0.5
  1
11.1125
100
AcDbAttributeDefinition
  3

  2
HEX
 70
     8
280
     0
  0
ATTDEF
  5
99
330
8A
100
AcDbEntity
  8
AM_6
100
AcDbText
 10
10.55625
 20
-22.94490184921518
 30
0.0
 40
0.5
  1
7.143750
100
AcDbAttributeDefinition
  3

  2
HEX2
 70
     8
280
     0
  0
ATTDEF
  5
9A
330
8A
100
AcDbEntity
  8
AM_6
100
AcDbText
 10
10.55625
 20
-23.44490184921518
 30
0.0
 40
0.5
  1
baldor
100
AcDbAttributeDefinition
  3

  2
COMPANY
 70
     8
280
     0
  0
LWPOLYLINE
  5
9D
330
8A
100
AcDbEntity
  8
AM_9
 48
0.098507574685823
100
AcDbPolyline
 90
        5
 70
     0
 43
0.0
 10
-4.549376881905938
 20
-32.80716575011958
 10
-4.680053692952524
 20
-31.96722104716567
 10
-4.730040525586981
 20
-31.09453519314442
 10
-4.684077415975234
 20
-30.17541173564804
 10
-4.549376881905938
 20
-29.23529075011957
  0
LINE
  5
9E
330
8A
100
AcDbEntity
  8
AM_9
 48
0.098507574685823
100
AcDbLine
 10
-3.837282897828233
 20
-29.06926331106881
 30
0.0
 11
-4.549376881905938
 21
-29.23529075011957
 31
0.0
  0
LWPOLYLINE
  5
9F
330
8A
100
AcDbEntity
  8
AM_9
 48
0.098507574685823
100
AcDbPolyline
 90
        5
 70
     0
 43
0.0
 10
-4.549376881905938
 20
-29.23529075011957
 10
-5.050422008373632
 20
-28.43708835050992
 10
-5.477080537076167
 20
-27.60674219793952
 10
-5.817773758536459
 20
-26.73065630374616
 10
-6.068998929608749
 20
-25.833094947145
  0
LINE
  5
A0
330
8A
100
AcDbEntity
  8
AM_9
 48
0.098507574685823
100
AcDbLine
 10
-5.333905179049322
 20
-25.66170502447113
 30
0.0
 11
-6.068998929608749
 21
-25.833094947145
 31
0.0
  0
LINE
  5
A1
330
8A
100
AcDbEntity
  8
AM_9
 48
0.098507574685823
100
AcDbLine
 10
-6.068998929608749
 20
-25.833094947145
 30
0.0
 11
-6.887292896806424
 21
-25.94610033531011
 31
0.0
  0
LWPOLYLINE
  5
A2
330
8A
100
AcDbEntity
  8
AM_9
 48
0.098507574685823
100
AcDbPolyline
 90
        3
 70
     0
 43
0.0
 10
-7.147354260923541
 20
-25.97492744350231
 10
-7.395910919975461
 20
-25.99531207475421
 10
-7.588696252319891
 20
-26.00279169482685
  0
LWPOLYLINE
  5
A3
330
8A
100
AcDbEntity
  8
AM_9
 48
0.098507574685823
100
AcDbPolyline
 90
        5
 70
     0
 43
0.0
 10
-6.068998929608749
 20
-32.976844947145
 10
-5.830160733401208
 20
-32.96615077826178
 10
-5.50385277445766
 20
-32.93578491330026
 10
-5.070861224918889
 20
-32.88179039060552
 10
-4.549376881905938
 20
-32.80716575011958
  0
LINE
  5
A4
330
8A
100
AcDbEntity
  8
AM_9
 48
0.098507574685823
100
AcDbLine
 10
-3.837282897828233
 20
-32.64113831106881
 30
0.0
 11
-4.549376881905938
 21
-32.80716575011958
 31
0.0
  0
LINE
  5
A5
330
8A
100
AcDbEntity
  8
AM_9
 48
0.098507574685823
100
AcDbLine
 10
-11.49136154692728
 20
-33.30285201901978
 30
0.0
 11
-9.587647916362409
 21
-33.7734288151668
 31
0.0
  0
LINE
  5
A6
330
8A
100
AcDbEntity
  8
AM_9
 48
0.098507574685823
100
AcDbLine
 10
-11.16548248281835
 20
-27.00607452079887
 30
0.0
 11
-12.66477284326564
 21
-28.27007472781638
 31
0.0
  0
LWPOLYLINE
  5
A7
330
8A
100
AcDbEntity
  8
AM_9
 48
0.098507574685823
100
AcDbPolyline
 90
        3
 70
     0
 43
0.0
 10
-6.830431020205952
 20
-25.82599925250315
 10
-6.382400080731244
 20
-25.75866661256951
 10
-5.996343371387015
 20
-25.70656484729697
  0
LWPOLYLINE
  5
A8
330
8A
100
AcDbEntity
  8
AM_9
 48
0.098507574685823
100
AcDbPolyline
 90
       11
 70
     0
 43
0.0
 10
-9.6014232548493
 20
-27.12439122764442
 10
-9.637292141808272
 20
-27.09363535200523
 10
-9.819365831669781
 20
-26.95950684826144
 10
-10.00012645349847
 20
-26.86085080222337
 10
-10.1801791719391
 20
-26.79465647436593
 10
-10.36038812782874
 20
-26.75905924701894
 10
-10.54001040949134
 20
-26.75371571645922
 10
-10.73212141705262
 20
-26.78249298979403
 10
-10.90984478580409
 20
-26.84411859277116
 10
-11.07043914337098
 20
-26.93406274540356
 10
-11.16897863724659
 20
-27.00903375242871
  0
LWPOLYLINE
  5
A9
330
8A
100
AcDbEntity
  8
AM_9
 48
0.098507574685823
100
AcDbPolyline
 90
       11
 70
     0
 43
0.0
 10
-9.604850291540572
 20
-33.76903793183865
 10
-9.552927029947154
 20
-33.78144791442413
 10
-9.372761849089716
 20
-33.80504691111378
 10
-9.193954944952191
 20
-33.79833016280693
 10
-9.006795598584636
 20
-33.75726077899407
 10
-8.834889334525892
 20
-33.68488147699977
 10
-8.680664738402637
 20
-33.58568401364418
 10
-8.543424254253939
 20
-33.46212336780194
 10
-8.42165706499804
 20
-33.31415505971858
 10
-8.313907374524183
 20
-33.13902765646453
 10
-8.236905388043157
 20
-32.97488059435086
  0
LWPOLYLINE
  5
AA
330
8A
100
AcDbEntity
  8
AM_9
 48
0.098507574685823
100
AcDbPolyline
 90
        3
 70
     0
 43
0.0
 10
-0.0000000000000021
 20
-20.59077898385299
 10
1.382816900963396
 20
-21.36668148362152
 10
2.778124999999996
 20
-22.095
  0
LWPOLYLINE
  5
AB
330
8A
100
AcDbEntity
  8
AM_9
 48
0.098507574685823
100
AcDbPolyline
 90
        3
 70
     0
 43
0.0
 10
-2.778125000000002
 20
-22.095
 10
-1.389062500000002
 20
-21.37007281403006
 10
-0.0000000000000021
 20
-20.59077898385299
  0
LWPOLYLINE
  5
AC
330
8A
100
AcDbEntity
  8
AM_9
 48
0.098507574685823
100
AcDbPolyline
 90
        6
 70
     0
 43
0.0
 10
-3.837282897828233
 20
-32.64113831106881
 10
-3.97312485653969
 20
-32.63971497347934
 10
-4.165448524257249
 20
-32.65086209670618
 10
-4.429920560679956
 20
-32.67781574339292
 10
-4.766969289547204
 20
-32.7214232777137
 10
-5.333905179049322
 20
-32.80545502447113
  0
LWPOLYLINE
  5
AD
330
8A
100
AcDbEntity
  8
AM_9
 48
0.098507574685823
100
AcDbPolyline
 90
        4
 70
     0
 43
0.0
 10
-3.837282897828233
 20
-29.06926331106881
 10
-3.705296695971726
 20
-29.67716981401241
 10
-3.624930539193418
 20
-30.30852718757702
 10
-3.605746149316372
 20
-30.8013429823555
  0
LINE
  5
AE
330
8A
100
AcDbEntity
  8
AM_9
 48
0.098507574685823
100
AcDbLine
 10
-4.531235320974842
 20
-26.93596117633779
 30
0.0
 11
-4.485106171058626
 21
-27.02782873077597
 31
0.0
  0
LWPOLYLINE
  5
AF
330
8A
100
AcDbEntity
  8
AM_9
 48
0.098507574685823
100
AcDbPolyline
 90
        3
 70
     0
 43
0.0
 10
-5.333905179049322
 20
-25.66170502447113
 10
-4.936675458173815
 20
-26.23501849892114
 10
-4.70705198839541
 20
-26.61190180808688
  0
LWPOLYLINE
  5
B0
330
8A
100
AcDbEntity
  8
AM_9
 48
0.098507574685823
100
AcDbPolyline
 90
        4
 70
     0
 43
0.0
 10
-5.736282007269861
 20
-25.67773773910476
 10
-5.560509266840904
 20
-25.66396339412863
 10
-5.432128708591389
 20
-25.65940516129987
 10
-5.333905179049322
 20
-25.66170502447113
  0
LINE
  5
B1
330
8A
100
AcDbEntity
  8
AM_9
 48
0.098507574685823
100
AcDbLine
 10
-4.477259168340677
 20
-27.04374187574991
 30
0.0
 11
-4.485689043732695
 21
-27.02664667849584
 31
0.0
  0
LINE
  5
B2
330
8A
100
AcDbEntity
  8
AM_9
 48
0.098507574685823
100
AcDbLine
 10
-3.605746148079324
 20
-30.8027681062321
 30
0.0
 11
-3.605746148079324
 21
-30.78167328227922
 31
0.0
  0
LWPOLYLINE
  5
B3
330
8A
100
AcDbEntity
  8
AM_9
 48
0.098507574685823
100
AcDbPolyline
 90
        4
 70
     0
 43
0.0
 10
-3.605746149316372
 20
-30.8013429823555
 10
-3.608061141866098
 20
-30.97398433551977
 10
-3.660719790057629
 20
-31.66052124034201
 10
-3.837282897828233
 20
-32.64113831106881
  0
LWPOLYLINE
  5
B4
330
8A
100
AcDbEntity
  8
AM_9
 48
0.098507574685823
100
AcDbPolyline
 90
        3
 70
     0
 43
0.0
 10
-4.276008282098541
 20
-27.49421009527777
 10
-4.060772684155617
 20
-28.10892471870115
 10
-3.837282897828232
 20
-29.06926331106881
  0
LINE
  5
B5
330
8A
100
AcDbEntity
  8
AM_9
 48
0.098507574685823
100
AcDbLine
 10
-4.485106171058626
 20
-27.02782873077597
 30
0.0
 11
-4.374549406101703
 21
-27.26284240848261
 31
0.0
  0
ELLIPSE
  5
B6
330
8A
100
AcDbEntity
  8
AM_9
 48
0.098507574685823
100
AcDbEllipse
 10
-5.115285751734378
 20
-29.16306421886846
 30
0.0
 11
-0.8110435929053202
 21
3.478577195640792
 31
0.0
210
0.0
220
0.0
230
1.0
 40
0.3659981507706652
 41
2.150416404658205
 42
6.139946939636891
  0
LWPOLYLINE
  5
B7
330
8A
100
AcDbEntity
  8
AM_9
 48
0.098507574685823
100
AcDbPolyline
 90
        3
 70
     0
 43
0.0
 10
-7.760864787992071
 20
-28.26345337203565
 10
-7.698114323064441
 20
-28.92564052161344
 10
-7.588696252319891
 20
-29.57466669482685
  0
LWPOLYLINE
  5
B8
330
8A
100
AcDbEntity
  8
AM_9
 48
0.098507574685823
100
AcDbPolyline
 90
        3
 70
     0
 43
0.0
 10
-6.609853898455277
 20
-27.12592592808983
 10
-6.646959991776584
 20
-26.75364633553604
 10
-6.830431020205952
 20
-25.82599925250315
  0
LINE
  5
B9
330
8A
100
AcDbEntity
  8
AM_9
 48
0.098507574685823
100
AcDbLine
 10
-6.830431020205952
 20
-25.82599925250315
 30
0.0
 11
-7.588696252319891
 21
-26.00279169482685
 31
0.0
  0
LWPOLYLINE
  5
BA
330
8A
100
AcDbEntity
  8
AM_9
 48
0.098507574685823
100
AcDbPolyline
 90
        3
 70
     0
 43
0.0
 10
-7.588696252319891
 20
-26.00279169482685
 10
-7.697739397127514
 20
-26.69987070916351
 10
-7.760864787992071
 20
-27.39428852429533
  0
LINE
  5
BB
330
8A
100
AcDbEntity
  8
AM_9
 48
0.098507574685823
100
AcDbLine
 10
-6.887292896806424
 20
-25.94610033531011
 30
0.0
 11
-7.147354260923541
 21
-25.97492744350231
 31
0.0
  0
ELLIPSE
  5
BC
330
8A
100
AcDbEntity
  8
AM_9
 48
0.098507574685823
100
AcDbEllipse
 10
-6.266296641270935
 20
-29.4314268150738
 30
0.0
 11
-0.811043592905322
 21
3.4785771956408
 31
0.0
210
0.0
220
0.0
230
1.0
 40
0.3659981507706662
 41
2.150416404658193
 42
6.139946939636899
  0
ELLIPSE
  5
BD
330
8A
100
AcDbEntity
  8
AM_9
 48
0.098507574685823
100
AcDbEllipse
 10
-6.266296641270945
 20
-29.4314268150738
 30
0.0
 11
-0.8110435929053195
 21
3.478577195640788
 31
0.0
210
0.0
220
0.0
230
1.0
 40
0.3659981507706657
 41
1.144545279139732
 42
1.951156734850514
  0
LWPOLYLINE
  5
BE
330
8A
100
AcDbEntity
  8
AM_9
 48
0.098507574685823
100
AcDbPolyline
 90
        3
 70
     0
 43
0.0
 10
-7.760864787992071
 20
-27.39428852429533
 10
-7.784509761460652
 20
-27.83209309386889
 10
-7.760864787992071
 20
-28.26345337203565
  0
ELLIPSE
  5
BF
330
8A
100
AcDbEntity
  8
AM_9
 48
0.098507574685823
100
AcDbEllipse
 10
-6.266296641271019
 20
-29.43142681507375
 30
0.0
 11
-0.8110435929052436
 21
3.478577195640739
 31
0.0
210
0.0
220
0.0
230
1.0
 40
0.3659981507706559
 41
0.056021302264992
 42
0.8626327579757919
  0
LWPOLYLINE
  5
C0
330
8A
100
AcDbEntity
  8
AM_9
 48
0.098507574685823
100
AcDbPolyline
 90
       17
 70
     0
 43
0.0
 10
-8.255103757537142
 20
-33.01754051867051
 10
-8.243135872457819
 20
-32.99399457285477
 10
-8.20991428630514
 20
-32.93991609644837
 10
-8.150208812111295
 20
-32.86052400644917
 10
-8.058577264235817
 20
-32.76204762899967
 10
-7.930260843923037
 20
-32.65273062998464
 10
-7.763294119183531
 20
-32.54367514436944
 10
-7.561674512172163
 20
-32.44833423320561
 10
-7.337032483710074
 20
-32.37924793694233
 10
-7.10590651583608
 20
-32.34356409266348
 10
-6.885677217212758
 20
-32.3411563203181
 10
-6.690653575852988
 20
-32.3655281050624
 10
-6.529989779167289
 20
-32.40648788360861
 10
-6.407258578944441
 20
-32.45313451950896
 10
-6.321153798375129
 20
-32.49629535033455
 10
-6.267990036700707
 20
-32.52922544936595
 10
-6.243791875125158
 20
-32.54697298016951
  0
LWPOLYLINE
  5
C1
330
8A
100
AcDbEntity
  8
AM_9
 48
0.098507574685823
100
AcDbPolyline
 90
        4
 70
     0
 43
0.0
 10
-6.241414701572782
 20
-32.54892780726907
 10
-6.245133910701696
 20
-32.54556663805197
 10
-6.269050304566289
 20
-32.52168021344156
 10
-6.276355637969284
 20
-32.51389343133066
  0
LWPOLYLINE
  5
C2
330
8A
100
AcDbEntity
  8
AM_9
 48
0.098507574685823
100
AcDbPolyline
 90
        4
 70
     0
 43
0.0
 10
-7.638489595352669
 20
-26.67093063356227
 10
-7.633071119246423
 20
-26.65343950401698
 10
-7.623300867019998
 20
-26.6257411169525
 10
-7.622744426414251
 20
-26.62438549841288
  0
LWPOLYLINE
  5
C3
330
8A
100
AcDbEntity
  8
AM_9
 48
0.098507574685823
100
AcDbPolyline
 90
       17
 70
     0
 43
0.0
 10
-7.626878298965169
 20
-26.63314117682222
 10
-7.648941409790262
 20
-26.6727117808375
 10
-7.694846317656372
 20
-26.74025248393693
 10
-7.769993261903255
 20
-26.83015601644444
 10
-7.879649738371483
 20
-26.93529938763442
 10
-8.027522261299916
 20
-27.04606034274518
 10
-8.212960143606786
 20
-27.14992888903181
 10
-8.42807449483449
 20
-27.23334014429772
 10
-8.658159153954774
 20
-27.28600735016366
 10
-8.88607409847907
 20
-27.30444130060474
 10
-9.095016347406068
 20
-27.29220044988471
 10
-9.273484178332316
 20
-27.2580566062927
 10
-9.415069687239543
 20
-27.21292873007311
 10
-9.518914408491824
 20
-27.16705528506331
 10
-9.587858795582243
 20
-27.1283558189059
 10
-9.625913890547425
 20
-27.1025573525882
 10
-9.636196558451196
 20
-27.09455151550884
  0
LINE
  5
C4
330
8A
100
AcDbEntity
  8
AM_9
 48
0.098507574685823
100
AcDbLine
 10
-4.498867597488413
 20
-26.15040698714611
 30
0.0
 11
-5.749702073295883
 21
-26.44204383472276
 31
0.0
  0
LINE
  5
C5
330
8A
100
AcDbEntity
  8
AM_9
 48
0.098507574685823
100
AcDbLine
 10
-4.48086943017289
 20
-31.88408460301415
 30
0.0
 11
-3.412724916061097
 21
-31.63504261954087
 31
0.0
  0
LWPOLYLINE
  5
C6
330
8A
100
AcDbEntity
  8
AM_9
 48
0.098507574685823
100
AcDbPolyline
 90
       20
 70
     0
 43
0.0
 10
-3.412894494842747
 20
-31.6350821492517
 10
-3.284291520882656
 20
-31.56897056608313
 10
-3.167739146394209
 20
-31.42739677942888
 10
-3.070557447853724
 20
-31.20844987254282
 10
-3.001126812430813
 20
-30.93117718386942
 10
-2.957268343506166
 20
-30.5871398014376
 10
-2.942714645652547
 20
-30.20598889147063
 10
-2.956956816676947
 20
-29.77617048344425
 10
-2.998748603033095
 20
-29.33411945689948
 10
-3.069253891791884
 20
-28.86682779519101
 10
-3.162573084305299
 20
-28.41318536004807
 10
-3.28128033679263
 20
-27.96043103280826
 10
-3.415613668153261
 20
-27.54573983368014
 10
-3.569173128090978
 20
-27.15795336822162
 10
-3.729407788863488
 20
-26.82881015362551
 10
-3.900563582124102
 20
-26.54968684955892
 10
-4.068570560479345
 20
-26.34363114871167
 10
-4.237973131810884
 20
-26.20524012688494
 10
-4.397035613753722
 20
-26.14581586980424
 10
-4.49865979044059
 20
-26.15035854774171
  0
LINE
  5
C7
330
8A
100
AcDbEntity
  8
AM_9
 48
0.098507574685823
100
AcDbLine
 10
-4.49865979044059
 20
-26.15035854774171
 30
0.0
 11
-4.547549295795374
 21
-26.16672297245753
 31
0.0
  0
LWPOLYLINE
  5
C8
330
8A
100
AcDbEntity
  8
AM_9
 48
0.098507574685823
100
AcDbPolyline
 90
        3
 70
     0
 43
0.0
 10
-6.830431020205952
 20
-29.39787425250315
 10
-6.691143549353729
 20
-28.69623035747345
 10
-6.609853898455523
 20
-27.99509077583033
  0
LWPOLYLINE
  5
C9
330
8A
100
AcDbEntity
  8
AM_9
 48
0.098507574685823
100
AcDbPolyline
 90
        5
 70
     0
 43
0.0
 10
-4.547549295794521
 20
-30.08827702754265
 10
-4.404185730898369
 20
-30.4823333905603
 10
-4.243653641815981
 20
-30.84169258101901
 10
-4.079360450144663
 20
-31.13628096276114
 10
-3.926138340954326
 20
-31.35113676960956
  0
ARC
  5
CA
330
8A
100
AcDbEntity
  8
AM_9
 48
0.098507574685823
100
AcDbCircle
 10
-0.0000000000000029
 20
-28.12749999999999
 30
0.0
 40
5.08
100
AcDbArc
 50
219.3580738572843
 51
0.0
  0
LWPOLYLINE
  5
CB
330
8A
100
AcDbEntity
  8
AM_9
 48
0.098507574685823
100
AcDbPolyline
 90
        6
 70
     0
 43
0.0
 10
-3.926138340954326
 20
-31.35113676960956
 10
-3.906600444275936
 20
-31.37450398452264
 10
-3.73973362729044
 20
-31.5364851037963
 10
-3.574110867010546
 20
-31.62664742480979
 10
-3.423743718108896
 20
-31.63738010504424
 10
-3.412894494842747
 20
-31.6350821492517
  0
LINE
  5
CC
330
8A
100
AcDbEntity
  8
AM_9
 48
0.098507574685823
100
AcDbLine
 10
-5.996343371387015
 20
-25.70656484729697
 30
0.0
 11
-5.736282007269861
 21
-25.67773773910476
 31
0.0
  0
ELLIPSE
  5
CD
330
8A
100
AcDbEntity
  8
AM_9
 48
0.098507574685823
100
AcDbEllipse
 10
-5.115285751734348
 20
-29.16306421886853
 30
0.0
 11
-0.811043592905373
 21
3.478577195640874
 31
0.0
210
0.0
220
0.0
230
1.0
 40
0.3659981507705701
 41
0.0560213022650169
 42
0.8626327579757246
  0
LINE
  5
CE
330
8A
100
AcDbEntity
  8
AM_9
 48
0.098507574685823
100
AcDbLine
 10
-6.609853898455523
 20
-27.99509077583033
 30
0.0
 11
-6.609853898455277
 21
-27.12592592808983
 31
0.0
  0
ELLIPSE
  5
CF
330
8A
100
AcDbEntity
  8
AM_9
 48
0.098507574685823
100
AcDbEllipse
 10
-5.115285751734389
 20
-29.16306421886846
 30
0.0
 11
-0.8110435929053146
 21
3.478577195640785
 31
0.0
210
0.0
220
0.0
230
1.0
 40
0.3659981507706685
 41
1.144545279139739
 42
1.951156734850501
  0
LWPOLYLINE
  5
D0
330
8A
100
AcDbEntity
  8
AM_9
 48
0.098507574685823
100
AcDbPolyline
 90
        3
 70
     0
 43
0.0
 10
-5.333905179049322
 20
-32.80545502447113
 10
-5.495237602967162
 20
-32.06041542538193
 10
-5.736282007269852
 20
-31.31665993102581
  0
LINE
  5
D1
330
8A
100
AcDbEntity
  8
AM_9
 48
0.098507574685823
100
AcDbLine
 10
-5.736282007269852
 20
-31.31665993102581
 30
0.0
 11
-5.996343371387009
 21
-30.73012942772721
 31
0.0
  0
LWPOLYLINE
  5
D2
330
8A
100
AcDbEntity
  8
AM_9
 48
0.098507574685823
100
AcDbPolyline
 90
        3
 70
     0
 43
0.0
 10
-5.996343371387009
 20
-30.73012942772721
 10
-6.253713524124906
 20
-30.25910892482294
 10
-6.830431020205952
 20
-29.39787425250315
  0
LINE
  5
D3
330
8A
100
AcDbEntity
  8
AM_9
 48
0.098507574685823
100
AcDbLine
 10
-6.830431020205952
 20
-29.39787425250315
 30
0.0
 11
-7.588696252319891
 21
-29.57466669482685
 31
0.0
  0
LWPOLYLINE
  5
D4
330
8A
100
AcDbEntity
  8
AM_9
 48
0.098507574685823
100
AcDbPolyline
 90
        3
 70
     0
 43
0.0
 10
-7.588696252319891
 20
-29.57466669482685
 10
-7.397029361446426
 20
-30.28843506077802
 10
-7.147354260923541
 20
-30.9984920239326
  0
LINE
  5
D5
330
8A
100
AcDbEntity
  8
AM_9
 48
0.098507574685823
100
AcDbLine
 10
-7.147354260923541
 20
-30.9984920239326
 30
0.0
 11
-6.887292896806424
 21
-31.58502252723111
 31
0.0
  0
LWPOLYLINE
  5
D6
330
8A
100
AcDbEntity
  8
AM_9
 48
0.098507574685823
100
AcDbPolyline
 90
        3
 70
     0
 43
0.0
 10
-6.887292896806424
 20
-31.58502252723111
 10
-6.50701144007841
 20
-32.2887295930775
 10
-6.068998929608749
 20
-32.976844947145
  0
LINE
  5
D7
330
8A
100
AcDbEntity
  8
AM_9
 48
0.098507574685823
100
AcDbLine
 10
-5.333905179049322
 20
-32.80545502447113
 30
0.0
 11
-6.068998929608749
 21
-32.976844947145
 31
0.0
  0
LWPOLYLINE
  5
D8
330
8A
100
AcDbEntity
  8
AM_9
 48
0.098507574685823
100
AcDbPolyline
 90
        3
 70
     0
 43
0.0
 10
2.778124999999998
 20
-20.825
 10
1.389062499999997
 20
-20.16086468596994
 10
-0.000000000000002
 20
-19.551096016147
  0
LWPOLYLINE
  5
D9
330
8A
100
AcDbEntity
  8
AM_9
 48
0.098507574685823
100
AcDbPolyline
 90
        3
 70
     0
 43
0.0
 10
-0.000000000000002
 20
-19.551096016147
 10
-1.382816900963402
 20
-20.15801041734187
 10
-2.778125000000002
 20
-20.825
  0
LWPOLYLINE
  5
DA
330
8A
100
AcDbEntity
  8
AM_9
 48
0.098507574685823
100
AcDbPolyline
 90
        3
 70
     0
 43
0.0
 10
2.778124999999996
 20
-22.095
 10
4.167187499999997
 20
-22.75913531403005
 10
5.556249999999999
 20
-23.36890398385299
  0
LWPOLYLINE
  5
DB
330
8A
100
AcDbEntity
  8
AM_9
 48
0.098507574685823
100
AcDbPolyline
 90
        3
 70
     0
 43
0.0
 10
-5.556250000000003
 20
-23.36890398385299
 10
-4.173433099036603
 20
-22.76198958265812
 10
-2.778125000000002
 20
-22.095
  0
LINE
  5
DC
330
8A
100
AcDbEntity
  8
AM_9
 48
0.098507574685823
100
AcDbLine
 10
-0.0000000000000021
 20
-20.59077898385299
 30
0.0
 11
-0.000000000000002
 21
-19.551096016147
 31
0.0
  0
LWPOLYLINE
  5
DD
330
8A
100
AcDbEntity
  8
AM_9
 48
0.098507574685823
100
AcDbPolyline
 90
        3
 70
     0
 43
0.0
 10
5.556249999999999
 20
-22.329221016147
 10
4.173433099036598
 20
-21.55331851637847
 10
2.778124999999998
 20
-20.825
  0
LWPOLYLINE
  5
DE
330
8A
100
AcDbEntity
  8
AM_9
 48
0.098507574685823
100
AcDbPolyline
 90
        3
 70
     0
 43
0.0
 10
-2.778125000000002
 20
-20.825
 10
-4.167187500000002
 20
-21.54992718596994
 10
-5.556250000000003
 20
-22.329221016147
  0
ELLIPSE
  5
DF
330
8A
100
AcDbEntity
  8
AM_9
 48
0.098507574685823
100
AcDbEllipse
 10
-0.0000000000000009
 20
-28.12749999999999
 30
0.0
 11
-5.080000000000004
 21
7.390040132081815E-15
 31
0.0
210
0.0
220
0.0
230
1.0
 40
0.8660254037844376
 41
0.4619460205669697
 42
5.82123928661262
  0
LWPOLYLINE
  5
E0
330
8A
100
AcDbEntity
  8
AM_9
 48
0.098507574685823
100
AcDbPolyline
 90
        7
 70
     0
 43
0.0
 10
-4.547549295794531
 20
-30.08827702754266
 10
-4.680277139818006
 20
-29.68201089390837
 10
-4.804994146739737
 20
-29.27416923971288
 10
-4.917691338485697
 20
-28.84829675767451
 10
-5.008516140987743
 20
-28.40511714162145
 10
-5.065126856945113
 20
-27.96132388347286
 10
-5.079999999236803
 20
-27.61334199862463
  0
LINE
  5
E1
330
8A
100
AcDbEntity
  8
AM_9
 48
0.098507574685823
100
AcDbLine
 10
-5.080000000000002
 20
-26.2621875
 30
0.0
 11
-5.080000000000002
 21
-27.61561088939235
 31
0.0
  0
LINE
  5
E2
330
8A
100
AcDbEntity
  8
AM_9
 48
0.098507574685823
100
AcDbLine
 10
5.079999999999996
 20
-28.1275
 30
0.0
 11
5.079999999999997
 21
-26.2621875
 31
0.0
  0
LWPOLYLINE
  5
E3
330
8A
100
AcDbEntity
  8
AM_9
 48
0.098507574685823
100
AcDbPolyline
 90
        8
 70
     0
 43
0.0
 10
-5.079999999236803
 20
-27.61334199862463
 10
-5.079458245572025
 20
-27.54958631698212
 10
-5.050335633392995
 20
-27.16171697599753
 10
-4.98258955216002
 20
-26.83331484601791
 10
-4.878563523460395
 20
-26.55259458609682
 10
-4.75220799763814
 20
-26.34256082294766
 10
-4.610115106939385
 20
-26.20226857346145
 10
-4.54754929579453
 20
-26.16672297245734
  0
LINE
  5
E4
330
8A
100
AcDbEntity
  8
AM_9
 48
0.098507574685823
100
AcDbLine
 10
-5.556250000000004
 20
-28.92515398385299
 30
0.0
 11
-5.556250000000003
 21
-22.329221016147
 31
0.0
  0
LWPOLYLINE
  5
E5
330
8A
100
AcDbEntity
  8
AM_9
 48
0.098507574685823
100
AcDbPolyline
 90
        3
 70
     0
 43
0.0
 10
-4.080207989752188
 20
-29.75156116086256
 10
-4.167187500000002
 20
-29.70444781403006
 10
-5.556250000000004
 20
-28.92515398385299
  0
LINE
  5
E6
330
8A
100
AcDbEntity
  8
AM_9
 48
0.098507574685823
100
AcDbLine
 10
-2.778125000000002
 20
-30.42937499999999
 30
0.0
 11
-4.080207989752188
 21
-29.75156116086256
 31
0.0
  0
LINE
  5
E7
330
8A
100
AcDbEntity
  8
AM_9
 48
0.098507574685823
100
AcDbLine
 10
-2.491163247552835
 20
-30.57153332706753
 30
0.0
 11
-2.778125000000002
 21
-30.42937499999999
 31
0.0
  0
LWPOLYLINE
  5
E8
330
8A
100
AcDbEntity
  8
AM_9
 48
0.098507574685823
100
AcDbPolyline
 90
        3
 70
     0
 43
0.0
 10
-0.0000000000000031
 20
-31.70327898385299
 10
-1.382816900963402
 20
-31.09636458265813
 10
-2.491163247552835
 20
-30.57153332706753
  0
LWPOLYLINE
  5
E9
330
8A
100
AcDbEntity
  8
AM_9
 48
0.098507574685823
100
AcDbPolyline
 90
        3
 70
     0
 43
0.0
 10
-2.778125000000003
 20
-29.159375
 10
-1.389062500000003
 20
-29.88430218596994
 10
-0.0000000000000033
 20
-30.663596016147
  0
LWPOLYLINE
  5
EA
330
8A
100
AcDbEntity
  8
AM_9
 48
0.098507574685823
100
AcDbPolyline
 90
        3
 70
     0
 43
0.0
 10
-5.556250000000004
 20
-27.885471016147
 10
-4.173433099036603
 20
-28.49238541734187
 10
-2.778125000000003
 20
-29.159375
  0
LINE
  5
EB
330
8A
100
AcDbEntity
  8
AM_9
 48
0.098507574685823
100
AcDbLine
 10
-0.0000000000000031
 20
-31.70327898385299
 30
0.0
 11
-0.0000000000000033
 21
-30.663596016147
 31
0.0
  0
LWPOLYLINE
  5
EC
330
8A
100
AcDbEntity
  8
AM_9
 48
0.098507574685823
100
AcDbPolyline
 90
        3
 70
     0
 43
0.0
 10
2.414283367082871
 20
-30.60917083683676
 10
1.389062499999996
 20
-31.09351031403006
 10
-0.0000000000000031
 20
-31.70327898385299
  0
LINE
  5
ED
330
8A
100
AcDbEntity
  8
AM_9
 48
0.098507574685823
100
AcDbLine
 10
2.778124999999996
 20
-30.429375
 30
0.0
 11
2.414283367082871
 21
-30.60917083683676
 31
0.0
  0
LWPOLYLINE
  5
EE
330
8A
100
AcDbEntity
  8
AM_9
 48
0.098507574685823
100
AcDbPolyline
 90
        3
 70
     0
 43
0.0
 10
5.556249999999998
 20
-28.92515398385299
 10
4.173433099036598
 20
-29.70105648362152
 10
2.778124999999996
 20
-30.429375
  0
LINE
  5
EF
330
8A
100
AcDbEntity
  8
AM_9
 48
0.098507574685823
100
AcDbLine
 10
5.556249999999998
 20
-28.92515398385299
 30
0.0
 11
5.556249999999999
 21
-22.329221016147
 31
0.0
  0
LWPOLYLINE
  5
F0
330
8A
100
AcDbEntity
  8
AM_9
 48
0.098507574685823
100
AcDbPolyline
 90
        3
 70
     0
 43
0.0
 10
2.778124999999997
 20
-29.159375
 10
4.167187499999997
 20
-28.49523968596994
 10
5.556249999999998
 20
-27.885471016147
  0
LWPOLYLINE
  5
F1
330
8A
100
AcDbEntity
  8
AM_9
 48
0.098507574685823
100
AcDbPolyline
 90
        3
 70
     0
 43
0.0
 10
-0.0000000000000033
 20
-30.663596016147
 10
1.382816900963396
 20
-29.88769351637847
 10
2.778124999999997
 20
-29.159375
  0
LINE
  5
F2
330
8A
100
AcDbEntity
  8
AM_9
 48
0.098507574685823
100
AcDbLine
 10
-5.080000000000002
 20
-24.0
 30
0.0
 11
-5.080000000000002
 21
-24.9921875
 31
0.0
  0
LINE
  5
F3
330
8A
100
AcDbEntity
  8
AM_9
 48
0.098507574685823
100
AcDbLine
 10
5.079999999999997
 20
-24.9921875
 30
0.0
 11
5.079999999999997
 21
-24.0
 31
0.0
  0
LINE
  5
F4
330
8A
100
AcDbEntity
  8
AM_9
 48
0.098507574685823
100
AcDbLine
 10
-4.702588083318102
 20
-21.30267350379018
 30
0.0
 11
-4.857153757791754
 21
-23.77197524036601
 31
0.0
  0
LINE
  5
F5
330
8A
100
AcDbEntity
  8
AM_9
 48
0.098507574685823
100
AcDbLine
 10
4.857153757791749
 20
-23.77197524036601
 30
0.0
 11
4.702588083318097
 21
-21.30267350379018
 31
0.0
  0
ELLIPSE
  5
F6
330
8A
100
AcDbEntity
  8
AM_9
 48
0.098507574685823
100
AcDbEllipse
 10
-0.0000000000000023
 20
-21.221875
 30
0.0
 11
4.106358510281482
 21
0.0
 31
0.0
210
0.0
220
0.0
230
1.0
 40
0.8660254037844392
 41
0.0
 42
6.283185307179586
  0
ELLIPSE
  5
F7
330
8A
100
AcDbEntity
  8
AM_9
 48
0.098507574685823
100
AcDbEllipse
 10
-11.90625000000002
 20
-30.74640353647998
 30
0.0
 11
-0.5968279661269575
 21
2.559803407425773
 31
0.0
210
0.0
220
0.0
230
1.0
 40
0.3659981507706697
 41
0.0
 42
6.283185307179586
  0
ELLIPSE
  5
F8
330
8A
100
AcDbEntity
  8
AM_9
 48
0.098507574685823
100
AcDbEllipse
 10
-10.14553017343999
 20
-30.33588496698485
 30
0.0
 11
-0.8025283190312439
 21
3.44205506813481
 31
0.0
210
0.0
220
0.0
230
1.0
 40
0.3659981507706666
 41
0.0
 42
6.283185307179586
  0
ELLIPSE
  5
F9
330
8A
100
AcDbEntity
  8
AM_9
 48
0.098507574685823
100
AcDbEllipse
 10
-9.474104895899869
 20
-30.17933959258694
 30
0.0
 11
-0.768185281130787
 21
3.294757303237112
 31
0.0
210
0.0
220
0.0
230
1.0
 40
0.3659981507706682
 41
0.0
 42
6.283185307179586
  0
ELLIPSE
  5
FA
330
8A
100
AcDbEntity
  8
AM_9
 48
0.098507574685823
100
AcDbEllipse
 10
-5.115285751734389
 20
-29.16306421886845
 30
0.0
 11
-0.6344163215614964
 21
2.721020384145692
 31
0.0
210
0.0
220
0.0
230
1.0
 40
0.3659981507706667
 41
0.0
 42
6.283185307179586
  0
ELLIPSE
  5
FB
330
8A
100
AcDbEntity
  8
AM_9
 48
0.098507574685823
100
AcDbEllipse
 10
-0.0000000000000124
 20
-26.26218750000001
 30
0.0
 11
-5.07999999999998
 21
7.390040132081780E-15
 31
0.0
210
0.0
220
0.0
230
1.0
 40
0.8660254037844388
 41
0.0
 42
6.283185307179586
  0
ELLIPSE
  5
FC
330
8A
100
AcDbEntity
  8
AM_9
 48
0.098507574685823
100
AcDbEllipse
 10
-0.0000000000000002
 20
-26.26218750000002
 30
0.0
 11
-5.556249999999979
 21
3.147915050005647E-15
 31
0.0
210
0.0
220
0.0
230
1.0
 40
0.8660254037844387
 41
0.0
 42
6.283185307179586
  0
ELLIPSE
  5
FD
330
8A
100
AcDbEntity
  8
AM_9
 48
0.098507574685823
100
AcDbEllipse
 10
-0.0000000000000038
 20
-24.99218750000005
 30
0.0
 11
-5.556249999999969
 21
6.804443777762444E-16
 31
0.0
210
0.0
220
0.0
230
1.0
 40
0.8660254037844332
 41
0.0
 42
6.283185307179586
  0
ELLIPSE
  5
FE
330
8A
100
AcDbEntity
  8
AM_9
 48
0.098507574685823
100
AcDbEllipse
 10
0.0000000000000044
 20
-24.99218749999999
 30
0.0
 11
-5.080000000000009
 21
-1.291371854226308E-14
 31
0.0
210
0.0
220
0.0
230
1.0
 40
0.8660254037844396
 41
0.0
 42
6.283185307179586
  0
ELLIPSE
  5
FF
330
8A
100
AcDbEntity
  8
AM_9
 48
0.098507574685823
100
AcDbEllipse
 10
-0.0000000000000004
 20
-23.99999999999999
 30
0.0
 11
-5.080000000000002
 21
6.221205739668556E-16
 31
0.0
210
0.0
220
0.0
230
1.0
 40
0.8660254037844387
 41
0.0
 42
6.283185307179586
  0
ELLIPSE
  5
100
330
8A
100
AcDbEntity
  8
AM_9
 48
0.098507574685823
100
AcDbEllipse
 10
0.0000000000000053
 20
-23.99999999999999
 30
0.0
 11
-4.864285115153665
 21
1.355676231928538E-14
 31
0.0
210
0.0
220
0.0
230
1.0
 40
0.866025403784439
 41
0.0
 42
6.283185307179586
  0
ELLIPSE
  5
101
330
8A
100
AcDbEntity
  8
AM_9
 48
0.098507574685823
100
AcDbEllipse
 10
-0.0000000000000027
 20
-21.52344199719767
 30
0.0
 11
-4.709492504676831
 21
5.767464921460932E-16
 31
0.0
210
0.0
220
0.0
230
1.0
 40
0.8660254037844274
 41
0.0
 42
6.283185307179586
  0
ENDBLK
  5
8D
330
8A
100
AcDbEntity
  8
0
100
AcDbBlockEnd
  0
BLOCK
  5
104
330
102
100
AcDbEntity
  8
0
100
AcDbBlockBegin
  2
2_129520_0_in_136304_2
 70
     2
 10
0.0
 20
0.0
 30
0.0
  3
2_129520_0_in_136304_2
  1

  0
ATTDEF
  5
106
330
102
100
AcDbEntity
  8
AM_6
100
AcDbText
 10
17.33
 20
35.99948524199048
 30
0.0
 40
0.5
  1
INS-GT-M B
100
AcDbAttributeDefinition
  3

  2
NN
 70
     8
280
     0
  0
ATTDEF
  5
107
330
102
100
AcDbEntity
  8
AM_6
100
AcDbText
 10
17.33
 20
35.49948524199048
 30
0.0
 40
0.5
  1
GT Normal Duty Bearing Inserts
100
AcDbAttributeDefinition
  3

  2
NT
 70
     8
280
     0
  0
ATTDEF
  5
108
330
102
100
AcDbEntity
  8
AM_6
100
AcDbText
 10
17.33
 20
34.99948524199048
 30
0.0
 40
0.5
  1
129520
100
AcDbAttributeDefinition
  3

  2
NB
 70
     8
280
     0
  0
ATTDEF
  5
109
330
102
100
AcDbEntity
  8
AM_6
100
AcDbText
 10
17.33
 20
34.49948524199048
 30
0.0
 40
0.5
  1
$PN.
100
AcDbAttributeDefinition
  3

  2
NBSYN
 70
     8
280
     0
  0
ATTDEF
  5
10A
330
102
100
AcDbEntity
  8
AM_6
100
AcDbText
 10
17.33
 20
33.99948524199048
 30
0.0
 40
0.5
  1
129520
100
AcDbAttributeDefinition
  3

  2
LINA
 70
     8
280
     0
  0
ATTDEF
  5
10B
330
102
100
AcDbEntity
  8
AM_6
100
AcDbText
 10
17.33
 20
33.49948524199048
 30
0.0
 40
0.5
  1
207
100
AcDbAttributeDefinition
  3

  2
SERIES
 70
     8
280
     0
  0
ATTDEF
  5
10C
330
102
100
AcDbEntity
  8
AM_6
100
AcDbText
 10
17.33
 20
32.99948524199048
 30
0.0
 40
0.5
  1
129520
100
AcDbAttributeDefinition
  3

  2
PN
 70
     8
280
     0
  0
ATTDEF
  5
10D
330
102
100
AcDbEntity
  8
AM_6
100
AcDbText
 10
17.33
 20
32.49948524199048
 30
0.0
 40
0.5
  1
INS-GT-07
100
AcDbAttributeDefinition
  3

  2
DESCRIPTION
 70
     8
280
     0
  0
ATTDEF
  5
10E
330
102
100
AcDbEntity
  8
AM_6
100
AcDbText
 10
17.33
 20
31.99948524199048
 30
0.0
 40
0.5
  1
41.1
100
AcDbAttributeDefinition
  3

  2
A
 70
     8
280
     0
  0
ATTDEF
  5
10F
330
102
100
AcDbEntity
  8
AM_6
100
AcDbText
 10
17.33
 20
31.49948524199048
 30
0.0
 40
0.5
  1
19.1
100
AcDbAttributeDefinition
  3

  2
C
 70
     8
280
     0
  0
ATTDEF
  5
110
330
102
100
AcDbEntity
  8
AM_6
100
AcDbText
 10
17.33
 20
30.99948524199048
 30
0.0
 40
0.5
  1
72.0
100
AcDbAttributeDefinition
  3

  2
D
 70
     8
280
     0
  0
ATTDEF
  5
111
330
102
100
AcDbEntity
  8
AM_6
100
AcDbText
 10
17.33
 20
30.49948524199048
 30
0.0
 40
0.5
  1
5.1
100
AcDbAttributeDefinition
  3

  2
J
 70
     8
280
     0
  0
ATTDEF
  5
112
330
102
100
AcDbEntity
  8
AM_6
100
AcDbText
 10
17.33
 20
29.99948524199048
 30
0.0
 40
0.5
  1
60.5
100
AcDbAttributeDefinition
  3

  2
L
 70
     8
280
     0
  0
ATTDEF
  5
113
330
102
100
AcDbEntity
  8
AM_6
100
AcDbText
 10
17.33
 20
29.49948524199048
 30
0.0
 40
0.5
  1
#10 - 32 x 1/4
100
AcDbAttributeDefinition
  3

  2
N
 70
     8
280
     0
  0
ATTDEF
  5
114
330
102
100
AcDbEntity
  8
AM_6
100
AcDbText
 10
17.33
 20
28.99948524199048
 30
0.0
 40
0.5
  1
13.7
100
AcDbAttributeDefinition
  3

  2
W
 70
     8
280
     0
  0
ATTDEF
  5
115
330
102
100
AcDbEntity
  8
AM_6
100
AcDbText
 10
17.33
 20
28.49948524199048
 30
0.0
 40
0.5
  1
29.0
100
AcDbAttributeDefinition
  3

  2
X
 70
     8
280
     0
  0
ATTDEF
  5
116
330
102
100
AcDbEntity
  8
AM_6
100
AcDbText
 10
17.33
 20
27.99948524199048
 30
0.0
 40
0.5
  1
27.4
100
AcDbAttributeDefinition
  3

  2
Y
 70
     8
280
     0
  0
ATTDEF
  5
117
330
102
100
AcDbEntity
  8
AM_6
100
AcDbText
 10
17.33
 20
27.49948524199048
 30
0.0
 40
0.5
  1
baldor
100
AcDbAttributeDefinition
  3

  2
COMPANY
 70
     8
280
     0
  0
LINE
  5
118
330
102
100
AcDbEntity
  8
AM_9
 48
0.6669386115868347
100
AcDbLine
 10
-21.75
 20
-22.56746031746032
 30
0.0
 11
-10.875
 21
-22.56746031746032
 31
0.0
  0
LINE
  5
119
330
102
100
AcDbEntity
  8
AM_9
 48
0.6669386115868347
100
AcDbLine
 10
-10.875
 20
22.56746031746032
 30
0.0
 11
-21.75
 21
22.56746031746032
 31
0.0
  0
LINE
  5
11A
330
102
100
AcDbEntity
  8
AM_9
 48
0.6669386115868347
100
AcDbLine
 10
-10.875
 20
22.56746031746032
 30
0.0
 11
-10.875
 21
-22.56746031746032
 31
0.0
  0
LINE
  5
11B
330
102
100
AcDbEntity
  8
AM_9
 48
0.6669386115868347
100
AcDbLine
 10
-10.875
 20
-22.56746031746032
 30
0.0
 11
12.33
 21
-23.37779677351632
 31
0.0
  0
LINE
  5
11C
330
102
100
AcDbEntity
  8
AM_9
 48
0.6669386115868347
100
AcDbLine
 10
12.33
 20
23.37779677351632
 30
0.0
 11
-10.875
 21
22.56746031746032
 31
0.0
  0
LINE
  5
11D
330
102
100
AcDbEntity
  8
AM_9
 48
0.6669386115868347
100
AcDbLine
 10
-18.125
 20
-24.7281746031746
 30
0.0
 11
-14.5
 21
-24.7281746031746
 31
0.0
  0
LINE
  5
11E
330
102
100
AcDbEntity
  8
AM_9
 48
0.6669386115868347
100
AcDbLine
 10
-14.5
 20
24.7281746031746
 30
0.0
 11
-18.125
 21
24.7281746031746
 31
0.0
  0
LINE
  5
11F
330
102
100
AcDbEntity
  8
AM_9
 48
0.6669386115868347
100
AcDbLine
 10
-18.125
 20
26.88888888888889
 30
0.0
 11
-18.125
 21
-26.88888888888889
 31
0.0
  0
LINE
  5
120
330
102
100
AcDbEntity
  8
AM_9
 48
0.6669386115868347
100
AcDbLine
 10
-20.986
 20
-26.88888888888889
 30
0.0
 11
-18.125
 21
-26.88888888888889
 31
0.0
  0
LINE
  5
121
330
102
100
AcDbEntity
  8
AM_9
 48
0.6669386115868347
100
AcDbLine
 10
-18.125
 20
26.88888888888889
 30
0.0
 11
-20.986
 21
26.88888888888889
 31
0.0
  0
LINE
  5
122
330
102
100
AcDbEntity
  8
AM_9
 48
0.6669386115868347
100
AcDbLine
 10
9.55
 20
-26.88888888888888
 30
0.0
 11
11.566
 21
-26.88888888888888
 31
0.0
  0
LINE
  5
123
330
102
100
AcDbEntity
  8
AM_9
 48
0.6669386115868347
100
AcDbLine
 10
11.566
 20
26.88888888888888
 30
0.0
 11
9.55
 21
26.88888888888888
 31
0.0
  0
LINE
  5
124
330
102
100
AcDbEntity
  8
AM_9
 48
0.6669386115868347
100
AcDbLine
 10
-21.75
 20
26.12488888888889
 30
0.0
 11
-21.75
 21
-26.12488888888889
 31
0.0
  0
LINE
  5
125
330
102
100
AcDbEntity
  8
AM_9
 48
0.6669386115868347
100
AcDbLine
 10
-20.986
 20
26.88888888888889
 30
0.0
 11
-20.986
 21
-26.88888888888889
 31
0.0
  0
LINE
  5
126
330
102
100
AcDbEntity
  8
AM_9
 48
0.6669386115868347
100
AcDbLine
 10
-21.75
 20
-26.12488888888889
 30
0.0
 11
-20.986
 21
-26.88888888888889
 31
0.0
  0
LINE
  5
127
330
102
100
AcDbEntity
  8
AM_9
 48
0.6669386115868347
100
AcDbLine
 10
-20.986
 20
26.88888888888889
 30
0.0
 11
-21.75
 21
26.12488888888889
 31
0.0
  0
LINE
  5
128
330
102
100
AcDbEntity
  8
AM_9
 48
0.6669386115868347
100
AcDbLine
 10
11.566
 20
26.88888888888889
 30
0.0
 11
11.566
 21
-26.88888888888889
 31
0.0
  0
LINE
  5
129
330
102
100
AcDbEntity
  8
AM_9
 48
0.6669386115868347
100
AcDbLine
 10
12.33
 20
26.12488888888889
 30
0.0
 11
12.33
 21
-26.12488888888889
 31
0.0
  0
LINE
  5
12A
330
102
100
AcDbEntity
  8
AM_9
 48
0.6669386115868347
100
AcDbLine
 10
12.33
 20
26.12488888888889
 30
0.0
 11
11.566
 21
26.88888888888889
 31
0.0
  0
LINE
  5
12B
330
102
100
AcDbEntity
  8
AM_9
 48
0.6669386115868347
100
AcDbLine
 10
11.566
 20
-26.88888888888889
 30
0.0
 11
12.33
 21
-26.12488888888889
 31
0.0
  0
LINE
  5
12C
330
102
100
AcDbEntity
  8
AM_9
 48
0.6669386115868347
100
AcDbLine
 10
-14.5
 20
26.88888888888889
 30
0.0
 11
-14.5
 21
-26.88888888888889
 31
0.0
  0
LINE
  5
12D
330
102
100
AcDbEntity
  8
AM_9
 48
0.6669386115868347
100
AcDbLine
 10
-14.5
 20
-26.88888888888889
 30
0.0
 11
-9.550000000000002
 21
-26.88888888888889
 31
0.0
  0
LINE
  5
12E
330
102
100
AcDbEntity
  8
AM_9
 48
0.6669386115868347
100
AcDbLine
 10
-9.550000000000002
 20
26.88888888888889
 30
0.0
 11
-14.5
 21
26.88888888888889
 31
0.0
  0
LINE
  5
12F
330
102
100
AcDbEntity
  8
AM_9
 48
0.6669386115868347
100
AcDbLine
 10
-6.119999999999997
 20
-34.09
 30
0.0
 11
-4.08
 21
-34.09
 31
0.0
  0
LINE
  5
130
330
102
100
AcDbEntity
  8
AM_9
 48
0.6669386115868347
100
AcDbLine
 10
-4.08
 20
34.09
 30
0.0
 11
-6.119999999999997
 21
34.09
 31
0.0
  0
LINE
  5
131
330
102
100
AcDbEntity
  8
AM_9
 48
0.6669386115868347
100
AcDbLine
 10
-9.550000000000002
 20
33.57487804028401
 30
0.0
 11
-9.550000000000002
 21
-33.57487804025138
 31
0.0
  0
ARC
  5
132
330
102
100
AcDbEntity
  8
AM_9
 48
0.6669386115868347
100
AcDbCircle
 10
-8.786000000000007
 20
-33.574878040284
 30
0.0
 40
0.7639999999999958
100
AcDbArc
 50
180.0000000000006
 51
248.5875329531164
  0
ARC
  5
133
330
102
100
AcDbEntity
  8
AM_9
 48
0.6669386115868347
100
AcDbCircle
 10
-8.786000000000007
 20
33.574878040284
 30
0.0
 40
0.7639999999999968
100
AcDbArc
 50
111.4124670468835
 51
179.9999999999995
  0
LINE
  5
134
330
102
100
AcDbEntity
  8
AM_9
 48
0.6669386115868347
100
AcDbLine
 10
9.55
 20
33.57487804028401
 30
0.0
 11
9.55
 21
-33.57487804025138
 31
0.0
  0
ARC
  5
135
330
102
100
AcDbEntity
  8
AM_9
 48
0.6669386115868347
100
AcDbCircle
 10
8.78599999999995
 20
-33.57487804028397
 30
0.0
 40
0.7640000000000575
100
AcDbArc
 50
291.4124568047861
 51
359.9999999999974
  0
ARC
  5
136
330
102
100
AcDbEntity
  8
AM_9
 48
0.6669386115868347
100
AcDbCircle
 10
8.785999999999937
 20
33.57487804028397
 30
0.0
 40
0.7640000000000633
100
AcDbArc
 50
0.0000000000026643
 51
68.58754319521309
  0
LINE
  5
137
330
102
100
AcDbEntity
  8
AM_9
 48
0.6669386115868347
100
AcDbLine
 10
-9.064920634920634
 20
34.28614400981682
 30
0.0
 11
-9.064920634920634
 21
-34.28614400981682
 31
0.0
  0
ARC
  5
138
330
102
100
AcDbEntity
  8
AM_9
 48
0.6669386115868347
100
AcDbCircle
 10
-0.000000000000993
 20
-11.17000000000286
 30
0.0
 40
24.82999999999697
100
AcDbArc
 50
248.5875329531157
 51
255.1589346450363
  0
ARC
  5
139
330
102
100
AcDbEntity
  8
AM_9
 48
0.6669386115868347
100
AcDbCircle
 10
-0.0000000000024896
 20
11.1700000000075
 30
0.0
 40
24.82999999999211
100
AcDbArc
 50
104.8410653549631
 51
111.412467046885
  0
LINE
  5
13A
330
102
100
AcDbEntity
  8
AM_9
 48
0.6669386115868347
100
AcDbLine
 10
-6.359922416052436
 20
35.17167258467195
 30
0.0
 11
-6.359922416052436
 21
-35.17167258467195
 31
0.0
  0
LINE
  5
13B
330
102
100
AcDbEntity
  8
AM_9
 48
0.6669386115868347
100
AcDbLine
 10
-6.119999999999997
 20
34.98704431704321
 30
0.0
 11
-6.119999999999997
 21
-34.98704431702578
 31
0.0
  0
ARC
  5
13C
330
102
100
AcDbEntity
  8
AM_9
 48
0.6669386115868347
100
AcDbCircle
 10
-6.311000000000008
 20
-34.98704431704319
 30
0.0
 40
0.1910000000000103
100
AcDbArc
 50
255.158954528238
 51
359.9999999999936
  0
ARC
  5
13D
330
102
100
AcDbEntity
  8
AM_9
 48
0.6669386115868347
100
AcDbCircle
 10
-6.311000000000008
 20
34.98704431704319
 30
0.0
 40
0.1910000000000105
100
AcDbArc
 50
0.0000000000063944
 51
104.841045471762
  0
LINE
  5
13E
330
102
100
AcDbEntity
  8
AM_9
 48
0.6669386115868347
100
AcDbLine
 10
-4.08
 20
35.50014590996116
 30
0.0
 11
-4.08
 21
-35.50014590993285
 31
0.0
  0
ARC
  5
13F
330
102
100
AcDbEntity
  8
AM_9
 48
0.6669386115868347
100
AcDbCircle
 10
-3.888999999999989
 20
-35.50014590996116
 30
0.0
 40
0.1910000000000096
100
AcDbArc
 50
180.0000000000021
 51
260.9185022622627
  0
ARC
  5
140
330
102
100
AcDbEntity
  8
AM_9
 48
0.6669386115868347
100
AcDbCircle
 10
-3.88899999999999
 20
35.50014590996116
 30
0.0
 40
0.191000000000011
100
AcDbArc
 50
99.08149773773691
 51
179.9999999999979
  0
LINE
  5
141
330
102
100
AcDbEntity
  8
AM_9
 48
0.6669386115868347
100
AcDbLine
 10
-3.91914728682171
 20
35.68875169220892
 30
0.0
 11
-3.91914728682171
 21
-35.68875169220892
 31
0.0
  0
LINE
  5
142
330
102
100
AcDbEntity
  8
AM_9
 48
0.6669386115868347
100
AcDbLine
 10
9.064920507775883
 20
34.28614405967623
 30
0.0
 11
9.064920507775883
 21
-34.28614405967623
 31
0.0
  0
ARC
  5
143
330
102
100
AcDbEntity
  8
AM_9
 48
0.6669386115868347
100
AcDbCircle
 10
0.0000000000000234
 20
-11.17000000000014
 30
0.0
 40
24.82999999999987
100
AcDbArc
 50
260.9185022622673
 51
291.4124667317425
  0
ARC
  5
144
330
102
100
AcDbEntity
  8
AM_9
 48
0.6669386115868347
100
AcDbCircle
 10
0.0000000000000719
 20
11.1700000000006
 30
0.0
 40
24.82999999999942
100
AcDbArc
 50
68.58753326825713
 51
99.08149773773297
  0
ENDBLK
  5
105
330
102
100
AcDbEntity
  8
0
100
AcDbBlockEnd
  0
BLOCK
  5
147
330
145
100
AcDbEntity
  8
0
100
AcDbBlockBegin
  2
3_129954_0_in_136304_2
 70
     2
 10
0.0
 20
0.0
 30
0.0
  3
3_129954_0_in_136304_2
  1

  0
ATTDEF
  5
149
330
145
100
AcDbEntity
  8
AM_6
100
AcDbText
 10
19.3
 20
29.15000000000002
 30
0.0
 40
0.5
  1
Grip Tight Normal Duty Adapter and Nut Metric Bore
100
AcDbAttributeDefinition
  3

  2
NN
 70
     8
280
     0
  0
ATTDEF
  5
14A
330
145
100
AcDbEntity
  8
AM_6
100
AcDbText
 10
19.3
 20
28.65000000000002
 30
0.0
 40
0.5
  1
GT and GTM Adapter & Lock Nut Assemblies
100
AcDbAttributeDefinition
  3

  2
NT
 70
     8
280
     0
  0
ATTDEF
  5
14B
330
145
100
AcDbEntity
  8
AM_6
100
AcDbText
 10
19.3
 20
28.15000000000002
 30
0.0
 40
0.5
  1
129954
100
AcDbAttributeDefinition
  3

  2
NB
 70
     8
280
     0
  0
ATTDEF
  5
14C
330
145
100
AcDbEntity
  8
AM_6
100
AcDbText
 10
19.3
 20
27.65000000000002
 30
0.0
 40
0.5
  1
$PN.
100
AcDbAttributeDefinition
  3

  2
NBSYN
 70
     8
280
     0
  0
ATTDEF
  5
14D
330
145
100
AcDbEntity
  8
AM_6
100
AcDbText
 10
19.3
 20
27.15000000000002
 30
0.0
 40
0.5
  1
129954
100
AcDbAttributeDefinition
  3

  2
LINA
 70
     8
280
     0
  0
ATTDEF
  5
14E
330
145
100
AcDbEntity
  8
AM_6
100
AcDbText
 10
19.3
 20
26.65000000000002
 30
0.0
 40
0.5
  1
207
100
AcDbAttributeDefinition
  3

  2
SERIES
 70
     8
280
     0
  0
ATTDEF
  5
14F
330
145
100
AcDbEntity
  8
AM_6
100
AcDbText
 10
19.3
 20
26.15000000000002
 30
0.0
 40
0.5
  1
30
100
AcDbAttributeDefinition
  3

  2
SS
 70
     8
280
     0
  0
ATTDEF
  5
150
330
145
100
AcDbEntity
  8
AM_6
100
AcDbText
 10
19.3
 20
25.65000000000002
 30
0.0
 40
0.5
  1
129954
100
AcDbAttributeDefinition
  3

  2
PN
 70
     8
280
     0
  0
ATTDEF
  5
151
330
145
100
AcDbEntity
  8
AM_6
100
AcDbText
 10
19.3
 20
25.15000000000002
 30
0.0
 40
0.5
  1
AN-GTM-07-30M
100
AcDbAttributeDefinition
  3

  2
DESCRIPTION
 70
     8
280
     0
  0
ATTDEF
  5
152
330
145
100
AcDbEntity
  8
AM_6
100
AcDbText
 10
19.3
 20
24.65000000000002
 30
0.0
 40
0.5
  1
41.3
100
AcDbAttributeDefinition
  3

  2
A
 70
     8
280
     0
  0
ATTDEF
  5
153
330
145
100
AcDbEntity
  8
AM_6
100
AcDbText
 10
19.3
 20
24.15000000000002
 30
0.0
 40
0.5
  1
19.0
100
AcDbAttributeDefinition
  3

  2
C
 70
     8
280
     0
  0
ATTDEF
  5
154
330
145
100
AcDbEntity
  8
AM_6
100
AcDbText
 10
19.3
 20
23.65000000000002
 30
0.0
 40
0.5
  1
72.0
100
AcDbAttributeDefinition
  3

  2
D
 70
     8
280
     0
  0
ATTDEF
  5
155
330
145
100
AcDbEntity
  8
AM_6
100
AcDbText
 10
19.3
 20
23.15000000000002
 30
0.0
 40
0.5
  1
5.1
100
AcDbAttributeDefinition
  3

  2
J
 70
     8
280
     0
  0
ATTDEF
  5
156
330
145
100
AcDbEntity
  8
AM_6
100
AcDbText
 10
19.3
 20
22.65000000000002
 30
0.0
 40
0.5
  1
58.3
100
AcDbAttributeDefinition
  3

  2
L
 70
     8
280
     0
  0
ATTDEF
  5
157
330
145
100
AcDbEntity
  8
AM_6
100
AcDbText
 10
19.3
 20
22.15000000000002
 30
0.0
 40
0.5
  1
10 - 32 x 1/4
100
AcDbAttributeDefinition
  3

  2
N
 70
     8
280
     0
  0
ATTDEF
  5
158
330
145
100
AcDbEntity
  8
AM_6
100
AcDbText
 10
19.3
 20
21.65000000000002
 30
0.0
 40
0.5
  1
14.3
100
AcDbAttributeDefinition
  3

  2
W
 70
     8
280
     0
  0
ATTDEF
  5
159
330
145
100
AcDbEntity
  8
AM_6
100
AcDbText
 10
19.3
 20
21.15000000000002
 30
0.0
 40
0.5
  1
26.6
100
AcDbAttributeDefinition
  3

  2
X
 70
     8
280
     0
  0
ATTDEF
  5
15A
330
145
100
AcDbEntity
  8
AM_6
100
AcDbText
 10
19.3
 20
20.65000000000002
 30
0.0
 40
0.5
  1
27.0
100
AcDbAttributeDefinition
  3

  2
Y
 70
     8
280
     0
  0
ATTDEF
  5
15B
330
145
100
AcDbEntity
  8
AM_6
100
AcDbText
 10
19.3
 20
20.15000000000002
 30
0.0
 40
0.5
  1
baldor
100
AcDbAttributeDefinition
  3

  2
COMPANY
 70
     8
280
     0
  0
LWPOLYLINE
  5
15C
330
145
100
AcDbEntity
  8
AM_9
 48
0.5512590870067188
100
AcDbPolyline
 90
        6
 70
     0
 43
0.0
 10
-25.84000000000001
 20
1.251373537390499
 10
-25.97157471924346
 20
0.6978970583711953
 10
-26.02932974511531
 20
0.1050568059768655
 10
-26.00572645022316
 20
-0.4536078380895892
 10
-25.90528458036234
 20
-1.015668821680699
 10
-25.84000000000001
 20
-1.251373537390496
  0
LWPOLYLINE
  5
15D
330
145
100
AcDbEntity
  8
AM_9
 48
0.5512590870067188
100
AcDbPolyline
 90
       15
 70
     0
 43
0.0
 10
-21.54775271145344
 20
0.8111678526408475
 10
-21.65494376382486
 20
1.046494632860372
 10
-21.85860101035403
 20
1.366214246466746
 10
-22.11113396410565
 20
1.648940788166952
 10
-22.41639802799794
 20
1.894828452960635
 10
-22.75730395058188
 20
2.088534233791513
 10
-23.13916758158551
 20
2.229144183638485
 10
-23.53890072786314
 20
2.305961199513287
 10
-23.95633612942327
 20
2.315888768802068
 10
-24.36964837658086
 20
2.256751841446756
 10
-24.69491188369022
 20
2.15787865885838
 10
-25.00352546670957
 20
2.015509468752728
 10
-25.29530947014269
 20
1.826904631158814
 10
-25.55697838971857
 20
1.598458173299562
 10
-25.84000000000001
 20
1.251373537390499
  0
LWPOLYLINE
  5
15E
330
145
100
AcDbEntity
  8
AM_9
 48
0.5512590870067188
100
AcDbPolyline
 90
       16
 70
     0
 43
0.0
 10
-25.84000000000001
 20
-1.251373537390496
 10
-25.83925239729837
 20
-1.252494683237332
 10
-25.60134870201327
 20
-1.552044854605064
 10
-25.3183547055493
 20
-1.809492677935837
 10
-24.98524424485272
 20
-2.025211576458307
 10
-24.62162753039449
 20
-2.184546724286538
 10
-24.22324361063806
 20
-2.285666101200214
 10
-23.81362162709756
 20
-2.320486030097532
 10
-23.39565833291401
 20
-2.286022639517713
 10
-22.98932545850413
 20
-2.182569665685731
 10
-22.60626806286985
 20
-2.011434345150652
 10
-22.25804017454631
 20
-1.77771148764251
 10
-21.96164294420443
 20
-1.492608837225734
 10
-21.71913413155687
 20
-1.160524762393427
 10
-21.5453399305868
 20
-0.8041463872166719
 10
-21.47479424934131
 20
-0.5902205327898926
  0
CIRCLE
  5
15F
330
145
100
AcDbEntity
  8
AM_9
 48
0.5512590870067188
100
AcDbCircle
 10
-23.80833333333333
 20
0.0
 30
0.0
 40
2.413000000000002
  0
CIRCLE
  5
160
330
145
100
AcDbEntity
  8
AM_9
 48
0.5512590870067188
100
AcDbCircle
 10
-23.80833333333333
 20
0.0
 30
0.0
 40
1.981200000000003
  0
LINE
  5
161
330
145
100
AcDbEntity
  8
AM_9
 48
0.5512590870067188
100
AcDbLine
 10
-25.84000000000001
 20
1.251373537390499
 30
0.0
 11
-25.84
 21
2.55
 31
0.0
  0
LINE
  5
162
330
145
100
AcDbEntity
  8
AM_9
 48
0.5512590870067188
100
AcDbLine
 10
-25.84
 20
-2.55
 30
0.0
 11
-25.84000000000001
 21
-1.251373537390496
 31
0.0
  0
LINE
  5
163
330
145
100
AcDbEntity
  8
AM_9
 48
0.5512590870067188
100
AcDbLine
 10
-13.3
 20
22.28665887568981
 30
0.0
 11
-26.6
 21
22.28665887568981
 31
0.0
  0
LINE
  5
164
330
145
100
AcDbEntity
  8
AM_9
 48
0.5512590870067188
100
AcDbLine
 10
-13.3
 20
23.21208230884195
 30
0.0
 11
-14.06
 21
23.87286273224824
 31
0.0
  0
LINE
  5
165
330
145
100
AcDbEntity
  8
AM_9
 48
0.5512590870067188
100
AcDbLine
 10
-14.06
 20
23.87286273224824
 30
0.0
 11
-25.84
 21
23.87286273224823
 31
0.0
  0
LINE
  5
166
330
145
100
AcDbEntity
  8
AM_9
 48
0.5512590870067188
100
AcDbLine
 10
-25.84
 20
23.87286273224823
 30
0.0
 11
-26.6
 21
23.21208230884193
 31
0.0
  0
LINE
  5
167
330
145
100
AcDbEntity
  8
AM_9
 48
0.5512590870067188
100
AcDbLine
 10
-13.3
 20
-22.28665887568982
 30
0.0
 11
-26.6
 21
-22.28665887568982
 31
0.0
  0
LINE
  5
168
330
145
100
AcDbEntity
  8
AM_9
 48
0.5512590870067188
100
AcDbLine
 10
-26.6
 20
-23.21208230884195
 30
0.0
 11
-25.84
 21
-23.87286273224825
 31
0.0
  0
LINE
  5
169
330
145
100
AcDbEntity
  8
AM_9
 48
0.5512590870067188
100
AcDbLine
 10
-25.84
 20
-23.87286273224825
 30
0.0
 11
-14.06
 21
-23.87286273224826
 31
0.0
  0
LINE
  5
16A
330
145
100
AcDbEntity
  8
AM_9
 48
0.5512590870067188
100
AcDbLine
 10
-14.06
 20
-23.87286273224826
 30
0.0
 11
-13.3
 21
-23.21208230884196
 31
0.0
  0
LINE
  5
16B
330
145
100
AcDbEntity
  8
AM_9
 48
0.5512590870067188
100
AcDbLine
 10
-13.3
 20
24.83665887568981
 30
0.0
 11
-26.6
 21
24.83665887568981
 31
0.0
  0
LINE
  5
16C
330
145
100
AcDbEntity
  8
AM_9
 48
0.5512590870067188
100
AcDbLine
 10
-13.3
 20
-24.83665887568982
 30
0.0
 11
-26.6
 21
-24.83665887568982
 31
0.0
  0
LINE
  5
16D
330
145
100
AcDbEntity
  8
AM_9
 48
0.5512590870067188
100
AcDbLine
 10
-19.95
 20
21.7468253968254
 30
0.0
 11
-26.6
 21
21.7468253968254
 31
0.0
  0
LINE
  5
16E
330
145
100
AcDbEntity
  8
AM_9
 48
0.5512590870067188
100
AcDbLine
 10
14.3
 20
14.94782592887675
 30
0.0
 11
-27.0
 21
14.94782592887675
 31
0.0
  0
LINE
  5
16F
330
145
100
AcDbEntity
  8
AM_9
 48
0.5512590870067188
100
AcDbLine
 10
-27.0
 20
-15.0
 30
0.0
 11
14.3
 21
-15.0
 31
0.0
  0
LINE
  5
170
330
145
100
AcDbEntity
  8
AM_9
 48
0.5512590870067188
100
AcDbLine
 10
-19.95
 20
21.71087089086963
 30
0.0
 11
-9.974999999999874
 21
21.71087089086963
 31
0.0
  0
LINE
  5
171
330
145
100
AcDbEntity
  8
AM_9
 48
0.5512590870067188
100
AcDbLine
 10
-19.95
 20
-21.7468253968254
 30
0.0
 11
-9.974999999999874
 21
-21.7468253968254
 31
0.0
  0
LINE
  5
172
330
145
100
AcDbEntity
  8
AM_9
 48
0.5512590870067188
100
AcDbLine
 10
14.3
 20
14.89739910185667
 30
0.0
 11
14.3
 21
-14.89739910185667
 31
0.0
  0
LINE
  5
173
330
145
100
AcDbEntity
  8
AM_9
 48
0.5512590870067188
100
AcDbLine
 10
-9.974999999999874
 20
21.71087089086963
 30
0.0
 11
13.5849999558072
 21
22.53491692948973
 31
0.0
  0
LINE
  5
174
330
145
100
AcDbEntity
  8
AM_9
 48
0.5512590870067188
100
AcDbLine
 10
-9.974999999999874
 20
21.71087089086963
 30
0.0
 11
-9.974999999999874
 21
-21.7468253968254
 31
0.0
  0
LINE
  5
175
330
145
100
AcDbEntity
  8
AM_9
 48
0.5512590870067188
100
AcDbLine
 10
-9.974999999999874
 20
-21.7468253968254
 30
0.0
 11
13.58500000000001
 21
-22.56955872605097
 31
0.0
  0
LINE
  5
176
330
145
100
AcDbEntity
  8
AM_9
 48
0.5512590870067188
100
AcDbLine
 10
-16.625
 20
-23.82896825396826
 30
0.0
 11
-13.3
 21
-23.82896825396826
 31
0.0
  0
LINE
  5
177
330
145
100
AcDbEntity
  8
AM_9
 48
0.5512590870067188
100
AcDbLine
 10
-13.3
 20
23.82896825396826
 30
0.0
 11
-16.625
 21
23.82896825396826
 31
0.0
  0
LINE
  5
178
330
145
100
AcDbEntity
  8
AM_9
 48
0.5512590870067188
100
AcDbLine
 10
-16.625
 20
26.20261111111112
 30
0.0
 11
-16.625
 21
-26.20261111111112
 31
0.0
  0
LINE
  5
179
330
145
100
AcDbEntity
  8
AM_9
 48
0.5512590870067188
100
AcDbLine
 10
-19.95
 20
26.20261111111112
 30
0.0
 11
-19.95
 21
-26.20261111111112
 31
0.0
  0
LINE
  5
17A
330
145
100
AcDbEntity
  8
AM_9
 48
0.5512590870067188
100
AcDbLine
 10
-19.95
 20
-26.20261111111112
 30
0.0
 11
-16.625
 21
-26.20261111111112
 31
0.0
  0
LINE
  5
17B
330
145
100
AcDbEntity
  8
AM_9
 48
0.5512590870067188
100
AcDbLine
 10
-16.625
 20
26.20261111111112
 30
0.0
 11
-19.95
 21
26.20261111111112
 31
0.0
  0
LINE
  5
17C
330
145
100
AcDbEntity
  8
AM_9
 48
0.5512590870067188
100
AcDbLine
 10
-25.84
 20
-26.42286273224824
 30
0.0
 11
-26.6
 21
-25.76208230884194
 31
0.0
  0
LINE
  5
17D
330
145
100
AcDbEntity
  8
AM_9
 48
0.5512590870067188
100
AcDbLine
 10
-26.6
 20
25.76208230884193
 30
0.0
 11
-25.84
 21
26.42286273224824
 31
0.0
  0
LINE
  5
17E
330
145
100
AcDbEntity
  8
AM_9
 48
0.5512590870067188
100
AcDbLine
 10
-20.49194963882158
 20
-2.55
 30
0.0
 11
-13.3
 21
-2.55
 31
0.0
  0
LINE
  5
17F
330
145
100
AcDbEntity
  8
AM_9
 48
0.5512590870067188
100
AcDbLine
 10
-14.06
 20
-26.42286273224826
 30
0.0
 11
-25.84
 21
-26.42286273224824
 31
0.0
  0
LINE
  5
180
330
145
100
AcDbEntity
  8
AM_9
 48
0.5512590870067188
100
AcDbLine
 10
-13.3
 20
2.55
 30
0.0
 11
-20.49194963882158
 21
2.549999999999999
 31
0.0
  0
LINE
  5
181
330
145
100
AcDbEntity
  8
AM_9
 48
0.5512590870067188
100
AcDbLine
 10
-25.84
 20
26.42286273224824
 30
0.0
 11
-14.06
 21
26.42286273224825
 31
0.0
  0
LINE
  5
182
330
145
100
AcDbEntity
  8
AM_9
 48
0.5512590870067188
100
AcDbLine
 10
-14.06
 20
26.42286273224825
 30
0.0
 11
-13.3
 21
25.76208230884195
 31
0.0
  0
LINE
  5
183
330
145
100
AcDbEntity
  8
AM_9
 48
0.5512590870067188
100
AcDbLine
 10
-13.3
 20
28.39000000000002
 30
0.0
 11
-13.58499999999999
 21
28.67500000000001
 31
0.0
  0
LINE
  5
184
330
145
100
AcDbEntity
  8
AM_9
 48
0.5512590870067188
100
AcDbLine
 10
-14.06
 20
15.12411650312175
 30
0.0
 11
-14.06
 21
-15.12411650312175
 31
0.0
  0
LINE
  5
185
330
145
100
AcDbEntity
  8
AM_9
 48
0.5512590870067188
100
AcDbLine
 10
-13.3
 20
-25.76208230884196
 30
0.0
 11
-14.06
 21
-26.42286273224826
 31
0.0
  0
LINE
  5
186
330
145
100
AcDbEntity
  8
AM_9
 48
0.5512590870067188
100
AcDbLine
 10
-13.3
 20
28.39000000000002
 30
0.0
 11
-13.3
 21
-28.39000000000002
 31
0.0
  0
LINE
  5
187
330
145
100
AcDbEntity
  8
AM_9
 48
0.5512590870067188
100
AcDbLine
 10
-13.585
 20
-28.67500000000001
 30
0.0
 11
-13.3
 21
-28.39000000000002
 31
0.0
  0
ARC
  5
189
330
145
100
AcDbEntity
  8
AM_5
 48
0.5512590870067188
100
AcDbCircle
 10
-23.80833861112871
 20
0.0000000000000013
 30
0.0
 40
2.412999999999996
100
AcDbArc
 50
75.00000000000003
 51
14.99999999999994
  0
LINE
  5
18C
330
145
100
AcDbEntity
  8
AM_7
 48
0.5512590870067188
100
AcDbLine
 10
-23.80833333333333
 20
-2.533650000000002
 30
0.0
 11
-23.80833333333333
 21
2.533650000000002
 31
0.0
  0
LINE
  5
18E
330
145
100
AcDbEntity
  8
AM_0
 48
0.5512590870067188
100
AcDbLine
 10
-27.0
 20
21.71087089086963
 30
0.0
 11
-26.6
 21
21.71087089086963
 31
0.0
  0
LINE
  5
18F
330
145
100
AcDbEntity
  8
AM_0
 48
0.5512590870067188
100
AcDbLine
 10
-27.0
 20
21.71087089086963
 30
0.0
 11
-27.0
 21
-21.7468253968254
 31
0.0
  0
LINE
  5
190
330
145
100
AcDbEntity
  8
AM_0
 48
0.5512590870067188
100
AcDbLine
 10
-27.0
 20
-21.7468253968254
 30
0.0
 11
-26.6
 21
-21.7468253968254
 31
0.0
  0
LINE
  5
191
330
145
100
AcDbEntity
  8
AM_0
 48
0.5512590870067188
100
AcDbLine
 10
14.3
 20
-14.89739910185667
 30
0.0
 11
14.3
 21
-22.59452707623757
 31
0.0
  0
LINE
  5
192
330
145
100
AcDbEntity
  8
AM_0
 48
0.5512590870067188
100
AcDbLine
 10
14.3
 20
22.55992362129873
 30
0.0
 11
14.3
 21
14.89739910185667
 31
0.0
  0
LINE
  5
193
330
145
100
AcDbEntity
  8
AM_0
 48
0.5512590870067188
100
AcDbLine
 10
13.5849999558072
 20
22.53491692948973
 30
0.0
 11
14.3
 21
22.55992362129873
 31
0.0
  0
LINE
  5
194
330
145
100
AcDbEntity
  8
AM_0
 48
0.5512590870067188
100
AcDbLine
 10
13.58500000000001
 20
-22.56955872605097
 30
0.0
 11
14.3
 21
-22.59452707623757
 31
0.0
  0
LINE
  5
195
330
145
100
AcDbEntity
  8
AM_0
 48
0.5512590870067188
100
AcDbLine
 10
-26.6
 20
-2.55
 30
0.0
 11
-20.49194963882158
 21
-2.55
 31
0.0
  0
LINE
  5
196
330
145
100
AcDbEntity
  8
AM_0
 48
0.5512590870067188
100
AcDbLine
 10
-26.6
 20
28.39
 30
0.0
 11
-26.6
 21
-28.39
 31
0.0
  0
LINE
  5
197
330
145
100
AcDbEntity
  8
AM_0
 48
0.5512590870067188
100
AcDbLine
 10
-26.6
 20
-28.39
 30
0.0
 11
-25.84
 21
-29.15
 31
0.0
  0
LINE
  5
198
330
145
100
AcDbEntity
  8
AM_0
 48
0.5512590870067188
100
AcDbLine
 10
-20.49194963882158
 20
2.549999999999999
 30
0.0
 11
-26.6
 21
2.55
 31
0.0
  0
LINE
  5
199
330
145
100
AcDbEntity
  8
AM_0
 48
0.5512590870067188
100
AcDbLine
 10
-25.84
 20
29.15
 30
0.0
 11
-26.6
 21
28.39
 31
0.0
  0
LINE
  5
19A
330
145
100
AcDbEntity
  8
AM_0
 48
0.5512590870067188
100
AcDbLine
 10
-25.84
 20
-2.55
 30
0.0
 11
-25.84
 21
-29.15
 31
0.0
  0
LINE
  5
19B
330
145
100
AcDbEntity
  8
AM_0
 48
0.5512590870067188
100
AcDbLine
 10
-25.84
 20
-29.15000000000001
 30
0.0
 11
-14.06
 21
-29.15000000000001
 31
0.0
  0
LINE
  5
19C
330
145
100
AcDbEntity
  8
AM_0
 48
0.5512590870067188
100
AcDbLine
 10
-14.06
 20
29.15000000000001
 30
0.0
 11
-25.84
 21
29.15000000000001
 31
0.0
  0
LINE
  5
19D
330
145
100
AcDbEntity
  8
AM_0
 48
0.5512590870067188
100
AcDbLine
 10
-25.84
 20
29.15
 30
0.0
 11
-25.84
 21
2.55
 31
0.0
  0
LINE
  5
19E
330
145
100
AcDbEntity
  8
AM_0
 48
0.5512590870067188
100
AcDbLine
 10
-13.58499999999999
 20
28.67500000000001
 30
0.0
 11
-14.06
 21
29.15000000000002
 31
0.0
  0
LINE
  5
19F
330
145
100
AcDbEntity
  8
AM_0
 48
0.5512590870067188
100
AcDbLine
 10
-14.06
 20
29.15000000000002
 30
0.0
 11
-14.06
 21
15.12411650312175
 31
0.0
  0
LINE
  5
1A0
330
145
100
AcDbEntity
  8
AM_0
 48
0.5512590870067188
100
AcDbLine
 10
-14.06
 20
-15.12411650312175
 30
0.0
 11
-14.06
 21
-29.15000000000002
 31
0.0
  0
LINE
  5
1A1
330
145
100
AcDbEntity
  8
AM_0
 48
0.5512590870067188
100
AcDbLine
 10
-14.06
 20
-29.15000000000002
 30
0.0
 11
-13.585
 21
-28.67500000000001
 31
0.0
  0
ENDBLK
  5
148
330
145
100
AcDbEntity
  8
0
100
AcDbBlockEnd
  0
BLOCK
  5
1A4
330
1A2
100
AcDbEntity
  8
0
100
AcDbBlockBegin
  2
4_WSTU_GT_07_0_in_136304_2
 70
     2
 10
0.0
 20
0.0
 30
0.0
  3
4_WSTU_GT_07_0_in_136304_2
  1

  0
ATTDEF
  5
1A6
330
1A2
100
AcDbEntity
  8
AM_6
100
AcDbText
 10
46.61000022888184
 20
52.4
 30
0.0
 40
0.5
  1
GTNWSTUB-M-b
100
AcDbAttributeDefinition
  3

  2
NN
 70
     8
280
     0
  0
ATTDEF
  5
1A7
330
1A2
100
AcDbEntity
  8
AM_6
100
AcDbText
 10
46.61000022888184
 20
51.9
 30
0.0
 40
0.5
  1
Grip Tight Adapter Ball Bearings
100
AcDbAttributeDefinition
  3

  2
NT
 70
     8
280
     0
  0
ATTDEF
  5
1A8
330
1A2
100
AcDbEntity
  8
AM_6
100
AcDbText
 10
46.61000022888184
 20
51.4
 30
0.0
 40
0.5
  1
WSTU-GT-07
100
AcDbAttributeDefinition
  3

  2
NB
 70
     8
280
     0
  0
ATTDEF
  5
1A9
330
1A2
100
AcDbEntity
  8
AM_6
100
AcDbText
 10
46.61000022888184
 20
50.9
 30
0.0
 40
0.5
  1
$PN.$LUBE.
100
AcDbAttributeDefinition
  3

  2
NBSYN
 70
     8
280
     0
  0
ATTDEF
  5
1AA
330
1A2
100
AcDbEntity
  8
AM_6
100
AcDbText
 10
46.61000022888184
 20
50.4
 30
0.0
 40
0.5
  1
WSTU-GT-07
100
AcDbAttributeDefinition
  3

  2
LINA
 70
     8
280
     0
  0
ATTDEF
  5
1AB
330
1A2
100
AcDbEntity
  8
AM_6
100
AcDbText
 10
46.61000022888184
 20
49.9
 30
0.0
 40
0.5
  1
207
100
AcDbAttributeDefinition
  3

  2
SERIES
 70
     8
280
     0
  0
ATTDEF
  5
1AC
330
1A2
100
AcDbEntity
  8
AM_6
100
AcDbText
 10
46.61000022888184
 20
49.4
 30
0.0
 40
0.5
  1
35
100
AcDbAttributeDefinition
  3

  2
SS
 70
     8
280
     0
  0
ATTDEF
  5
1AD
330
1A2
100
AcDbEntity
  8
AM_6
100
AcDbText
 10
46.61000022888184
 20
48.9
 30
0.0
 40
0.5
  1
WSTU-GT-07
100
AcDbAttributeDefinition
  3

  2
PN
 70
     8
280
     0
  0
ATTDEF
  5
1AE
330
1A2
100
AcDbEntity
  8
AM_6
100
AcDbText
 10
46.61000022888184
 20
48.4
 30
0.0
 40
0.5
  1
WSTU-GT-07
100
AcDbAttributeDefinition
  3

  2
DESCRIPTION
 70
     8
280
     0
  0
ATTDEF
  5
1AF
330
1A2
100
AcDbEntity
  8
AM_6
100
AcDbText
 10
46.61000022888184
 20
47.9
 30
0.0
 40
0.5
  1
1.6
100
AcDbAttributeDefinition
  3

  2
WEIGHT
 70
     8
280
     0
  0
ATTDEF
  5
1B0
330
1A2
100
AcDbEntity
  8
AM_6
100
AcDbText
 10
46.61000022888184
 20
47.4
 30
0.0
 40
0.5
  1
72.0
100
AcDbAttributeDefinition
  3

  2
BOD
 70
     8
280
     0
  0
ATTDEF
  5
1B1
330
1A2
100
AcDbEntity
  8
AM_6
100
AcDbText
 10
46.61000022888184
 20
46.9
 30
0.0
 40
0.5
  1
41.3
100
AcDbAttributeDefinition
  3

  2
A
 70
     8
280
     0
  0
ATTDEF
  5
1B2
330
1A2
100
AcDbEntity
  8
AM_6
100
AcDbText
 10
46.61000022888184
 20
46.4
 30
0.0
 40
0.5
  1
123.8
100
AcDbAttributeDefinition
  3

  2
B
 70
     8
280
     0
  0
ATTDEF
  5
1B3
330
1A2
100
AcDbEntity
  8
AM_6
100
AcDbText
 10
46.61000022888184
 20
45.9
 30
0.0
 40
0.5
  1
13.5
100
AcDbAttributeDefinition
  3

  2
C
 70
     8
280
     0
  0
ATTDEF
  5
1B4
330
1A2
100
AcDbEntity
  8
AM_6
100
AcDbText
 10
46.61000022888184
 20
45.4
 30
0.0
 40
0.5
  1
77.8
100
AcDbAttributeDefinition
  3

  2
E
 70
     8
280
     0
  0
ATTDEF
  5
1B5
330
1A2
100
AcDbEntity
  8
AM_6
100
AcDbText
 10
46.61000022888184
 20
44.9
 30
0.0
 40
0.5
  1
19.1
100
AcDbAttributeDefinition
  3

  2
F
 70
     8
280
     0
  0
ATTDEF
  5
1B6
330
1A2
100
AcDbEntity
  8
AM_6
100
AcDbText
 10
46.61000022888184
 20
44.4
 30
0.0
 40
0.5
  1
12.7
100
AcDbAttributeDefinition
  3

  2
G
 70
     8
280
     0
  0
ATTDEF
  5
1B7
330
1A2
100
AcDbEntity
  8
AM_6
100
AcDbText
 10
46.61000022888184
 20
43.9
 30
0.0
 40
0.5
  1
15.9
100
AcDbAttributeDefinition
  3

  2
H
 70
     8
280
     0
  0
ATTDEF
  5
1B8
330
1A2
100
AcDbEntity
  8
AM_6
100
AcDbText
 10
46.61000022888184
 20
43.4
 30
0.0
 40
0.5
  1
63.5
100
AcDbAttributeDefinition
  3

  2
J
 70
     8
280
     0
  0
ATTDEF
  5
1B9
330
1A2
100
AcDbEntity
  8
AM_6
100
AcDbText
 10
46.61000022888184
 20
42.9
 30
0.0
 40
0.5
  1
36.5
100
AcDbAttributeDefinition
  3

  2
K
 70
     8
280
     0
  0
ATTDEF
  5
1BA
330
1A2
100
AcDbEntity
  8
AM_6
100
AcDbText
 10
46.61000022888184
 20
42.4
 30
0.0
 40
0.5
  1
58.3
100
AcDbAttributeDefinition
  3

  2
L
 70
     8
280
     0
  0
ATTDEF
  5
1BB
330
1A2
100
AcDbEntity
  8
AM_6
100
AcDbText
 10
46.61000022888184
 20
41.9
 30
0.0
 40
0.5
  1
88.9
100
AcDbAttributeDefinition
  3

  2
M
 70
     8
280
     0
  0
ATTDEF
  5
1BC
330
1A2
100
AcDbEntity
  8
AM_6
100
AcDbText
 10
46.61000022888184
 20
41.4
 30
0.0
 40
0.5
  1
104.8
100
AcDbAttributeDefinition
  3

  2
N
 70
     8
280
     0
  0
ATTDEF
  5
1BD
330
1A2
100
AcDbEntity
  8
AM_6
100
AcDbText
 10
46.61000022888184
 20
40.9
 30
0.0
 40
0.5
  1
14.3
100
AcDbAttributeDefinition
  3

  2
R
 70
     8
280
     0
  0
ATTDEF
  5
1BE
330
1A2
100
AcDbEntity
  8
AM_6
100
AcDbText
 10
46.61000022888184
 20
40.4
 30
0.0
 40
0.5
  1
27.0
100
AcDbAttributeDefinition
  3

  2
S
 70
     8
280
     0
  0
ATTDEF
  5
1BF
330
1A2
100
AcDbEntity
  8
AM_6
100
AcDbText
 10
46.61000022888184
 20
39.9
 30
0.0
 40
0.5
  1
41.3
100
AcDbAttributeDefinition
  3

  2
T
 70
     8
280
     0
  0
ATTDEF
  5
1C0
330
1A2
100
AcDbEntity
  8
AM_6
100
AcDbText
 10
46.61000022888184
 20
39.4
 30
0.0
 40
0.5
  1
26.6
100
AcDbAttributeDefinition
  3

  2
Z
 70
     8
280
     0
  0
ATTDEF
  5
1C1
330
1A2
100
AcDbEntity
  8
AM_6
100
AcDbText
 10
46.61000022888184
 20
38.9
 30
0.0
 40
0.5
  1
baldor
100
AcDbAttributeDefinition
  3

  2
COMPANY
 70
     8
280
     0
  0
LWPOLYLINE
  5
1C2
330
1A2
100
AcDbEntity
  8
AM_9
100
AcDbPolyline
 90
       30
 70
     0
 43
0.0
 10
-10.0
 20
-23.00000000000001
 10
-9.947210761148646
 20
-22.1068545941439
 10
-9.790093324757803
 20
-21.2123190809009
 10
-9.507378807565855
 20
-20.26507373197264
 10
-9.110173466265016
 20
-19.33768340163205
 10
-8.606057918998665
 20
-18.44818780338981
 10
-7.989150973068229
 20
-17.59492926802947
 10
-7.272897570082764
 20
-16.79966405786264
 10
-6.470122438842618
 20
-16.07856748131506
 10
-5.569904269075366
 20
-15.43043731152505
 10
-4.595185000146316
 20
-14.87631615224895
 10
-3.563989978833003
 20
-14.42898886351462
 10
-2.491447961508688
 20
-14.09826149806839
 10
-1.382663688765559
 20
-13.88444370185251
 10
-0.259280788581285
 20
-13.79297607654836
 10
0.8433202699758404
 20
-13.82536395318943
 10
1.938704675213281
 20
-13.97579139353634
 10
3.006236219980426
 20
-14.24055265788864
 10
4.032119396555696
 20
-14.61600735927328
 10
5.011491908842771
 20
-15.09591789341088
 10
5.927140739495591
 20
-15.66962608499657
 10
6.786586964255928
 20
-16.34526975409992
 10
7.564230581916445
 20
-17.10276030941902
 10
8.246096141427818
 20
-17.9262892231728
 10
8.831151815729797
 20
-18.81852916738999
 10
9.305902234756594
 20
-19.75876145571722
 10
9.660846237264618
 20
-20.72743204883354
 10
9.848301232547914
 20
-21.48241075996019
 10
9.961834367688999
 20
-22.24300399593065
 10
10.0
 20
-23.0
  0
ELLIPSE
  5
1C3
330
1A2
100
AcDbEntity
  8
AM_9
100
AcDbEllipse
 10
-0.0000000000000025
 20
-24.0
 30
0.0
 11
-8.000000000000005
 21
9.797174393178832E-16
 31
0.0
210
0.0
220
0.0
230
1.0
 40
0.8660254037844387
 41
0.0
 42
6.283185307179586
  0
ELLIPSE
  5
1C4
330
1A2
100
AcDbEntity
  8
AM_9
100
AcDbEllipse
 10
-0.0000000000000044
 20
-23.00000000000001
 30
0.0
 11
10.0
 21
-2.449293598294707E-15
 31
0.0
210
0.0
220
0.0
230
1.0
 40
0.8660254037844388
 41
0.1379493369701068
 42
2.955795956306297
  0
LINE
  5
1C5
330
1A2
100
AcDbEntity
  8
AM_9
100
AcDbLine
 10
9.999687662280373
 20
-23.07069175518262
 30
0.0
 11
9.999994554568294
 21
-22.9906658217684
 31
0.0
  0
LWPOLYLINE
  5
1C6
330
1A2
100
AcDbEntity
  8
AM_9
100
AcDbPolyline
 90
        6
 70
     0
 43
0.0
 10
9.552123803176308
 20
-25.64634960970122
 10
9.688004888693749
 20
-25.21650087504388
 10
9.817051900675752
 20
-24.70293396959542
 10
9.912000817784714
 20
-24.18393244176942
 10
9.972631132529784
 20
-23.66128156061199
 10
9.984066429389806
 20
-23.50470868752495
  0
LWPOLYLINE
  5
1C7
330
1A2
100
AcDbEntity
  8
AM_9
100
AcDbPolyline
 90
       20
 70
     0
 43
0.0
 10
1.985244894426989
 20
-31.75106743537616
 10
2.518144751385627
 20
-31.64140683117845
 10
3.086272097048519
 20
-31.49370326138911
 10
3.643806682913081
 20
-31.31623472242106
 10
4.188777885370506
 20
-31.10957453036936
 10
4.719246538396554
 20
-30.87440272478198
 10
5.233312289582637
 20
-30.61150731705405
 10
5.729121879724528
 20
-30.32178510894147
 10
6.20487836182104
 20
-30.00624176927439
 10
6.658851178243678
 20
-29.66599082868397
 10
7.089386895975834
 20
-29.30225125615481
 10
7.494920270572746
 20
-28.91634332865519
 10
7.87398518816001
 20
-28.50968260213246
 10
8.225224944360637
 20
-28.08377193630975
 10
8.547401282610219
 20
-27.64019170365529
 10
8.839401648971657
 20
-27.18058850096381
 10
9.100244231485698
 20
-26.70666285021071
 10
9.329080529280594
 20
-26.22015649417858
 10
9.525195415831519
 20
-25.72283994027184
 10
9.552123803176308
 20
-25.64634960970122
  0
LWPOLYLINE
  5
1C8
330
1A2
100
AcDbEntity
  8
AM_9
100
AcDbPolyline
 90
        9
 70
     0
 43
0.0
 10
-1.972228848349852
 20
-31.75340596146922
 10
-1.585851046477913
 20
-31.81558674241056
 10
-1.000214289901631
 20
-31.8835778116188
 10
-0.4109589929567988
 20
-31.92068564520587
 10
0.1798772222147047
 20
-31.92676349031789
 10
0.7702521291297829
 20
-31.90176615667047
 10
1.358113152643992
 20
-31.8457509716306
 10
1.94142020795567
 20
-31.75887742481444
 10
1.985244894426989
 20
-31.75106743537616
  0
LWPOLYLINE
  5
1C9
330
1A2
100
AcDbEntity
  8
AM_9
100
AcDbPolyline
 90
        6
 70
     0
 43
0.0
 10
-4.081609468909925
 20
-31.15292131053326
 10
-3.851922576790044
 20
-31.24131590969192
 10
-3.300854016863234
 20
-31.42931837763262
 10
-2.738172716823049
 20
-31.58805340771066
 10
-2.165841375198343
 20
-31.71696134214848
 10
-1.972228848349852
 20
-31.75340596146922
  0
LWPOLYLINE
  5
1CA
330
1A2
100
AcDbEntity
  8
AM_9
100
AcDbPolyline
 90
        6
 70
     0
 43
0.0
 10
-6.122471439183839
 20
-30.06374361339065
 10
-5.902251214314131
 20
-30.21146345344253
 10
-5.416414137891087
 20
-30.50886306534481
 10
-4.911558624058784
 20
-30.7802688963479
 10
-4.38945162904294
 20
-31.02471007081168
 10
-4.081609468909925
 20
-31.15292131053326
  0
LWPOLYLINE
  5
1CB
330
1A2
100
AcDbEntity
  8
AM_9
100
AcDbPolyline
 90
       12
 70
     0
 43
0.0
 10
-9.551752659346866
 20
-25.6474203759278
 10
-9.387394674136804
 20
-26.08173548425566
 10
-9.169407245860263
 20
-26.56787918764221
 10
-8.919820609388706
 20
-27.041857855423
 10
-8.639420612298384
 20
-27.50207314690591
 10
-8.329097650478339
 20
-27.94695390646458
 10
-7.98984966276871
 20
-28.37496235295114
 10
-7.622783823686841
 20
-28.78460169524368
 10
-7.229116507830271
 20
-29.17442479700384
 10
-6.810171278294807
 20
-29.54304340091123
 10
-6.367374854820033
 20
-29.88913737363842
 10
-6.122471439183839
 20
-30.06374361339065
  0
LWPOLYLINE
  5
1CC
330
1A2
100
AcDbEntity
  8
AM_9
100
AcDbPolyline
 90
        7
 70
     0
 43
0.0
 10
-9.999978786902822
 20
-23.01842306134553
 10
-9.98269596558337
 20
-23.52594797432292
 10
-9.931086075333468
 20
-24.04821973139047
 10
-9.845392557913257
 20
-24.56662148821579
 10
-9.725928672738476
 20
-25.07945666269162
 10
-9.573097852813921
 20
-25.58504772520249
 10
-9.551752659346866
 20
-25.6474203759278
  0
LWPOLYLINE
  5
1CD
330
1A2
100
AcDbEntity
  8
AM_9
100
AcDbPolyline
 90
       30
 70
     0
 43
0.0
 10
10.0
 20
-23.00000000000001
 10
9.93779521433032
 20
-23.95133536477464
 10
9.75368872202547
 20
-24.88057333721874
 10
9.451442320141746
 20
-25.77083687516408
 10
9.032998930865633
 20
-26.61359502996908
 10
8.50397958996482
 20
-27.40434346569562
 10
7.874250316299574
 20
-28.13083450403814
 10
7.137329835711027
 20
-28.79675573063067
 10
6.309303385381696
 20
-29.38870972992728
 10
5.405018017651428
 20
-29.89826522486664
 10
4.420444705984126
 20
-30.32600496856313
 10
3.37494899201707
 20
-30.66478760613262
 10
2.288396644736568
 20
-30.90953002716793
 10
1.188215466401505
 20
-31.05614475242976
 10
0.0689785687643988
 20
-31.10946421056294
 10
-1.047515512284292
 20
-31.06866211000002
 10
-2.130451993455949
 20
-30.93611328436674
 10
-3.190132835721575
 20
-30.71374755939697
 10
-4.207204912219792
 20
-30.40478330005913
 10
-5.179413184925863
 20
-30.00630976403702
 10
-6.090841280387219
 20
-29.52337011059401
 10
-6.925571403902793
 20
-28.96261975628469
 10
-7.690520156569583
 20
-28.31136614195967
 10
-8.361180562331226
 20
-27.58526001405701
 10
-8.925020971783542
 20
-26.79531680155472
 10
-9.375764084559846
 20
-25.94384829255948
 10
-9.709006355977023
 20
-25.03964985711868
 10
-9.917848305444839
 20
-24.09890222357211
 10
-9.979414028760994
 20
-23.5528532311035
 10
-10.0
 20
-23.00000000000001
  0
ELLIPSE
  5
1CE
330
1A2
100
AcDbEntity
  8
AM_9
100
AcDbEllipse
 10
-0.0000000000002895
 20
-23.0
 30
0.0
 11
10.00000000000029
 21
1.101341240428155E-13
 31
0.0
210
0.0
220
0.0
230
1.0
 40
0.8660254037844384
 41
5.982048761626206
 42
6.283185307179573
  0
ELLIPSE
  5
1CF
330
1A2
100
AcDbEntity
  8
AM_9
100
AcDbEllipse
 10
-0.0000000000000053
 20
-23.00000000000001
 30
0.0
 11
9.999999999999996
 21
1.421085471520200E-14
 31
0.0
210
0.0
220
0.0
230
1.0
 40
0.8660254037844379
 41
4.292126617139894
 42
5.982048761626213
  0
ELLIPSE
  5
1D0
330
1A2
100
AcDbEntity
  8
AM_9
100
AcDbEllipse
 10
-0.0000000000000675
 20
-23.00000000000025
 30
0.0
 11
9.999999999999861
 21
-2.777846037053297E-13
 31
0.0
210
0.0
220
0.0
230
1.0
 40
0.8660254037844285
 41
4.053801956684907
 42
4.292126617139919
  0
ELLIPSE
  5
1D1
330
1A2
100
AcDbEntity
  8
AM_9
100
AcDbEllipse
 10
-0.0000000000000409
 20
-23.00000000000003
 30
0.0
 11
9.999999999999954
 21
-6.462178297730317E-14
 31
0.0
210
0.0
220
0.0
230
1.0
 40
0.8660254037844374
 41
3.442729199143169
 42
4.053801956684896
  0
ELLIPSE
  5
1D2
330
1A2
100
AcDbEntity
  8
AM_9
100
AcDbEllipse
 10
-0.000000000000032
 20
-22.9999999999999
 30
0.0
 11
9.999999999999972
 21
4.227729277772597E-13
 31
0.0
210
0.0
220
0.0
230
1.0
 40
0.866025403784441
 41
3.141592653589757
 42
3.442729199143129
  0
LINE
  5
1D3
330
1A2
100
AcDbEntity
  8
AM_9
100
AcDbLine
 10
-13.585
 20
-33.28569512568424
 30
0.0
 11
13.585
 21
-33.28569512568424
 31
0.0
  0
LINE
  5
1D4
330
1A2
100
AcDbEntity
  8
AM_9
100
AcDbLine
 10
-13.585
 20
33.28569512568424
 30
0.0
 11
13.585
 21
33.28569512568424
 31
0.0
  0
LINE
  5
1D5
330
1A2
100
AcDbEntity
  8
AM_9
100
AcDbLine
 10
-15.73
 20
48.11405843616036
 30
0.0
 11
-12.87
 21
48.11405843616036
 31
0.0
  0
LINE
  5
1D6
330
1A2
100
AcDbEntity
  8
AM_9
100
AcDbLine
 10
-15.73
 20
46.63402595554006
 30
0.0
 11
-12.87
 21
46.63402595554006
 31
0.0
  0
LINE
  5
1D7
330
1A2
100
AcDbEntity
  8
AM_9
100
AcDbLine
 10
-15.73
 20
47.74405034966043
 30
0.0
 11
-12.87
 21
47.74405034966043
 31
0.0
  0
LINE
  5
1D8
330
1A2
100
AcDbEntity
  8
AM_9
100
AcDbLine
 10
-15.73
 20
45.52400162999984
 30
0.0
 11
-12.87
 21
45.52400162999984
 31
0.0
  0
LINE
  5
1D9
330
1A2
100
AcDbEntity
  8
AM_9
100
AcDbLine
 10
-15.73
 20
48.85407474378006
 30
0.0
 11
-12.87
 21
48.85407474378006
 31
0.0
  0
LINE
  5
1DA
330
1A2
100
AcDbEntity
  8
AM_9
100
AcDbLine
 10
-15.73
 20
46.93003246284032
 30
0.0
 11
-12.87
 21
46.93003246284032
 31
0.0
  0
LINE
  5
1DB
330
1A2
100
AcDbEntity
  8
AM_9
100
AcDbLine
 10
-15.73
 20
46.11601460904044
 30
0.0
 11
-12.87
 21
46.11601460904044
 31
0.0
  0
LINE
  5
1DC
330
1A2
100
AcDbEntity
  8
AM_9
100
AcDbLine
 10
-15.73
 20
46.33801943300026
 30
0.0
 11
-12.87
 21
46.33801943300026
 31
0.0
  0
LINE
  5
1DD
330
1A2
100
AcDbEntity
  8
AM_9
100
AcDbLine
 10
-15.73
 20
48.26206169870046
 30
0.0
 11
-12.87
 21
48.26206169870046
 31
0.0
  0
LINE
  5
1DE
330
1A2
100
AcDbEntity
  8
AM_9
100
AcDbLine
 10
-15.73
 20
48.70607148378037
 30
0.0
 11
-12.87
 21
48.70607148378037
 31
0.0
  0
LINE
  5
1DF
330
1A2
100
AcDbEntity
  8
AM_9
100
AcDbLine
 10
-15.73
 20
45.67200489253995
 30
0.0
 11
-12.87
 21
45.67200489253995
 31
0.0
  0
LINE
  5
1E0
330
1A2
100
AcDbEntity
  8
AM_9
100
AcDbLine
 10
-15.73
 20
48.41006495870015
 30
0.0
 11
-12.87
 21
48.41006495870015
 31
0.0
  0
LINE
  5
1E1
330
1A2
100
AcDbEntity
  8
AM_9
100
AcDbLine
 10
-15.73
 20
45.96801128046061
 30
0.0
 11
-12.87
 21
45.96801128046061
 31
0.0
  0
LINE
  5
1E2
330
1A2
100
AcDbEntity
  8
AM_9
100
AcDbLine
 10
-15.73
 20
48.04005680616051
 30
0.0
 11
-12.87
 21
48.04005680616051
 31
0.0
  0
LINE
  5
1E3
330
1A2
100
AcDbEntity
  8
AM_9
100
AcDbLine
 10
-15.73
 20
46.26401780300041
 30
0.0
 11
-12.87
 21
46.26401780300041
 31
0.0
  0
LINE
  5
1E4
330
1A2
100
AcDbEntity
  8
AM_9
100
AcDbLine
 10
-15.73
 20
47.37404221490002
 30
0.0
 11
-12.87
 21
47.37404221490002
 31
0.0
  0
LINE
  5
1E5
330
1A2
100
AcDbEntity
  8
AM_9
100
AcDbLine
 10
-15.73
 20
47.07803570759975
 30
0.0
 11
-12.87
 21
47.07803570759975
 31
0.0
  0
LINE
  5
1E6
330
1A2
100
AcDbEntity
  8
AM_9
100
AcDbLine
 10
-15.73
 20
47.52204545711975
 30
0.0
 11
-12.87
 21
47.52204545711975
 31
0.0
  0
LINE
  5
1E7
330
1A2
100
AcDbEntity
  8
AM_9
100
AcDbLine
 10
-12.87
 20
45.45
 30
0.0
 11
-12.87
 21
48.92807637632032
 31
0.0
  0
LINE
  5
1E8
330
1A2
100
AcDbEntity
  8
AM_9
100
AcDbLine
 10
-15.73
 20
45.45
 30
0.0
 11
-12.87
 21
45.45
 31
0.0
  0
LINE
  5
1E9
330
1A2
100
AcDbEntity
  8
AM_9
100
AcDbLine
 10
-15.73
 20
45.89400964792035
 30
0.0
 11
-12.87
 21
45.89400964792035
 31
0.0
  0
LINE
  5
1EA
330
1A2
100
AcDbEntity
  8
AM_9
100
AcDbLine
 10
-15.73
 20
48.92807637632032
 30
0.0
 11
-12.87
 21
48.92807637632032
 31
0.0
  0
LINE
  5
1EB
330
1A2
100
AcDbEntity
  8
AM_9
100
AcDbLine
 10
-15.73
 20
48.48406659124042
 30
0.0
 11
-12.87
 21
48.48406659124042
 31
0.0
  0
LINE
  5
1EC
330
1A2
100
AcDbEntity
  8
AM_9
100
AcDbLine
 10
-13.58500000000001
 20
-36.00000000000001
 30
0.0
 11
13.58499999999997
 21
-36.00000000000001
 31
0.0
  0
LINE
  5
1ED
330
1A2
100
AcDbEntity
  8
AM_9
100
AcDbLine
 10
13.58499999999997
 20
36.00000000000001
 30
0.0
 11
-13.58500000000001
 21
36.00000000000001
 31
0.0
  0
LINE
  5
1EE
330
1A2
100
AcDbEntity
  8
AM_9
100
AcDbLine
 10
-13.585
 20
15.55217910776494
 30
0.0
 11
-13.585
 21
-15.55217910776492
 31
0.0
  0
LINE
  5
1EF
330
1A2
100
AcDbEntity
  8
AM_9
100
AcDbLine
 10
13.585
 20
-15.55217910776493
 30
0.0
 11
13.58499999999999
 21
15.55217910776491
 31
0.0
  0
LINE
  5
1F0
330
1A2
100
AcDbEntity
  8
AM_9
100
AcDbLine
 10
-13.585
 20
-17.455
 30
0.0
 11
13.58499999999999
 21
-17.455
 31
0.0
  0
LINE
  5
1F1
330
1A2
100
AcDbEntity
  8
AM_9
100
AcDbLine
 10
-13.585
 20
-18.25
 30
0.0
 11
13.58499999999999
 21
-18.25
 31
0.0
  0
LINE
  5
1F2
330
1A2
100
AcDbEntity
  8
AM_9
100
AcDbLine
 10
-13.585
 20
18.25000000000001
 30
0.0
 11
13.58499999999999
 21
18.25000000000001
 31
0.0
  0
LINE
  5
1F3
330
1A2
100
AcDbEntity
  8
AM_9
100
AcDbLine
 10
-13.585
 20
17.455
 30
0.0
 11
13.58499999999999
 21
17.455
 31
0.0
  0
LINE
  5
1F4
330
1A2
100
AcDbEntity
  8
AM_7
100
AcDbLine
 10
0.0000000000000048
 20
-10.0275
 30
0.0
 11
0.0000000000000048
 21
10.0275
 31
0.0
  0
LINE
  5
1F5
330
1A2
100
AcDbEntity
  8
AM_7
100
AcDbLine
 10
41.61000022888184
 20
0.0
 30
0.0
 11
-45.43
 21
0.0
 31
0.0
  0
LINE
  5
1F6
330
1A2
100
AcDbEntity
  8
AM_0
100
AcDbLine
 10
-15.73
 20
-51.4
 30
0.0
 11
-15.73
 21
-44.44999999999999
 31
0.0
  0
LINE
  5
1F7
330
1A2
100
AcDbEntity
  8
AM_0
100
AcDbLine
 10
-6.749999999999998
 20
-44.44999999999999
 30
0.0
 11
-6.749999999999997
 21
-52.40000000000001
 31
0.0
  0
LINE
  5
1F8
330
1A2
100
AcDbEntity
  8
AM_0
100
AcDbLine
 10
-14.73
 20
-52.40000000000001
 30
0.0
 11
-15.73
 21
-51.4
 31
0.0
  0
LINE
  5
1F9
330
1A2
100
AcDbEntity
  8
AM_0
100
AcDbLine
 10
-14.73
 20
-52.40000000000001
 30
0.0
 11
-6.749999999999997
 21
-52.40000000000001
 31
0.0
  0
LINE
  5
1FA
330
1A2
100
AcDbEntity
  8
AM_0
100
AcDbLine
 10
-15.73
 20
44.45
 30
0.0
 11
-15.73
 21
51.4
 31
0.0
  0
LINE
  5
1FB
330
1A2
100
AcDbEntity
  8
AM_0
100
AcDbLine
 10
-6.749999999999997
 20
52.4
 30
0.0
 11
-6.749999999999998
 21
44.45
 31
0.0
  0
LINE
  5
1FC
330
1A2
100
AcDbEntity
  8
AM_0
100
AcDbLine
 10
-14.73
 20
52.4
 30
0.0
 11
-6.749999999999997
 21
52.4
 31
0.0
  0
LINE
  5
1FD
330
1A2
100
AcDbEntity
  8
AM_0
100
AcDbLine
 10
-15.72999999999999
 20
51.39999999999999
 30
0.0
 11
-14.73
 21
52.4
 31
0.0
  0
LINE
  5
1FE
330
1A2
100
AcDbEntity
  8
AM_0
100
AcDbLine
 10
6.750000000000008
 20
-52.40000000000001
 30
0.0
 11
6.750000000000002
 21
-44.45
 31
0.0
  0
LINE
  5
1FF
330
1A2
100
AcDbEntity
  8
AM_0
100
AcDbLine
 10
6.750000000000008
 20
-52.40000000000001
 30
0.0
 11
14.73
 21
-52.40000000000001
 31
0.0
  0
LINE
  5
200
330
1A2
100
AcDbEntity
  8
AM_0
100
AcDbLine
 10
15.73
 20
-51.39999999999998
 30
0.0
 11
14.72999999999999
 21
-52.40000000000001
 31
0.0
  0
LINE
  5
201
330
1A2
100
AcDbEntity
  8
AM_0
100
AcDbLine
 10
15.73
 20
-44.45
 30
0.0
 11
15.73000000000001
 21
-51.4
 31
0.0
  0
LINE
  5
202
330
1A2
100
AcDbEntity
  8
AM_0
100
AcDbLine
 10
-6.749999999999998
 20
44.45
 30
0.0
 11
6.750000000000002
 21
44.45
 31
0.0
  0
LINE
  5
203
330
1A2
100
AcDbEntity
  8
AM_0
100
AcDbLine
 10
15.73
 20
44.45
 30
0.0
 11
13.585
 21
41.45
 31
0.0
  0
LINE
  5
204
330
1A2
100
AcDbEntity
  8
AM_0
100
AcDbLine
 10
15.73
 20
51.4
 30
0.0
 11
15.73
 21
44.45
 31
0.0
  0
LINE
  5
205
330
1A2
100
AcDbEntity
  8
AM_0
100
AcDbLine
 10
6.750000000000002
 20
44.45
 30
0.0
 11
6.750000000000008
 21
52.4
 31
0.0
  0
LINE
  5
207
330
1A2
100
AcDbEntity
  8
AM_4
100
AcDbLine
 10
-15.73
 20
51.34
 30
0.0
 11
-6.749999999999997
 21
51.34
 31
0.0
  0
LINE
  5
208
330
1A2
100
AcDbEntity
  8
AM_0
100
AcDbLine
 10
-13.585
 20
41.45
 30
0.0
 11
-15.73
 21
44.45
 31
0.0
  0
LINE
  5
209
330
1A2
100
AcDbEntity
  8
AM_0
100
AcDbLine
 10
13.585
 20
-41.45
 30
0.0
 11
15.73
 21
-44.45
 31
0.0
  0
LINE
  5
20A
330
1A2
100
AcDbEntity
  8
AM_0
100
AcDbLine
 10
-15.73
 20
-44.44999999999999
 30
0.0
 11
-13.585
 21
-41.44999999999999
 31
0.0
  0
LINE
  5
20B
330
1A2
100
AcDbEntity
  8
AM_4
100
AcDbLine
 10
-15.73
 20
-51.34
 30
0.0
 11
-6.749999999999997
 21
-51.34
 31
0.0
  0
LINE
  5
20C
330
1A2
100
AcDbEntity
  8
AM_0
100
AcDbLine
 10
6.750000000000002
 20
-44.45
 30
0.0
 11
-6.749999999999998
 21
-44.44999999999999
 31
0.0
  0
LINE
  5
20D
330
1A2
100
AcDbEntity
  8
AM_4
100
AcDbLine
 10
6.750000000000008
 20
-51.34
 30
0.0
 11
15.73000000000001
 21
-51.34
 31
0.0
  0
LINE
  5
20E
330
1A2
100
AcDbEntity
  8
AM_0
100
AcDbLine
 10
14.73000000000003
 20
52.4
 30
0.0
 11
15.73000000000001
 21
51.40000000000001
 31
0.0
  0
LINE
  5
20F
330
1A2
100
AcDbEntity
  8
AM_0
100
AcDbLine
 10
6.750000000000008
 20
52.4
 30
0.0
 11
14.73000000000001
 21
52.4
 31
0.0
  0
LINE
  5
210
330
1A2
100
AcDbEntity
  8
AM_4
100
AcDbLine
 10
6.750000000000008
 20
51.34
 30
0.0
 11
15.73000000000001
 21
51.34
 31
0.0
  0
LINE
  5
211
330
1A2
100
AcDbEntity
  8
AM_4
100
AcDbLine
 10
-13.585
 20
-33.34
 30
0.0
 11
13.585
 21
-33.34
 31
0.0
  0
LINE
  5
212
330
1A2
100
AcDbEntity
  8
AM_4
100
AcDbLine
 10
-13.585
 20
33.34
 30
0.0
 11
13.585
 21
33.34
 31
0.0
  0
LINE
  5
213
330
1A2
100
AcDbEntity
  8
AM_0
100
AcDbLine
 10
-13.585
 20
-31.75
 30
0.0
 11
13.585
 21
-31.75
 31
0.0
  0
LINE
  5
214
330
1A2
100
AcDbEntity
  8
AM_0
100
AcDbLine
 10
-13.585
 20
31.75
 30
0.0
 11
13.585
 21
31.75
 31
0.0
  0
ARC
  5
215
330
1A2
100
AcDbEntity
  8
AM_0
100
AcDbCircle
 10
-0.0000000000000071
 20
0.0
 30
0.0
 40
20.64999999999999
100
AcDbArc
 50
131.1375713863579
 51
228.8624286136421
  0
ARC
  5
216
330
1A2
100
AcDbEntity
  8
AM_0
100
AcDbCircle
 10
0.0000000000000249
 20
-0.0000000000000053
 30
0.0
 40
20.64999999999998
100
AcDbArc
 50
311.1375713863579
 51
48.86242861364205
  0
LINE
  5
217
330
1A2
100
AcDbEntity
  8
AM_0
100
AcDbLine
 10
-13.58499999999998
 20
15.55217910776494
 30
0.0
 11
-13.585
 21
41.45
 31
0.0
  0
LINE
  5
218
330
1A2
100
AcDbEntity
  8
AM_0
100
AcDbLine
 10
-13.585
 20
-41.44999999999999
 30
0.0
 11
-13.585
 21
-15.55217910776492
 31
0.0
  0
CIRCLE
  5
219
330
1A2
100
AcDbEntity
  8
AM_0
100
AcDbCircle
 10
0.0000000000000048
 20
0.0
 30
0.0
 40
9.55
  0
LINE
  5
21A
330
1A2
100
AcDbEntity
  8
AM_4
100
AcDbLine
 10
-13.585
 20
-30.16
 30
0.0
 11
13.585
 21
-30.16
 31
0.0
  0
LINE
  5
21B
330
1A2
100
AcDbEntity
  8
AM_0
100
AcDbLine
 10
13.58500000000001
 20
-15.55217910776493
 30
0.0
 11
13.585
 21
-41.45
 31
0.0
  0
LINE
  5
21C
330
1A2
100
AcDbEntity
  8
AM_0
100
AcDbLine
 10
13.585
 20
41.45
 30
0.0
 11
13.58500000000001
 21
15.55217910776492
 31
0.0
  0
LINE
  5
21D
330
1A2
100
AcDbEntity
  8
AM_4
100
AcDbLine
 10
-13.585
 20
30.15999999999998
 30
0.0
 11
13.585
 21
30.15999999999998
 31
0.0
  0
ENDBLK
  5
1A5
330
1A2
100
AcDbEntity
  8
0
100
AcDbBlockEnd
  0
ENDSEC
  0
SECTION
  2
ENTITIES
  0
ATTDEF
  5
6F
330
1F
100
AcDbEntity
  8
AM_6
100
AcDbText
 10
46.61000022888184
 20
52.4
 30
0.0
 40
0.5
  1
Grip Tight Medium Duty Wide Slot Take Up Metric Bore
100
AcDbAttributeDefinition
  3

  2
NN
 70
     8
280
     0
  0
ATTDEF
  5
70
330
1F
100
AcDbEntity
  8
AM_6
100
AcDbText
 10
46.61000022888184
 20
51.9
 30
0.0
 40
0.5
  1
GT Wide Slot Take-Up Bearings -(Medium Duty)
100
AcDbAttributeDefinition
  3

  2
NT
 70
     8
280
     0
  0
ATTDEF
  5
71
330
1F
100
AcDbEntity
  8
AM_6
100
AcDbText
 10
46.61000022888184
 20
51.4
 30
0.0
 40
0.5
  1
136304
100
AcDbAttributeDefinition
  3

  2
NB
 70
     8
280
     0
  0
ATTDEF
  5
72
330
1F
100
AcDbEntity
  8
AM_6
100
AcDbText
 10
46.61000022888184
 20
50.9
 30
0.0
 40
0.5
  1
$PN.$LUBE.
100
AcDbAttributeDefinition
  3

  2
NBSYN
 70
     8
280
     0
  0
ATTDEF
  5
73
330
1F
100
AcDbEntity
  8
AM_6
100
AcDbText
 10
46.61000022888184
 20
50.4
 30
0.0
 40
0.5
  1
136304
100
AcDbAttributeDefinition
  3

  2
LINA
 70
     8
280
     0
  0
ATTDEF
  5
74
330
1F
100
AcDbEntity
  8
AM_6
100
AcDbText
 10
46.61000022888184
 20
49.9
 30
0.0
 40
0.5
  1
207
100
AcDbAttributeDefinition
  3

  2
SERIES
 70
     8
280
     0
  0
ATTDEF
  5
75
330
1F
100
AcDbEntity
  8
AM_6
100
AcDbText
 10
46.61000022888184
 20
49.4
 30
0.0
 40
0.5
  1
30
100
AcDbAttributeDefinition
  3

  2
SS
 70
     8
280
     0
  0
ATTDEF
  5
76
330
1F
100
AcDbEntity
  8
AM_6
100
AcDbText
 10
46.61000022888184
 20
48.9
 30
0.0
 40
0.5
  1
136304
100
AcDbAttributeDefinition
  3

  2
PN
 70
     8
280
     0
  0
ATTDEF
  5
77
330
1F
100
AcDbEntity
  8
AM_6
100
AcDbText
 10
46.61000022888184
 20
48.4
 30
0.0
 40
0.5
  1
WSTU-GTM-30M
100
AcDbAttributeDefinition
  3

  2
DESCRIPTION
 70
     8
280
     0
  0
ATTDEF
  5
78
330
1F
100
AcDbEntity
  8
AM_6
100
AcDbText
 10
46.61000022888184
 20
47.9
 30
0.0
 40
0.5
  1
41.3
100
AcDbAttributeDefinition
  3

  2
A
 70
     8
280
     0
  0
ATTDEF
  5
79
330
1F
100
AcDbEntity
  8
AM_6
100
AcDbText
 10
46.61000022888184
 20
47.4
 30
0.0
 40
0.5
  1
123.8
100
AcDbAttributeDefinition
  3

  2
B
 70
     8
280
     0
  0
ATTDEF
  5
7A
330
1F
100
AcDbEntity
  8
AM_6
100
AcDbText
 10
46.61000022888184
 20
46.9
 30
0.0
 40
0.5
  1
13.5
100
AcDbAttributeDefinition
  3

  2
C
 70
     8
280
     0
  0
ATTDEF
  5
7B
330
1F
100
AcDbEntity
  8
AM_6
100
AcDbText
 10
46.61000022888184
 20
46.4
 30
0.0
 40
0.5
  1
63.5
100
AcDbAttributeDefinition
  3

  2
D
 70
     8
280
     0
  0
ATTDEF
  5
7C
330
1F
100
AcDbEntity
  8
AM_6
100
AcDbText
 10
46.61000022888184
 20
45.9
 30
0.0
 40
0.5
  1
77.8
100
AcDbAttributeDefinition
  3

  2
E
 70
     8
280
     0
  0
ATTDEF
  5
7D
330
1F
100
AcDbEntity
  8
AM_6
100
AcDbText
 10
46.61000022888184
 20
45.4
 30
0.0
 40
0.5
  1
19.1
100
AcDbAttributeDefinition
  3

  2
F
 70
     8
280
     0
  0
ATTDEF
  5
7E
330
1F
100
AcDbEntity
  8
AM_6
100
AcDbText
 10
46.61000022888184
 20
44.9
 30
0.0
 40
0.5
  1
12.7
100
AcDbAttributeDefinition
  3

  2
G
 70
     8
280
     0
  0
ATTDEF
  5
7F
330
1F
100
AcDbEntity
  8
AM_6
100
AcDbText
 10
46.61000022888184
 20
44.4
 30
0.0
 40
0.5
  1
15.9
100
AcDbAttributeDefinition
  3

  2
H
 70
     8
280
     0
  0
ATTDEF
  5
80
330
1F
100
AcDbEntity
  8
AM_6
100
AcDbText
 10
46.61000022888184
 20
43.9
 30
0.0
 40
0.5
  1
63.5
100
AcDbAttributeDefinition
  3

  2
J
 70
     8
280
     0
  0
ATTDEF
  5
81
330
1F
100
AcDbEntity
  8
AM_6
100
AcDbText
 10
46.61000022888184
 20
43.4
 30
0.0
 40
0.5
  1
36.5
100
AcDbAttributeDefinition
  3

  2
K
 70
     8
280
     0
  0
ATTDEF
  5
82
330
1F
100
AcDbEntity
  8
AM_6
100
AcDbText
 10
46.61000022888184
 20
42.9
 30
0.0
 40
0.5
  1
58.3
100
AcDbAttributeDefinition
  3

  2
L
 70
     8
280
     0
  0
ATTDEF
  5
83
330
1F
100
AcDbEntity
  8
AM_6
100
AcDbText
 10
46.61000022888184
 20
42.4
 30
0.0
 40
0.5
  1
88.8
100
AcDbAttributeDefinition
  3

  2
M
 70
     8
280
     0
  0
ATTDEF
  5
84
330
1F
100
AcDbEntity
  8
AM_6
100
AcDbText
 10
46.61000022888184
 20
41.9
 30
0.0
 40
0.5
  1
104.8
100
AcDbAttributeDefinition
  3

  2
N
 70
     8
280
     0
  0
ATTDEF
  5
85
330
1F
100
AcDbEntity
  8
AM_6
100
AcDbText
 10
46.61000022888184
 20
41.4
 30
0.0
 40
0.5
  1
14.3
100
AcDbAttributeDefinition
  3

  2
R
 70
     8
280
     0
  0
ATTDEF
  5
86
330
1F
100
AcDbEntity
  8
AM_6
100
AcDbText
 10
46.61000022888184
 20
40.9
 30
0.0
 40
0.5
  1
27.0
100
AcDbAttributeDefinition
  3

  2
S
 70
     8
280
     0
  0
ATTDEF
  5
87
330
1F
100
AcDbEntity
  8
AM_6
100
AcDbText
 10
46.61000022888184
 20
40.4
 30
0.0
 40
0.5
  1
41.3
100
AcDbAttributeDefinition
  3

  2
T
 70
     8
280
     0
  0
ATTDEF
  5
88
330
1F
100
AcDbEntity
  8
AM_6
100
AcDbText
 10
46.61000022888184
 20
39.9
 30
0.0
 40
0.5
  1
26.6
100
AcDbAttributeDefinition
  3

  2
Z
 70
     8
280
     0
  0
ATTDEF
  5
89
330
1F
100
AcDbEntity
  8
AM_6
100
AcDbText
 10
46.61000022888184
 20
39.4
 30
0.0
 40
0.5
  1
baldor
100
AcDbAttributeDefinition
  3

  2
COMPANY
 70
     8
280
     0
  0
INSERT
  5
8B
330
1F
100
AcDbEntity
  8
0
100
AcDbBlockReference
  2
1_405016_Metric_0_in_136304_2
 10
0.0
 20
0.0
 30
0.0
  0
INSERT
  5
103
330
1F
100
AcDbEntity
  8
0
100
AcDbBlockReference
  2
2_129520_0_in_136304_2
 10
0.0
 20
0.0
 30
0.0
  0
INSERT
  5
146
330
1F
100
AcDbEntity
  8
0
100
AcDbBlockReference
  2
3_129954_0_in_136304_2
 10
0.0
 20
0.0
 30
0.0
  0
INSERT
  5
1A3
330
1F
100
AcDbEntity
  8
0
100
AcDbBlockReference
  2
4_WSTU_GT_07_0_in_136304_2
 10
0.0
 20
0.0
 30
0.0
  0
POINT
  5
21F
330
1F
100
AcDbEntity
  8
ConnectionPoints
100
AcDbPoint
 10
0.0
 20
0.0
 30
0.0
  0
POINT
  5
220
330
1F
100
AcDbEntity
  8
ConnectionPoints
100
AcDbPoint
 10
0.0
 20
0.0
 30
0.0
  0
POINT
  5
221
330
1F
100
AcDbEntity
  8
ConnectionPoints
100
AcDbPoint
 10
14.3
 20
0.0
 30
-0.0000000000000009
  0
POINT
  5
222
330
1F
100
AcDbEntity
  8
ConnectionPoints
100
AcDbPoint
 10
0.0
 20
0.0
 30
0.0
  0
POINT
  5
223
330
1F
100
AcDbEntity
  8
ConnectionPoints
100
AcDbPoint
 10
0.0
 20
0.0
 30
0.0
  0
POINT
  5
224
330
1F
100
AcDbEntity
  8
ConnectionPoints
100
AcDbPoint
 10
-0.0000000000000025
 20
-24.0
 30
-41.56921938165306
  0
POINT
  5
225
330
1F
100
AcDbEntity
  8
ConnectionPoints
100
AcDbPoint
 10
-14.3
 20
0.0
 30
0.0000000000000009
  0
ENDSEC
  0
SECTION
  2
OBJECTS
  0
DICTIONARY
  5
C
330
0
100
AcDbDictionary
281
     1
  3
ACAD_DETAILVIEWSTYLE
350
22D
  3
ACAD_GROUP
350
D
  3
ACAD_LAYOUT
350
1A
  3
ACAD_MATERIAL
350
43
  3
ACAD_MLEADERSTYLE
350
6B
  3
ACAD_MLINESTYLE
350
17
  3
ACAD_PLOTSETTINGS
350
19
  3
ACAD_PLOTSTYLENAME
350
E
  3
ACAD_SCALELIST
350
47
  3
ACAD_SECTIONVIEWSTYLE
350
22E
  3
ACAD_TABLESTYLE
350
69
  3
ACAD_VISUALSTYLE
350
2A
  3
ACDB_RECOMPOSE_DATA
350
22A
  3
AcDbVariableDictionary
350
226
  0
SUN
  5
6D
330
29
100
AcDbSun
 90
        1
290
     0
 63
     7
421
 16777215
 40
1.0
291
     1
 91
  2455826
 92
 54000000
292
     0
 70
     2
 71
   256
280
     1
  0
DICTIONARY
  5
22D
102
{ACAD_REACTORS
330
C
102
}
330
C
100
AcDbDictionary
281
     1
  0
DICTIONARY
  5
D
102
{ACAD_REACTORS
330
C
102
}
330
C
100
AcDbDictionary
281
     1
  0
DICTIONARY
  5
1A
102
{ACAD_REACTORS
330
C
102
}
330
C
100
AcDbDictionary
281
     1
  3
Layout1
350
1E
  3
Layout2
350
26
  3
Model
350
22
  0
DICTIONARY
  5
43
102
{ACAD_REACTORS
330
C
102
}
330
C
100
AcDbDictionary
281
     1
  3
ByBlock
350
45
  3
ByLayer
350
44
  3
Global
350
46
  0
DICTIONARY
  5
6B
102
{ACAD_REACTORS
330
C
102
}
330
C
100
AcDbDictionary
281
     1
  3
Standard
350
6C
  0
DICTIONARY
  5
17
102
{ACAD_REACTORS
330
C
102
}
330
C
100
AcDbDictionary
281
     1
  3
Standard
350
18
  0
DICTIONARY
  5
19
102
{ACAD_REACTORS
330
C
102
}
330
C
100
AcDbDictionary
281
     1
  0
ACDBDICTIONARYWDFLT
  5
E
102
{ACAD_REACTORS
330
C
102
}
330
C
100
AcDbDictionary
281
     1
  3
Normal
350
F
100
AcDbDictionaryWithDefault
340
F
  0
DICTIONARY
  5
47
102
{ACAD_REACTORS
330
C
102
}
330
C
100
AcDbDictionary
281
     1
  3
A0
350
48
  3
A1
350
49
  3
A2
350
4A
  3
A3
350
4B
  3
A4
350
4C
  3
A5
350
4D
  3
A6
350
4E
  3
A7
350
4F
  3
A8
350
50
  3
A9
350
51
  3
B0
350
52
  3
B1
350
53
  3
B2
350
54
  3
B3
350
55
  3
B4
350
56
  3
B5
350
57
  3
B6
350
58
  3
B7
350
59
  3
B8
350
5A
  3
B9
350
5B
  3
C0
350
5C
  3
C1
350
5D
  3
C2
350
5E
  3
C3
350
5F
  3
C4
350
60
  3
C5
350
61
  3
C6
350
62
  3
C7
350
63
  3
C8
350
64
  3
C9
350
65
  3
D0
350
66
  3
D1
350
67
  3
D2
350
68
  0
DICTIONARY
  5
22E
102
{ACAD_REACTORS
330
C
102
}
330
C
100
AcDbDictionary
281
     1
  0
DICTIONARY
  5
69
102
{ACAD_REACTORS
330
C
102
}
330
C
100
AcDbDictionary
281
     1
  3
Standard
350
6A
  0
DICTIONARY
  5
2A
102
{ACAD_REACTORS
330
C
102
}
330
C
100
AcDbDictionary
281
     1
  3
2dWireframe
350
2F
  3
Basic
350
32
  3
Brighten
350
36
  3
ColorChange
350
3A
  3
Conceptual
350
34
  3
Dim
350
35
  3
EdgeColorOff
350
3D
  3
Facepattern
350
39
  3
Flat
350
2B
  3
FlatWithEdges
350
2C
  3
Gouraud
350
2D
  3
GouraudWithEdges
350
2E
  3
Hidden
350
31
  3
JitterOff
350
3B
  3
Linepattern
350
38
  3
OverhangOff
350
3C
  3
Realistic
350
33
  3
Shaded
350
42
  3
Shaded with edges
350
41
  3
Shades of Gray
350
3E
  3
Sketchy
350
3F
  3
Thicken
350
37
  3
Wireframe
350
30
  3
X-Ray
350
40
  0
XRECORD
  5
22A
102
{ACAD_REACTORS
330
C
102
}
330
C
100
AcDbXrecord
280
     1
 90
        1
330
6A
  0
DICTIONARY
  5
226
102
{ACAD_REACTORS
330
C
102
}
330
C
100
AcDbDictionary
281
     1
  3
CANNOSCALE
350
227
  3
CMLEADERSTYLE
350
22C
  3
CTABLESTYLE
350
22B
  3
SECTIONTHICKNESSINC
350
22F
  0
LAYOUT
  5
1E
102
{ACAD_REACTORS
330
1A
102
}
330
1A
100
AcDbPlotSettings
  1

  2
none_device
  4

  6

 40
0.0
 41
0.0
 42
0.0
 43
0.0
 44
0.0
 45
0.0
 46
0.0
 47
0.0
 48
0.0
 49
0.0
140
0.0
141
0.0
142
1.0
143
1.0
 70
   688
 72
     1
 73
     0
 74
     5
  7

 75
    16
 76
     0
 77
     2
 78
   300
147
1.0
148
0.0
149
0.0
100
AcDbLayout
  1
Layout1
 70
     1
 71
     1
 10
0.0
 20
0.0
 11
420.0
 21
297.0
 12
0.0
 22
0.0
 32
0.0
 14
1.000000000000000E+20
 24
1.000000000000000E+20
 34
1.000000000000000E+20
 15
-1.000000000000000E+20
 25
-1.000000000000000E+20
 35
-1.000000000000000E+20
146
0.0
 13
0.0
 23
0.0
 33
0.0
 16
1.0
 26
0.0
 36
0.0
 17
0.0
 27
1.0
 37
0.0
 76
     0
330
1B
  0
LAYOUT
  5
26
102
{ACAD_REACTORS
330
1A
102
}
330
1A
100
AcDbPlotSettings
  1

  2
none_device
  4

  6

 40
0.0
 41
0.0
 42
0.0
 43
0.0
 44
0.0
 45
0.0
 46
0.0
 47
0.0
 48
0.0
 49
0.0
140
0.0
141
0.0
142
1.0
143
1.0
 70
   688
 72
     1
 73
     0
 74
     5
  7

 75
    16
 76
     0
 77
     2
 78
   300
147
1.0
148
0.0
149
0.0
100
AcDbLayout
  1
Layout2
 70
     1
 71
     2
 10
0.0
 20
0.0
 11
0.0
 21
0.0
 12
0.0
 22
0.0
 32
0.0
 14
0.0
 24
0.0
 34
0.0
 15
0.0
 25
0.0
 35
0.0
146
0.0
 13
0.0
 23
0.0
 33
0.0
 16
1.0
 26
0.0
 36
0.0
 17
0.0
 27
1.0
 37
0.0
 76
     0
330
23
  0
LAYOUT
  5
22
102
{ACAD_REACTORS
330
1A
102
}
330
1A
100
AcDbPlotSettings
  1

  2
none_device
  4
Letter_(8.50_x_11.00_Inches)
  6

 40
6.35
 41
6.35
 42
6.35000508
 43
6.35000508
 44
215.9
 45
279.4
 46
0.0
 47
0.0
 48
0.0
 49
0.0
140
0.0
141
0.0
142
1.0
143
1.0
 70
  1712
 72
     1
 73
     0
 74
     0
  7

 75
     0
 76
     0
 77
     2
 78
   300
147
1.0
148
0.0
149
0.0
100
AcDbLayout
  1
Model
 70
     1
 71
     0
 10
0.0
 20
0.0
 11
420.0
 21
297.0
 12
0.0
 22
0.0
 32
0.0
 14
1.000000000000000E+20
 24
1.000000000000000E+20
 34
1.000000000000000E+20
 15
-1.000000000000000E+20
 25
-1.000000000000000E+20
 35
-1.000000000000000E+20
146
0.0
 13
0.0
 23
0.0
 33
0.0
 16
1.0
 26
0.0
 36
0.0
 17
0.0
 27
1.0
 37
0.0
 76
     0
330
1F
331
29
  0
MATERIAL
  5
45
102
{ACAD_REACTORS
330
43
102
}
330
43
100
AcDbMaterial
  1
ByBlock
 72
     1
 94
      127
  0
MATERIAL
  5
44
102
{ACAD_REACTORS
330
43
102
}
330
43
100
AcDbMaterial
  1
ByLayer
 72
     1
 94
      127
  0
MATERIAL
  5
46
102
{ACAD_REACTORS
330
43
102
}
330
43
100
AcDbMaterial
  1
Global
 72
     1
 94
      127
  0
MLEADERSTYLE
  5
6C
102
{ACAD_REACTORS
330
6B
102
}
330
6B
100
AcDbMLeaderStyle
179
     2
170
     2
171
     1
172
     0
 90
        2
 40
0.0
 41
0.0
173
     1
 91
-1056964608
340
14
 92
       -2
290
     1
 42
2.0
291
     1
 43
8.0
  3
Standard
341
0
 44
4.0
300

342
11
174
     1
178
     6
175
     1
176
     0
 93
-1056964608
 45
4.0
292
     0
297
     0
 46
4.0
343
0
 94
-1056964608
 47
1.0
 49
1.0
140
1.0
293
     1
141
0.0
294
     1
177
     0
142
1.0
295
     0
296
     0
143
3.75
271
     0
272
     9
273
     9
298
     0
  0
MLINESTYLE
  5
18
102
{ACAD_REACTORS
330
17
102
}
330
17
100
AcDbMlineStyle
  2
Standard
 70
     0
  3

 62
   256
 51
90.0
 52
90.0
 71
     2
 49
0.5
 62
   256
  6
BYLAYER
 49
-0.5
 62
   256
  6
BYLAYER
  0
ACDBPLACEHOLDER
  5
F
102
{ACAD_REACTORS
330
E
102
}
330
E
  0
SCALE
  5
48
102
{ACAD_REACTORS
330
47
102
}
330
47
100
AcDbScale
 70
     0
300
1:1
140
1.0
141
1.0
290
     1
  0
SCALE
  5
49
102
{ACAD_REACTORS
330
47
102
}
330
47
100
AcDbScale
 70
     0
300
1:2
140
1.0
141
2.0
290
     0
  0
SCALE
  5
4A
102
{ACAD_REACTORS
330
47
102
}
330
47
100
AcDbScale
 70
     0
300
1:4
140
1.0
141
4.0
290
     0
  0
SCALE
  5
4B
102
{ACAD_REACTORS
330
47
102
}
330
47
100
AcDbScale
 70
     0
300
1:5
140
1.0
141
5.0
290
     0
  0
SCALE
  5
4C
102
{ACAD_REACTORS
330
47
102
}
330
47
100
AcDbScale
 70
     0
300
1:8
140
1.0
141
8.0
290
     0
  0
SCALE
  5
4D
102
{ACAD_REACTORS
330
47
102
}
330
47
100
AcDbScale
 70
     0
300
1:10
140
1.0
141
10.0
290
     0
  0
SCALE
  5
4E
102
{ACAD_REACTORS
330
47
102
}
330
47
100
AcDbScale
 70
     0
300
1:16
140
1.0
141
16.0
290
     0
  0
SCALE
  5
4F
102
{ACAD_REACTORS
330
47
102
}
330
47
100
AcDbScale
 70
     0
300
1:20
140
1.0
141
20.0
290
     0
  0
SCALE
  5
50
102
{ACAD_REACTORS
330
47
102
}
330
47
100
AcDbScale
 70
     0
300
1:30
140
1.0
141
30.0
290
     0
  0
SCALE
  5
51
102
{ACAD_REACTORS
330
47
102
}
330
47
100
AcDbScale
 70
     0
300
1:40
140
1.0
141
40.0
290
     0
  0
SCALE
  5
52
102
{ACAD_REACTORS
330
47
102
}
330
47
100
AcDbScale
 70
     0
300
1:50
140
1.0
141
50.0
290
     0
  0
SCALE
  5
53
102
{ACAD_REACTORS
330
47
102
}
330
47
100
AcDbScale
 70
     0
300
1:100
140
1.0
141
100.0
290
     0
  0
SCALE
  5
54
102
{ACAD_REACTORS
330
47
102
}
330
47
100
AcDbScale
 70
     0
300
2:1
140
2.0
141
1.0
290
     0
  0
SCALE
  5
55
102
{ACAD_REACTORS
330
47
102
}
330
47
100
AcDbScale
 70
     0
300
4:1
140
4.0
141
1.0
290
     0
  0
SCALE
  5
56
102
{ACAD_REACTORS
330
47
102
}
330
47
100
AcDbScale
 70
     0
300
8:1
140
8.0
141
1.0
290
     0
  0
SCALE
  5
57
102
{ACAD_REACTORS
330
47
102
}
330
47
100
AcDbScale
 70
     0
300
10:1
140
10.0
141
1.0
290
     0
  0
SCALE
  5
58
102
{ACAD_REACTORS
330
47
102
}
330
47
100
AcDbScale
 70
     0
300
100:1
140
100.0
141
1.0
290
     0
  0
SCALE
  5
59
102
{ACAD_REACTORS
330
47
102
}
330
47
100
AcDbScale
 70
     0
300
1/128" = 1'-0"
140
0.0078125
141
12.0
290
     0
  0
SCALE
  5
5A
102
{ACAD_REACTORS
330
47
102
}
330
47
100
AcDbScale
 70
     0
300
1/64" = 1'-0"
140
0.015625
141
12.0
290
     0
  0
SCALE
  5
5B
102
{ACAD_REACTORS
330
47
102
}
330
47
100
AcDbScale
 70
     0
300
1/32" = 1'-0"
140
0.03125
141
12.0
290
     0
  0
SCALE
  5
5C
102
{ACAD_REACTORS
330
47
102
}
330
47
100
AcDbScale
 70
     0
300
1/16" = 1'-0"
140
0.0625
141
12.0
290
     0
  0
SCALE
  5
5D
102
{ACAD_REACTORS
330
47
102
}
330
47
100
AcDbScale
 70
     0
300
3/32" = 1'-0"
140
0.09375
141
12.0
290
     0
  0
SCALE
  5
5E
102
{ACAD_REACTORS
330
47
102
}
330
47
100
AcDbScale
 70
     0
300
1/8" = 1'-0"
140
0.125
141
12.0
290
     0
  0
SCALE
  5
5F
102
{ACAD_REACTORS
330
47
102
}
330
47
100
AcDbScale
 70
     0
300
3/16" = 1'-0"
140
0.1875
141
12.0
290
     0
  0
SCALE
  5
60
102
{ACAD_REACTORS
330
47
102
}
330
47
100
AcDbScale
 70
     0
300
1/4" = 1'-0"
140
0.25
141
12.0
290
     0
  0
SCALE
  5
61
102
{ACAD_REACTORS
330
47
102
}
330
47
100
AcDbScale
 70
     0
300
3/8" = 1'-0"
140
0.375
141
12.0
290
     0
  0
SCALE
  5
62
102
{ACAD_REACTORS
330
47
102
}
330
47
100
AcDbScale
 70
     0
300
1/2" = 1'-0"
140
0.5
141
12.0
290
     0
  0
SCALE
  5
63
102
{ACAD_REACTORS
330
47
102
}
330
47
100
AcDbScale
 70
     0
300
3/4" = 1'-0"
140
0.75
141
12.0
290
     0
  0
SCALE
  5
64
102
{ACAD_REACTORS
330
47
102
}
330
47
100
AcDbScale
 70
     0
300
1" = 1'-0"
140
1.0
141
12.0
290
     0
  0
SCALE
  5
65
102
{ACAD_REACTORS
330
47
102
}
330
47
100
AcDbScale
 70
     0
300
1-1/2" = 1'-0"
140
1.5
141
12.0
290
     0
  0
SCALE
  5
66
102
{ACAD_REACTORS
330
47
102
}
330
47
100
AcDbScale
 70
     0
300
3" = 1'-0"
140
3.0
141
12.0
290
     0
  0
SCALE
  5
67
102
{ACAD_REACTORS
330
47
102
}
330
47
100
AcDbScale
 70
     0
300
6" = 1'-0"
140
6.0
141
12.0
290
     0
  0
SCALE
  5
68
102
{ACAD_REACTORS
330
47
102
}
330
47
100
AcDbScale
 70
     0
300
1'-0" = 1'-0"
140
12.0
141
12.0
290
     0
  0
TABLESTYLE
  5
6A
102
{ACAD_REACTORS
330
69
102
}
102
{ACAD_XDICTIONARY
360
228
102
}
330
69
100
AcDbTableStyle
  3
Standard
 70
     0
 71
     0
 40
0.06
 41
0.06
280
     0
281
     0
  7
Standard
140
4.5
170
     2
 62
     0
 63
   257
283
     0
 90
        4
 91
        0
  1

274
    -2
284
     1
 64
     0
275
    -2
285
     1
 65
     0
276
    -2
286
     1
 66
     0
277
    -2
287
     1
 67
     0
278
    -2
288
     1
 68
     0
279
    -2
289
     1
 69
     0
  7
Standard
140
6.0
170
     5
 62
     0
 63
   257
283
     0
 90
        4
 91
        0
  1

274
    -2
284
     1
 64
     0
275
    -2
285
     1
 65
     0
276
    -2
286
     1
 66
     0
277
    -2
287
     1
 67
     0
278
    -2
288
     1
 68
     0
279
    -2
289
     1
 69
     0
  7
Standard
140
4.5
170
     5
 62
     0
 63
   257
283
     0
 90
        4
 91
        0
  1

274
    -2
284
     1
 64
     0
275
    -2
285
     1
 65
     0
276
    -2
286
     1
 66
     0
277
    -2
287
     1
 67
     0
278
    -2
288
     1
 68
     0
279
    -2
289
     1
 69
     0
  0
VISUALSTYLE
  5
2F
102
{ACAD_REACTORS
330
2A
102
}
330
2A
100
AcDbVisualStyle
  2
2dWireframe
 70
     4
177
     3
291
     0
 70
    58
 90
        0
176
     1
 90
        2
176
     1
 90
        0
176
     1
 90
        0
176
     1
 40
0.6
176
     1
 40
30.0
176
     1
 62
     7
420
 16777215
176
     1
 90
        1
176
     1
 90
        4
176
     1
 62
     7
176
     1
 62
   257
176
     1
 90
        1
176
     1
 90
        1
176
     1
 40
1.0
176
     1
 90
        0
176
     1
 62
   257
176
     1
 40
1.0
176
     1
 90
        1
176
     1
 90
        6
176
     1
 90
        2
176
     1
 62
     7
176
     1
 90
        5
176
     1
 90
        0
176
     1
 90
        0
176
     1
290
     0
176
     1
 90
        1
176
     1
 40
0.0
176
     1
 90
        0
176
     1
290
     1
176
     1
290
     1
176
     1
290
     0
176
     1
290
     0
176
     1
290
     0
176
     1
290
     0
176
     1
290
     0
176
     1
290
     0
176
     1
290
     0
176
     1
 90
       50
176
     1
 40
0.0
176
     1
 40
1.0
176
     1
 90
        0
176
     1
 62
    18
420
        0
176
     1
 90
       50
176
     1
 90
        3
176
     1
 62
     5
420
      255
176
     1
290
     0
176
     1
 90
       50
176
     1
 90
       50
176
     1
 90
       50
176
     1
290
     0
176
     1
 90
       50
176
     1
 62
   256
176
     0
 40
1.0
176
     0
 90
        2
176
     1
  1
strokes_ogs.tif
176
     1
290
     0
176
     1
 40
1.0
176
     1
 40
1.0
176
     1
  0
VISUALSTYLE
  5
32
102
{ACAD_REACTORS
330
2A
102
}
330
2A
100
AcDbVisualStyle
  2
Basic
 70
     7
177
     3
291
     1
 70
    58
 90
        1
176
     1
 90
        0
176
     1
 90
        1
176
     1
 90
        0
176
     1
 40
0.6
176
     1
 40
30.0
176
     1
 62
     7
420
 16777215
176
     1
 90
        0
176
     1
 90
        4
176
     1
 62
     7
176
     1
 62
   257
176
     1
 90
        1
176
     1
 90
        1
176
     1
 40
1.0
176
     1
 90
        8
176
     1
 62
     7
176
     1
 40
1.0
176
     1
 90
        1
176
     1
 90
        6
176
     1
 90
        2
176
     1
 62
     7
176
     1
 90
        5
176
     1
 90
        0
176
     1
 90
        0
176
     1
290
     0
176
     1
 90
        1
176
     1
 40
0.0
176
     1
 90
        0
176
     1
290
     0
176
     1
290
     1
176
     1
290
     1
176
     1
290
     0
176
     1
290
     0
176
     1
290
     0
176
     1
290
     0
176
     1
290
     0
176
     1
290
     0
176
     1
 90
       50
176
     1
 40
0.0
176
     1
 40
1.0
176
     1
 90
        0
176
     1
 62
    18
420
        0
176
     1
 90
       50
176
     1
 90
        3
176
     1
 62
     5
420
      255
176
     1
290
     0
176
     1
 90
       50
176
     1
 90
       50
176
     1
 90
       50
176
     1
290
     0
176
     1
 90
       50
176
     1
 62
   256
176
     0
 40
1.0
176
     0
 90
        2
176
     1
  1
strokes_ogs.tif
176
     1
290
     0
176
     1
 40
1.0
176
     1
 40
1.0
176
     1
  0
VISUALSTYLE
  5
36
102
{ACAD_REACTORS
330
2A
102
}
330
2A
100
AcDbVisualStyle
  2
Brighten
 70
    12
177
     3
291
     1
 70
    58
 90
        2
176
     1
 90
        2
176
     1
 90
        0
176
     1
 90
        0
176
     1
 40
0.6
176
     1
 40
30.0
176
     1
 62
     7
420
 16777215
176
     1
 90
        1
176
     1
 90
        4
176
     1
 62
     7
176
     1
 62
   257
176
     1
 90
        1
176
     1
 90
        1
176
     1
 40
1.0
176
     1
 90
        8
176
     1
 62
     7
176
     1
 40
1.0
176
     1
 90
        1
176
     1
 90
        6
176
     1
 90
        2
176
     1
 62
     7
176
     1
 90
        5
176
     1
 90
        0
176
     1
 90
        0
176
     1
290
     0
176
     1
 90
        1
176
     1
 40
50.0
176
     1
 90
        0
176
     1
290
     0
176
     1
290
     1
176
     1
290
     1
176
     1
290
     0
176
     1
290
     0
176
     1
290
     0
176
     1
290
     0
176
     1
290
     0
176
     1
290
     0
176
     1
 90
       50
176
     1
 40
0.0
176
     1
 40
1.0
176
     1
 90
        0
176
     1
 62
    18
420
        0
176
     1
 90
       50
176
     1
 90
        3
176
     1
 62
     5
420
      255
176
     1
290
     0
176
     1
 90
       50
176
     1
 90
       50
176
     1
 90
       50
176
     1
290
     0
176
     1
 90
       50
176
     1
 62
   256
176
     0
 40
1.0
176
     0
 90
        2
176
     1
  1
strokes_ogs.tif
176
     1
290
     0
176
     1
 40
1.0
176
     1
 40
1.0
176
     1
  0
VISUALSTYLE
  5
3A
102
{ACAD_REACTORS
330
2A
102
}
330
2A
100
AcDbVisualStyle
  2
ColorChange
 70
    16
177
     3
291
     1
 70
    58
 90
        2
176
     1
 90
        2
176
     1
 90
        3
176
     1
 90
        0
176
     1
 40
0.6
176
     1
 40
30.0
176
     1
 62
     8
420
  8421504
176
     1
 90
        1
176
     1
 90
        4
176
     1
 62
     7
176
     1
 62
   257
176
     1
 90
        1
176
     1
 90
        1
176
     1
 40
1.0
176
     1
 90
        8
176
     1
 62
     8
420
  8421504
176
     1
 40
1.0
176
     1
 90
        1
176
     1
 90
        6
176
     1
 90
        2
176
     1
 62
     7
176
     1
 90
        5
176
     1
 90
        0
176
     1
 90
        0
176
     1
290
     0
176
     1
 90
        1
176
     1
 40
0.0
176
     1
 90
        0
176
     1
290
     0
176
     1
290
     1
176
     1
290
     1
176
     1
290
     0
176
     1
290
     0
176
     1
290
     0
176
     1
290
     0
176
     1
290
     0
176
     1
290
     0
176
     1
 90
       50
176
     1
 40
0.0
176
     1
 40
1.0
176
     1
 90
        0
176
     1
 62
    18
420
        0
176
     1
 90
       50
176
     1
 90
        3
176
     1
 62
     5
420
      255
176
     1
290
     0
176
     1
 90
       50
176
     1
 90
       50
176
     1
 90
       50
176
     1
290
     0
176
     1
 90
       50
176
     1
 62
   256
176
     0
 40
1.0
176
     0
 90
        2
176
     1
  1
strokes_ogs.tif
176
     1
290
     0
176
     1
 40
1.0
176
     1
 40
1.0
176
     1
  0
VISUALSTYLE
  5
34
102
{ACAD_REACTORS
330
2A
102
}
330
2A
100
AcDbVisualStyle
  2
Conceptual
 70
     9
177
     3
291
     0
 70
    58
 90
        3
176
     1
 90
        2
176
     1
 90
        0
176
     1
 90
        0
176
     1
 40
0.6
176
     1
 40
30.0
176
     1
 62
     7
420
 16777215
176
     1
 90
        2
176
     1
 90
        2
176
     1
 62
     7
176
     1
 62
   257
176
     1
 90
        1
176
     1
 90
        1
176
     1
 40
179.0
176
     1
 90
        8
176
     1
 62
     7
176
     1
 40
1.0
176
     1
 90
        1
176
     1
 90
        6
176
     1
 90
        2
176
     1
 62
     7
176
     1
 90
        3
176
     1
 90
        0
176
     1
 90
        0
176
     1
290
     0
176
     1
 90
        1
176
     1
 40
0.0
176
     1
 90
        0
176
     1
290
     0
176
     1
290
     1
176
     1
290
     1
176
     1
290
     0
176
     1
290
     0
176
     1
290
     0
176
     1
290
     0
176
     1
290
     0
176
     1
290
     0
176
     1
 90
       50
176
     1
 40
0.0
176
     1
 40
1.0
176
     1
 90
        0
176
     1
 62
    18
420
        0
176
     1
 90
       50
176
     1
 90
        3
176
     1
 62
     5
420
      255
176
     1
290
     0
176
     1
 90
       50
176
     1
 90
       50
176
     1
 90
       50
176
     1
290
     0
176
     1
 90
       50
176
     1
 62
   256
176
     0
 40
1.0
176
     0
 90
        2
176
     1
  1
strokes_ogs.tif
176
     1
290
     0
176
     1
 40
1.0
176
     1
 40
1.0
176
     1
  0
VISUALSTYLE
  5
35
102
{ACAD_REACTORS
330
2A
102
}
330
2A
100
AcDbVisualStyle
  2
Dim
 70
    11
177
     3
291
     1
 70
    58
 90
        2
176
     1
 90
        2
176
     1
 90
        0
176
     1
 90
        0
176
     1
 40
0.6
176
     1
 40
30.0
176
     1
 62
     7
420
 16777215
176
     1
 90
        1
176
     1
 90
        4
176
     1
 62
     7
176
     1
 62
   257
176
     1
 90
        1
176
     1
 90
        1
176
     1
 40
1.0
176
     1
 90
        8
176
     1
 62
     7
176
     1
 40
1.0
176
     1
 90
        1
176
     1
 90
        6
176
     1
 90
        2
176
     1
 62
     7
176
     1
 90
        5
176
     1
 90
        0
176
     1
 90
        0
176
     1
290
     0
176
     1
 90
        1
176
     1
 40
-50.0
176
     1
 90
        0
176
     1
290
     0
176
     1
290
     1
176
     1
290
     1
176
     1
290
     0
176
     1
290
     0
176
     1
290
     0
176
     1
290
     0
176
     1
290
     0
176
     1
290
     0
176
     1
 90
       50
176
     1
 40
0.0
176
     1
 40
1.0
176
     1
 90
        0
176
     1
 62
    18
420
        0
176
     1
 90
       50
176
     1
 90
        3
176
     1
 62
     5
420
      255
176
     1
290
     0
176
     1
 90
       50
176
     1
 90
       50
176
     1
 90
       50
176
     1
290
     0
176
     1
 90
       50
176
     1
 62
   256
176
     0
 40
1.0
176
     0
 90
        2
176
     1
  1
strokes_ogs.tif
176
     1
290
     0
176
     1
 40
1.0
176
     1
 40
1.0
176
     1
  0
VISUALSTYLE
  5
3D
102
{ACAD_REACTORS
330
2A
102
}
330
2A
100
AcDbVisualStyle
  2
EdgeColorOff
 70
    22
177
     3
291
     1
 70
    58
 90
        2
176
     0
 90
        2
176
     0
 90
        0
176
     0
 90
        0
176
     0
 40
0.6
176
     0
 40
30.0
176
     0
 62
     7
420
 16777215
176
     0
 90
        1
176
     0
 90
        4
176
     0
 62
     7
176
     0
 62
   257
176
     0
 90
        1
176
     0
 90
        1
176
     0
 40
1.0
176
     0
 90
        8
176
     2
 62
     7
176
     0
 40
1.0
176
     0
 90
        1
176
     0
 90
        6
176
     0
 90
        2
176
     0
 62
     7
176
     0
 90
        5
176
     0
 90
        0
176
     0
 90
        0
176
     0
290
     0
176
     0
 90
        1
176
     0
 40
0.0
176
     0
 90
        0
176
     0
290
     0
176
     0
290
     1
176
     0
290
     1
176
     0
290
     0
176
     0
290
     0
176
     0
290
     0
176
     0
290
     0
176
     0
290
     0
176
     0
290
     0
176
     0
 90
       50
176
     0
 40
0.0
176
     0
 40
1.0
176
     0
 90
        0
176
     0
 62
    18
420
        0
176
     0
 90
       50
176
     0
 90
        3
176
     0
 62
     5
420
      255
176
     0
290
     0
176
     0
 90
       50
176
     0
 90
       50
176
     0
 90
       50
176
     0
290
     0
176
     0
 90
       50
176
     0
 62
   256
176
     0
 40
1.0
176
     0
 90
        2
176
     0
  1
strokes_ogs.tif
176
     0
290
     0
176
     0
 40
1.0
176
     0
 40
1.0
176
     0
  0
VISUALSTYLE
  5
39
102
{ACAD_REACTORS
330
2A
102
}
330
2A
100
AcDbVisualStyle
  2
Facepattern
 70
    15
177
     3
291
     1
 70
    58
 90
        2
176
     1
 90
        2
176
     1
 90
        0
176
     1
 90
        0
176
     1
 40
0.6
176
     1
 40
30.0
176
     1
 62
     7
420
 16777215
176
     1
 90
        1
176
     1
 90
        4
176
     1
 62
     7
176
     1
 62
   257
176
     1
 90
        1
176
     1
 90
        1
176
     1
 40
1.0
176
     1
 90
        8
176
     1
 62
     7
176
     1
 40
1.0
176
     1
 90
        1
176
     1
 90
        6
176
     1
 90
        2
176
     1
 62
     7
176
     1
 90
        5
176
     1
 90
        0
176
     1
 90
        0
176
     1
290
     0
176
     1
 90
        1
176
     1
 40
0.0
176
     1
 90
        0
176
     1
290
     0
176
     1
290
     1
176
     1
290
     1
176
     1
290
     0
176
     1
290
     0
176
     1
290
     0
176
     1
290
     0
176
     1
290
     0
176
     1
290
     0
176
     1
 90
       50
176
     1
 40
0.0
176
     1
 40
1.0
176
     1
 90
        0
176
     1
 62
    18
420
        0
176
     1
 90
       50
176
     1
 90
        3
176
     1
 62
     5
420
      255
176
     1
290
     0
176
     1
 90
       50
176
     1
 90
       50
176
     1
 90
       50
176
     1
290
     0
176
     1
 90
       50
176
     1
 62
   256
176
     0
 40
1.0
176
     0
 90
        2
176
     1
  1
strokes_ogs.tif
176
     1
290
     0
176
     1
 40
1.0
176
     1
 40
1.0
176
     1
  0
VISUALSTYLE
  5
2B
102
{ACAD_REACTORS
330
2A
102
}
330
2A
100
AcDbVisualStyle
  2
Flat
 70
     0
177
     3
291
     1
 70
    58
 90
        2
176
     1
 90
        1
176
     1
 90
        1
176
     1
 90
        2
176
     1
 40
0.6
176
     1
 40
30.0
176
     1
 62
     7
420
 16777215
176
     1
 90
        0
176
     1
 90
        0
176
     1
 62
     7
176
     1
 62
   257
176
     1
 90
        1
176
     1
 90
        1
176
     1
 40
1.0
176
     1
 90
        8
176
     1
 62
     7
176
     1
 40
1.0
176
     1
 90
        1
176
     1
 90
        6
176
     1
 90
        2
176
     1
 62
     7
176
     1
 90
        5
176
     1
 90
        0
176
     1
 90
        0
176
     1
290
     0
176
     1
 90
       13
176
     1
 40
0.0
176
     1
 90
        0
176
     1
290
     0
176
     1
290
     1
176
     1
290
     1
176
     1
290
     0
176
     1
290
     0
176
     1
290
     0
176
     1
290
     0
176
     1
290
     0
176
     1
290
     0
176
     1
 90
       50
176
     1
 40
0.0
176
     1
 40
1.0
176
     1
 90
        0
176
     1
 62
    18
420
        0
176
     1
 90
       50
176
     1
 90
        3
176
     1
 62
     5
420
      255
176
     1
290
     0
176
     1
 90
       50
176
     1
 90
       50
176
     1
 90
       50
176
     1
290
     0
176
     1
 90
       50
176
     1
 62
   256
176
     0
 40
1.0
176
     0
 90
        2
176
     1
  1
strokes_ogs.tif
176
     1
290
     0
176
     1
 40
1.0
176
     1
 40
1.0
176
     1
  0
VISUALSTYLE
  5
2C
102
{ACAD_REACTORS
330
2A
102
}
330
2A
100
AcDbVisualStyle
  2
FlatWithEdges
 70
     1
177
     3
291
     1
 70
    58
 90
        2
176
     1
 90
        1
176
     1
 90
        1
176
     1
 90
        2
176
     1
 40
0.6
176
     1
 40
30.0
176
     1
 62
     7
420
 16777215
176
     1
 90
        1
176
     1
 90
        0
176
     1
 62
     7
176
     1
 62
   257
176
     1
 90
        1
176
     1
 90
        1
176
     1
 40
1.0
176
     1
 90
        0
176
     1
 62
   257
176
     1
 40
1.0
176
     1
 90
        1
176
     1
 90
        6
176
     1
 90
        2
176
     1
 62
     7
176
     1
 90
        5
176
     1
 90
        0
176
     1
 90
        0
176
     1
290
     0
176
     1
 90
       13
176
     1
 40
0.0
176
     1
 90
        0
176
     1
290
     0
176
     1
290
     1
176
     1
290
     1
176
     1
290
     0
176
     1
290
     0
176
     1
290
     0
176
     1
290
     0
176
     1
290
     0
176
     1
290
     0
176
     1
 90
       50
176
     1
 40
0.0
176
     1
 40
1.0
176
     1
 90
        0
176
     1
 62
    18
420
        0
176
     1
 90
       50
176
     1
 90
        3
176
     1
 62
     5
420
      255
176
     1
290
     0
176
     1
 90
       50
176
     1
 90
       50
176
     1
 90
       50
176
     1
290
     0
176
     1
 90
       50
176
     1
 62
   256
176
     0
 40
1.0
176
     0
 90
        2
176
     1
  1
strokes_ogs.tif
176
     1
290
     0
176
     1
 40
1.0
176
     1
 40
1.0
176
     1
  0
VISUALSTYLE
  5
2D
102
{ACAD_REACTORS
330
2A
102
}
330
2A
100
AcDbVisualStyle
  2
Gouraud
 70
     2
177
     3
291
     1
 70
    58
 90
        2
176
     1
 90
        2
176
     1
 90
        1
176
     1
 90
        2
176
     1
 40
0.6
176
     1
 40
30.0
176
     1
 62
     7
420
 16777215
176
     1
 90
        0
176
     1
 90
        0
176
     1
 62
     7
176
     1
 62
   257
176
     1
 90
        1
176
     1
 90
        1
176
     1
 40
1.0
176
     1
 90
        0
176
     1
 62
     7
176
     1
 40
1.0
176
     1
 90
        1
176
     1
 90
        6
176
     1
 90
        2
176
     1
 62
     7
176
     1
 90
        5
176
     1
 90
        0
176
     1
 90
        0
176
     1
290
     0
176
     1
 90
       13
176
     1
 40
0.0
176
     1
 90
        0
176
     1
290
     0
176
     1
290
     1
176
     1
290
     1
176
     1
290
     0
176
     1
290
     0
176
     1
290
     0
176
     1
290
     0
176
     1
290
     0
176
     1
290
     0
176
     1
 90
       50
176
     1
 40
0.0
176
     1
 40
1.0
176
     1
 90
        0
176
     1
 62
    18
420
        0
176
     1
 90
       50
176
     1
 90
        3
176
     1
 62
     5
420
      255
176
     1
290
     0
176
     1
 90
       50
176
     1
 90
       50
176
     1
 90
       50
176
     1
290
     0
176
     1
 90
       50
176
     1
 62
   256
176
     0
 40
1.0
176
     0
 90
        2
176
     1
  1
strokes_ogs.tif
176
     1
290
     0
176
     1
 40
1.0
176
     1
 40
1.0
176
     1
  0
VISUALSTYLE
  5
2E
102
{ACAD_REACTORS
330
2A
102
}
330
2A
100
AcDbVisualStyle
  2
GouraudWithEdges
 70
     3
177
     3
291
     1
 70
    58
 90
        2
176
     1
 90
        2
176
     1
 90
        1
176
     1
 90
        2
176
     1
 40
0.6
176
     1
 40
30.0
176
     1
 62
     7
420
 16777215
176
     1
 90
        1
176
     1
 90
        0
176
     1
 62
     7
176
     1
 62
   257
176
     1
 90
        1
176
     1
 90
        1
176
     1
 40
1.0
176
     1
 90
        0
176
     1
 62
   257
176
     1
 40
1.0
176
     1
 90
        1
176
     1
 90
        6
176
     1
 90
        2
176
     1
 62
     7
176
     1
 90
        5
176
     1
 90
        0
176
     1
 90
        0
176
     1
290
     0
176
     1
 90
       13
176
     1
 40
0.0
176
     1
 90
        0
176
     1
290
     0
176
     1
290
     1
176
     1
290
     1
176
     1
290
     0
176
     1
290
     0
176
     1
290
     0
176
     1
290
     0
176
     1
290
     0
176
     1
290
     0
176
     1
 90
       50
176
     1
 40
0.0
176
     1
 40
1.0
176
     1
 90
        0
176
     1
 62
    18
420
        0
176
     1
 90
       50
176
     1
 90
        3
176
     1
 62
     5
420
      255
176
     1
290
     0
176
     1
 90
       50
176
     1
 90
       50
176
     1
 90
       50
176
     1
290
     0
176
     1
 90
       50
176
     1
 62
   256
176
     0
 40
1.0
176
     0
 90
        2
176
     1
  1
strokes_ogs.tif
176
     1
290
     0
176
     1
 40
1.0
176
     1
 40
1.0
176
     1
  0
VISUALSTYLE
  5
31
102
{ACAD_REACTORS
330
2A
102
}
330
2A
100
AcDbVisualStyle
  2
Hidden
 70
     6
177
     3
291
     0
 70
    58
 90
        1
176
     1
 90
        2
176
     1
 90
        2
176
     1
 90
        0
176
     1
 40
0.6
176
     1
 40
30.0
176
     1
 62
     7
420
 16777215
176
     1
 90
        2
176
     1
 90
        2
176
     1
 62
     7
176
     1
 62
   257
176
     1
 90
        2
176
     1
 90
        1
176
     1
 40
40.0
176
     1
 90
        0
176
     1
 62
   257
176
     1
 40
1.0
176
     1
 90
        1
176
     1
 90
        6
176
     1
 90
        2
176
     1
 62
     7
176
     1
 90
        3
176
     1
 90
        0
176
     1
 90
        0
176
     1
290
     0
176
     1
 90
        1
176
     1
 40
0.0
176
     1
 90
        0
176
     1
290
     0
176
     1
290
     1
176
     1
290
     1
176
     1
290
     0
176
     1
290
     0
176
     1
290
     0
176
     1
290
     0
176
     1
290
     0
176
     1
290
     0
176
     1
 90
       50
176
     1
 40
0.0
176
     1
 40
1.0
176
     1
 90
        0
176
     1
 62
    18
420
        0
176
     1
 90
       50
176
     1
 90
        3
176
     1
 62
     5
420
      255
176
     1
290
     0
176
     1
 90
       50
176
     1
 90
       50
176
     1
 90
       50
176
     1
290
     0
176
     1
 90
       50
176
     1
 62
   256
176
     0
 40
1.0
176
     0
 90
        2
176
     1
  1
strokes_ogs.tif
176
     1
290
     0
176
     1
 40
1.0
176
     1
 40
1.0
176
     1
  0
VISUALSTYLE
  5
3B
102
{ACAD_REACTORS
330
2A
102
}
330
2A
100
AcDbVisualStyle
  2
JitterOff
 70
    20
177
     3
291
     1
 70
    58
 90
        2
176
     0
 90
        2
176
     0
 90
        0
176
     0
 90
        0
176
     0
 40
0.6
176
     0
 40
30.0
176
     0
 62
     7
420
 16777215
176
     0
 90
        1
176
     0
 90
        4
176
     0
 62
     7
176
     0
 62
   257
176
     0
 90
        1
176
     0
 90
        1
176
     0
 40
1.0
176
     0
 90
       10
176
     2
 62
     7
176
     0
 40
1.0
176
     0
 90
        1
176
     0
 90
        6
176
     0
 90
        2
176
     0
 62
     7
176
     0
 90
        5
176
     0
 90
        0
176
     0
 90
        0
176
     0
290
     0
176
     0
 90
        1
176
     0
 40
0.0
176
     0
 90
        0
176
     0
290
     0
176
     0
290
     1
176
     0
290
     1
176
     0
290
     0
176
     0
290
     0
176
     0
290
     0
176
     0
290
     0
176
     0
290
     0
176
     0
290
     0
176
     0
 90
       50
176
     0
 40
0.0
176
     0
 40
1.0
176
     0
 90
        0
176
     0
 62
    18
420
        0
176
     0
 90
       50
176
     0
 90
        3
176
     0
 62
     5
420
      255
176
     0
290
     0
176
     0
 90
       50
176
     0
 90
       50
176
     0
 90
       50
176
     0
290
     0
176
     0
 90
       50
176
     0
 62
   256
176
     0
 40
1.0
176
     0
 90
        2
176
     0
  1
strokes_ogs.tif
176
     0
290
     0
176
     0
 40
1.0
176
     0
 40
1.0
176
     0
  0
VISUALSTYLE
  5
38
102
{ACAD_REACTORS
330
2A
102
}
330
2A
100
AcDbVisualStyle
  2
Linepattern
 70
    14
177
     3
291
     1
 70
    58
 90
        2
176
     1
 90
        2
176
     1
 90
        0
176
     1
 90
        0
176
     1
 40
0.6
176
     1
 40
30.0
176
     1
 62
     7
420
 16777215
176
     1
 90
        1
176
     1
 90
        4
176
     1
 62
     7
176
     1
 62
   257
176
     1
 90
        7
176
     1
 90
        7
176
     1
 40
1.0
176
     1
 90
        8
176
     1
 62
     7
176
     1
 40
1.0
176
     1
 90
        1
176
     1
 90
        6
176
     1
 90
        2
176
     1
 62
     7
176
     1
 90
        5
176
     1
 90
        0
176
     1
 90
        0
176
     1
290
     0
176
     1
 90
        1
176
     1
 40
0.0
176
     1
 90
        0
176
     1
290
     0
176
     1
290
     1
176
     1
290
     1
176
     1
290
     0
176
     1
290
     0
176
     1
290
     0
176
     1
290
     0
176
     1
290
     0
176
     1
290
     0
176
     1
 90
       50
176
     1
 40
0.0
176
     1
 40
1.0
176
     1
 90
        0
176
     1
 62
    18
420
        0
176
     1
 90
       50
176
     1
 90
        3
176
     1
 62
     5
420
      255
176
     1
290
     0
176
     1
 90
       50
176
     1
 90
       50
176
     1
 90
       50
176
     1
290
     0
176
     1
 90
       50
176
     1
 62
   256
176
     0
 40
1.0
176
     0
 90
        2
176
     1
  1
strokes_ogs.tif
176
     1
290
     0
176
     1
 40
1.0
176
     1
 40
1.0
176
     1
  0
VISUALSTYLE
  5
3C
102
{ACAD_REACTORS
330
2A
102
}
330
2A
100
AcDbVisualStyle
  2
OverhangOff
 70
    21
177
     3
291
     1
 70
    58
 90
        2
176
     0
 90
        2
176
     0
 90
        0
176
     0
 90
        0
176
     0
 40
0.6
176
     0
 40
30.0
176
     0
 62
     7
420
 16777215
176
     0
 90
        1
176
     0
 90
        4
176
     0
 62
     7
176
     0
 62
   257
176
     0
 90
        1
176
     0
 90
        1
176
     0
 40
1.0
176
     0
 90
        9
176
     2
 62
     7
176
     0
 40
1.0
176
     0
 90
        1
176
     0
 90
        6
176
     0
 90
        2
176
     0
 62
     7
176
     0
 90
        5
176
     0
 90
        0
176
     0
 90
        0
176
     0
290
     0
176
     0
 90
        1
176
     0
 40
0.0
176
     0
 90
        0
176
     0
290
     0
176
     0
290
     1
176
     0
290
     1
176
     0
290
     0
176
     0
290
     0
176
     0
290
     0
176
     0
290
     0
176
     0
290
     0
176
     0
290
     0
176
     0
 90
       50
176
     0
 40
0.0
176
     0
 40
1.0
176
     0
 90
        0
176
     0
 62
    18
420
        0
176
     0
 90
       50
176
     0
 90
        3
176
     0
 62
     5
420
      255
176
     0
290
     0
176
     0
 90
       50
176
     0
 90
       50
176
     0
 90
       50
176
     0
290
     0
176
     0
 90
       50
176
     0
 62
   256
176
     0
 40
1.0
176
     0
 90
        2
176
     0
  1
strokes_ogs.tif
176
     0
290
     0
176
     0
 40
1.0
176
     0
 40
1.0
176
     0
  0
VISUALSTYLE
  5
33
102
{ACAD_REACTORS
330
2A
102
}
330
2A
100
AcDbVisualStyle
  2
Realistic
 70
     8
177
     3
291
     0
 70
    58
 90
        2
176
     1
 90
        3
176
     1
 90
        0
176
     1
 90
        2
176
     1
 40
0.6
176
     1
 40
30.0
176
     1
 62
     7
420
 16777215
176
     1
 90
        0
176
     1
 90
        0
176
     1
 62
     7
176
     1
 62
   257
176
     1
 90
        1
176
     1
 90
        1
176
     1
 40
1.0
176
     1
 90
        8
176
     1
 62
   257
176
     1
 40
1.0
176
     1
 90
        1
176
     1
 90
        6
176
     1
 90
        2
176
     1
 62
     7
176
     1
 90
        3
176
     1
 90
        0
176
     1
 90
        0
176
     1
290
     0
176
     1
 90
       13
176
     1
 40
0.0
176
     1
 90
        0
176
     1
290
     0
176
     1
290
     1
176
     1
290
     1
176
     1
290
     0
176
     1
290
     0
176
     1
290
     0
176
     1
290
     0
176
     1
290
     0
176
     1
290
     0
176
     1
 90
       50
176
     1
 40
0.0
176
     1
 40
1.0
176
     1
 90
        0
176
     1
 62
    18
420
        0
176
     1
 90
       50
176
     1
 90
        3
176
     1
 62
     5
420
      255
176
     1
290
     0
176
     1
 90
       50
176
     1
 90
       50
176
     1
 90
       50
176
     1
290
     0
176
     1
 90
       50
176
     1
 62
   256
176
     0
 40
1.0
176
     0
 90
        2
176
     1
  1
strokes_ogs.tif
176
     1
290
     0
176
     1
 40
1.0
176
     1
 40
1.0
176
     1
  0
VISUALSTYLE
  5
42
102
{ACAD_REACTORS
330
2A
102
}
330
2A
100
AcDbVisualStyle
  2
Shaded
 70
    27
177
     3
291
     0
 70
    58
 90
        2
176
     1
 90
        2
176
     1
 90
        1
176
     1
 90
        2
176
     1
 40
0.6
176
     1
 40
30.0
176
     1
 62
     7
420
 16777215
176
     1
 90
        0
176
     1
 90
        4
176
     1
 62
     7
176
     1
 62
   257
176
     1
 90
        1
176
     1
 90
        1
176
     1
 40
1.0
176
     1
 90
        8
176
     1
 62
   257
176
     1
 40
1.0
176
     1
 90
        1
176
     1
 90
        6
176
     1
 90
        2
176
     1
 62
     8
420
  7895160
176
     1
 90
        3
176
     1
 90
        0
176
     1
 90
        0
176
     1
290
     0
176
     1
 90
        5
176
     1
 40
0.0
176
     1
 90
        0
176
     1
290
     0
176
     1
290
     1
176
     1
290
     1
176
     1
290
     0
176
     1
290
     0
176
     1
290
     0
176
     1
290
     0
176
     1
290
     0
176
     1
290
     0
176
     1
 90
       50
176
     1
 40
0.0
176
     1
 40
1.0
176
     1
 90
        0
176
     1
 62
    18
420
        0
176
     1
 90
       50
176
     1
 90
        3
176
     1
 62
     5
420
      255
176
     1
290
     0
176
     1
 90
       50
176
     1
 90
       50
176
     1
 90
       50
176
     1
290
     0
176
     1
 90
       50
176
     1
 62
   256
176
     0
 40
1.0
176
     0
 90
        2
176
     1
  1
strokes_ogs.tif
176
     1
290
     0
176
     1
 40
1.0
176
     1
 40
1.0
176
     1
  0
VISUALSTYLE
  5
41
102
{ACAD_REACTORS
330
2A
102
}
330
2A
100
AcDbVisualStyle
  2
Shaded with edges
 70
    26
177
     3
291
     0
 70
    58
 90
        2
176
     1
 90
        2
176
     1
 90
        1
176
     1
 90
        2
176
     1
 40
0.6
176
     1
 40
30.0
176
     1
 62
     7
420
 16777215
176
     1
 90
        1
176
     1
 90
       10
176
     1
 62
     7
176
     1
 62
   257
176
     1
 90
        2
176
     1
 90
        1
176
     1
 40
1.0
176
     1
 90
        8
176
     1
 62
   257
176
     1
 40
1.0
176
     1
 90
        1
176
     1
 90
        6
176
     1
 90
        2
176
     1
 62
     7
176
     1
 90
        3
176
     1
 90
        0
176
     1
 90
        0
176
     1
290
     0
176
     1
 90
        5
176
     1
 40
0.0
176
     1
 90
        0
176
     1
290
     0
176
     1
290
     1
176
     1
290
     1
176
     1
290
     0
176
     1
290
     0
176
     1
290
     0
176
     1
290
     0
176
     1
290
     0
176
     1
290
     0
176
     1
 90
       50
176
     1
 40
0.0
176
     1
 40
1.0
176
     1
 90
        0
176
     1
 62
    18
420
        0
176
     1
 90
       50
176
     1
 90
        3
176
     1
 62
     5
420
      255
176
     1
290
     0
176
     1
 90
       50
176
     1
 90
       50
176
     1
 90
       50
176
     1
290
     0
176
     1
 90
       50
176
     1
 62
   256
176
     0
 40
1.0
176
     0
 90
        2
176
     1
  1
strokes_ogs.tif
176
     1
290
     0
176
     1
 40
1.0
176
     1
 40
1.0
176
     1
  0
VISUALSTYLE
  5
3E
102
{ACAD_REACTORS
330
2A
102
}
330
2A
100
AcDbVisualStyle
  2
Shades of Gray
 70
    23
177
     3
291
     0
 70
    58
 90
        2
176
     1
 90
        2
176
     1
 90
        3
176
     1
 90
        0
176
     1
 40
0.6
176
     1
 40
30.0
176
     1
 62
     7
420
 16777215
176
     1
 90
        2
176
     1
 90
        2
176
     1
 62
     7
176
     1
 62
     7
176
     1
 90
        1
176
     1
 90
        1
176
     1
 40
40.0
176
     1
 90
        8
176
     1
 62
     7
176
     1
 40
1.0
176
     1
 90
        1
176
     1
 90
        6
176
     1
 90
        2
176
     1
 62
     7
176
     1
 90
        3
176
     1
 90
        0
176
     1
 90
        0
176
     1
290
     0
176
     1
 90
        1
176
     1
 40
0.0
176
     1
 90
        0
176
     1
290
     0
176
     1
290
     1
176
     1
290
     1
176
     1
290
     0
176
     1
290
     0
176
     1
290
     0
176
     1
290
     0
176
     1
290
     0
176
     1
290
     0
176
     1
 90
       50
176
     1
 40
0.0
176
     1
 40
1.0
176
     1
 90
        0
176
     1
 62
    18
420
        0
176
     1
 90
       50
176
     1
 90
        3
176
     1
 62
     5
420
      255
176
     1
290
     0
176
     1
 90
       50
176
     1
 90
       50
176
     1
 90
       50
176
     1
290
     0
176
     1
 90
       50
176
     1
 62
   256
176
     0
 40
1.0
176
     0
 90
        2
176
     1
  1
strokes_ogs.tif
176
     1
290
     0
176
     1
 40
1.0
176
     1
 40
1.0
176
     1
  0
VISUALSTYLE
  5
3F
102
{ACAD_REACTORS
330
2A
102
}
330
2A
100
AcDbVisualStyle
  2
Sketchy
 70
    24
177
     3
291
     0
 70
    58
 90
        1
176
     1
 90
        2
176
     1
 90
        2
176
     1
 90
        0
176
     1
 40
0.6
176
     1
 40
30.0
176
     1
 62
     7
420
 16777215
176
     1
 90
        2
176
     1
 90
        2
176
     1
 62
     7
176
     1
 62
     7
176
     1
 90
        1
176
     1
 90
        1
176
     1
 40
40.0
176
     1
 90
       11
176
     1
 62
     7
176
     1
 40
1.0
176
     1
 90
        1
176
     1
 90
        6
176
     1
 90
        2
176
     1
 62
     7
176
     1
 90
        6
176
     1
 90
        0
176
     1
 90
        0
176
     1
290
     0
176
     1
 90
        1
176
     1
 40
0.0
176
     1
 90
        0
176
     1
290
     0
176
     1
290
     1
176
     1
290
     1
176
     1
290
     0
176
     1
290
     0
176
     1
290
     0
176
     1
290
     0
176
     1
290
     0
176
     1
290
     0
176
     1
 90
       50
176
     1
 40
0.0
176
     1
 40
1.0
176
     1
 90
        0
176
     1
 62
    18
420
        0
176
     1
 90
       50
176
     1
 90
        3
176
     1
 62
     5
420
      255
176
     1
290
     0
176
     1
 90
       50
176
     1
 90
       50
176
     1
 90
       50
176
     1
290
     0
176
     1
 90
       50
176
     1
 62
   256
176
     0
 40
1.0
176
     0
 90
        2
176
     1
  1
strokes_ogs.tif
176
     1
290
     0
176
     1
 40
1.0
176
     1
 40
1.0
176
     1
  0
VISUALSTYLE
  5
37
102
{ACAD_REACTORS
330
2A
102
}
330
2A
100
AcDbVisualStyle
  2
Thicken
 70
    13
177
     3
291
     1
 70
    58
 90
        2
176
     1
 90
        2
176
     1
 90
        0
176
     1
 90
        0
176
     1
 40
0.6
176
     1
 40
30.0
176
     1
 62
     7
420
 16777215
176
     1
 90
        1
176
     1
 90
        4
176
     1
 62
     7
176
     1
 62
   257
176
     1
 90
        1
176
     1
 90
        1
176
     1
 40
1.0
176
     1
 90
       12
176
     1
 62
     7
176
     1
 40
1.0
176
     1
 90
        1
176
     1
 90
        6
176
     1
 90
        2
176
     1
 62
     7
176
     1
 90
        5
176
     1
 90
        0
176
     1
 90
        0
176
     1
290
     0
176
     1
 90
        1
176
     1
 40
0.0
176
     1
 90
        0
176
     1
290
     0
176
     1
290
     1
176
     1
290
     1
176
     1
290
     0
176
     1
290
     0
176
     1
290
     0
176
     1
290
     0
176
     1
290
     0
176
     1
290
     0
176
     1
 90
       50
176
     1
 40
0.0
176
     1
 40
1.0
176
     1
 90
        0
176
     1
 62
    18
420
        0
176
     1
 90
       50
176
     1
 90
        3
176
     1
 62
     5
420
      255
176
     1
290
     0
176
     1
 90
       50
176
     1
 90
       50
176
     1
 90
       50
176
     1
290
     0
176
     1
 90
       50
176
     1
 62
   256
176
     0
 40
1.0
176
     0
 90
        2
176
     1
  1
strokes_ogs.tif
176
     1
290
     0
176
     1
 40
1.0
176
     1
 40
1.0
176
     1
  0
VISUALSTYLE
  5
30
102
{ACAD_REACTORS
330
2A
102
}
330
2A
100
AcDbVisualStyle
  2
Wireframe
 70
     5
177
     3
291
     0
 70
    58
 90
        0
176
     1
 90
        2
176
     1
 90
        0
176
     1
 90
        0
176
     1
 40
0.6
176
     1
 40
30.0
176
     1
 62
     7
420
 16777215
176
     1
 90
        1
176
     1
 90
        4
176
     1
 62
     7
176
     1
 62
   257
176
     1
 90
        1
176
     1
 90
        1
176
     1
 40
1.0
176
     1
 90
        0
176
     1
 62
   257
176
     1
 40
1.0
176
     1
 90
        1
176
     1
 90
        6
176
     1
 90
        2
176
     1
 62
     7
176
     1
 90
        3
176
     1
 90
        0
176
     1
 90
        0
176
     1
290
     0
176
     1
 90
        1
176
     1
 40
0.0
176
     1
 90
        0
176
     1
290
     0
176
     1
290
     1
176
     1
290
     1
176
     1
290
     0
176
     1
290
     0
176
     1
290
     0
176
     1
290
     0
176
     1
290
     0
176
     1
290
     0
176
     1
 90
       50
176
     1
 40
0.0
176
     1
 40
1.0
176
     1
 90
        0
176
     1
 62
    18
420
        0
176
     1
 90
       50
176
     1
 90
        3
176
     1
 62
     5
420
      255
176
     1
290
     0
176
     1
 90
       50
176
     1
 90
       50
176
     1
 90
       50
176
     1
290
     0
176
     1
 90
       50
176
     1
 62
   256
176
     0
 40
1.0
176
     0
 90
        2
176
     1
  1
strokes_ogs.tif
176
     1
290
     0
176
     1
 40
1.0
176
     1
 40
1.0
176
     1
  0
VISUALSTYLE
  5
40
102
{ACAD_REACTORS
330
2A
102
}
330
2A
100
AcDbVisualStyle
  2
X-Ray
 70
    25
177
     3
291
     0
 70
    58
 90
        2
176
     1
 90
        2
176
     1
 90
        1
176
     1
 90
        1
176
     1
 40
0.5
176
     1
 40
30.0
176
     1
 62
     7
420
 16777215
176
     1
 90
        1
176
     1
 90
        0
176
     1
 62
     7
176
     1
 62
   257
176
     1
 90
        1
176
     1
 90
        1
176
     1
 40
1.0
176
     1
 90
        8
176
     1
 62
     7
176
     1
 40
1.0
176
     1
 90
        1
176
     1
 90
        6
176
     1
 90
        2
176
     1
 62
     7
176
     1
 90
        3
176
     1
 90
        0
176
     1
 90
        0
176
     1
290
     0
176
     1
 90
       13
176
     1
 40
0.0
176
     1
 90
        0
176
     1
290
     0
176
     1
290
     1
176
     1
290
     1
176
     1
290
     0
176
     1
290
     0
176
     1
290
     0
176
     1
290
     0
176
     1
290
     0
176
     1
290
     0
176
     1
 90
       50
176
     1
 40
0.0
176
     1
 40
1.0
176
     1
 90
        0
176
     1
 62
    18
420
        0
176
     1
 90
       50
176
     1
 90
        3
176
     1
 62
     5
420
      255
176
     1
290
     0
176
     1
 90
       50
176
     1
 90
       50
176
     1
 90
       50
176
     1
290
     0
176
     1
 90
       50
176
     1
 62
   256
176
     0
 40
1.0
176
     0
 90
        2
176
     1
  1
strokes_ogs.tif
176
     1
290
     0
176
     1
 40
1.0
176
     1
 40
1.0
176
     1
  0
DICTIONARYVAR
  5
227
102
{ACAD_REACTORS
330
226
102
}
330
226
100
DictionaryVariables
280
     0
  1
1:1
  0
DICTIONARYVAR
  5
22C
102
{ACAD_REACTORS
330
226
102
}
330
226
100
DictionaryVariables
280
     0
  1
Standard
  0
DICTIONARYVAR
  5
22B
102
{ACAD_REACTORS
330
226
102
}
330
226
100
DictionaryVariables
280
     0
  1
Standard
  0
DICTIONARYVAR
  5
22F
102
{ACAD_REACTORS
330
226
102
}
330
226
100
DictionaryVariables
280
     0
  1
6.000000
  0
DICTIONARY
  5
228
330
6A
100
AcDbDictionary
280
     1
281
     1
  3
ACAD_ROUNDTRIP_2008_TABLESTYLE_CELLSTYLEMAP
360
229
  0
CELLSTYLEMAP
  5
229
102
{ACAD_REACTORS
330
228
102
}
330
228
100
AcDbCellStyleMap
 90
        3
300
CELLSTYLE
  1
TABLEFORMAT_BEGIN
 90
        5
170
     1
 91
        0
 92
    32768
 62
   257
 93
        1
300
CONTENTFORMAT
  1
CONTENTFORMAT_BEGIN
 90
        0
 91
        0
 92
        4
 93
        0
300

 40
0.0
140
1.0
 94
        5
 62
     0
340
11
144
6.0
309
CONTENTFORMAT_END
171
     1
301
MARGIN
  1
CELLMARGIN_BEGIN
 40
1.5
 40
1.5
 40
1.5
 40
1.5
 40
1.5
 40
1.5
309
CELLMARGIN_END
 94
        6
 95
        1
302
GRIDFORMAT
  1
GRIDFORMAT_BEGIN
 90
        0
 91
        1
 62
     0
 92
       -2
340
14
 93
        0
 40
0.045
309
GRIDFORMAT_END
 95
        2
302
GRIDFORMAT
  1
GRIDFORMAT_BEGIN
 90
        0
 91
        1
 62
     0
 92
       -2
340
14
 93
        0
 40
0.045
309
GRIDFORMAT_END
 95
        4
302
GRIDFORMAT
  1
GRIDFORMAT_BEGIN
 90
        0
 91
        1
 62
     0
 92
       -2
340
14
 93
        0
 40
0.045
309
GRIDFORMAT_END
 95
        8
302
GRIDFORMAT
  1
GRIDFORMAT_BEGIN
 90
        0
 91
        1
 62
     0
 92
       -2
340
14
 93
        0
 40
0.045
309
GRIDFORMAT_END
 95
       16
302
GRIDFORMAT
  1
GRIDFORMAT_BEGIN
 90
        0
 91
        1
 62
     0
 92
       -2
340
14
 93
        0
 40
0.045
309
GRIDFORMAT_END
 95
       32
302
GRIDFORMAT
  1
GRIDFORMAT_BEGIN
 90
        0
 91
        1
 62
     0
 92
       -2
340
14
 93
        0
 40
0.045
309
GRIDFORMAT_END
309
TABLEFORMAT_END
  1
CELLSTYLE_BEGIN
 90
        1
 91
        1
300
_TITLE
309
CELLSTYLE_END
300
CELLSTYLE
  1
TABLEFORMAT_BEGIN
 90
        5
170
     1
 91
        0
 92
        0
 62
   257
 93
        1
300
CONTENTFORMAT
  1
CONTENTFORMAT_BEGIN
 90
        0
 91
        0
 92
        4
 93
        0
300

 40
0.0
140
1.0
 94
        5
 62
     0
340
11
144
4.5
309
CONTENTFORMAT_END
171
     1
301
MARGIN
  1
CELLMARGIN_BEGIN
 40
1.5
 40
1.5
 40
1.5
 40
1.5
 40
1.5
 40
1.5
309
CELLMARGIN_END
 94
        6
 95
        1
302
GRIDFORMAT
  1
GRIDFORMAT_BEGIN
 90
        0
 91
        1
 62
     0
 92
       -2
340
14
 93
        0
 40
0.045
309
GRIDFORMAT_END
 95
        2
302
GRIDFORMAT
  1
GRIDFORMAT_BEGIN
 90
        0
 91
        1
 62
     0
 92
       -2
340
14
 93
        0
 40
0.045
309
GRIDFORMAT_END
 95
        4
302
GRIDFORMAT
  1
GRIDFORMAT_BEGIN
 90
        0
 91
        1
 62
     0
 92
       -2
340
14
 93
        0
 40
0.045
309
GRIDFORMAT_END
 95
        8
302
GRIDFORMAT
  1
GRIDFORMAT_BEGIN
 90
        0
 91
        1
 62
     0
 92
       -2
340
14
 93
        0
 40
0.045
309
GRIDFORMAT_END
 95
       16
302
GRIDFORMAT
  1
GRIDFORMAT_BEGIN
 90
        0
 91
        1
 62
     0
 92
       -2
340
14
 93
        0
 40
0.045
309
GRIDFORMAT_END
 95
       32
302
GRIDFORMAT
  1
GRIDFORMAT_BEGIN
 90
        0
 91
        1
 62
     0
 92
       -2
340
14
 93
        0
 40
0.045
309
GRIDFORMAT_END
309
TABLEFORMAT_END
  1
CELLSTYLE_BEGIN
 90
        2
 91
        1
300
_HEADER
309
CELLSTYLE_END
300
CELLSTYLE
  1
TABLEFORMAT_BEGIN
 90
        5
170
     1
 91
        0
 92
        0
 62
   257
 93
        1
300
CONTENTFORMAT
  1
CONTENTFORMAT_BEGIN
 90
        0
 91
        0
 92
        4
 93
        0
300

 40
0.0
140
1.0
 94
        2
 62
     0
340
11
144
4.5
309
CONTENTFORMAT_END
171
     1
301
MARGIN
  1
CELLMARGIN_BEGIN
 40
1.5
 40
1.5
 40
1.5
 40
1.5
 40
1.5
 40
1.5
309
CELLMARGIN_END
 94
        6
 95
        1
302
GRIDFORMAT
  1
GRIDFORMAT_BEGIN
 90
        0
 91
        1
 62
     0
 92
       -2
340
14
 93
        0
 40
0.045
309
GRIDFORMAT_END
 95
        2
302
GRIDFORMAT
  1
GRIDFORMAT_BEGIN
 90
        0
 91
        1
 62
     0
 92
       -2
340
14
 93
        0
 40
0.045
309
GRIDFORMAT_END
 95
        4
302
GRIDFORMAT
  1
GRIDFORMAT_BEGIN
 90
        0
 91
        1
 62
     0
 92
       -2
340
14
 93
        0
 40
0.045
309
GRIDFORMAT_END
 95
        8
302
GRIDFORMAT
  1
GRIDFORMAT_BEGIN
 90
        0
 91
        1
 62
     0
 92
       -2
340
14
 93
        0
 40
0.045
309
GRIDFORMAT_END
 95
       16
302
GRIDFORMAT
  1
GRIDFORMAT_BEGIN
 90
        0
 91
        1
 62
     0
 92
       -2
340
14
 93
        0
 40
0.045
309
GRIDFORMAT_END
 95
       32
302
GRIDFORMAT
  1
GRIDFORMAT_BEGIN
 90
        0
 91
        1
 62
     0
 92
       -2
340
14
 93
        0
 40
0.045
309
GRIDFORMAT_END
309
TABLEFORMAT_END
  1
CELLSTYLE_BEGIN
 90
        3
 91
        2
300
_DATA
309
CELLSTYLE_END
  0
ENDSEC
  0
EOF