0
SECTION
  2
HEADER
  9
$ACADVER
  1
AC1027
  9
$ACADMAINTVER
 70
     8
  9
$DWGCODEPAGE
  3
ANSI_1252
  9
$REQUIREDVERSIONS
160
                 0
  9
$COMMENTS
  1
File was created by Cadenas
  9
$CUSTOMPROPERTYTAG
  1
NN
  9
$CUSTOMPROPERTY
  1
Grip Tight Medium Duty Narrow Slot Take Up Metric Bore
  9
$CUSTOMPROPERTYTAG
  1
NT
  9
$CUSTOMPROPERTY
  1
GTM Normal Duty Narrow Slot Take-Up Bearings
  9
$CUSTOMPROPERTYTAG
  1
NB
  9
$CUSTOMPROPERTY
  1
136302
  9
$CUSTOMPROPERTYTAG
  1
NBSYN
  9
$CUSTOMPROPERTY
  1
$PN.
  9
$CUSTOMPROPERTYTAG
  1
LINA
  9
$CUSTOMPROPERTY
  1
136302
  9
$CUSTOMPROPERTYTAG
  1
SERIES
  9
$CUSTOMPROPERTY
  1
212
  9
$CUSTOMPROPERTYTAG
  1
SS
  9
$CUSTOMPROPERTY
  1
55
  9
$CUSTOMPROPERTYTAG
  1
PN
  9
$CUSTOMPROPERTY
  1
136302
  9
$CUSTOMPROPERTYTAG
  1
DESCRIPTION
  9
$CUSTOMPROPERTY
  1
NSTU-GTM-55M
  9
$CUSTOMPROPERTYTAG
  1
PNSL
  9
$CUSTOMPROPERTY
  1
136218
  9
$CUSTOMPROPERTYTAG
  1
DESCRIPTIONSL
  9
$CUSTOMPROPERTY
  1
NSTU-GT-12
  9
$CUSTOMPROPERTYTAG
  1
PNA
  9
$CUSTOMPROPERTY
  1
136567
  9
$CUSTOMPROPERTYTAG
  1
DESCRIPTIONA
  9
$CUSTOMPROPERTY
  1
AN-GTM-12-55M-D
  9
$CUSTOMPROPERTYTAG
  1
W
  9
$CUSTOMPROPERTY
  1
4.9
  9
$CUSTOMPROPERTYTAG
  1
TUFS
  9
$CUSTOMPROPERTY
  1
NS415
  9
$CUSTOMPROPERTYTAG
  1
A
  9
$CUSTOMPROPERTY
  1
53.8
  9
$CUSTOMPROPERTYTAG
  1
B
  9
$CUSTOMPROPERTY
  1
169.9
  9
$CUSTOMPROPERTYTAG
  1
C
  9
$CUSTOMPROPERTY
  1
7.95
  9
$CUSTOMPROPERTYTAG
  1
D
  9
$CUSTOMPROPERTY
  1
95.3
  9
$CUSTOMPROPERTYTAG
  1
E
  9
$CUSTOMPROPERTY
  1
98.6
  9
$CUSTOMPROPERTYTAG
  1
F
  9
$CUSTOMPROPERTY
  1
25.4
  9
$CUSTOMPROPERTYTAG
  1
G
  9
$CUSTOMPROPERTY
  1
17.5
  9
$CUSTOMPROPERTYTAG
  1
H
  9
$CUSTOMPROPERTY
  1
32.5
  9
$CUSTOMPROPERTYTAG
  1
J
  9
$CUSTOMPROPERTY
  1
41.4
  9
$CUSTOMPROPERTYTAG
  1
L
  9
$CUSTOMPROPERTY
  1
93.7
  9
$CUSTOMPROPERTYTAG
  1
M
  9
$CUSTOMPROPERTY
  1
125.65/124.89
  9
$CUSTOMPROPERTYTAG
  1
N
  9
$CUSTOMPROPERTY
  1
146.1
  9
$CUSTOMPROPERTYTAG
  1
P
  9
$CUSTOMPROPERTY
  1
11.2
  9
$CUSTOMPROPERTYTAG
  1
R
  9
$CUSTOMPROPERTY
  1
18.5
  9
$CUSTOMPROPERTYTAG
  1
S
  9
$CUSTOMPROPERTY
  1
35.3
  9
$CUSTOMPROPERTYTAG
  1
Z
  9
$CUSTOMPROPERTY
  1
37.1
  9
$CUSTOMPROPERTYTAG
  1
CAPS
  9
$CUSTOMPROPERTY
  1
6955
  9
$CUSTOMPROPERTYTAG
  1
CAPD
  9
$CUSTOMPROPERTY
  1
11791
  9
$CUSTOMPROPERTYTAG
  1
COMPANY
  9
$CUSTOMPROPERTY
  1
baldor
  9
$INSBASE
 10
0.0
 20
0.0
 30
0.0
  9
$EXTMIN
 10
1.000000000000000E+20
 20
1.000000000000000E+20
 30
1.000000000000000E+20
  9
$EXTMAX
 10
-1.000000000000000E+20
 20
-1.000000000000000E+20
 30
-1.000000000000000E+20
  9
$LIMMIN
 10
0.0
 20
0.0
  9
$LIMMAX
 10
420.0
 20
297.0
  9
$ORTHOMODE
 70
     0
  9
$REGENMODE
 70
     1
  9
$FILLMODE
 70
     1
  9
$QTEXTMODE
 70
     0
  9
$MIRRTEXT
 70
     1
  9
$LTSCALE
 40
1.0
  9
$ATTMODE
 70
     1
  9
$TEXTSIZE
 40
2.5
  9
$TRACEWID
 40
1.0
  9
$TEXTSTYLE
  7
Standard
  9
$CLAYER
  8
0
  9
$CELTYPE
  6
ByLayer
  9
$CECOLOR
 62
   256
  9
$CELTSCALE
 40
1.0
  9
$DISPSILH
 70
     0
  9
$DIMSCALE
 40
1.0
  9
$DIMASZ
 40
2.5
  9
$DIMEXO
 40
0.625
  9
$DIMDLI
 40
3.75
  9
$DIMRND
 40
0.0
  9
$DIMDLE
 40
0.0
  9
$DIMEXE
 40
1.25
  9
$DIMTP
 40
0.0
  9
$DIMTM
 40
0.0
  9
$DIMTXT
 40
2.5
  9
$DIMCEN
 40
2.5
  9
$DIMTSZ
 40
0.0
  9
$DIMTOL
 70
     0
  9
$DIMLIM
 70
     0
  9
$DIMTIH
 70
     0
  9
$DIMTOH
 70
     0
  9
$DIMSE1
 70
     0
  9
$DIMSE2
 70
     0
  9
$DIMTAD
 70
     1
  9
$DIMZIN
 70
     8
  9
$DIMBLK
  1

  9
$DIMASO
 70
     1
  9
$DIMSHO
 70
     1
  9
$DIMPOST
  1

  9
$DIMAPOST
  1

  9
$DIMALT
 70
     0
  9
$DIMALTD
 70
     3
  9
$DIMALTF
 40
0.03937007874016
  9
$DIMLFAC
 40
1.0
  9
$DIMTOFL
 70
     1
  9
$DIMTVP
 40
0.0
  9
$DIMTIX
 70
     0
  9
$DIMSOXD
 70
     0
  9
$DIMSAH
 70
     0
  9
$DIMBLK1
  1

  9
$DIMBLK2
  1

  9
$DIMSTYLE
  2
ISO-25
  9
$DIMCLRD
 70
     0
  9
$DIMCLRE
 70
     0
  9
$DIMCLRT
 70
     0
  9
$DIMTFAC
 40
1.0
  9
$DIMGAP
 40
0.625
  9
$DIMJUST
 70
     0
  9
$DIMSD1
 70
     0
  9
$DIMSD2
 70
     0
  9
$DIMTOLJ
 70
     0
  9
$DIMTZIN
 70
     8
  9
$DIMALTZ
 70
     0
  9
$DIMALTTZ
 70
     0
  9
$DIMUPT
 70
     0
  9
$DIMDEC
 70
     2
  9
$DIMTDEC
 70
     2
  9
$DIMALTU
 70
     2
  9
$DIMALTTD
 70
     3
  9
$DIMTXSTY
  7
Standard
  9
$DIMAUNIT
 70
     0
  9
$DIMADEC
 70
     0
  9
$DIMALTRND
 40
0.0
  9
$DIMAZIN
 70
     0
  9
$DIMDSEP
 70
    44
  9
$DIMATFIT
 70
     3
  9
$DIMFRAC
 70
     0
  9
$DIMLDRBLK
  1

  9
$DIMLUNIT
 70
     2
  9
$DIMLWD
 70
    -2
  9
$DIMLWE
 70
    -2
  9
$DIMTMOVE
 70
     0
  9
$DIMFXL
 40
1.0
  9
$DIMFXLON
 70
     0
  9
$DIMJOGANG
 40
0.7853981633974483
  9
$DIMTFILL
 70
     0
  9
$DIMTFILLCLR
 70
     0
  9
$DIMARCSYM
 70
     0
  9
$DIMLTYPE
  6

  9
$DIMLTEX1
  6

  9
$DIMLTEX2
  6

  9
$DIMTXTDIRECTION
 70
     0
  9
$LUNITS
 70
     2
  9
$LUPREC
 70
     4
  9
$SKETCHINC
 40
1.0
  9
$FILLETRAD
 40
10.0
  9
$AUNITS
 70
     0
  9
$AUPREC
 70
     0
  9
$MENU
  1
.
  9
$ELEVATION
 40
0.0
  9
$PELEVATION
 40
0.0
  9
$THICKNESS
 40
0.0
  9
$LIMCHECK
 70
     0
  9
$CHAMFERA
 40
0.0
  9
$CHAMFERB
 40
0.0
  9
$CHAMFERC
 40
0.0
  9
$CHAMFERD
 40
0.0
  9
$SKPOLY
 70
     0
  9
$TDCREATE
 40
2458168.993601296
  9
$TDUCREATE
 40
2458168.95193463
  9
$TDUPDATE
 40
2458168.993601655
  9
$TDUUPDATE
 40
2458168.951934989
  9
$TDINDWG
 40
0.0000000116
  9
$TDUSRTIMER
 40
0.0000000116
  9
$USRTIMER
 70
     1
  9
$ANGBASE
 50
0.0
  9
$ANGDIR
 70
     0
  9
$PDMODE
 70
     0
  9
$PDSIZE
 40
0.0
  9
$PLINEWID
 40
0.0
  9
$SPLFRAME
 70
     0
  9
$SPLINETYPE
 70
     6
  9
$SPLINESEGS
 70
     8
  9
$HANDSEED
  5
241
  9
$SURFTAB1
 70
     6
  9
$SURFTAB2
 70
     6
  9
$SURFTYPE
 70
     6
  9
$SURFU
 70
     6
  9
$SURFV
 70
     6
  9
$UCSBASE
  2

  9
$UCSNAME
  2

  9
$UCSORG
 10
0.0
 20
0.0
 30
0.0
  9
$UCSXDIR
 10
1.0
 20
0.0
 30
0.0
  9
$UCSYDIR
 10
0.0
 20
1.0
 30
0.0
  9
$UCSORTHOREF
  2

  9
$UCSORTHOVIEW
 70
     0
  9
$UCSORGTOP
 10
0.0
 20
0.0
 30
0.0
  9
$UCSORGBOTTOM
 10
0.0
 20
0.0
 30
0.0
  9
$UCSORGLEFT
 10
0.0
 20
0.0
 30
0.0
  9
$UCSORGRIGHT
 10
0.0
 20
0.0
 30
0.0
  9
$UCSORGFRONT
 10
0.0
 20
0.0
 30
0.0
  9
$UCSORGBACK
 10
0.0
 20
0.0
 30
0.0
  9
$PUCSBASE
  2

  9
$PUCSNAME
  2

  9
$PUCSORG
 10
0.0
 20
0.0
 30
0.0
  9
$PUCSXDIR
 10
1.0
 20
0.0
 30
0.0
  9
$PUCSYDIR
 10
0.0
 20
1.0
 30
0.0
  9
$PUCSORTHOREF
  2

  9
$PUCSORTHOVIEW
 70
     0
  9
$PUCSORGTOP
 10
0.0
 20
0.0
 30
0.0
  9
$PUCSORGBOTTOM
 10
0.0
 20
0.0
 30
0.0
  9
$PUCSORGLEFT
 10
0.0
 20
0.0
 30
0.0
  9
$PUCSORGRIGHT
 10
0.0
 20
0.0
 30
0.0
  9
$PUCSORGFRONT
 10
0.0
 20
0.0
 30
0.0
  9
$PUCSORGBACK
 10
0.0
 20
0.0
 30
0.0
  9
$USERI1
 70
     0
  9
$USERI2
 70
     0
  9
$USERI3
 70
     0
  9
$USERI4
 70
     0
  9
$USERI5
 70
     0
  9
$USERR1
 40
0.0
  9
$USERR2
 40
0.0
  9
$USERR3
 40
0.0
  9
$USERR4
 40
0.0
  9
$USERR5
 40
0.0
  9
$WORLDVIEW
 70
     1
  9
$SHADEDGE
 70
     3
  9
$SHADEDIF
 70
    70
  9
$TILEMODE
 70
     1
  9
$MAXACTVP
 70
    64
  9
$PINSBASE
 10
0.0
 20
0.0
 30
0.0
  9
$PLIMCHECK
 70
     0
  9
$PEXTMIN
 10
1.000000000000000E+20
 20
1.000000000000000E+20
 30
1.000000000000000E+20
  9
$PEXTMAX
 10
-1.000000000000000E+20
 20
-1.000000000000000E+20
 30
-1.000000000000000E+20
  9
$PLIMMIN
 10
0.0
 20
0.0
  9
$PLIMMAX
 10
420.0
 20
297.0
  9
$UNITMODE
 70
     0
  9
$VISRETAIN
 70
     1
  9
$PLINEGEN
 70
     0
  9
$PSLTSCALE
 70
     1
  9
$TREEDEPTH
 70
  3020
  9
$CMLSTYLE
  2
Standard
  9
$CMLJUST
 70
     0
  9
$CMLSCALE
 40
20.0
  9
$PROXYGRAPHICS
 70
     1
  9
$MEASUREMENT
 70
     1
  9
$CELWEIGHT
370
    -1
  9
$ENDCAPS
280
     0
  9
$JOINSTYLE
280
     0
  9
$LWDISPLAY
290
     0
  9
$INSUNITS
 70
     4
  9
$HYPERLINKBASE
  1

  9
$STYLESHEET
  1

  9
$XEDIT
290
     1
  9
$CEPSNTYPE
380
     0
  9
$PSTYLEMODE
290
     1
  9
$FINGERPRINTGUID
  2
{B0A3A920-37BF-4109-BDE3-D2A019875FFF}
  9
$VERSIONGUID
  2
{FAEB1C32-E019-11D5-929B-00C0DF256EC4}
  9
$EXTNAMES
290
     1
  9
$PSVPSCALE
 40
0.0
  9
$OLESTARTUP
290
     0
  9
$SORTENTS
280
   127
  9
$INDEXCTL
280
     0
  9
$HIDETEXT
280
     1
  9
$XCLIPFRAME
280
     2
  9
$HALOGAP
280
     0
  9
$OBSCOLOR
 70
   257
  9
$OBSLTYPE
280
     0
  9
$INTERSECTIONDISPLAY
280
     0
  9
$INTERSECTIONCOLOR
 70
   257
  9
$DIMASSOC
280
     2
  9
$PROJECTNAME
  1

  9
$CAMERADISPLAY
290
     0
  9
$LENSLENGTH
 40
50.0
  9
$CAMERAHEIGHT
 40
0.0
  9
$STEPSPERSEC
 40
2.0
  9
$STEPSIZE
 40
6.0
  9
$3DDWFPREC
 40
2.0
  9
$PSOLWIDTH
 40
5.0
  9
$PSOLHEIGHT
 40
80.0
  9
$LOFTANG1
 40
1.570796326794897
  9
$LOFTANG2
 40
1.570796326794897
  9
$LOFTMAG1
 40
0.0
  9
$LOFTMAG2
 40
0.0
  9
$LOFTPARAM
 70
     7
  9
$LOFTNORMALS
280
     1
  9
$LATITUDE
 40
37.795
  9
$LONGITUDE
 40
-122.394
  9
$NORTHDIRECTION
 40
0.0
  9
$TIMEZONE
 70
 -8000
  9
$LIGHTGLYPHDISPLAY
280
     1
  9
$TILEMODELIGHTSYNCH
280
     1
  9
$CMATERIAL
347
44
  9
$SOLIDHIST
280
     0
  9
$SHOWHIST
280
     1
  9
$DWFFRAME
280
     2
  9
$DGNFRAME
280
     2
  9
$REALWORLDSCALE
290
     1
  9
$INTERFERECOLOR
 62
   256
  9
$CSHADOW
280
     0
  9
$SHADOWPLANELOCATION
 40
0.0
  0
ENDSEC
  0
SECTION
  2
CLASSES
  0
CLASS
  1
ACDBDICTIONARYWDFLT
  2
AcDbDictionaryWithDefault
  3
ObjectDBX Classes
 90
        0
 91
        4
280
     0
281
     0
  0
CLASS
  1
VISUALSTYLE
  2
AcDbVisualStyle
  3
ObjectDBX Classes
 90
     4095
 91
        4
280
     0
281
     0
  0
CLASS
  1
MATERIAL
  2
AcDbMaterial
  3
ObjectDBX Classes
 90
     1153
 91
        4
280
     0
281
     0
  0
CLASS
  1
SCALE
  2
AcDbScale
  3
ObjectDBX Classes
 90
     1153
 91
        4
280
     0
281
     0
  0
CLASS
  1
TABLESTYLE
  2
AcDbTableStyle
  3
ObjectDBX Classes
 90
     4095
 91
        4
280
     0
281
     0
  0
CLASS
  1
MLEADERSTYLE
  2
AcDbMLeaderStyle
  3
ACDB_MLEADERSTYLE_CLASS
 90
     4095
 91
        4
280
     0
281
     0
  0
CLASS
  1
SUN
  2
AcDbSun
  3
SCENEOE
 90
     1153
 91
        4
280
     0
281
     0
  0
CLASS
  1
DICTIONARYVAR
  2
AcDbDictionaryVar
  3
ObjectDBX Classes
 90
        0
 91
        4
280
     0
281
     0
  0
CLASS
  1
CELLSTYLEMAP
  2
AcDbCellStyleMap
  3
ObjectDBX Classes
 90
     1152
 91
        4
280
     0
281
     0
  0
ENDSEC
  0
SECTION
  2
TABLES
  0
TABLE
  2
VPORT
  5
8
330
0
100
AcDbSymbolTable
 70
     1
  0
VPORT
  5
29
330
8
100
AcDbSymbolTableRecord
100
AcDbViewportTableRecord
  2
*Active
 70
     0
 10
0.0
 20
0.0
 11
1.0
 21
1.0
 12
12.32048970615449
 22
-7.500000000000057
 13
0.0
 23
0.0
 14
10.0
 24
10.0
 15
10.0
 25
10.0
 16
0.0
 26
0.0
 36
1.0
 17
0.0
 27
0.0
 37
0.0
 40
62.38319999999987
 41
2.888571298032886
 42
50.0
 43
0.0
 44
0.0
 50
0.0
 51
0.0
 71
     0
 72
   100
 73
     1
 74
     3
 75
     0
 76
     0
 77
     0
 78
     0
281
     0
 65
     1
110
0.0
120
0.0
130
0.0
111
1.0
121
0.0
131
0.0
112
0.0
122
1.0
132
0.0
 79
     0
146
0.0
348
2F
 60
     3
 61
     5
292
     1
282
     1
141
0.0
142
0.0
 63
   250
361
6D
  0
ENDTAB
  0
TABLE
  2
LTYPE
  5
5
330
0
100
AcDbSymbolTable
 70
     3
  0
LTYPE
  5
14
330
5
100
AcDbSymbolTableRecord
100
AcDbLinetypeTableRecord
  2
ByBlock
 70
     0
  3

 72
    65
 73
     0
 40
0.0
  0
LTYPE
  5
15
330
5
100
AcDbSymbolTableRecord
100
AcDbLinetypeTableRecord
  2
ByLayer
 70
     0
  3

 72
    65
 73
     0
 40
0.0
  0
LTYPE
  5
16
330
5
100
AcDbSymbolTableRecord
100
AcDbLinetypeTableRecord
  2
Continuous
 70
     0
  3
Solid line
 72
    65
 73
     0
 40
0.0
  0
LTYPE
  5
A6
330
5
100
AcDbSymbolTableRecord
100
AcDbLinetypeTableRecord
  2
Dashed
 70
     0
  3

 72
    65
 73
     2
 40
2.0
 49
1.0
 74
     0
 49
-1.0
 74
     0
  0
LTYPE
  5
192
330
5
100
AcDbSymbolTableRecord
100
AcDbLinetypeTableRecord
  2
Center
 70
     0
  3

 72
    65
 73
     4
 40
1.5
 49
0.45
 74
     0
 49
-0.5
 74
     0
 49
0.05
 74
     0
 49
-0.5
 74
     0
  0
ENDTAB
  0
TABLE
  2
LAYER
  5
2
330
0
100
AcDbSymbolTable
 70
     7
  0
LAYER
  5
10
330
2
100
AcDbSymbolTableRecord
100
AcDbLayerTableRecord
  2
0
 70
     0
 62
     7
  6
Continuous
370
    -3
390
F
347
46
348
0
  0
LAYER
  5
72
330
2
100
AcDbSymbolTableRecord
100
AcDbLayerTableRecord
  2
AM_6
 70
     0
 62
    -2
  6
Continuous
370
    35
390
F
347
46
348
0
  0
LAYER
  5
A7
330
2
100
AcDbSymbolTableRecord
100
AcDbLayerTableRecord
  2
AM_9
 70
     0
 62
     6
  6
Dashed
370
    25
390
F
347
46
348
0
  0
LAYER
  5
103
330
2
100
AcDbSymbolTableRecord
100
AcDbLayerTableRecord
  2
AM_4
 70
     0
 62
     7
  6
Continuous
370
    50
390
F
347
46
348
0
  0
LAYER
  5
193
330
2
100
AcDbSymbolTableRecord
100
AcDbLayerTableRecord
  2
AM_7
 70
     0
 62
     7
  6
Center
370
    25
390
F
347
46
348
0
  0
LAYER
  5
1B7
330
2
100
AcDbSymbolTableRecord
100
AcDbLayerTableRecord
  2
AM_5
 70
     0
 62
     3
  6
Continuous
370
    25
390
F
347
46
348
0
  0
LAYER
  5
230
330
2
100
AcDbSymbolTableRecord
100
AcDbLayerTableRecord
  2
ConnectionPoints
 70
     0
 62
     7
  6
Continuous
370
    50
390
F
347
46
348
0
  0
ENDTAB
  0
TABLE
  2
STYLE
  5
3
330
0
100
AcDbSymbolTable
 70
     1
  0
STYLE
  5
11
330
3
100
AcDbSymbolTableRecord
100
AcDbTextStyleTableRecord
  2
Standard
 70
     0
 40
0.0
 41
1.0
 50
0.0
 71
     0
 42
2.5
  3
txt
  4

  0
ENDTAB
  0
TABLE
  2
VIEW
  5
6
330
0
100
AcDbSymbolTable
 70
     0
  0
ENDTAB
  0
TABLE
  2
UCS
  5
7
330
0
100
AcDbSymbolTable
 70
     0
  0
ENDTAB
  0
TABLE
  2
APPID
  5
9
330
0
100
AcDbSymbolTable
 70
     1
  0
APPID
  5
12
330
9
100
AcDbSymbolTableRecord
100
AcDbRegAppTableRecord
  2
ACAD
 70
     0
  0
ENDTAB
  0
TABLE
  2
DIMSTYLE
  5
A
330
0
100
AcDbSymbolTable
 70
     1
100
AcDbDimStyleTable
  0
DIMSTYLE
105
27
330
A
100
AcDbSymbolTableRecord
100
AcDbDimStyleTableRecord
  2
ISO-25
 70
     0
 41
2.5
 42
0.625
 43
3.75
 44
1.25
 73
     0
 74
     0
 77
     1
 78
     8
140
2.5
141
2.5
143
0.03937007874016
147
0.625
171
     3
172
     1
178
     0
271
     2
272
     2
274
     3
278
    44
283
     0
284
     8
340
11
  0
ENDTAB
  0
TABLE
  2
BLOCK_RECORD
  5
1
330
0
100
AcDbSymbolTable
 70
     6
  0
BLOCK_RECORD
  5
1F
330
1
100
AcDbSymbolTableRecord
100
AcDbBlockTableRecord
  2
*Model_Space
340
22
 70
     0
280
     1
281
     0
  0
BLOCK_RECORD
  5
1B
330
1
100
AcDbSymbolTableRecord
100
AcDbBlockTableRecord
  2
*Paper_Space
340
1E
 70
     0
280
     1
281
     0
  0
BLOCK_RECORD
  5
23
330
1
100
AcDbSymbolTableRecord
100
AcDbBlockTableRecord
  2
*Paper_Space0
340
26
 70
     0
280
     1
281
     0
  0
BLOCK_RECORD
  5
6E
330
1
100
AcDbSymbolTableRecord
100
AcDbBlockTableRecord
  2
1_136302_4
340
0
102
{BLKREFS
331
6F
102
}
 70
     0
280
     1
281
     0
  0
BLOCK_RECORD
  5
95
330
1
100
AcDbSymbolTableRecord
100
AcDbBlockTableRecord
  2
2_405016_Metric_0_in_136302_4
340
0
102
{BLKREFS
331
96
102
}
 70
     0
280
     1
281
     0
  0
BLOCK_RECORD
  5
11E
330
1
100
AcDbSymbolTableRecord
100
AcDbBlockTableRecord
  2
3_129525_0_in_136302_4
340
0
102
{BLKREFS
331
11F
102
}
 70
     0
280
     1
281
     0
  0
BLOCK_RECORD
  5
163
330
1
100
AcDbSymbolTableRecord
100
AcDbBlockTableRecord
  2
4_136567i_0_in_136302_4
340
0
102
{BLKREFS
331
164
102
}
 70
     0
280
     1
281
     0
  0
BLOCK_RECORD
  5
1B9
330
1
100
AcDbSymbolTableRecord
100
AcDbBlockTableRecord
  2
5_136302h_0_in_136302_4
340
0
102
{BLKREFS
331
1BA
102
}
 70
     0
280
     1
281
     0
  0
ENDTAB
  0
ENDSEC
  0
SECTION
  2
BLOCKS
  0
BLOCK
  5
20
330
1F
100
AcDbEntity
  8
0
100
AcDbBlockBegin
  2
*Model_Space
 70
     0
 10
0.0
 20
0.0
 30
0.0
  3
*Model_Space
  1

  0
ENDBLK
  5
21
330
1F
100
AcDbEntity
  8
0
100
AcDbBlockEnd
  0
BLOCK
  5
1C
330
1B
100
AcDbEntity
 67
     1
  8
0
100
AcDbBlockBegin
  2
*Paper_Space
 70
     0
 10
0.0
 20
0.0
 30
0.0
  3
*Paper_Space
  1

  0
ENDBLK
  5
1D
330
1B
100
AcDbEntity
 67
     1
  8
0
100
AcDbBlockEnd
  0
BLOCK
  5
24
330
23
100
AcDbEntity
  8
0
100
AcDbBlockBegin
  2
*Paper_Space0
 70
     0
 10
0.0
 20
0.0
 30
0.0
  3
*Paper_Space0
  1

  0
ENDBLK
  5
25
330
23
100
AcDbEntity
  8
0
100
AcDbBlockEnd
  0
BLOCK
  5
70
330
6E
100
AcDbEntity
  8
0
100
AcDbBlockBegin
  2
1_136302_4
 70
     2
 10
0.0
 20
0.0
 30
0.0
  3
1_136302_4
  1

  0
ATTDEF
  5
73
330
6E
100
AcDbEntity
  8
AM_6
100
AcDbText
 10
105.653
 20
23.07999999999999
 30
0.0
 40
0.5
  1
Grip Tight Medium Duty Narrow Slot Take Up Metric Bore
100
AcDbAttributeDefinition
  3

  2
NN
 70
     8
280
     0
  0
ATTDEF
  5
74
330
6E
100
AcDbEntity
  8
AM_6
100
AcDbText
 10
105.653
 20
22.57999999999999
 30
0.0
 40
0.5
  1
GTM Normal Duty Narrow Slot Take-Up Bearings
100
AcDbAttributeDefinition
  3

  2
NT
 70
     8
280
     0
  0
ATTDEF
  5
75
330
6E
100
AcDbEntity
  8
AM_6
100
AcDbText
 10
105.653
 20
22.07999999999999
 30
0.0
 40
0.5
  1
136302
100
AcDbAttributeDefinition
  3

  2
NB
 70
     8
280
     0
  0
ATTDEF
  5
76
330
6E
100
AcDbEntity
  8
AM_6
100
AcDbText
 10
105.653
 20
21.57999999999999
 30
0.0
 40
0.5
  1
$PN.
100
AcDbAttributeDefinition
  3

  2
NBSYN
 70
     8
280
     0
  0
ATTDEF
  5
77
330
6E
100
AcDbEntity
  8
AM_6
100
AcDbText
 10
105.653
 20
21.07999999999999
 30
0.0
 40
0.5
  1
136302
100
AcDbAttributeDefinition
  3

  2
LINA
 70
     8
280
     0
  0
ATTDEF
  5
78
330
6E
100
AcDbEntity
  8
AM_6
100
AcDbText
 10
105.653
 20
20.57999999999999
 30
0.0
 40
0.5
  1
212
100
AcDbAttributeDefinition
  3

  2
SERIES
 70
     8
280
     0
  0
ATTDEF
  5
79
330
6E
100
AcDbEntity
  8
AM_6
100
AcDbText
 10
105.653
 20
20.07999999999999
 30
0.0
 40
0.5
  1
55
100
AcDbAttributeDefinition
  3

  2
SS
 70
     8
280
     0
  0
ATTDEF
  5
7A
330
6E
100
AcDbEntity
  8
AM_6
100
AcDbText
 10
105.653
 20
19.57999999999999
 30
0.0
 40
0.5
  1
136302
100
AcDbAttributeDefinition
  3

  2
PN
 70
     8
280
     0
  0
ATTDEF
  5
7B
330
6E
100
AcDbEntity
  8
AM_6
100
AcDbText
 10
105.653
 20
19.07999999999999
 30
0.0
 40
0.5
  1
NSTU-GTM-55M
100
AcDbAttributeDefinition
  3

  2
DESCRIPTION
 70
     8
280
     0
  0
ATTDEF
  5
7C
330
6E
100
AcDbEntity
  8
AM_6
100
AcDbText
 10
105.653
 20
18.57999999999999
 30
0.0
 40
0.5
  1
136218
100
AcDbAttributeDefinition
  3

  2
PNSL
 70
     8
280
     0
  0
ATTDEF
  5
7D
330
6E
100
AcDbEntity
  8
AM_6
100
AcDbText
 10
105.653
 20
18.07999999999999
 30
0.0
 40
0.5
  1
NSTU-GT-12
100
AcDbAttributeDefinition
  3

  2
DESCRIPTIONSL
 70
     8
280
     0
  0
ATTDEF
  5
7E
330
6E
100
AcDbEntity
  8
AM_6
100
AcDbText
 10
105.653
 20
17.57999999999999
 30
0.0
 40
0.5
  1
136567
100
AcDbAttributeDefinition
  3

  2
PNA
 70
     8
280
     0
  0
ATTDEF
  5
7F
330
6E
100
AcDbEntity
  8
AM_6
100
AcDbText
 10
105.653
 20
17.07999999999999
 30
0.0
 40
0.5
  1
AN-GTM-12-55M-D
100
AcDbAttributeDefinition
  3

  2
DESCRIPTIONA
 70
     8
280
     0
  0
ATTDEF
  5
80
330
6E
100
AcDbEntity
  8
AM_6
100
AcDbText
 10
105.653
 20
16.57999999999999
 30
0.0
 40
0.5
  1
4.9
100
AcDbAttributeDefinition
  3

  2
W
 70
     8
280
     0
  0
ATTDEF
  5
81
330
6E
100
AcDbEntity
  8
AM_6
100
AcDbText
 10
105.653
 20
16.07999999999999
 30
0.0
 40
0.5
  1
NS415
100
AcDbAttributeDefinition
  3

  2
TUFS
 70
     8
280
     0
  0
ATTDEF
  5
82
330
6E
100
AcDbEntity
  8
AM_6
100
AcDbText
 10
105.653
 20
15.57999999999999
 30
0.0
 40
0.5
  1
53.8
100
AcDbAttributeDefinition
  3

  2
A
 70
     8
280
     0
  0
ATTDEF
  5
83
330
6E
100
AcDbEntity
  8
AM_6
100
AcDbText
 10
105.653
 20
15.07999999999999
 30
0.0
 40
0.5
  1
169.9
100
AcDbAttributeDefinition
  3

  2
B
 70
     8
280
     0
  0
ATTDEF
  5
84
330
6E
100
AcDbEntity
  8
AM_6
100
AcDbText
 10
105.653
 20
14.57999999999999
 30
0.0
 40
0.5
  1
7.95
100
AcDbAttributeDefinition
  3

  2
C
 70
     8
280
     0
  0
ATTDEF
  5
85
330
6E
100
AcDbEntity
  8
AM_6
100
AcDbText
 10
105.653
 20
14.07999999999999
 30
0.0
 40
0.5
  1
95.3
100
AcDbAttributeDefinition
  3

  2
D
 70
     8
280
     0
  0
ATTDEF
  5
86
330
6E
100
AcDbEntity
  8
AM_6
100
AcDbText
 10
105.653
 20
13.57999999999999
 30
0.0
 40
0.5
  1
98.6
100
AcDbAttributeDefinition
  3

  2
E
 70
     8
280
     0
  0
ATTDEF
  5
87
330
6E
100
AcDbEntity
  8
AM_6
100
AcDbText
 10
105.653
 20
13.07999999999999
 30
0.0
 40
0.5
  1
25.4
100
AcDbAttributeDefinition
  3

  2
F
 70
     8
280
     0
  0
ATTDEF
  5
88
330
6E
100
AcDbEntity
  8
AM_6
100
AcDbText
 10
105.653
 20
12.57999999999999
 30
0.0
 40
0.5
  1
17.5
100
AcDbAttributeDefinition
  3

  2
G
 70
     8
280
     0
  0
ATTDEF
  5
89
330
6E
100
AcDbEntity
  8
AM_6
100
AcDbText
 10
105.653
 20
12.07999999999999
 30
0.0
 40
0.5
  1
32.5
100
AcDbAttributeDefinition
  3

  2
H
 70
     8
280
     0
  0
ATTDEF
  5
8A
330
6E
100
AcDbEntity
  8
AM_6
100
AcDbText
 10
105.653
 20
11.57999999999999
 30
0.0
 40
0.5
  1
41.4
100
AcDbAttributeDefinition
  3

  2
J
 70
     8
280
     0
  0
ATTDEF
  5
8B
330
6E
100
AcDbEntity
  8
AM_6
100
AcDbText
 10
105.653
 20
11.07999999999999
 30
0.0
 40
0.5
  1
93.7
100
AcDbAttributeDefinition
  3

  2
L
 70
     8
280
     0
  0
ATTDEF
  5
8C
330
6E
100
AcDbEntity
  8
AM_6
100
AcDbText
 10
105.653
 20
10.57999999999999
 30
0.0
 40
0.5
  1
125.65/124.89
100
AcDbAttributeDefinition
  3

  2
M
 70
     8
280
     0
  0
ATTDEF
  5
8D
330
6E
100
AcDbEntity
  8
AM_6
100
AcDbText
 10
105.653
 20
10.07999999999999
 30
0.0
 40
0.5
  1
146.1
100
AcDbAttributeDefinition
  3

  2
N
 70
     8
280
     0
  0
ATTDEF
  5
8E
330
6E
100
AcDbEntity
  8
AM_6
100
AcDbText
 10
105.653
 20
9.579999999999991
 30
0.0
 40
0.5
  1
11.2
100
AcDbAttributeDefinition
  3

  2
P
 70
     8
280
     0
  0
ATTDEF
  5
8F
330
6E
100
AcDbEntity
  8
AM_6
100
AcDbText
 10
105.653
 20
9.079999999999991
 30
0.0
 40
0.5
  1
18.5
100
AcDbAttributeDefinition
  3

  2
R
 70
     8
280
     0
  0
ATTDEF
  5
90
330
6E
100
AcDbEntity
  8
AM_6
100
AcDbText
 10
105.653
 20
8.579999999999991
 30
0.0
 40
0.5
  1
35.3
100
AcDbAttributeDefinition
  3

  2
S
 70
     8
280
     0
  0
ATTDEF
  5
91
330
6E
100
AcDbEntity
  8
AM_6
100
AcDbText
 10
105.653
 20
8.079999999999991
 30
0.0
 40
0.5
  1
37.1
100
AcDbAttributeDefinition
  3

  2
Z
 70
     8
280
     0
  0
ATTDEF
  5
92
330
6E
100
AcDbEntity
  8
AM_6
100
AcDbText
 10
105.653
 20
7.579999999999991
 30
0.0
 40
0.5
  1
6955
100
AcDbAttributeDefinition
  3

  2
CAPS
 70
     8
280
     0
  0
ATTDEF
  5
93
330
6E
100
AcDbEntity
  8
AM_6
100
AcDbText
 10
105.653
 20
7.079999999999991
 30
0.0
 40
0.5
  1
11791
100
AcDbAttributeDefinition
  3

  2
CAPD
 70
     8
280
     0
  0
ATTDEF
  5
94
330
6E
100
AcDbEntity
  8
AM_6
100
AcDbText
 10
105.653
 20
6.579999999999991
 30
0.0
 40
0.5
  1
baldor
100
AcDbAttributeDefinition
  3

  2
COMPANY
 70
     8
280
     0
  0
INSERT
  5
96
330
6E
100
AcDbEntity
  8
0
100
AcDbBlockReference
  2
2_405016_Metric_0_in_136302_4
 10
0.0
 20
0.0
 30
0.0
  0
INSERT
  5
11F
330
6E
100
AcDbEntity
  8
0
100
AcDbBlockReference
  2
3_129525_0_in_136302_4
 10
0.0
 20
0.0
 30
0.0
  0
INSERT
  5
164
330
6E
100
AcDbEntity
  8
0
100
AcDbBlockReference
  2
4_136567i_0_in_136302_4
 10
0.0
 20
0.0
 30
0.0
  0
INSERT
  5
1BA
330
6E
100
AcDbEntity
  8
0
100
AcDbBlockReference
  2
5_136302h_0_in_136302_4
 10
0.0
 20
0.0
 30
0.0
  0
ENDBLK
  5
71
330
6E
100
AcDbEntity
  8
0
100
AcDbBlockEnd
  0
BLOCK
  5
97
330
95
100
AcDbEntity
  8
0
100
AcDbBlockBegin
  2
2_405016_Metric_0_in_136302_4
 70
     2
 10
0.0
 20
0.0
 30
0.0
  3
2_405016_Metric_0_in_136302_4
  1

  0
ATTDEF
  5
99
330
95
100
AcDbEntity
  8
AM_6
100
AcDbText
 10
-49.88257838491245
 20
5.556250000000135
 30
0.0
 40
0.5
  1
405016 -Metric
100
AcDbAttributeDefinition
  3

  2
NN
 70
     8
280
     0
  0
ATTDEF
  5
9A
330
95
100
AcDbEntity
  8
AM_6
100
AcDbText
 10
-49.88257838491245
 20
5.056250000000135
 30
0.0
 40
0.5
  1
Grease Fitting
100
AcDbAttributeDefinition
  3

  2
NT
 70
     8
280
     0
  0
ATTDEF
  5
9B
330
95
100
AcDbEntity
  8
AM_6
100
AcDbText
 10
-49.88257838491245
 20
4.556250000000135
 30
0.0
 40
0.5
  1
405016-Metric
100
AcDbAttributeDefinition
  3

  2
NB
 70
     8
280
     0
  0
ATTDEF
  5
9C
330
95
100
AcDbEntity
  8
AM_6
100
AcDbText
 10
-49.88257838491245
 20
4.056250000000135
 30
0.0
 40
0.5
  1
$MN.-Metric
100
AcDbAttributeDefinition
  3

  2
NBSYN
 70
     8
280
     0
  0
ATTDEF
  5
9D
330
95
100
AcDbEntity
  8
AM_6
100
AcDbText
 10
-49.88257838491245
 20
3.556250000000135
 30
0.0
 40
0.5
  1
405016
100
AcDbAttributeDefinition
  3

  2
LINA
 70
     8
280
     0
  0
ATTDEF
  5
9E
330
95
100
AcDbEntity
  8
AM_6
100
AcDbText
 10
-49.88257838491245
 20
3.056250000000135
 30
0.0
 40
0.5
  1
405016
100
AcDbAttributeDefinition
  3

  2
MN
 70
     8
280
     0
  0
ATTDEF
  5
9F
330
95
100
AcDbEntity
  8
AM_6
100
AcDbText
 10
-49.88257838491245
 20
2.556250000000135
 30
0.0
 40
0.5
  1
7/16 HEX
100
AcDbAttributeDefinition
  3

  2
H
 70
     8
280
     0
  0
ATTDEF
  5
A0
330
95
100
AcDbEntity
  8
AM_6
100
AcDbText
 10
-49.88257838491245
 20
2.056250000000135
 30
0.0
 40
0.5
  1
9.728
100
AcDbAttributeDefinition
  3

  2
NDR
 70
     8
280
     0
  0
ATTDEF
  5
A1
330
95
100
AcDbEntity
  8
AM_6
100
AcDbText
 10
-49.88257838491245
 20
1.556250000000135
 30
0.0
 40
0.5
  1
8.560
100
AcDbAttributeDefinition
  3

  2
KDR
 70
     8
280
     0
  0
ATTDEF
  5
A2
330
95
100
AcDbEntity
  8
AM_6
100
AcDbText
 10
-49.88257838491245
 20
1.056250000000135
 30
0.0
 40
0.5
  1
4.0005
100
AcDbAttributeDefinition
  3

  2
BZE
 70
     8
280
     0
  0
ATTDEF
  5
A3
330
95
100
AcDbEntity
  8
AM_6
100
AcDbText
 10
-49.88257838491245
 20
0.5562500000001354
 30
0.0
 40
0.5
  1
11.1125
100
AcDbAttributeDefinition
  3

  2
HEX
 70
     8
280
     0
  0
ATTDEF
  5
A4
330
95
100
AcDbEntity
  8
AM_6
100
AcDbText
 10
-49.88257838491245
 20
0.0562500000001354
 30
0.0
 40
0.5
  1
7.143750
100
AcDbAttributeDefinition
  3

  2
HEX2
 70
     8
280
     0
  0
ATTDEF
  5
A5
330
95
100
AcDbEntity
  8
AM_6
100
AcDbText
 10
-49.88257838491245
 20
-0.4437499999998646
 30
0.0
 40
0.5
  1
baldor
100
AcDbAttributeDefinition
  3

  2
COMPANY
 70
     8
280
     0
  0
LINE
  5
A8
330
95
100
AcDbEntity
  8
AM_9
100
AcDbLine
 10
-72.5900558943082
 20
-3.837282897828232
 30
0.0
 11
-72.87762385419468
 21
-4.549376881905937
 31
0.0
  0
LINE
  5
A9
330
95
100
AcDbEntity
  8
AM_9
100
AcDbLine
 10
-68.75021480493037
 20
-5.333905179049322
 30
0.0
 11
-69.0470708589068
 21
-6.068998929608748
 31
0.0
  0
LWPOLYLINE
  5
AA
330
95
100
AcDbEntity
  8
AM_9
100
AcDbPolyline
 90
        3
 70
     0
 43
0.0
 10
-62.258472142002
 20
-0.0000000000000032
 10
-62.80400498330961
 20
-1.382816900963402
 10
-63.25990815118907
 20
-2.778125000000002
  0
LWPOLYLINE
  5
AB
330
95
100
AcDbEntity
  8
AM_9
100
AcDbPolyline
 90
        3
 70
     0
 43
0.0
 10
-63.25990815118907
 20
2.778124999999997
 10
-62.80627304159741
 20
1.389062499999996
 10
-62.258472142002
 20
-0.0000000000000032
  0
LWPOLYLINE
  5
AC
330
95
100
AcDbEntity
  8
AM_9
100
AcDbPolyline
 90
        3
 70
     0
 43
0.0
 10
-67.27877125500927
 20
-7.588696252319891
 10
-67.68230828291193
 20
-7.397029361446426
 10
-68.0686423260415
 20
-7.14735426092354
  0
LWPOLYLINE
  5
AD
330
95
100
AcDbEntity
  8
AM_9
100
AcDbPolyline
 90
        3
 70
     0
 43
0.0
 10
-61.06020362557659
 20
-2.778125000000003
 10
-60.71186312687203
 20
-1.389062500000003
 10
-60.45768841817123
 20
-0.0000000000000035
  0
LWPOLYLINE
  5
AE
330
95
100
AcDbEntity
  8
AM_9
100
AcDbPolyline
 90
        3
 70
     0
 43
0.0
 10
-60.45768841817123
 20
-0.0000000000000035
 10
-60.71052528687481
 20
1.382816900963397
 10
-61.06020362557659
 20
2.778124999999997
  0
LWPOLYLINE
  5
AF
330
95
100
AcDbEntity
  8
AM_9
100
AcDbPolyline
 90
        3
 70
     0
 43
0.0
 10
-67.60382467456273
 20
-5.996343371387008
 10
-67.37103401551818
 20
-6.253713524124906
 10
-66.97255776251043
 20
-6.830431020205952
  0
LWPOLYLINE
  5
B0
330
95
100
AcDbEntity
  8
AM_9
100
AcDbPolyline
 90
        3
 70
     0
 43
0.0
 10
-63.86242335859443
 20
5.556249999999998
 10
-63.60958648989086
 20
4.173433099036598
 10
-63.25990815118907
 20
2.778124999999997
  0
LINE
  5
B1
330
95
100
AcDbEntity
  8
AM_9
100
AcDbLine
 10
-62.258472142002
 20
-0.0000000000000032
 30
0.0
 11
-60.45768841817123
 21
-0.0000000000000035
 31
0.0
  0
LWPOLYLINE
  5
B2
330
95
100
AcDbEntity
  8
AM_9
100
AcDbPolyline
 90
        3
 70
     0
 43
0.0
 10
-63.25990815118907
 20
-2.778125000000002
 10
-63.60824864989363
 20
-4.167187500000002
 10
-63.86242335859443
 20
-5.556250000000004
  0
LWPOLYLINE
  5
B3
330
95
100
AcDbEntity
  8
AM_9
100
AcDbPolyline
 90
        3
 70
     0
 43
0.0
 10
-66.97255776251043
 20
-6.830431020205952
 10
-67.30265331389056
 20
-6.691143549353729
 10
-67.66368637679227
 20
-6.609853898455523
  0
LWPOLYLINE
  5
B4
330
95
100
AcDbEntity
  8
AM_9
100
AcDbPolyline
 90
        3
 70
     0
 43
0.0
 10
-68.12850402827102
 20
-7.760864787992071
 10
-67.71240238094899
 20
-7.698114323064441
 10
-67.27877125500927
 20
-7.588696252319891
  0
LINE
  5
B5
330
95
100
AcDbEntity
  8
AM_9
100
AcDbLine
 10
-66.97255776251043
 20
-6.830431020205952
 30
0.0
 11
-67.27877125500927
 21
-7.588696252319891
 31
0.0
  0
ELLIPSE
  5
B6
330
95
100
AcDbEntity
  8
AM_9
100
AcDbEllipse
 10
-73.43272498337619
 20
-11.90625000000001
 30
0.0
 11
-2.437227270755868
 21
0.9842359150649229
 31
0.0
210
0.0
220
0.0
230
1.0
 40
0.21130913087036
 41
3.040609649696548
 42
6.384168311072807
  0
LINE
  5
B7
330
95
100
AcDbEntity
  8
AM_9
100
AcDbLine
 10
-70.60701369005366
 20
-12.55229933363492
 30
0.0
 11
-69.4893421630555
 21
-11.53205948275794
 31
0.0
  0
ELLIPSE
  5
B8
330
95
100
AcDbEntity
  8
AM_9
100
AcDbEllipse
 10
-72.72168596356012
 20
-10.14553017344
 30
0.0
 11
-3.27723232775051
 21
1.32345875072353
 31
0.0
210
0.0
220
0.0
230
1.0
 40
0.2113091308703531
 41
2.248381457729431
 42
5.801105639492169
  0
LWPOLYLINE
  5
B9
330
95
100
AcDbEntity
  8
AM_9
100
AcDbPolyline
 90
        9
 70
     0
 43
0.0
 10
-69.49616319786672
 20
-11.53821563520942
 10
-69.40678927756042
 20
-11.44447396197325
 10
-69.31692600178121
 20
-11.30522748890864
 10
-69.25563975556925
 20
-11.13649891088127
 10
-69.23499819456418
 20
-10.96965928920084
 10
-69.24787912363409
 20
-10.81231295413462
 10
-69.28760627800739
 20
-10.66560733859388
 10
-69.35070074822876
 20
-10.52661721483452
 10
-69.35813198783346
 20
-10.51322026665037
  0
ELLIPSE
  5
BA
330
95
100
AcDbEntity
  8
AM_9
100
AcDbEllipse
 10
-72.45054142141116
 20
-9.47410489590121
 30
0.0
 11
-3.13698791347899
 21
1.266823248951245
 31
0.0
210
0.0
220
0.0
230
1.0
 40
0.2113091308703816
 41
2.096514423632736
 42
6.027483744972691
  0
LWPOLYLINE
  5
BB
330
95
100
AcDbEntity
  8
AM_9
100
AcDbPolyline
 90
        3
 70
     0
 43
0.0
 10
-69.34099424777098
 20
-7.58869625231989
 10
-68.99724930406107
 20
-7.697739397127514
 10
-68.65284347458646
 20
-7.758592464327529
  0
LINE
  5
BC
330
95
100
AcDbEntity
  8
AM_9
100
AcDbLine
 10
-68.65854998873996
 20
-7.757990703186897
 30
0.0
 11
-68.63031658708405
 21
-7.760864787992071
 31
0.0
  0
ELLIPSE
  5
BD
330
95
100
AcDbEntity
  8
AM_9
100
AcDbEllipse
 10
-71.15511849113032
 20
-6.266296641270923
 30
0.0
 11
-3.312005593887037
 21
1.337501387545445
 31
0.0
210
0.0
220
0.0
230
1.0
 40
0.2113091308703544
 41
1.711945269609629
 42
2.518556725320409
  0
LWPOLYLINE
  5
BE
330
95
100
AcDbEntity
  8
AM_9
100
AcDbPolyline
 90
        5
 70
     0
 43
0.0
 10
-72.87762385419468
 20
-4.549376881905937
 10
-73.43292852205977
 20
-4.680053692952523
 10
-73.96368913008159
 20
-4.73004052558698
 10
-74.4695966667763
 20
-4.684077415975233
 10
-74.93984684695637
 20
-4.549376881905937
  0
LWPOLYLINE
  5
BF
330
95
100
AcDbEntity
  8
AM_9
100
AcDbPolyline
 90
        5
 70
     0
 43
0.0
 10
-69.0470708589068
 20
-6.068998929608748
 10
-70.0336395915675
 20
-5.830160733401208
 10
-71.00226977805025
 20
-5.503852774457659
 10
-71.9577871548243
 20
-5.070861224918888
 10
-72.87762385419468
 20
-4.549376881905937
  0
LWPOLYLINE
  5
C0
330
95
100
AcDbEntity
  8
AM_9
100
AcDbPolyline
 90
        3
 70
     0
 43
0.0
 10
-68.37398919265937
 20
-6.887292896806423
 10
-68.72286270787953
 20
-6.50701144007841
 10
-69.0470708589068
 20
-6.068998929608748
  0
ELLIPSE
  5
C1
330
95
100
AcDbEntity
  8
AM_9
100
AcDbEllipse
 10
-71.15511849112927
 20
-6.266296641271458
 30
0.0
 11
-3.312005593888159
 21
1.337501387546111
 31
0.0
210
0.0
220
0.0
230
1.0
 40
0.211309130870324
 41
3.806340372003351
 42
6.919181903097212
  0
LWPOLYLINE
  5
C2
330
95
100
AcDbEntity
  8
AM_9
100
AcDbPolyline
 90
        3
 70
     0
 43
0.0
 10
-68.16549893560527
 20
-6.609853898455277
 10
-68.40041427511818
 20
-6.646959991776584
 10
-69.03478075527212
 20
-6.830431020205952
  0
LINE
  5
C3
330
95
100
AcDbEntity
  8
AM_9
100
AcDbLine
 10
-61.86505587739386
 20
5.081049061129095
 30
0.0
 11
-62.06163963476365
 21
5.556249999999998
 31
0.0
  0
LWPOLYLINE
  5
C4
330
95
100
AcDbEntity
  8
AM_9
100
AcDbPolyline
 90
        3
 70
     0
 43
0.0
 10
-61.06020362557659
 20
2.778124999999997
 10
-61.51383873516825
 20
4.167187499999997
 10
-61.86505587739386
 20
5.081049061129095
  0
LWPOLYLINE
  5
C5
330
95
100
AcDbEntity
  8
AM_9
100
AcDbPolyline
 90
        3
 70
     0
 43
0.0
 10
-61.86505277651194
 20
-5.081041392296856
 10
-61.51610679345605
 20
-4.173433099036603
 10
-61.06020362557659
 20
-2.778125000000003
  0
LINE
  5
C6
330
95
100
AcDbEntity
  8
AM_9
100
AcDbLine
 10
-62.06163963476365
 20
-5.556250000000004
 30
0.0
 11
-61.86505277651194
 21
-5.081041392296856
 31
0.0
  0
LINE
  5
C7
330
95
100
AcDbEntity
  8
AM_9
100
AcDbLine
 10
-72.87287983594621
 20
-3.058387021916507
 30
0.0
 11
-72.90045013868489
 21
-3.126658350638854
 31
0.0
  0
LINE
  5
C8
330
95
100
AcDbEntity
  8
AM_9
100
AcDbLine
 10
-68.09957646398883
 20
-6.161509059325488
 30
0.0
 11
-67.59504665857351
 21
-4.912160420603782
 31
0.0
  0
ELLIPSE
  5
C9
330
95
100
AcDbEntity
  8
AM_9
100
AcDbEllipse
 10
-70.69030083965178
 20
-5.115285751734232
 30
0.0
 11
-2.590724375662531
 21
1.04622330759097
 31
0.0
210
0.0
220
0.0
230
1.0
 40
0.211309130870341
 41
1.419233086591261
 42
6.283185307179586
  0
LWPOLYLINE
  5
CA
330
95
100
AcDbEntity
  8
AM_9
100
AcDbPolyline
 90
        4
 70
     0
 43
0.0
 10
-72.8729999691837
 20
-3.058684545841785
 10
-72.87653478519074
 20
-3.069253891791883
 10
-72.86186415267973
 20
-3.162573084305298
 10
-72.81340288523144
 20
-3.235034452098665
  0
LWPOLYLINE
  5
CB
330
95
100
AcDbEntity
  8
AM_9
100
AcDbPolyline
 90
        5
 70
     0
 43
0.0
 10
-67.59502267585572
 20
-4.91210102493407
 10
-67.59739341358694
 20
-4.917691338485697
 10
-67.67906805218396
 20
-5.008516140987743
 10
-67.83193447855062
 20
-5.065126856945113
 10
-68.00627933129388
 20
-5.079999999236803
  0
LWPOLYLINE
  5
CC
330
95
100
AcDbEntity
  8
AM_9
100
AcDbPolyline
 90
        3
 70
     0
 43
0.0
 10
-70.37602646408983
 20
-4.434184386909873
 10
-69.68034394960468
 20
-4.766969289547204
 10
-68.75021480493037
 20
-5.333905179049322
  0
LWPOLYLINE
  5
CD
330
95
100
AcDbEntity
  8
AM_9
100
AcDbPolyline
 90
        3
 70
     0
 43
0.0
 10
-72.5900558943082
 20
-3.837282897828232
 10
-71.8482588638203
 20
-3.973124856539689
 10
-71.12002819068601
 20
-4.163853732670685
  0
LWPOLYLINE
  5
CE
330
95
100
AcDbEntity
  8
AM_9
100
AcDbPolyline
 90
        3
 70
     0
 43
0.0
 10
-68.75021480493037
 20
-5.333905179049322
 10
-68.31908327365889
 20
-5.495237602967161
 10
-67.90917154118065
 20
-5.736282007269851
  0
LWPOLYLINE
  5
CF
330
95
100
AcDbEntity
  8
AM_9
100
AcDbPolyline
 90
        4
 70
     0
 43
0.0
 10
-73.52759225505837
 20
-3.605746149316371
 10
-73.42916422112873
 20
-3.608061141866097
 10
-73.06114577721407
 20
-3.660719790057628
 10
-72.5900558943082
 20
-3.837282897828232
  0
ELLIPSE
  5
D0
330
95
100
AcDbEntity
  8
AM_9
100
AcDbEllipse
 10
-70.69030083970853
 20
-5.115285750804077
 30
0.0
 11
-3.312005594081995
 21
1.337501388428754
 31
0.0
210
0.0
220
0.0
230
1.0
 40
0.2113091307126806
 41
3.806340372047638
 42
4.687484374497557
  0
ELLIPSE
  5
D1
330
95
100
AcDbEntity
  8
AM_9
100
AcDbEllipse
 10
-70.69030083965166
 20
-5.115285751734335
 30
0.0
 11
-3.312005593886895
 21
1.337501387545379
 31
0.0
210
0.0
220
0.0
230
1.0
 40
0.2113091308703501
 41
-1.285171196135124
 42
-0.6725714813802783
  0
LINE
  5
D2
330
95
100
AcDbEntity
  8
AM_9
100
AcDbLine
 10
-68.0686423260415
 20
-7.14735426092354
 30
0.0
 11
-68.37398919265937
 21
-6.887292896806423
 31
0.0
  0
ELLIPSE
  5
D3
330
95
100
AcDbEntity
  8
AM_9
100
AcDbEllipse
 10
-71.15511849113042
 20
-6.266296641270837
 30
0.0
 11
-3.312005593887123
 21
1.337501387545528
 31
0.0
210
0.0
220
0.0
230
1.0
 40
0.2113091308703488
 41
2.800469246484364
 42
3.607080702195116
  0
LWPOLYLINE
  5
D4
330
95
100
AcDbEntity
  8
AM_9
100
AcDbPolyline
 90
        3
 70
     0
 43
0.0
 10
-68.63031658708405
 20
-7.760864787992071
 10
-68.39028153537181
 20
-7.784509761460652
 10
-68.12850402827102
 20
-7.760864787992071
  0
LWPOLYLINE
  5
D5
330
95
100
AcDbEntity
  8
AM_9
100
AcDbPolyline
 90
       18
 70
     0
 43
0.0
 10
-69.34539007225882
 20
-10.53634089425236
 10
-69.3671171200252
 20
-10.49251965557559
 10
-69.43064828508226
 20
-10.34049146143097
 10
-69.48785328355295
 20
-10.15124219512921
 10
-69.52854307521238
 20
-9.928500537255019
 10
-69.54322974842204
 20
-9.681076754648789
 10
-69.52547859826177
 20
-9.42003718598821
 10
-69.46424481548455
 20
-9.126764655913368
 10
-69.36282715070135
 20
-8.849644582525245
 10
-69.22825154362481
 20
-8.598556249516479
 10
-69.06841600926141
 20
-8.378500116434449
 10
-68.89193514656867
 20
-8.192400869321418
 10
-68.70862080787658
 20
-8.041891224016897
 10
-68.5295750780426
 20
-7.927008345580614
 10
-68.36589571989495
 20
-7.845360995431688
 10
-68.22614786611602
 20
-7.791876687866256
 10
-68.11496905624514
 20
-7.759994358009973
 10
-68.08029457369457
 20
-7.752115225963587
  0
ELLIPSE
  5
D6
330
95
100
AcDbEntity
  8
AM_9
100
AcDbEllipse
 10
-70.69030083964968
 20
-5.115285751731425
 30
0.0
 11
-3.312005593893957
 21
1.337501387548062
 31
0.0
210
0.0
220
0.0
230
1.0
 40
0.2113091308708787
 41
1.471458610301493
 42
1.51268559980186
  0
ELLIPSE
  5
D7
330
95
100
AcDbEntity
  8
AM_9
100
AcDbEllipse
 10
-70.69030083965158
 20
-5.115285751734374
 30
0.0
 11
-3.312005593887207
 21
1.3375013875451
 31
0.0
210
0.0
220
0.0
230
1.0
 40
0.2113091308703631
 41
1.71194526960962
 42
2.518556725320337
  0
LINE
  5
D8
330
95
100
AcDbEntity
  8
AM_9
100
AcDbLine
 10
-67.66368637679227
 20
-6.609853898455523
 30
0.0
 11
-68.16549893560527
 21
-6.609853898455277
 31
0.0
  0
ELLIPSE
  5
D9
330
95
100
AcDbEntity
  8
AM_9
100
AcDbEllipse
 10
-70.69030083965161
 20
-5.115285751734376
 30
0.0
 11
-3.312005593887065
 21
1.337501387545453
 31
0.0
210
0.0
220
0.0
230
1.0
 40
0.2113091308703527
 41
2.80046924648438
 42
3.607080702195122
  0
LINE
  5
DA
330
95
100
AcDbEntity
  8
AM_9
100
AcDbLine
 10
-67.90917154118065
 20
-5.736282007269851
 30
0.0
 11
-67.60382467456273
 21
-5.996343371387008
 31
0.0
  0
LWPOLYLINE
  5
DB
330
95
100
AcDbEntity
  8
AM_9
100
AcDbPolyline
 90
        3
 70
     0
 43
0.0
 10
-69.03478075527212
 20
-6.830431020205952
 10
-69.74756317448076
 20
-6.382400080731244
 10
-70.5041810373656
 20
-5.996343371387014
  0
LINE
  5
DC
330
95
100
AcDbEntity
  8
AM_9
100
AcDbLine
 10
-70.5041810373656
 20
-5.996343371387014
 30
0.0
 11
-71.16480478662561
 21
-5.73628200726986
 31
0.0
  0
LINE
  5
DD
330
95
100
AcDbEntity
  8
AM_9
100
AcDbLine
 10
-71.16480478662561
 20
-5.73628200726986
 30
0.0
 11
-71.29874301855695
 21
-5.691767855940708
 31
0.0
  0
LINE
  5
DE
330
95
100
AcDbEntity
  8
AM_9
100
AcDbLine
 10
-71.30472797284907
 20
-7.028754572505329
 30
0.0
 11
-70.9689986888444
 21
-7.147354260923541
 31
0.0
  0
LWPOLYLINE
  5
DF
330
95
100
AcDbEntity
  8
AM_9
100
AcDbPolyline
 90
        3
 70
     0
 43
0.0
 10
-70.9689986888444
 20
-7.147354260923541
 10
-70.16507469715216
 20
-7.39591091997546
 10
-69.34099424777098
 20
-7.588696252319891
  0
LINE
  5
E0
330
95
100
AcDbEntity
  8
AM_9
100
AcDbLine
 10
-69.03478075527212
 20
-6.830431020205952
 30
0.0
 11
-69.34099424777098
 21
-7.588696252319891
 31
0.0
  0
LWPOLYLINE
  5
E1
330
95
100
AcDbEntity
  8
AM_9
100
AcDbPolyline
 90
       17
 70
     0
 43
0.0
 10
-67.76459585339845
 20
-4.547549295794519
 10
-67.96696946633374
 20
-4.404185730898369
 10
-68.24017373156195
 20
-4.24365364181598
 10
-68.56130724023201
 20
-4.079360450144662
 10
-68.93952398813639
 20
-3.906600444275935
 10
-69.34343165903114
 20
-3.73973362729044
 10
-69.7844002925028
 20
-3.574110867010545
 10
-70.22522941161102
 20
-3.423743718108896
 10
-70.67881528585194
 20
-3.284291520882656
 10
-71.10629122795383
 20
-3.167739146394208
 10
-71.52073652303174
 20
-3.070557447853724
 10
-71.88647241487152
 20
-3.001126812430813
 10
-72.2149541776615
 20
-2.957268343506165
 10
-72.4780912729179
 20
-2.942714645652546
 10
-72.684089713262
 20
-2.956956816676946
 10
-72.81557639950937
 20
-2.998748603033094
 10
-72.8729999691837
 20
-3.058684545841785
  0
ARC
  5
E2
330
95
100
AcDbEntity
  8
AM_9
100
AcDbCircle
 10
-68.89665099807098
 20
-0.0000000000002327
 30
0.0
 40
5.080000000000229
100
AcDbArc
 50
90.0
 51
118.2357259701552
  0
LWPOLYLINE
  5
E3
330
95
100
AcDbEntity
  8
AM_9
100
AcDbPolyline
 90
        4
 70
     0
 43
0.0
 10
-71.30193629326763
 20
-4.092885083516806
 10
-70.93402693644389
 20
-4.237973131810883
 10
-70.4920837981324
 20
-4.397035613753721
 10
-70.02870614274318
 20
-4.547549295795373
  0
ELLIPSE
  5
E4
330
95
100
AcDbEntity
  8
AM_9
100
AcDbEllipse
 10
-68.89665099807101
 20
-0.000000000000024
 30
0.0
 11
3.110602869834290E-16
 21
5.080000000000021
 31
0.0
210
0.0
220
0.0
230
1.0
 40
0.4999999999999963
 41
0.0
 42
1.241284421322661
  0
ELLIPSE
  5
E5
330
95
100
AcDbEntity
  8
AM_9
100
AcDbEllipse
 10
-68.896650998071
 20
-0.0000000000000364
 30
0.0
 11
3.110602869834242E-16
 21
5.079999999999943
 31
0.0
210
0.0
220
0.0
230
1.0
 40
0.5000000000000124
 41
1.900308232267128
 42
2.679646633022824
  0
LWPOLYLINE
  5
E6
330
95
100
AcDbEntity
  8
AM_9
100
AcDbPolyline
 90
        4
 70
     0
 43
0.0
 10
-67.76459585339845
 20
-4.547549295794528
 10
-67.63874747740792
 20
-4.680277139818006
 10
-67.58520721195265
 20
-4.804994146739737
 10
-67.59502267585572
 20
-4.91210102493407
  0
LINE
  5
E7
330
95
100
AcDbEntity
  8
AM_9
100
AcDbLine
 10
-65.6658349760777
 20
5.079999999999997
 30
0.0
 11
-68.89665099807104
 21
5.079999999999997
 31
0.0
  0
LINE
  5
E8
330
95
100
AcDbEntity
  8
AM_9
100
AcDbLine
 10
-68.01003305065734
 20
-5.080000000000002
 30
0.0
 11
-65.6658349760777
 21
-5.080000000000002
 31
0.0
  0
LWPOLYLINE
  5
E9
330
95
100
AcDbEntity
  8
AM_9
100
AcDbPolyline
 90
        8
 70
     0
 43
0.0
 10
-68.00627933129388
 20
-5.079999999236803
 10
-68.0440521091722
 20
-5.079458245572025
 10
-68.32024156128162
 20
-5.050335633392995
 10
-68.63515893281676
 20
-4.98258955216002
 10
-69.00151406411297
 20
-4.878563523460395
 10
-69.39554375257772
 20
-4.75220799763814
 10
-69.8297162087668
 20
-4.610115106939385
 10
-70.02870614274362
 20
-4.547549295794529
  0
LINE
  5
EA
330
95
100
AcDbEntity
  8
AM_9
100
AcDbLine
 10
-61.74761128983049
 20
5.079999999999997
 30
0.0
 11
-63.46613045046523
 21
5.079999999999997
 31
0.0
  0
LINE
  5
EB
330
95
100
AcDbEntity
  8
AM_9
100
AcDbLine
 10
-63.46613045046523
 20
-5.080000000000002
 30
0.0
 11
-61.74761128983049
 21
-5.080000000000002
 31
0.0
  0
LWPOLYLINE
  5
EC
330
95
100
AcDbEntity
  8
AM_9
100
AcDbPolyline
 90
        3
 70
     0
 43
0.0
 10
-68.07176180096636
 20
-2.778125000000001
 10
-68.42010229967092
 20
-1.389062500000001
 10
-68.67427700837172
 20
-0.0000000000000011
  0
LWPOLYLINE
  5
ED
330
95
100
AcDbEntity
  8
AM_9
100
AcDbPolyline
 90
        3
 70
     0
 43
0.0
 10
-67.07032579177928
 20
-5.556250000000003
 10
-67.61585863308689
 20
-4.173433099036603
 10
-68.07176180096636
 20
-2.778125000000001
  0
LINE
  5
EE
330
95
100
AcDbEntity
  8
AM_9
100
AcDbLine
 10
-67.07032579177928
 20
-5.556250000000003
 30
0.0
 11
-62.06163963476365
 21
-5.556250000000004
 31
0.0
  0
LWPOLYLINE
  5
EF
330
95
100
AcDbEntity
  8
AM_9
100
AcDbPolyline
 90
        3
 70
     0
 43
0.0
 10
-65.87205727535388
 20
-2.778125000000002
 10
-65.52371677664931
 20
-4.167187500000002
 10
-65.2695420679485
 20
-5.556250000000003
  0
LINE
  5
F0
330
95
100
AcDbEntity
  8
AM_9
100
AcDbLine
 10
-67.07032579177928
 20
5.556249999999999
 30
0.0
 11
-62.06163963476365
 21
5.556249999999998
 31
0.0
  0
LWPOLYLINE
  5
F1
330
95
100
AcDbEntity
  8
AM_9
100
AcDbPolyline
 90
        3
 70
     0
 43
0.0
 10
-68.07176180096636
 20
2.778124999999998
 10
-67.6181266913747
 20
4.167187499999997
 10
-67.07032579177928
 20
5.556249999999999
  0
LWPOLYLINE
  5
F2
330
95
100
AcDbEntity
  8
AM_9
100
AcDbPolyline
 90
        3
 70
     0
 43
0.0
 10
-68.67427700837172
 20
-0.0000000000000011
 10
-68.42144013966814
 20
1.382816900963397
 10
-68.07176180096636
 20
2.778124999999998
  0
LINE
  5
F3
330
95
100
AcDbEntity
  8
AM_9
100
AcDbLine
 10
-68.67427700837172
 20
-0.0000000000000011
 30
0.0
 11
-66.87349328454094
 21
-0.000000000000001
 31
0.0
  0
LWPOLYLINE
  5
F4
330
95
100
AcDbEntity
  8
AM_9
100
AcDbPolyline
 90
        3
 70
     0
 43
0.0
 10
-65.26954206794852
 20
5.556249999999999
 10
-65.52237893665207
 20
4.173433099036598
 10
-65.87205727535388
 20
2.778124999999998
  0
LWPOLYLINE
  5
F5
330
95
100
AcDbEntity
  8
AM_9
100
AcDbPolyline
 90
        3
 70
     0
 43
0.0
 10
-65.87205727535388
 20
2.778124999999998
 10
-66.32569238494553
 20
1.389062499999998
 10
-66.87349328454094
 20
-0.000000000000001
  0
LWPOLYLINE
  5
F6
330
95
100
AcDbEntity
  8
AM_9
100
AcDbPolyline
 90
        3
 70
     0
 43
0.0
 10
-66.87349328454094
 20
-0.000000000000001
 10
-66.32796044323334
 20
-1.382816900963401
 10
-65.87205727535388
 20
-2.778125000000002
  0
LINE
  5
F7
330
95
100
AcDbEntity
  8
AM_9
100
AcDbLine
 10
-57.41560008471976
 20
4.708725846697614
 30
0.0
 11
-61.70368113842405
 21
4.863491570615294
 31
0.0
  0
LINE
  5
F8
330
95
100
AcDbEntity
  8
AM_9
100
AcDbLine
 10
-61.70368113842405
 20
-4.863491570615301
 30
0.0
 11
-57.41560008471976
 21
-4.708725846697619
 31
0.0
  0
LINE
  5
F9
330
95
100
AcDbEntity
  8
AM_9
100
AcDbLine
 10
-55.75035404440314
 20
3.352827683708302
 30
0.0
 11
-56.09857361842472
 21
3.845284527973389
 31
0.0
  0
LINE
  5
FA
330
95
100
AcDbEntity
  8
AM_9
100
AcDbLine
 10
-56.09857361842472
 20
-3.845284527973393
 30
0.0
 11
-55.75035404440314
 21
-3.352827683708306
 31
0.0
  0
ELLIPSE
  5
FB
330
95
100
AcDbEntity
  8
AM_9
100
AcDbEllipse
 10
-65.66583497607763
 20
-0.000000000000079
 30
0.0
 11
3.402221888881300E-16
 21
5.556250000000096
 31
0.0
210
0.0
220
0.0
230
1.0
 40
0.5000000000000033
 41
0.0
 42
6.283185307179586
  0
ELLIPSE
  5
FC
330
95
100
AcDbEntity
  8
AM_9
100
AcDbEllipse
 10
-65.66583497607773
 20
0.0000000000000027
 30
0.0
 11
3.110602869834288E-16
 21
5.080000000000018
 31
0.0
210
0.0
220
0.0
230
1.0
 40
0.4999999999999995
 41
0.0
 42
6.283185307179586
  0
ELLIPSE
  5
FD
330
95
100
AcDbEntity
  8
AM_9
100
AcDbEllipse
 10
-63.46613045046526
 20
0.0000000000000622
 30
0.0
 11
3.402221888881285E-16
 21
5.556250000000073
 31
0.0
210
0.0
220
0.0
230
1.0
 40
0.4999999999999952
 41
0.0
 42
6.283185307179586
  0
ELLIPSE
  5
FE
330
95
100
AcDbEntity
  8
AM_9
100
AcDbEllipse
 10
-63.46613045046522
 20
0.0
 30
0.0
 11
3.110602869834279E-16
 21
5.080000000000004
 31
0.0
210
0.0
220
0.0
230
1.0
 40
0.4999999999999981
 41
0.0
 42
6.283185307179586
  0
ELLIPSE
  5
FF
330
95
100
AcDbEntity
  8
AM_9
100
AcDbEllipse
 10
-61.74761128983049
 20
0.0000000000000104
 30
0.0
 11
3.110602869834259E-16
 21
5.07999999999997
 31
0.0
210
0.0
220
0.0
230
1.0
 40
0.5000000000000028
 41
0.0
 42
6.283185307179586
  0
ELLIPSE
  5
100
330
95
100
AcDbEntity
  8
AM_9
100
AcDbEllipse
 10
-61.74761128991302
 20
-0.0000000000114762
 30
0.0
 11
2.978515598213542E-16
 21
4.864285115165125
 31
0.0
210
0.0
220
0.0
230
1.0
 40
0.5000000000000941
 41
0.0
 42
6.283185307179586
  0
ELLIPSE
  5
101
330
95
100
AcDbEntity
  8
AM_9
100
AcDbEllipse
 10
-57.45808700108557
 20
0.0000000000000018
 30
0.0
 11
2.883732460730474E-16
 21
4.709492504676843
 31
0.0
210
0.0
220
0.0
230
1.0
 40
0.5000000000000018
 41
0.0
 42
6.283185307179586
  0
ELLIPSE
  5
102
330
95
100
AcDbEntity
  8
AM_9
100
AcDbEllipse
 10
-56.93575764005314
 20
0.000000000000006
 30
0.0
 11
2.514419402883848E-16
 21
4.10635851028147
 31
0.0
210
0.0
220
0.0
230
1.0
 40
0.4999999999999893
 41
0.0
 42
6.283185307179586
  0
LINE
  5
104
330
95
100
AcDbEntity
  8
AM_4
100
AcDbLine
 10
-71.028880619844
 20
-12.93739051932093
 30
0.0
 11
-70.60701369005366
 21
-12.55229933363492
 31
0.0
  0
LINE
  5
105
330
95
100
AcDbEntity
  8
AM_4
100
AcDbLine
 10
-76.01041541247231
 20
-8.898626575676335
 30
0.0
 11
-75.87850248628776
 21
-10.9789469745965
 31
0.0
  0
ELLIPSE
  5
106
330
95
100
AcDbEntity
  8
AM_4
100
AcDbEllipse
 10
-73.43272498337619
 20
-11.90625000000001
 30
0.0
 11
-2.437227270755884
 21
0.9842359150649357
 31
0.0
210
0.0
220
0.0
230
1.0
 40
0.2113091308703337
 41
0.100983003893246
 42
3.040609649696543
  0
LINE
  5
107
330
95
100
AcDbEntity
  8
AM_4
100
AcDbLine
 10
-74.6522788870699
 20
-3.837282897828232
 30
0.0
 11
-74.93984684695637
 21
-4.549376881905937
 31
0.0
  0
LWPOLYLINE
  5
108
330
95
100
AcDbEntity
  8
AM_4
100
AcDbPolyline
 90
        9
 70
     0
 43
0.0
 10
-75.403308307417
 20
-8.076188699049323
 10
-75.4526821920722
 20
-8.092509325379616
 10
-75.59989646121346
 20
-8.159162886201063
 10
-75.73212021357992
 20
-8.250264494966864
 10
-75.84580955291675
 20
-8.367242150394572
 10
-75.93408795865861
 20
-8.50764282033437
 10
-75.99322037238737
 20
-8.676518734068875
 10
-76.01202058769094
 20
-8.842979228331837
 10
-76.00934234050285
 20
-8.913415245481433
  0
ELLIPSE
  5
109
330
95
100
AcDbEntity
  8
AM_4
100
AcDbEllipse
 10
-72.72168596356009
 20
-10.14553017343999
 30
0.0
 11
-3.27723232775051
 21
1.323458750723535
 31
0.0
210
0.0
220
0.0
230
1.0
 40
0.2113091308703487
 41
0.1055008662400487
 42
2.24838145772941
  0
LWPOLYLINE
  5
10A
330
95
100
AcDbEntity
  8
AM_4
100
AcDbPolyline
 90
        4
 70
     0
 43
0.0
 10
-74.93984684695637
 20
-4.549376881905935
 10
-74.56196804866225
 20
-5.050422008373631
 10
-74.1446645336983
 20
-5.477080537076166
 10
-74.0050402609702
 20
-5.592268783583251
  0
LINE
  5
10B
330
95
100
AcDbEntity
  8
AM_4
100
AcDbLine
 10
-74.0075331877317
 20
-5.590323799250988
 30
0.0
 11
-73.98743542638745
 21
-5.606004100241779
 31
0.0
  0
LWPOLYLINE
  5
10C
330
95
100
AcDbEntity
  8
AM_4
100
AcDbPolyline
 90
        3
 70
     0
 43
0.0
 10
-74.0050402609702
 20
-5.592268783583251
 10
-73.67635101236506
 20
-5.817773758536458
 10
-73.17151684443023
 20
-6.068998929608746
  0
LINE
  5
10D
330
95
100
AcDbEntity
  8
AM_4
100
AcDbLine
 10
-72.90045013868489
 20
-3.126658350638854
 30
0.0
 11
-73.28102521531432
 21
-4.069062444143283
 31
0.0
  0
ELLIPSE
  5
10E
330
95
100
AcDbEntity
  8
AM_4
100
AcDbEllipse
 10
-70.69030083965157
 20
-5.115285751734383
 30
0.0
 11
-2.590724375662745
 21
1.046223307591098
 31
0.0
210
0.0
220
0.0
230
1.0
 40
0.2113091308703521
 41
0.0
 42
1.419233086591154
  0
LWPOLYLINE
  5
10F
330
95
100
AcDbEntity
  8
AM_4
100
AcDbPolyline
 90
        4
 70
     0
 43
0.0
 10
-74.6522788870699
 20
-3.837282897828232
 10
-74.23023650058666
 20
-3.705296695971725
 10
-73.82244933914629
 20
-3.624930539193417
 10
-73.52759225505837
 20
-3.605746149316371
  0
LWPOLYLINE
  5
110
330
95
100
AcDbEntity
  8
AM_4
100
AcDbPolyline
 90
        6
 70
     0
 43
0.0
 10
-72.87466079045375
 20
-5.333905179049322
 10
-73.13651285392991
 20
-4.936675458173814
 10
-73.42464605551886
 20
-4.585948207644055
 10
-73.74758100976976
 20
-4.290054100087519
 10
-74.10053753498794
 20
-4.060772684155616
 10
-74.6522788870699
 20
-3.837282897828232
  0
LINE
  5
111
330
95
100
AcDbEntity
  8
AM_4
100
AcDbLine
 10
-73.4938139750705
 20
-3.605746148079323
 30
0.0
 11
-73.5303512819336
 21
-3.605746148079323
 31
0.0
  0
ELLIPSE
  5
112
330
95
100
AcDbEntity
  8
AM_4
100
AcDbEllipse
 10
-70.69030083965175
 20
-5.115285751734084
 30
0.0
 11
-3.312005593886751
 21
1.337501387545191
 31
0.0
210
0.0
220
0.0
230
1.0
 40
0.2113091308703149
 41
5.610613825799295
 42
7.754643917481177
  0
ELLIPSE
  5
113
330
95
100
AcDbEntity
  8
AM_4
100
AcDbEllipse
 10
-71.15511849113031
 20
-6.266296641270949
 30
0.0
 11
-3.312005593887079
 21
1.337501387545471
 31
0.0
210
0.0
220
0.0
230
1.0
 40
0.2113091308703424
 41
0.6359965959176987
 42
1.512685599801938
  0
LWPOLYLINE
  5
114
330
95
100
AcDbEntity
  8
AM_4
100
AcDbPolyline
 90
       18
 70
     0
 43
0.0
 10
-74.39461171024234
 20
-5.207439946624821
 10
-74.39049778324393
 20
-5.21366495282802
 10
-74.33413467601449
 20
-5.307723911384279
 10
-74.27118856426138
 20
-5.436249261681241
 10
-74.20883515780014
 20
-5.601777564320683
 10
-74.1563804214893
 20
-5.803822955234085
 10
-74.12409384237324
 20
-6.036671393637085
 10
-74.12054798506995
 20
-6.290288635075833
 10
-74.15087083508773
 20
-6.55358398678452
 10
-74.22553406908682
 20
-6.842721885486067
 10
-74.3383778756638
 20
-7.112197875834489
 10
-74.48195053722873
 20
-7.353788555722611
 10
-74.64810330723192
 20
-7.563215139935354
 10
-74.82791143329186
 20
-7.738026355653304
 10
-75.01110935961664
 20
-7.877025283411329
 10
-75.18637152591438
 20
-7.980862254133378
 10
-75.3431298293299
 20
-8.052825655540998
 10
-75.42565823615865
 20
-8.083226533918769
  0
ELLIPSE
  5
115
330
95
100
AcDbEntity
  8
AM_4
100
AcDbEllipse
 10
-72.45054142141305
 20
-9.474104895899881
 30
0.0
 11
-3.136987913476886
 21
1.266823248950025
 31
0.0
210
0.0
220
0.0
230
1.0
 40
0.2113091308703495
 41
6.041234882260905
 42
8.379699730812328
  0
ELLIPSE
  5
116
330
95
100
AcDbEntity
  8
AM_4
100
AcDbEllipse
 10
-72.45054142123585
 20
-9.474104896021297
 30
0.0
 11
-3.136987913664071
 21
1.266823249064085
 31
0.0
210
0.0
220
0.0
230
1.0
 40
0.2113091308728537
 41
-0.2557015622039822
 42
-0.2419504249166948
  0
LWPOLYLINE
  5
117
330
95
100
AcDbEntity
  8
AM_4
100
AcDbPolyline
 90
        3
 70
     0
 43
0.0
 10
-71.29874301855695
 20
-5.691767855940708
 10
-71.74875166780852
 20
-5.560509266840903
 10
-72.87466079045375
 20
-5.333905179049322
  0
LINE
  5
118
330
95
100
AcDbEntity
  8
AM_4
100
AcDbLine
 10
-72.87466079045375
 20
-5.333905179049322
 30
0.0
 11
-73.1715168444302
 21
-6.068998929608748
 31
0.0
  0
LWPOLYLINE
  5
119
330
95
100
AcDbEntity
  8
AM_4
100
AcDbPolyline
 90
        3
 70
     0
 43
0.0
 10
-73.1715168444302
 20
-6.068998929608748
 10
-72.41764938509162
 20
-6.504786871533987
 10
-71.62962243810432
 20
-6.887292896806423
  0
LINE
  5
11A
330
95
100
AcDbEntity
  8
AM_4
100
AcDbLine
 10
-71.62962243810432
 20
-6.887292896806423
 30
0.0
 11
-71.30472797284907
 21
-7.028754572505329
 31
0.0
  0
ARC
  5
11B
330
95
100
AcDbEntity
  8
AM_4
100
AcDbCircle
 10
-68.89665099807107
 20
0.0000000000000102
 30
0.0
 40
5.079999999999969
100
AcDbArc
 50
118.2357259701557
 51
219.6397561605653
  0
LWPOLYLINE
  5
11C
330
95
100
AcDbEntity
  8
AM_4
100
AcDbPolyline
 90
        8
 70
     0
 43
0.0
 10
-72.81340288523144
 20
-3.235034452098665
 10
-72.77114287592798
 20
-3.281280336792629
 10
-72.61169317532932
 20
-3.415613668153261
 10
-72.37909015913623
 20
-3.569173128090977
 10
-72.09216695442115
 20
-3.729407788863488
 10
-71.74314171544609
 20
-3.900563582124102
 10
-71.36057987606326
 20
-4.068570560479344
 10
-71.30193629326763
 20
-4.092885083516806
  0
ELLIPSE
  5
11D
330
95
100
AcDbEntity
  8
AM_4
100
AcDbEllipse
 10
-68.89665099807095
 20
-0.0000000000000019
 30
0.0
 11
3.110602869834290E-16
 21
5.080000000000021
 31
0.0
210
0.0
220
0.0
230
1.0
 40
0.500000000000016
 41
1.241284421322661
 42
1.900308232267133
  0
ENDBLK
  5
98
330
95
100
AcDbEntity
  8
0
100
AcDbBlockEnd
  0
BLOCK
  5
120
330
11E
100
AcDbEntity
  8
0
100
AcDbBlockBegin
  2
3_129525_0_in_136302_4
 70
     2
 10
0.0
 20
0.0
 30
0.0
  3
3_129525_0_in_136302_4
  1

  0
ATTDEF
  5
122
330
11E
100
AcDbEntity
  8
AM_6
100
AcDbText
 10
59.98751516310689
 20
18.45
 30
0.0
 40
0.5
  1
INS-GT-M B
100
AcDbAttributeDefinition
  3

  2
NN
 70
     8
280
     0
  0
ATTDEF
  5
123
330
11E
100
AcDbEntity
  8
AM_6
100
AcDbText
 10
59.98751516310689
 20
17.95
 30
0.0
 40
0.5
  1
GT Normal Duty Bearing Inserts
100
AcDbAttributeDefinition
  3

  2
NT
 70
     8
280
     0
  0
ATTDEF
  5
124
330
11E
100
AcDbEntity
  8
AM_6
100
AcDbText
 10
59.98751516310689
 20
17.45
 30
0.0
 40
0.5
  1
129525
100
AcDbAttributeDefinition
  3

  2
NB
 70
     8
280
     0
  0
ATTDEF
  5
125
330
11E
100
AcDbEntity
  8
AM_6
100
AcDbText
 10
59.98751516310689
 20
16.95
 30
0.0
 40
0.5
  1
$PN.
100
AcDbAttributeDefinition
  3

  2
NBSYN
 70
     8
280
     0
  0
ATTDEF
  5
126
330
11E
100
AcDbEntity
  8
AM_6
100
AcDbText
 10
59.98751516310689
 20
16.45
 30
0.0
 40
0.5
  1
129525
100
AcDbAttributeDefinition
  3

  2
LINA
 70
     8
280
     0
  0
ATTDEF
  5
127
330
11E
100
AcDbEntity
  8
AM_6
100
AcDbText
 10
59.98751516310689
 20
15.95
 30
0.0
 40
0.5
  1
212
100
AcDbAttributeDefinition
  3

  2
SERIES
 70
     8
280
     0
  0
ATTDEF
  5
128
330
11E
100
AcDbEntity
  8
AM_6
100
AcDbText
 10
59.98751516310689
 20
15.45
 30
0.0
 40
0.5
  1
129525
100
AcDbAttributeDefinition
  3

  2
PN
 70
     8
280
     0
  0
ATTDEF
  5
129
330
11E
100
AcDbEntity
  8
AM_6
100
AcDbText
 10
59.98751516310689
 20
14.95
 30
0.0
 40
0.5
  1
INS-GT-12
100
AcDbAttributeDefinition
  3

  2
DESCRIPTION
 70
     8
280
     0
  0
ATTDEF
  5
12A
330
11E
100
AcDbEntity
  8
AM_6
100
AcDbText
 10
59.98751516310689
 20
14.45
 30
0.0
 40
0.5
  1
53.8
100
AcDbAttributeDefinition
  3

  2
A
 70
     8
280
     0
  0
ATTDEF
  5
12B
330
11E
100
AcDbEntity
  8
AM_6
100
AcDbText
 10
59.98751516310689
 20
13.95
 30
0.0
 40
0.5
  1
25.9
100
AcDbAttributeDefinition
  3

  2
C
 70
     8
280
     0
  0
ATTDEF
  5
12C
330
11E
100
AcDbEntity
  8
AM_6
100
AcDbText
 10
59.98751516310689
 20
13.45
 30
0.0
 40
0.5
  1
110.0
100
AcDbAttributeDefinition
  3

  2
D
 70
     8
280
     0
  0
ATTDEF
  5
12D
330
11E
100
AcDbEntity
  8
AM_6
100
AcDbText
 10
59.98751516310689
 20
12.95
 30
0.0
 40
0.5
  1
6.4
100
AcDbAttributeDefinition
  3

  2
J
 70
     8
280
     0
  0
ATTDEF
  5
12E
330
11E
100
AcDbEntity
  8
AM_6
100
AcDbText
 10
59.98751516310689
 20
12.45
 30
0.0
 40
0.5
  1
93.7
100
AcDbAttributeDefinition
  3

  2
L
 70
     8
280
     0
  0
ATTDEF
  5
12F
330
11E
100
AcDbEntity
  8
AM_6
100
AcDbText
 10
59.98751516310689
 20
11.95
 30
0.0
 40
0.5
  1
#10 - 32 x 1/4
100
AcDbAttributeDefinition
  3

  2
N
 70
     8
280
     0
  0
ATTDEF
  5
130
330
11E
100
AcDbEntity
  8
AM_6
100
AcDbText
 10
59.98751516310689
 20
11.45
 30
0.0
 40
0.5
  1
18.5
100
AcDbAttributeDefinition
  3

  2
W
 70
     8
280
     0
  0
ATTDEF
  5
131
330
11E
100
AcDbEntity
  8
AM_6
100
AcDbText
 10
59.98751516310689
 20
10.95
 30
0.0
 40
0.5
  1
37.1
100
AcDbAttributeDefinition
  3

  2
X
 70
     8
280
     0
  0
ATTDEF
  5
132
330
11E
100
AcDbEntity
  8
AM_6
100
AcDbText
 10
59.98751516310689
 20
10.45
 30
0.0
 40
0.5
  1
35.3
100
AcDbAttributeDefinition
  3

  2
Y
 70
     8
280
     0
  0
ATTDEF
  5
133
330
11E
100
AcDbEntity
  8
AM_6
100
AcDbText
 10
59.98751516310689
 20
9.950000000000003
 30
0.0
 40
0.5
  1
baldor
100
AcDbAttributeDefinition
  3

  2
COMPANY
 70
     8
280
     0
  0
LINE
  5
134
330
11E
100
AcDbEntity
  8
AM_9
100
AcDbLine
 10
34.9515873015873
 20
-26.025
 30
0.0
 11
34.9515873015873
 21
-12.1125
 31
0.0
  0
LINE
  5
135
330
11E
100
AcDbEntity
  8
AM_9
100
AcDbLine
 10
-34.9515873015873
 20
-12.1125
 30
0.0
 11
-34.9515873015873
 21
-26.025
 31
0.0
  0
LINE
  5
136
330
11E
100
AcDbEntity
  8
AM_9
100
AcDbLine
 10
34.9515873015873
 20
-12.1125
 30
0.0
 11
36.01885331917885
 21
18.45
 31
0.0
  0
LINE
  5
137
330
11E
100
AcDbEntity
  8
AM_9
100
AcDbLine
 10
-36.01885331917885
 20
18.45
 30
0.0
 11
-34.9515873015873
 21
-12.1125
 31
0.0
  0
LINE
  5
138
330
11E
100
AcDbEntity
  8
AM_9
100
AcDbLine
 10
-34.9515873015873
 20
-12.1125
 30
0.0
 11
34.9515873015873
 21
-12.1125
 31
0.0
  0
LINE
  5
139
330
11E
100
AcDbEntity
  8
AM_9
100
AcDbLine
 10
38.29801587301587
 20
-21.3875
 30
0.0
 11
38.29801587301587
 21
-16.75
 31
0.0
  0
LINE
  5
13A
330
11E
100
AcDbEntity
  8
AM_9
100
AcDbLine
 10
-38.29801587301587
 20
-16.75
 30
0.0
 11
-38.29801587301587
 21
-21.3875
 31
0.0
  0
LINE
  5
13B
330
11E
100
AcDbEntity
  8
AM_9
100
AcDbLine
 10
40.60844444444444
 20
-26.025
 30
0.0
 11
41.64444444444445
 21
-24.989
 31
0.0
  0
LINE
  5
13C
330
11E
100
AcDbEntity
  8
AM_9
100
AcDbLine
 10
-41.64444444444445
 20
-24.989
 30
0.0
 11
-40.60844444444444
 21
-26.025
 31
0.0
  0
LINE
  5
13D
330
11E
100
AcDbEntity
  8
AM_9
100
AcDbLine
 10
41.64444444444444
 20
14.75
 30
0.0
 11
41.64444444444444
 21
15.9
 31
0.0
  0
LINE
  5
13E
330
11E
100
AcDbEntity
  8
AM_9
100
AcDbLine
 10
-41.64444444444444
 20
15.9
 30
0.0
 11
-41.64444444444444
 21
14.75
 31
0.0
  0
LINE
  5
13F
330
11E
100
AcDbEntity
  8
AM_9
100
AcDbLine
 10
41.64444444444445
 20
-15.9
 30
0.0
 11
41.64444444444445
 21
-11.15
 31
0.0
  0
LINE
  5
140
330
11E
100
AcDbEntity
  8
AM_9
100
AcDbLine
 10
-41.64444444444445
 20
-11.15
 30
0.0
 11
-41.64444444444445
 21
-15.9
 31
0.0
  0
LINE
  5
141
330
11E
100
AcDbEntity
  8
AM_9
100
AcDbLine
 10
41.64444444444445
 20
-24.989
 30
0.0
 11
41.64444444444445
 21
-21.3875
 31
0.0
  0
LINE
  5
142
330
11E
100
AcDbEntity
  8
AM_9
100
AcDbLine
 10
-41.64444444444445
 20
-21.3875
 30
0.0
 11
-41.64444444444445
 21
-24.989
 31
0.0
  0
LINE
  5
143
330
11E
100
AcDbEntity
  8
AM_9
100
AcDbLine
 10
-41.64444444444445
 20
-24.989
 30
0.0
 11
41.64444444444445
 21
-24.989
 31
0.0
  0
LINE
  5
144
330
11E
100
AcDbEntity
  8
AM_9
100
AcDbLine
 10
-41.64444444444445
 20
-21.3875
 30
0.0
 11
41.64444444444445
 21
-21.3875
 31
0.0
  0
LINE
  5
145
330
11E
100
AcDbEntity
  8
AM_9
100
AcDbLine
 10
52.41
 20
-5.879999999999995
 30
0.0
 11
52.41
 21
-3.319999999999995
 31
0.0
  0
LINE
  5
146
330
11E
100
AcDbEntity
  8
AM_9
100
AcDbLine
 10
-52.41
 20
-3.319999999999995
 30
0.0
 11
-52.41
 21
-5.879999999999995
 31
0.0
  0
LINE
  5
147
330
11E
100
AcDbEntity
  8
AM_9
100
AcDbLine
 10
-51.71148383470145
 20
14.75
 30
0.0
 11
51.71148383473064
 21
14.75
 31
0.0
  0
ARC
  5
148
330
11E
100
AcDbEntity
  8
AM_9
100
AcDbCircle
 10
51.71148383473064
 20
13.714
 30
0.0
 40
1.036000000000007
100
AcDbArc
 50
21.41246704688441
 51
90.0
  0
ARC
  5
149
330
11E
100
AcDbEntity
  8
AM_9
100
AcDbCircle
 10
-51.71148383473064
 20
13.714
 30
0.0
 40
1.036000000000005
100
AcDbArc
 50
90.0
 51
158.5875329531156
  0
LINE
  5
14A
330
11E
100
AcDbEntity
  8
AM_9
100
AcDbLine
 10
-51.71148383470147
 20
-11.14999999999999
 30
0.0
 11
51.71148383473066
 21
-11.14999999999999
 31
0.0
  0
ARC
  5
14B
330
11E
100
AcDbEntity
  8
AM_9
100
AcDbCircle
 10
51.71148383473066
 20
-10.114
 30
0.0
 40
1.035999999999991
100
AcDbArc
 50
270.0
 51
338.5875329531164
  0
ARC
  5
14C
330
11E
100
AcDbEntity
  8
AM_9
100
AcDbCircle
 10
-51.71148383473066
 20
-10.114
 30
0.0
 40
1.035999999999994
100
AcDbArc
 50
201.4124670468836
 51
270.0
  0
ARC
  5
14D
330
11E
100
AcDbEntity
  8
AM_9
100
AcDbCircle
 10
21.33000000000361
 20
1.799999999998828
 30
0.0
 40
33.66999999999621
100
AcDbArc
 50
338.5875329531156
 51
346.2541017719979
  0
ARC
  5
14E
330
11E
100
AcDbEntity
  8
AM_9
100
AcDbCircle
 10
-21.33000000000361
 20
1.799999999998823
 30
0.0
 40
33.6699999999962
100
AcDbArc
 50
193.7458982280021
 51
201.4124670468844
  0
LINE
  5
14F
330
11E
100
AcDbEntity
  8
AM_9
100
AcDbLine
 10
-52.67597538503956
 20
-10.49222222222221
 30
0.0
 11
52.67597538503956
 21
-10.49222222222221
 31
0.0
  0
LINE
  5
150
330
11E
100
AcDbEntity
  8
AM_9
100
AcDbLine
 10
-53.78407832614241
 20
-5.879999999999995
 30
0.0
 11
53.78407832615186
 21
-5.879999999999995
 31
0.0
  0
ARC
  5
151
330
11E
100
AcDbEntity
  8
AM_9
100
AcDbCircle
 10
53.78407832615187
 20
-6.138999999999991
 30
0.0
 40
0.2589999999999939
100
AcDbArc
 50
346.2541017719963
 51
90.0
  0
ARC
  5
152
330
11E
100
AcDbEntity
  8
AM_9
100
AcDbCircle
 10
-53.78407832615187
 20
-6.138999999999991
 30
0.0
 40
0.2589999999999968
100
AcDbArc
 50
90.0
 51
193.7458982280037
  0
LINE
  5
153
330
11E
100
AcDbEntity
  8
AM_9
100
AcDbLine
 10
-54.03566032868017
 20
-6.200542635658909
 30
0.0
 11
54.03566032868017
 21
-6.200542635658909
 31
0.0
  0
LINE
  5
154
330
11E
100
AcDbEntity
  8
AM_9
100
AcDbLine
 10
-54.38549273564714
 20
-3.319999999999992
 30
0.0
 11
54.38549273570218
 21
-3.319999999999992
 31
0.0
  0
ARC
  5
155
330
11E
100
AcDbEntity
  8
AM_9
100
AcDbCircle
 10
54.38549273570218
 20
-3.061000000000003
 30
0.0
 40
0.2589999999999888
100
AcDbArc
 50
270.0
 51
351.6341375374572
  0
ARC
  5
156
330
11E
100
AcDbEntity
  8
AM_9
100
AcDbCircle
 10
-54.38549273570218
 20
-3.061000000000003
 30
0.0
 40
0.2589999999999934
100
AcDbArc
 50
188.3658624625428
 51
270.0
  0
ARC
  5
157
330
11E
100
AcDbEntity
  8
AM_9
100
AcDbCircle
 10
21.32999999999998
 20
1.799999999999964
 30
0.0
 40
33.67000000000003
100
AcDbArc
 50
351.6342855690434
 51
21.41246704688412
  0
ARC
  5
158
330
11E
100
AcDbEntity
  8
AM_9
100
AcDbCircle
 10
-21.32999999999942
 20
1.799999999999901
 30
0.0
 40
33.67000000000058
100
AcDbArc
 50
158.5875329531161
 51
188.3657144309564
  0
LINE
  5
159
330
11E
100
AcDbEntity
  8
AM_9
100
AcDbLine
 10
-54.64173676732361
 20
-3.098682837716837
 30
0.0
 11
54.64173676732361
 21
-3.098682837716837
 31
0.0
  0
LINE
  5
15A
330
11E
100
AcDbEntity
  8
AM_9
100
AcDbLine
 10
-52.67597538503956
 20
14.09222222222223
 30
0.0
 11
52.67597538503956
 21
14.09222222222223
 31
0.0
  0
LINE
  5
15B
330
11E
100
AcDbEntity
  8
AM_4
100
AcDbLine
 10
41.64444444444444
 20
15.9
 30
0.0
 11
41.64444444444444
 21
17.414
 31
0.0
  0
LINE
  5
15C
330
11E
100
AcDbEntity
  8
AM_4
100
AcDbLine
 10
-41.64444444444444
 20
17.414
 30
0.0
 11
-41.64444444444444
 21
15.9
 31
0.0
  0
LINE
  5
15D
330
11E
100
AcDbEntity
  8
AM_4
100
AcDbLine
 10
-40.60844444444444
 20
18.45
 30
0.0
 11
-41.64444444444445
 21
17.414
 31
0.0
  0
LINE
  5
15E
330
11E
100
AcDbEntity
  8
AM_4
100
AcDbLine
 10
41.64444444444445
 20
17.414
 30
0.0
 11
40.60844444444444
 21
18.45
 31
0.0
  0
LINE
  5
15F
330
11E
100
AcDbEntity
  8
AM_4
100
AcDbLine
 10
-41.64444444444445
 20
17.414
 30
0.0
 11
41.64444444444445
 21
17.414
 31
0.0
  0
LINE
  5
160
330
11E
100
AcDbEntity
  8
AM_4
100
AcDbLine
 10
-40.60844444444444
 20
18.45
 30
0.0
 11
40.60844444444444
 21
18.45
 31
0.0
  0
LINE
  5
161
330
11E
100
AcDbEntity
  8
AM_4
100
AcDbLine
 10
41.64444444444445
 20
-16.75
 30
0.0
 11
41.64444444444445
 21
-15.9
 31
0.0
  0
LINE
  5
162
330
11E
100
AcDbEntity
  8
AM_4
100
AcDbLine
 10
-41.64444444444445
 20
-15.9
 30
0.0
 11
-41.64444444444445
 21
-16.75
 31
0.0
  0
ENDBLK
  5
121
330
11E
100
AcDbEntity
  8
0
100
AcDbBlockEnd
  0
BLOCK
  5
165
330
163
100
AcDbEntity
  8
0
100
AcDbBlockBegin
  2
4_136567i_0_in_136302_4
 70
     2
 10
0.0
 20
0.0
 30
0.0
  3
4_136567i_0_in_136302_4
  1

  0
ATTDEF
  5
167
330
163
100
AcDbEntity
  8
AM_6
100
AcDbText
 10
51.85000000000002
 20
23.07999999999999
 30
0.0
 40
0.5
  1
Grip Tight Medium Duty Adapter and Nut Metric Bore
100
AcDbAttributeDefinition
  3

  2
NN
 70
     8
280
     0
  0
ATTDEF
  5
168
330
163
100
AcDbEntity
  8
AM_6
100
AcDbText
 10
51.85000000000002
 20
22.57999999999999
 30
0.0
 40
0.5
  1
GT and GTM Adapter & Lock Nut Assemblies
100
AcDbAttributeDefinition
  3

  2
NT
 70
     8
280
     0
  0
ATTDEF
  5
169
330
163
100
AcDbEntity
  8
AM_6
100
AcDbText
 10
51.85000000000002
 20
22.07999999999999
 30
0.0
 40
0.5
  1
136567i
100
AcDbAttributeDefinition
  3

  2
NB
 70
     8
280
     0
  0
ATTDEF
  5
16A
330
163
100
AcDbEntity
  8
AM_6
100
AcDbText
 10
51.85000000000002
 20
21.57999999999999
 30
0.0
 40
0.5
  1
$PN.i
100
AcDbAttributeDefinition
  3

  2
NBSYN
 70
     8
280
     0
  0
ATTDEF
  5
16B
330
163
100
AcDbEntity
  8
AM_6
100
AcDbText
 10
51.85000000000002
 20
21.07999999999999
 30
0.0
 40
0.5
  1
136567
100
AcDbAttributeDefinition
  3

  2
LINA
 70
     8
280
     0
  0
ATTDEF
  5
16C
330
163
100
AcDbEntity
  8
AM_6
100
AcDbText
 10
51.85000000000002
 20
20.57999999999999
 30
0.0
 40
0.5
  1
212
100
AcDbAttributeDefinition
  3

  2
SERIES
 70
     8
280
     0
  0
ATTDEF
  5
16D
330
163
100
AcDbEntity
  8
AM_6
100
AcDbText
 10
51.85000000000002
 20
20.07999999999999
 30
0.0
 40
0.5
  1
55
100
AcDbAttributeDefinition
  3

  2
SS
 70
     8
280
     0
  0
ATTDEF
  5
16E
330
163
100
AcDbEntity
  8
AM_6
100
AcDbText
 10
51.85000000000002
 20
19.57999999999999
 30
0.0
 40
0.5
  1
136567
100
AcDbAttributeDefinition
  3

  2
PN
 70
     8
280
     0
  0
ATTDEF
  5
16F
330
163
100
AcDbEntity
  8
AM_6
100
AcDbText
 10
51.85000000000002
 20
19.07999999999999
 30
0.0
 40
0.5
  1
AN-GTM-12-55M-D
100
AcDbAttributeDefinition
  3

  2
DESCRIPTION
 70
     8
280
     0
  0
ATTDEF
  5
170
330
163
100
AcDbEntity
  8
AM_6
100
AcDbText
 10
51.85000000000002
 20
18.57999999999999
 30
0.0
 40
0.5
  1
53.8
100
AcDbAttributeDefinition
  3

  2
A
 70
     8
280
     0
  0
ATTDEF
  5
171
330
163
100
AcDbEntity
  8
AM_6
100
AcDbText
 10
51.85000000000002
 20
18.07999999999999
 30
0.0
 40
0.5
  1
25.9
100
AcDbAttributeDefinition
  3

  2
C
 70
     8
280
     0
  0
ATTDEF
  5
172
330
163
100
AcDbEntity
  8
AM_6
100
AcDbText
 10
51.85000000000002
 20
17.57999999999999
 30
0.0
 40
0.5
  1
110
100
AcDbAttributeDefinition
  3

  2
D
 70
     8
280
     0
  0
ATTDEF
  5
173
330
163
100
AcDbEntity
  8
AM_6
100
AcDbText
 10
51.85000000000002
 20
17.07999999999999
 30
0.0
 40
0.5
  1
6.4
100
AcDbAttributeDefinition
  3

  2
J
 70
     8
280
     0
  0
ATTDEF
  5
174
330
163
100
AcDbEntity
  8
AM_6
100
AcDbText
 10
51.85000000000002
 20
16.57999999999999
 30
0.0
 40
0.5
  1
93.7
100
AcDbAttributeDefinition
  3

  2
L
 70
     8
280
     0
  0
ATTDEF
  5
175
330
163
100
AcDbEntity
  8
AM_6
100
AcDbText
 10
51.85000000000002
 20
16.07999999999999
 30
0.0
 40
0.5
  1
10 - 32 x 1/4
100
AcDbAttributeDefinition
  3

  2
N
 70
     8
280
     0
  0
ATTDEF
  5
176
330
163
100
AcDbEntity
  8
AM_6
100
AcDbText
 10
51.85000000000002
 20
15.57999999999999
 30
0.0
 40
0.5
  1
18.5
100
AcDbAttributeDefinition
  3

  2
W
 70
     8
280
     0
  0
ATTDEF
  5
177
330
163
100
AcDbEntity
  8
AM_6
100
AcDbText
 10
51.85000000000002
 20
15.07999999999999
 30
0.0
 40
0.5
  1
37.1
100
AcDbAttributeDefinition
  3

  2
X
 70
     8
280
     0
  0
ATTDEF
  5
178
330
163
100
AcDbEntity
  8
AM_6
100
AcDbText
 10
51.85000000000002
 20
14.57999999999999
 30
0.0
 40
0.5
  1
35.3
100
AcDbAttributeDefinition
  3

  2
Y
 70
     8
280
     0
  0
ATTDEF
  5
179
330
163
100
AcDbEntity
  8
AM_6
100
AcDbText
 10
51.85000000000002
 20
14.07999999999999
 30
0.0
 40
0.5
  1
baldor
100
AcDbAttributeDefinition
  3

  2
COMPANY
 70
     8
280
     0
  0
LINE
  5
17A
330
163
100
AcDbEntity
  8
AM_9
100
AcDbLine
 10
3.2
 20
-16.75
 30
0.0
 11
3.2
 21
-35.29999999999999
 31
0.0
  0
LINE
  5
17B
330
163
100
AcDbEntity
  8
AM_9
100
AcDbLine
 10
-3.2
 20
-16.75
 30
0.0
 11
-3.2
 21
-35.29999999999999
 31
0.0
  0
LINE
  5
17C
330
163
100
AcDbEntity
  8
AM_9
100
AcDbLine
 10
34.9515873015873
 20
-33.49999999999999
 30
0.0
 11
-34.95158743544445
 21
-33.49999999999999
 31
0.0
  0
LINE
  5
17D
330
163
100
AcDbEntity
  8
AM_9
100
AcDbLine
 10
34.9515873015873
 20
-26.025
 30
0.0
 11
34.95158743544445
 21
-35.29999999999999
 31
0.0
  0
LINE
  5
17E
330
163
100
AcDbEntity
  8
AM_9
100
AcDbLine
 10
-38.87853597896053
 20
-17.786
 30
0.0
 11
-42.07853597896052
 21
-17.786
 31
0.0
  0
LINE
  5
17F
330
163
100
AcDbEntity
  8
AM_9
100
AcDbLine
 10
-38.87853597896053
 20
-34.264
 30
0.0
 11
-42.07853597896052
 21
-34.264
 31
0.0
  0
LINE
  5
180
330
163
100
AcDbEntity
  8
AM_9
100
AcDbLine
 10
42.0785359789605
 20
-17.786
 30
0.0
 11
38.87853597896051
 21
-17.786
 31
0.0
  0
LINE
  5
181
330
163
100
AcDbEntity
  8
AM_9
100
AcDbLine
 10
42.0785359789605
 20
-34.264
 30
0.0
 11
38.87853597896051
 21
-34.264
 31
0.0
  0
LINE
  5
182
330
163
100
AcDbEntity
  8
AM_9
100
AcDbLine
 10
-36.26839728572335
 20
-16.75
 30
0.0
 11
-36.26839728572335
 21
-35.29999999999999
 31
0.0
  0
LINE
  5
183
330
163
100
AcDbEntity
  8
AM_9
100
AcDbLine
 10
36.26839728572333
 20
-16.75
 30
0.0
 11
36.26839728572333
 21
-35.29999999999999
 31
0.0
  0
LINE
  5
184
330
163
100
AcDbEntity
  8
AM_9
100
AcDbLine
 10
27.47065889271679
 20
20.3
 30
0.0
 11
27.47065889271679
 21
-33.49999999999999
 31
0.0
  0
LINE
  5
185
330
163
100
AcDbEntity
  8
AM_9
100
AcDbLine
 10
-27.5
 20
20.3
 30
0.0
 11
-27.5
 21
-33.49999999999999
 31
0.0
  0
LINE
  5
186
330
163
100
AcDbEntity
  8
AM_9
100
AcDbLine
 10
-34.95158743544445
 20
-33.49999999999999
 30
0.0
 11
-34.95158743544445
 21
-35.29999999999999
 31
0.0
  0
LINE
  5
187
330
163
100
AcDbEntity
  8
AM_9
100
AcDbLine
 10
34.92850647046793
 20
-26.025
 30
0.0
 11
34.92850647046792
 21
-12.11249999999993
 31
0.0
  0
LINE
  5
188
330
163
100
AcDbEntity
  8
AM_9
100
AcDbLine
 10
-34.95158743544447
 20
-12.11249999999993
 30
0.0
 11
-34.95158743544447
 21
-26.025
 31
0.0
  0
LINE
  5
189
330
163
100
AcDbEntity
  8
AM_9
100
AcDbLine
 10
34.92850647046792
 20
-12.11249999999993
 30
0.0
 11
35.99645682532967
 21
18.44999996284834
 31
0.0
  0
LINE
  5
18A
330
163
100
AcDbEntity
  8
AM_9
100
AcDbLine
 10
-36.01885345303598
 20
18.45
 30
0.0
 11
-34.95158743544444
 21
-12.11249999999993
 31
0.0
  0
LINE
  5
18B
330
163
100
AcDbEntity
  8
AM_9
100
AcDbLine
 10
-34.95158743544444
 20
-12.11249999999993
 30
0.0
 11
34.92850647046792
 21
-12.11249999999993
 31
0.0
  0
LINE
  5
18C
330
163
100
AcDbEntity
  8
AM_9
100
AcDbLine
 10
38.29801587301591
 20
-21.3875
 30
0.0
 11
38.29801587301591
 21
-16.75
 31
0.0
  0
LINE
  5
18D
330
163
100
AcDbEntity
  8
AM_9
100
AcDbLine
 10
-38.29801587301591
 20
-16.75
 30
0.0
 11
-38.29801587301591
 21
-21.3875
 31
0.0
  0
LINE
  5
18E
330
163
100
AcDbEntity
  8
AM_9
100
AcDbLine
 10
41.64444444444447
 20
-26.025
 30
0.0
 11
41.64444444444447
 21
-21.3875
 31
0.0
  0
LINE
  5
18F
330
163
100
AcDbEntity
  8
AM_9
100
AcDbLine
 10
-41.64444444444447
 20
-21.3875
 30
0.0
 11
-41.64444444444447
 21
-26.025
 31
0.0
  0
LINE
  5
190
330
163
100
AcDbEntity
  8
AM_9
100
AcDbLine
 10
-41.64444444444447
 20
-21.3875
 30
0.0
 11
41.64444444444447
 21
-21.3875
 31
0.0
  0
LINE
  5
191
330
163
100
AcDbEntity
  8
AM_9
100
AcDbLine
 10
-41.64444444444447
 20
-26.025
 30
0.0
 11
41.64444444444447
 21
-26.025
 31
0.0
  0
LINE
  5
194
330
163
100
AcDbEntity
  8
AM_7
100
AcDbLine
 10
-1.932241499999998
 20
-31.87083881551097
 30
0.0
 11
1.932241499999998
 21
-31.87083881551097
 31
0.0
  0
LINE
  5
195
330
163
100
AcDbEntity
  8
AM_7
100
AcDbLine
 10
0.0
 20
-38.08
 30
0.0
 11
0.0
 21
23.07999999999999
 31
0.0
  0
LINE
  5
196
330
163
100
AcDbEntity
  8
AM_4
100
AcDbLine
 10
-46.85
 20
-34.264
 30
0.0
 11
-45.814
 21
-35.29999999999999
 31
0.0
  0
LINE
  5
197
330
163
100
AcDbEntity
  8
AM_4
100
AcDbLine
 10
-45.81400000000002
 20
-16.75
 30
0.0
 11
-46.85000000000002
 21
-17.786
 31
0.0
  0
LINE
  5
198
330
163
100
AcDbEntity
  8
AM_4
100
AcDbLine
 10
-41.17918577990207
 20
-16.75
 30
0.0
 11
-42.07853597896052
 21
-17.786
 31
0.0
  0
LINE
  5
199
330
163
100
AcDbEntity
  8
AM_4
100
AcDbLine
 10
-42.07853597896052
 20
-34.264
 30
0.0
 11
-41.17918577990206
 21
-35.29999999999999
 31
0.0
  0
LINE
  5
19A
330
163
100
AcDbEntity
  8
AM_4
100
AcDbLine
 10
-42.07853597896052
 20
-17.786
 30
0.0
 11
-42.07853597896052
 21
-34.264
 31
0.0
  0
LINE
  5
19B
330
163
100
AcDbEntity
  8
AM_4
100
AcDbLine
 10
-46.85000000000002
 20
-17.786
 30
0.0
 11
-46.85000000000002
 21
-34.264
 31
0.0
  0
LINE
  5
19C
330
163
100
AcDbEntity
  8
AM_4
100
AcDbLine
 10
-46.85000000000002
 20
-17.786
 30
0.0
 11
-42.07853597896052
 21
-17.786
 31
0.0
  0
LINE
  5
19D
330
163
100
AcDbEntity
  8
AM_4
100
AcDbLine
 10
-46.85000000000002
 20
-34.264
 30
0.0
 11
-42.07853597896052
 21
-34.264
 31
0.0
  0
LINE
  5
19E
330
163
100
AcDbEntity
  8
AM_4
100
AcDbLine
 10
46.85000000000002
 20
-17.786
 30
0.0
 11
45.81400000000002
 21
-16.75
 31
0.0
  0
LINE
  5
19F
330
163
100
AcDbEntity
  8
AM_4
100
AcDbLine
 10
42.0785359789605
 20
-17.786
 30
0.0
 11
46.85000000000002
 21
-17.786
 31
0.0
  0
LINE
  5
1A0
330
163
100
AcDbEntity
  8
AM_4
100
AcDbLine
 10
46.85000000000002
 20
-34.264
 30
0.0
 11
46.85000000000002
 21
-17.786
 31
0.0
  0
LINE
  5
1A1
330
163
100
AcDbEntity
  8
AM_4
100
AcDbLine
 10
42.0785359789605
 20
-34.264
 30
0.0
 11
42.0785359789605
 21
-17.786
 31
0.0
  0
LINE
  5
1A2
330
163
100
AcDbEntity
  8
AM_4
100
AcDbLine
 10
42.0785359789605
 20
-17.786
 30
0.0
 11
41.17918577990206
 21
-16.75
 31
0.0
  0
LINE
  5
1A3
330
163
100
AcDbEntity
  8
AM_4
100
AcDbLine
 10
-45.814
 20
-35.29999999999999
 30
0.0
 11
45.814
 21
-35.29999999999999
 31
0.0
  0
LINE
  5
1A4
330
163
100
AcDbEntity
  8
AM_4
100
AcDbLine
 10
42.0785359789605
 20
-34.264
 30
0.0
 11
46.85
 21
-34.264
 31
0.0
  0
LINE
  5
1A5
330
163
100
AcDbEntity
  8
AM_4
100
AcDbLine
 10
41.17918577990204
 20
-35.29999999999998
 30
0.0
 11
42.0785359789605
 21
-34.264
 31
0.0
  0
LINE
  5
1A6
330
163
100
AcDbEntity
  8
AM_4
100
AcDbLine
 10
45.814
 20
-35.29999999999999
 30
0.0
 11
46.85
 21
-34.264
 31
0.0
  0
LINE
  5
1A7
330
163
100
AcDbEntity
  8
AM_4
100
AcDbLine
 10
-39.46839728572336
 20
-16.75
 30
0.0
 11
-39.46839728572336
 21
-35.29999999999999
 31
0.0
  0
LINE
  5
1A8
330
163
100
AcDbEntity
  8
AM_4
100
AcDbLine
 10
45.81400000000002
 20
-16.75
 30
0.0
 11
-45.81400000000002
 21
-16.75
 31
0.0
  0
LINE
  5
1A9
330
163
100
AcDbEntity
  8
AM_4
100
AcDbLine
 10
39.46839728572333
 20
-16.75
 30
0.0
 11
39.46839728572333
 21
-35.29999999999999
 31
0.0
  0
LINE
  5
1AA
330
163
100
AcDbEntity
  8
AM_4
100
AcDbLine
 10
35.99645682532967
 20
18.44999996284834
 30
0.0
 11
36.06110037374265
 21
20.3
 31
0.0
  0
LINE
  5
1AB
330
163
100
AcDbEntity
  8
AM_4
100
AcDbLine
 10
-36.08345687659571
 20
20.3
 30
0.0
 11
-36.01885345303598
 21
18.45
 31
0.0
  0
LINE
  5
1AC
330
163
100
AcDbEntity
  8
AM_4
100
AcDbLine
 10
-36.08345687659571
 20
20.3
 30
0.0
 11
36.06110037374265
 21
20.3
 31
0.0
  0
LINE
  5
1AD
330
163
100
AcDbEntity
  8
AM_4
100
AcDbLine
 10
-37.97918577990205
 20
-35.29999999999999
 30
0.0
 11
-38.87853597896053
 21
-34.264
 31
0.0
  0
LINE
  5
1AE
330
163
100
AcDbEntity
  8
AM_4
100
AcDbLine
 10
38.87853597896051
 20
-34.264
 30
0.0
 11
37.97918577990203
 21
-35.29999999999999
 31
0.0
  0
LINE
  5
1AF
330
163
100
AcDbEntity
  8
AM_4
100
AcDbLine
 10
-38.87853597896053
 20
-34.264
 30
0.0
 11
38.87853597896051
 21
-34.264
 31
0.0
  0
LINE
  5
1B0
330
163
100
AcDbEntity
  8
AM_4
100
AcDbLine
 10
38.87853597896051
 20
-17.786
 30
0.0
 11
38.87853597896051
 21
-34.264
 31
0.0
  0
LINE
  5
1B1
330
163
100
AcDbEntity
  8
AM_4
100
AcDbLine
 10
-38.87853597896053
 20
-34.264
 30
0.0
 11
-38.87853597896053
 21
-17.786
 31
0.0
  0
LINE
  5
1B2
330
163
100
AcDbEntity
  8
AM_4
100
AcDbLine
 10
-38.87853597896053
 20
-17.786
 30
0.0
 11
-37.97918577990207
 21
-16.75
 31
0.0
  0
LINE
  5
1B3
330
163
100
AcDbEntity
  8
AM_4
100
AcDbLine
 10
-38.87853597896053
 20
-17.786
 30
0.0
 11
38.87853597896051
 21
-17.786
 31
0.0
  0
LINE
  5
1B4
330
163
100
AcDbEntity
  8
AM_4
100
AcDbLine
 10
37.97918577990205
 20
-16.75
 30
0.0
 11
38.87853597896051
 21
-17.786
 31
0.0
  0
CIRCLE
  5
1B5
330
163
100
AcDbEntity
  8
AM_4
100
AcDbCircle
 10
0.0
 20
-31.87083881551097
 30
0.0
 40
1.840229999999998
  0
LWPOLYLINE
  5
1B6
330
163
100
AcDbEntity
  8
AM_4
100
AcDbPolyline
 90
       38
 70
     0
 43
0.0
 10
-0.3011295866604643
 20
-34.26399999999999
 10
-0.3850429447966159
 20
-34.25131719238506
 10
-0.7540100126194973
 20
-34.15661893236217
 10
-1.111992241160478
 20
-33.99746064799815
 10
-1.432340067929592
 20
-33.7854559326377
 10
-1.721319844571216
 20
-33.51642999003532
 10
-1.960787634703255
 20
-33.20555198674167
 10
-2.151215509260869
 20
-32.8500255531978
 10
-2.28019468590884
 20
-32.4695180079414
 10
-2.346447413487737
 20
-32.06177498379459
 10
-2.344259816433703
 20
-31.6535043056592
 10
-2.271867209703716
 20
-31.23978108418905
 10
-2.134491305348023
 20
-30.85393071432186
 10
-1.92773387852657
 20
-30.48646014827958
 10
-1.671751841604242
 20
-30.17239368523494
 10
-1.356377126365636
 20
-29.89893124026547
 10
-1.01664973538583
 20
-29.69463257778826
 10
-0.635533026783872
 20
-29.54750468260291
 10
-0.2560112532496024
 20
-29.4721616828407
 10
0.1423742751586934
 20
-29.46225944470953
 10
0.5196999521322269
 20
-29.51742044858466
 10
0.8929320549639769
 20
-29.63829680377822
 10
1.232111662465301
 20
-29.8149863121179
 10
1.54607399977631
 20
-30.05157315085068
 10
1.814389134823945
 20
-30.33390078353501
 10
2.038879560332292
 20
-30.6653095494657
 10
2.205443199537348
 20
-31.02785026922753
 10
2.313032725788947
 20
-31.42363886044081
 10
2.353466903599726
 20
-31.82834338104924
 10
2.325236348680601
 20
-32.24571833126578
 10
2.229601860903973
 20
-32.64419546198329
 10
2.063346477499025
 20
-33.03180990915507
 10
1.694378694172352
 20
-33.54555512630139
 10
1.436706104813077
 20
-33.78201456608189
 10
1.140024501838054
 20
-33.98180000640421
 10
0.7835161393382325
 20
-34.14616154159658
 10
0.3926000353209994
 20
-34.25001894680425
 10
0.3011295866582309
 20
-34.264
  0
ARC
  5
1B8
330
163
100
AcDbEntity
  8
AM_5
100
AcDbCircle
 10
-0.0000000000000075
 20
-31.87083881551096
 30
0.0
 40
2.413
100
AcDbArc
 50
74.99999999999996
 51
14.99999999999994
  0
ENDBLK
  5
166
330
163
100
AcDbEntity
  8
0
100
AcDbBlockEnd
  0
BLOCK
  5
1BB
330
1B9
100
AcDbEntity
  8
0
100
AcDbBlockBegin
  2
5_136302h_0_in_136302_4
 70
     2
 10
0.0
 20
0.0
 30
0.0
  3
5_136302h_0_in_136302_4
  1

  0
ATTDEF
  5
1BD
330
1B9
100
AcDbEntity
  8
AM_6
100
AcDbText
 10
105.653
 20
22.77
 30
0.0
 40
0.5
  1
NSTU-GTM - Metric - Housing
100
AcDbAttributeDefinition
  3

  2
NN
 70
     8
280
     0
  0
ATTDEF
  5
1BE
330
1B9
100
AcDbEntity
  8
AM_6
100
AcDbText
 10
105.653
 20
22.27
 30
0.0
 40
0.5
  1
GTM Normal Duty Narrow Slot Take-Up Bearings
100
AcDbAttributeDefinition
  3

  2
NT
 70
     8
280
     0
  0
ATTDEF
  5
1BF
330
1B9
100
AcDbEntity
  8
AM_6
100
AcDbText
 10
105.653
 20
21.77
 30
0.0
 40
0.5
  1
136302h
100
AcDbAttributeDefinition
  3

  2
NB
 70
     8
280
     0
  0
ATTDEF
  5
1C0
330
1B9
100
AcDbEntity
  8
AM_6
100
AcDbText
 10
105.653
 20
21.27
 30
0.0
 40
0.5
  1
$PN.h
100
AcDbAttributeDefinition
  3

  2
NBSYN
 70
     8
280
     0
  0
ATTDEF
  5
1C1
330
1B9
100
AcDbEntity
  8
AM_6
100
AcDbText
 10
105.653
 20
20.77
 30
0.0
 40
0.5
  1
136302I
100
AcDbAttributeDefinition
  3

  2
LINA
 70
     8
280
     0
  0
ATTDEF
  5
1C2
330
1B9
100
AcDbEntity
  8
AM_6
100
AcDbText
 10
105.653
 20
20.27
 30
0.0
 40
0.5
  1
212
100
AcDbAttributeDefinition
  3

  2
SERIES
 70
     8
280
     0
  0
ATTDEF
  5
1C3
330
1B9
100
AcDbEntity
  8
AM_6
100
AcDbText
 10
105.653
 20
19.77
 30
0.0
 40
0.5
  1
55
100
AcDbAttributeDefinition
  3

  2
SS
 70
     8
280
     0
  0
ATTDEF
  5
1C4
330
1B9
100
AcDbEntity
  8
AM_6
100
AcDbText
 10
105.653
 20
19.27
 30
0.0
 40
0.5
  1
55.000
100
AcDbAttributeDefinition
  3

  2
SS1
 70
     8
280
     0
  0
ATTDEF
  5
1C5
330
1B9
100
AcDbEntity
  8
AM_6
100
AcDbText
 10
105.653
 20
18.77
 30
0.0
 40
0.5
  1
136302
100
AcDbAttributeDefinition
  3

  2
PN
 70
     8
280
     0
  0
ATTDEF
  5
1C6
330
1B9
100
AcDbEntity
  8
AM_6
100
AcDbText
 10
105.653
 20
18.27
 30
0.0
 40
0.5
  1
NSTU-GTM-55M
100
AcDbAttributeDefinition
  3

  2
DESCRIPTION
 70
     8
280
     0
  0
ATTDEF
  5
1C7
330
1B9
100
AcDbEntity
  8
AM_6
100
AcDbText
 10
105.653
 20
17.77
 30
0.0
 40
0.5
  1
136218
100
AcDbAttributeDefinition
  3

  2
PNSL
 70
     8
280
     0
  0
ATTDEF
  5
1C8
330
1B9
100
AcDbEntity
  8
AM_6
100
AcDbText
 10
105.653
 20
17.27
 30
0.0
 40
0.5
  1
NSTU-GT-12
100
AcDbAttributeDefinition
  3

  2
DESCRIPTIONSL
 70
     8
280
     0
  0
ATTDEF
  5
1C9
330
1B9
100
AcDbEntity
  8
AM_6
100
AcDbText
 10
105.653
 20
16.77
 30
0.0
 40
0.5
  1
136567
100
AcDbAttributeDefinition
  3

  2
PNA
 70
     8
280
     0
  0
ATTDEF
  5
1CA
330
1B9
100
AcDbEntity
  8
AM_6
100
AcDbText
 10
105.653
 20
16.27
 30
0.0
 40
0.5
  1
AN-GTM-12-55M-D
100
AcDbAttributeDefinition
  3

  2
DESCRIPTIONA
 70
     8
280
     0
  0
ATTDEF
  5
1CB
330
1B9
100
AcDbEntity
  8
AM_6
100
AcDbText
 10
105.653
 20
15.77
 30
0.0
 40
0.5
  1
4.9
100
AcDbAttributeDefinition
  3

  2
W
 70
     8
280
     0
  0
ATTDEF
  5
1CC
330
1B9
100
AcDbEntity
  8
AM_6
100
AcDbText
 10
105.653
 20
15.27
 30
0.0
 40
0.5
  1
NS415
100
AcDbAttributeDefinition
  3

  2
TUFS
 70
     8
280
     0
  0
ATTDEF
  5
1CD
330
1B9
100
AcDbEntity
  8
AM_6
100
AcDbText
 10
105.653
 20
14.77
 30
0.0
 40
0.5
  1
53.8
100
AcDbAttributeDefinition
  3

  2
A
 70
     8
280
     0
  0
ATTDEF
  5
1CE
330
1B9
100
AcDbEntity
  8
AM_6
100
AcDbText
 10
105.653
 20
14.27
 30
0.0
 40
0.5
  1
53.800
100
AcDbAttributeDefinition
  3

  2
A1
 70
     8
280
     0
  0
ATTDEF
  5
1CF
330
1B9
100
AcDbEntity
  8
AM_6
100
AcDbText
 10
105.653
 20
13.77
 30
0.0
 40
0.5
  1
169.9
100
AcDbAttributeDefinition
  3

  2
B
 70
     8
280
     0
  0
ATTDEF
  5
1D0
330
1B9
100
AcDbEntity
  8
AM_6
100
AcDbText
 10
105.653
 20
13.27
 30
0.0
 40
0.5
  1
169.900
100
AcDbAttributeDefinition
  3

  2
B1
 70
     8
280
     0
  0
ATTDEF
  5
1D1
330
1B9
100
AcDbEntity
  8
AM_6
100
AcDbText
 10
105.653
 20
12.77
 30
0.0
 40
0.5
  1
7.95
100
AcDbAttributeDefinition
  3

  2
C
 70
     8
280
     0
  0
ATTDEF
  5
1D2
330
1B9
100
AcDbEntity
  8
AM_6
100
AcDbText
 10
105.653
 20
12.27
 30
0.0
 40
0.5
  1
7.950
100
AcDbAttributeDefinition
  3

  2
C1
 70
     8
280
     0
  0
ATTDEF
  5
1D3
330
1B9
100
AcDbEntity
  8
AM_6
100
AcDbText
 10
105.653
 20
11.77
 30
0.0
 40
0.5
  1
95.3
100
AcDbAttributeDefinition
  3

  2
D
 70
     8
280
     0
  0
ATTDEF
  5
1D4
330
1B9
100
AcDbEntity
  8
AM_6
100
AcDbText
 10
105.653
 20
11.27
 30
0.0
 40
0.5
  1
95.300
100
AcDbAttributeDefinition
  3

  2
D1
 70
     8
280
     0
  0
ATTDEF
  5
1D5
330
1B9
100
AcDbEntity
  8
AM_6
100
AcDbText
 10
105.653
 20
10.77
 30
0.0
 40
0.5
  1
98.6
100
AcDbAttributeDefinition
  3

  2
E
 70
     8
280
     0
  0
ATTDEF
  5
1D6
330
1B9
100
AcDbEntity
  8
AM_6
100
AcDbText
 10
105.653
 20
10.27
 30
0.0
 40
0.5
  1
98.600
100
AcDbAttributeDefinition
  3

  2
E1
 70
     8
280
     0
  0
ATTDEF
  5
1D7
330
1B9
100
AcDbEntity
  8
AM_6
100
AcDbText
 10
105.653
 20
9.77
 30
0.0
 40
0.5
  1
25.4
100
AcDbAttributeDefinition
  3

  2
F
 70
     8
280
     0
  0
ATTDEF
  5
1D8
330
1B9
100
AcDbEntity
  8
AM_6
100
AcDbText
 10
105.653
 20
9.27
 30
0.0
 40
0.5
  1
25.400
100
AcDbAttributeDefinition
  3

  2
F1
 70
     8
280
     0
  0
ATTDEF
  5
1D9
330
1B9
100
AcDbEntity
  8
AM_6
100
AcDbText
 10
105.653
 20
8.77
 30
0.0
 40
0.5
  1
17.5
100
AcDbAttributeDefinition
  3

  2
G
 70
     8
280
     0
  0
ATTDEF
  5
1DA
330
1B9
100
AcDbEntity
  8
AM_6
100
AcDbText
 10
105.653
 20
8.27
 30
0.0
 40
0.5
  1
17.500
100
AcDbAttributeDefinition
  3

  2
G1
 70
     8
280
     0
  0
ATTDEF
  5
1DB
330
1B9
100
AcDbEntity
  8
AM_6
100
AcDbText
 10
105.653
 20
7.77
 30
0.0
 40
0.5
  1
32.5
100
AcDbAttributeDefinition
  3

  2
H
 70
     8
280
     0
  0
ATTDEF
  5
1DC
330
1B9
100
AcDbEntity
  8
AM_6
100
AcDbText
 10
105.653
 20
7.27
 30
0.0
 40
0.5
  1
32.500
100
AcDbAttributeDefinition
  3

  2
H1
 70
     8
280
     0
  0
ATTDEF
  5
1DD
330
1B9
100
AcDbEntity
  8
AM_6
100
AcDbText
 10
105.653
 20
6.77
 30
0.0
 40
0.5
  1
41.4
100
AcDbAttributeDefinition
  3

  2
J
 70
     8
280
     0
  0
ATTDEF
  5
1DE
330
1B9
100
AcDbEntity
  8
AM_6
100
AcDbText
 10
105.653
 20
6.27
 30
0.0
 40
0.5
  1
41.400
100
AcDbAttributeDefinition
  3

  2
J1
 70
     8
280
     0
  0
ATTDEF
  5
1DF
330
1B9
100
AcDbEntity
  8
AM_6
100
AcDbText
 10
105.653
 20
5.77
 30
0.0
 40
0.5
  1
93.7
100
AcDbAttributeDefinition
  3

  2
L
 70
     8
280
     0
  0
ATTDEF
  5
1E0
330
1B9
100
AcDbEntity
  8
AM_6
100
AcDbText
 10
105.653
 20
5.27
 30
0.0
 40
0.5
  1
93.700
100
AcDbAttributeDefinition
  3

  2
L1
 70
     8
280
     0
  0
ATTDEF
  5
1E1
330
1B9
100
AcDbEntity
  8
AM_6
100
AcDbText
 10
105.653
 20
4.77
 30
0.0
 40
0.5
  1
125.65/124.89
100
AcDbAttributeDefinition
  3

  2
M
 70
     8
280
     0
  0
ATTDEF
  5
1E2
330
1B9
100
AcDbEntity
  8
AM_6
100
AcDbText
 10
105.653
 20
4.27
 30
0.0
 40
0.5
  1
125.650
100
AcDbAttributeDefinition
  3

  2
M1
 70
     8
280
     0
  0
ATTDEF
  5
1E3
330
1B9
100
AcDbEntity
  8
AM_6
100
AcDbText
 10
105.653
 20
3.77
 30
0.0
 40
0.5
  1
146.1
100
AcDbAttributeDefinition
  3

  2
N
 70
     8
280
     0
  0
ATTDEF
  5
1E4
330
1B9
100
AcDbEntity
  8
AM_6
100
AcDbText
 10
105.653
 20
3.27
 30
0.0
 40
0.5
  1
146.100
100
AcDbAttributeDefinition
  3

  2
N1
 70
     8
280
     0
  0
ATTDEF
  5
1E5
330
1B9
100
AcDbEntity
  8
AM_6
100
AcDbText
 10
105.653
 20
2.77
 30
0.0
 40
0.5
  1
11.2
100
AcDbAttributeDefinition
  3

  2
P
 70
     8
280
     0
  0
ATTDEF
  5
1E6
330
1B9
100
AcDbEntity
  8
AM_6
100
AcDbText
 10
105.653
 20
2.27
 30
0.0
 40
0.5
  1
11.200
100
AcDbAttributeDefinition
  3

  2
P1
 70
     8
280
     0
  0
ATTDEF
  5
1E7
330
1B9
100
AcDbEntity
  8
AM_6
100
AcDbText
 10
105.653
 20
1.77
 30
0.0
 40
0.5
  1
18.5
100
AcDbAttributeDefinition
  3

  2
R
 70
     8
280
     0
  0
ATTDEF
  5
1E8
330
1B9
100
AcDbEntity
  8
AM_6
100
AcDbText
 10
105.653
 20
1.27
 30
0.0
 40
0.5
  1
18.500
100
AcDbAttributeDefinition
  3

  2
R1
 70
     8
280
     0
  0
ATTDEF
  5
1E9
330
1B9
100
AcDbEntity
  8
AM_6
100
AcDbText
 10
105.653
 20
0.7699999999999996
 30
0.0
 40
0.5
  1
35.3
100
AcDbAttributeDefinition
  3

  2
S
 70
     8
280
     0
  0
ATTDEF
  5
1EA
330
1B9
100
AcDbEntity
  8
AM_6
100
AcDbText
 10
105.653
 20
0.2699999999999996
 30
0.0
 40
0.5
  1
35.300
100
AcDbAttributeDefinition
  3

  2
S1
 70
     8
280
     0
  0
ATTDEF
  5
1EB
330
1B9
100
AcDbEntity
  8
AM_6
100
AcDbText
 10
105.653
 20
-0.2300000000000004
 30
0.0
 40
0.5
  1
37.1
100
AcDbAttributeDefinition
  3

  2
Z
 70
     8
280
     0
  0
ATTDEF
  5
1EC
330
1B9
100
AcDbEntity
  8
AM_6
100
AcDbText
 10
105.653
 20
-0.7300000000000004
 30
0.0
 40
0.5
  1
37.100
100
AcDbAttributeDefinition
  3

  2
Z1
 70
     8
280
     0
  0
ATTDEF
  5
1ED
330
1B9
100
AcDbEntity
  8
AM_6
100
AcDbText
 10
105.653
 20
-1.23
 30
0.0
 40
0.5
  1
6955
100
AcDbAttributeDefinition
  3

  2
CAPS
 70
     8
280
     0
  0
ATTDEF
  5
1EE
330
1B9
100
AcDbEntity
  8
AM_6
100
AcDbText
 10
105.653
 20
-1.73
 30
0.0
 40
0.5
  1
11791
100
AcDbAttributeDefinition
  3

  2
CAPD
 70
     8
280
     0
  0
ATTDEF
  5
1EF
330
1B9
100
AcDbEntity
  8
AM_6
100
AcDbText
 10
105.653
 20
-2.23
 30
0.0
 40
0.5
  1
baldor
100
AcDbAttributeDefinition
  3

  2
COMPANY
 70
     8
280
     0
  0
LINE
  5
1F0
330
1B9
100
AcDbEntity
  8
AM_9
100
AcDbLine
 10
86.69999999999999
 20
12.69389293042449
 30
0.0
 11
86.69999999999999
 21
20.69999999999999
 31
0.0
  0
LINE
  5
1F1
330
1B9
100
AcDbEntity
  8
AM_9
100
AcDbLine
 10
75.5
 20
20.69999999999999
 30
0.0
 11
75.5
 21
12.7
 31
0.0
  0
LINE
  5
1F2
330
1B9
100
AcDbEntity
  8
AM_9
100
AcDbLine
 10
86.69999999999999
 20
-20.7
 30
0.0
 11
86.69999999999999
 21
-12.69389293042449
 31
0.0
  0
LINE
  5
1F3
330
1B9
100
AcDbEntity
  8
AM_9
100
AcDbLine
 10
75.5
 20
-12.7
 30
0.0
 11
75.5
 21
-20.7
 31
0.0
  0
LINE
  5
1F4
330
1B9
100
AcDbEntity
  8
AM_9
100
AcDbLine
 10
86.5007984374721
 20
-12.61343029323115
 30
0.0
 11
86.69999999869984
 21
-12.6999999994267
 31
0.0
  0
LINE
  5
1F5
330
1B9
100
AcDbEntity
  8
AM_9
100
AcDbLine
 10
66.1
 20
12.7
 30
0.0
 11
66.1
 21
-12.7
 31
0.0
  0
LWPOLYLINE
  5
1F6
330
1B9
100
AcDbEntity
  8
AM_9
100
AcDbPolyline
 90
       24
 70
     0
 43
0.0
 10
75.5
 20
12.7
 10
75.56945303272818
 20
12.66952839521659
 10
75.78325296550625
 20
12.57767065194497
 10
76.1203162342264
 20
12.43894088767645
 10
76.58758017868269
 20
12.2593610210246
 10
77.17980574875139
 20
12.05395880893587
 10
77.89302186049399
 20
11.84122919241366
 10
78.72087983646645
 20
11.64432105159128
 10
79.17988431106139
 20
11.55930825917053
 10
79.65626590029966
 20
11.48975056955709
 10
80.56197045366712
 20
11.41137484235476
 10
81.03958419314655
 20
11.39889380491495
 10
81.5177403258724
 20
11.40633626454437
 10
82.35131197635694
 20
11.46716101143497
 10
83.17302812518359
 20
11.58565689151039
 10
83.93725288186488
 20
11.74648900376834
 10
84.64773783413519
 20
11.93802511891118
 10
85.3114901409071
 20
12.15181670397302
 10
85.87551975846245
 20
12.35862407242268
 10
86.30364382481862
 20
12.53027968784308
 10
86.466852374629
 20
12.59892060734374
 10
86.58811313664167
 20
12.65106263523261
 10
86.69579712358718
 20
12.69814732346206
 10
86.69999999869984
 20
12.6999999994267
  0
LINE
  5
1F7
330
1B9
100
AcDbEntity
  8
AM_9
100
AcDbLine
 10
66.1
 20
-12.7
 30
0.0
 11
75.5
 21
-12.7
 31
0.0
  0
LINE
  5
1F8
330
1B9
100
AcDbEntity
  8
AM_9
100
AcDbLine
 10
86.68609132130463
 20
-12.7
 30
0.0
 11
98.6
 21
-12.7
 31
0.0
  0
LINE
  5
1F9
330
1B9
100
AcDbEntity
  8
AM_9
100
AcDbLine
 10
98.6
 20
12.7
 30
0.0
 11
86.68609132130463
 21
12.7
 31
0.0
  0
LINE
  5
1FA
330
1B9
100
AcDbEntity
  8
AM_9
100
AcDbLine
 10
75.5
 20
12.7
 30
0.0
 11
66.1
 21
12.7
 31
0.0
  0
LWPOLYLINE
  5
1FB
330
1B9
100
AcDbEntity
  8
AM_9
100
AcDbPolyline
 90
       24
 70
     0
 43
0.0
 10
86.69999999869984
 20
-12.6999999994267
 10
86.65402815984093
 20
-12.67979608670053
 10
86.481154410098
 20
-12.60503164555001
 10
86.1763794234271
 20
-12.47796570161154
 10
85.75046901077961
 20
-12.31084327006974
 10
85.2018466804873
 20
-12.11425384372577
 10
84.51598362214834
 20
-11.89953545760446
 10
83.71064229801938
 20
-11.6938211551318
 10
82.82990137070614
 20
-11.52920460189561
 10
82.34946806842711
 20
-11.46700640131828
 10
81.85721163836105
 20
-11.42380713533231
 10
80.97005932123865
 20
-11.39942474776674
 10
80.05824397076492
 20
-11.44618956790633
 10
79.2527502901306
 20
-11.5473950088586
 10
78.4751620272429
 20
-11.69699852027124
 10
77.73708678460287
 20
-11.88440933720699
 10
77.06820831563783
 20
-12.09071313802837
 10
76.47186658622192
 20
-12.30242329363321
 10
76.21434630815723
 20
-12.40159089735813
 10
75.99325347206049
 20
-12.49035067964956
 10
75.67963995178656
 20
-12.62181853190214
 10
75.57716479776464
 20
-12.66615033147922
 10
75.51706177228073
 20
-12.69248593674734
 10
75.5
 20
-12.7
  0
LINE
  5
1FC
330
1B9
100
AcDbEntity
  8
AM_9
100
AcDbLine
 10
86.69999999869984
 20
12.6999999994267
 30
0.0
 11
86.50189036308588
 21
12.61389787079316
 31
0.0
  0
LINE
  5
1FD
330
1B9
100
AcDbEntity
  8
AM_9
100
AcDbLine
 10
-22.0
 20
-4.769999999999996
 30
0.0
 11
-22.0
 21
15.9
 31
0.0
  0
LINE
  5
1FE
330
1B9
100
AcDbEntity
  8
AM_9
100
AcDbLine
 10
22.0
 20
-4.769999999999996
 30
0.0
 11
22.0
 21
15.9
 31
0.0
  0
LINE
  5
1FF
330
1B9
100
AcDbEntity
  8
AM_9
100
AcDbLine
 10
55.0
 20
-15.9
 30
0.0
 11
55.0
 21
15.9
 31
0.0
  0
LINE
  5
200
330
1B9
100
AcDbEntity
  8
AM_9
100
AcDbLine
 10
-55.0
 20
15.9
 30
0.0
 11
-55.0
 21
-15.9
 31
0.0
  0
LINE
  5
201
330
1B9
100
AcDbEntity
  8
AM_9
100
AcDbLine
 10
22.0
 20
-4.769999999999996
 30
0.0
 11
-22.0
 21
-4.769999999999996
 31
0.0
  0
LINE
  5
202
330
1B9
100
AcDbEntity
  8
AM_7
100
AcDbLine
 10
55.48700000000001
 20
0.0
 30
0.0
 11
100.653
 21
0.0
 31
0.0
  0
LINE
  5
203
330
1B9
100
AcDbEntity
  8
AM_7
100
AcDbLine
 10
81.1
 20
22.77
 30
0.0
 11
81.1
 21
-22.77
 31
0.0
  0
LINE
  5
204
330
1B9
100
AcDbEntity
  8
AM_4
100
AcDbLine
 10
57.54000000000001
 20
-15.9
 30
0.0
 11
57.54000000000001
 21
-18.0500000265
 31
0.0
  0
ARC
  5
205
330
1B9
100
AcDbEntity
  8
AM_4
100
AcDbCircle
 10
60.18999997349999
 20
-18.0500000265
 30
0.0
 40
2.649999973499988
100
AcDbArc
 50
180.0
 51
270.0
  0
LINE
  5
206
330
1B9
100
AcDbEntity
  8
AM_4
100
AcDbLine
 10
57.54000000000001
 20
18.0500000265
 30
0.0
 11
57.54000000000001
 21
15.9
 31
0.0
  0
ARC
  5
207
330
1B9
100
AcDbEntity
  8
AM_4
100
AcDbCircle
 10
60.18999997349999
 20
18.0500000265
 30
0.0
 40
2.649999973499995
100
AcDbArc
 50
90.0
 51
180.0
  0
LINE
  5
208
330
1B9
100
AcDbEntity
  8
AM_4
100
AcDbLine
 10
60.18999997350001
 20
-15.9
 30
0.0
 11
60.18999997350001
 21
-20.7
 31
0.0
  0
LWPOLYLINE
  5
209
330
1B9
100
AcDbEntity
  8
AM_4
100
AcDbPolyline
 90
       20
 70
     0
 43
0.0
 10
75.5
 20
20.7
 10
75.57412318908557
 20
20.68007046722524
 10
75.80271219230004
 20
20.62016629704054
 10
76.16526676895427
 20
20.53001685487829
 10
76.67109198077893
 20
20.41433874125538
 10
77.29359088682247
 20
20.28838954517782
 10
78.04125445985945
 20
20.16149608236773
 10
78.86884200371152
 20
20.05263239588264
 10
79.7900368630465
 20
19.97112924749567
 10
80.70217191944168
 20
19.93209139005941
 10
81.6543025050979
 20
19.93582833160333
 10
82.53707368170798
 20
19.97986938812808
 10
83.40405671201121
 20
20.0608742913205
 10
84.1945328086815
 20
20.16695647101977
 10
84.92115530350699
 20
20.29116132343143
 10
85.54637726762515
 20
20.41813583082583
 10
86.06200651084025
 20
20.53658950784236
 10
86.42572522628036
 20
20.62749013297156
 10
86.64452550952899
 20
20.68506135175377
 10
86.69999999986814
 20
20.69999999996433
  0
LINE
  5
20A
330
1B9
100
AcDbEntity
  8
AM_4
100
AcDbLine
 10
60.18999997350001
 20
-20.7
 30
0.0
 11
75.5
 21
-20.7
 31
0.0
  0
LINE
  5
20B
330
1B9
100
AcDbEntity
  8
AM_4
100
AcDbLine
 10
86.69106663396262
 20
-20.7
 30
0.0
 11
95.95000002649999
 21
-20.7
 31
0.0
  0
LINE
  5
20C
330
1B9
100
AcDbEntity
  8
AM_4
100
AcDbLine
 10
95.95000002649999
 20
20.7
 30
0.0
 11
86.69106663396262
 21
20.7
 31
0.0
  0
LINE
  5
20D
330
1B9
100
AcDbEntity
  8
AM_4
100
AcDbLine
 10
75.5
 20
20.7
 30
0.0
 11
60.18999997350001
 21
20.7
 31
0.0
  0
LINE
  5
20E
330
1B9
100
AcDbEntity
  8
AM_4
100
AcDbLine
 10
60.18999997350001
 20
20.7
 30
0.0
 11
60.18999997350001
 21
15.9
 31
0.0
  0
LWPOLYLINE
  5
20F
330
1B9
100
AcDbEntity
  8
AM_4
100
AcDbPolyline
 90
       21
 70
     0
 43
0.0
 10
86.69999999986814
 20
-20.69999999996433
 10
86.69856570369741
 20
-20.69961202386694
 10
86.59813888688652
 20
-20.67267595691215
 10
86.35775629196195
 20
-20.61004612381218
 10
85.9713489956698
 20
-20.51487365395198
 10
85.4593175148387
 20
-20.39935413671667
 10
84.81426743167974
 20
-20.27130441175498
 10
84.06470962197349
 20
-20.14744408461337
 10
83.20480914656156
 20
-20.03896757678521
 10
82.31266942792722
 20
-19.96498352469716
 10
81.35534350327654
 20
-19.9297566544267
 10
80.44979052545894
 20
-19.93872544474152
 10
79.5367342705737
 20
-19.98934215377781
 10
78.69917522454463
 20
-20.07221860189949
 10
77.90504073553359
 20
-20.18261045310045
 10
77.19613406227595
 20
-20.30689954817628
 10
76.57717061887966
 20
-20.43492073903702
 10
76.08879354125558
 20
-20.54853255520115
 10
75.73246658577455
 20
-20.63832393758821
 10
75.55981384348355
 20
-20.68389863272532
 10
75.5
 20
-20.7
  0
LINE
  5
210
330
1B9
100
AcDbEntity
  8
AM_4
100
AcDbLine
 10
95.95000002649999
 20
20.7
 30
0.0
 11
95.95000002649999
 21
-20.7
 31
0.0
  0
LINE
  5
211
330
1B9
100
AcDbEntity
  8
AM_4
100
AcDbLine
 10
98.6
 20
18.05000002649999
 30
0.0
 11
98.6
 21
-18.05000002648934
 31
0.0
  0
ARC
  5
212
330
1B9
100
AcDbEntity
  8
AM_4
100
AcDbCircle
 10
95.95000002649998
 20
-18.05000002649998
 30
0.0
 40
2.649999973500019
100
AcDbArc
 50
270.0
 51
0.0
  0
ARC
  5
213
330
1B9
100
AcDbEntity
  8
AM_4
100
AcDbCircle
 10
95.95000002649998
 20
18.05000002649998
 30
0.0
 40
2.649999973500016
100
AcDbArc
 50
0.0
 51
90.0
  0
LWPOLYLINE
  5
214
330
1B9
100
AcDbEntity
  8
AM_4
100
AcDbPolyline
 90
       14
 70
     0
 43
0.0
 10
68.95304154026974
 20
9.966039215965486
 10
68.78931679942097
 20
8.761705057101413
 10
68.64201223171145
 20
7.518367057973466
 10
68.51175622164867
 20
6.217475887244327
 10
68.40383309301944
 20
4.887165008229081
 10
68.3048114176512
 20
3.215084016720856
 10
68.24594191101156
 20
1.519403607065
 10
68.22954418210051
 20
-0.240783431935355
 10
68.25830575862106
 20
-1.999076045926747
 10
68.32584669966239
 20
-3.634873213133496
 10
68.43038655840564
 20
-5.245741561764303
 10
68.57357349768607
 20
-6.864912214153168
 10
68.74851393586746
 20
-8.435530119095072
 10
68.95304154026974
 20
-9.966039215965482
  0
LINE
  5
215
330
1B9
100
AcDbEntity
  8
AM_4
100
AcDbLine
 10
-71.30000000000001
 20
9.966039215965484
 30
0.0
 11
-71.30000000000001
 21
-9.966039215965484
 31
0.0
  0
LWPOLYLINE
  5
216
330
1B9
100
AcDbEntity
  8
AM_4
100
AcDbPolyline
 90
        8
 70
     0
 43
0.0
 10
68.43832332838087
 20
15.9
 10
68.50289995109199
 20
14.62318153134913
 10
68.54843766610438
 20
13.93245264325981
 10
68.6037944229098
 20
13.21253783815375
 10
68.67180691898983
 20
12.44367748244031
 10
68.75184597408725
 20
11.64770821514412
 10
68.84562356617974
 20
10.81855945540829
 10
68.95304154026974
 20
9.966039215965486
  0
LINE
  5
217
330
1B9
100
AcDbEntity
  8
AM_4
100
AcDbLine
 10
47.65
 20
9.966039215965484
 30
0.0
 11
68.95304154026974
 21
9.966039215965486
 31
0.0
  0
LINE
  5
218
330
1B9
100
AcDbEntity
  8
AM_4
100
AcDbLine
 10
-69.71000000000001
 20
15.9
 30
0.0
 11
-71.30000000000001
 21
9.966039215965484
 31
0.0
  0
LINE
  5
219
330
1B9
100
AcDbEntity
  8
AM_4
100
AcDbLine
 10
-69.71000000000001
 20
15.9
 30
0.0
 11
68.43832332838087
 21
15.9
 31
0.0
  0
LINE
  5
21A
330
1B9
100
AcDbEntity
  8
AM_4
100
AcDbLine
 10
-71.30000000000001
 20
9.966039215965484
 30
0.0
 11
-47.65
 21
9.966039215965484
 31
0.0
  0
LWPOLYLINE
  5
21B
330
1B9
100
AcDbEntity
  8
AM_4
100
AcDbPolyline
 90
        8
 70
     0
 43
0.0
 10
68.95304154026974
 20
-9.966039215965482
 10
68.75979952177435
 20
-11.57356936736601
 10
68.68067886416634
 20
-12.35041192935402
 10
68.61302159256027
 20
-13.10183330507877
 10
68.55465286206181
 20
-13.84610375684073
 10
68.5067729753269
 20
-14.55972636122111
 10
68.46815957441238
 20
-15.24722583478557
 10
68.43832332838087
 20
-15.9
  0
LINE
  5
21C
330
1B9
100
AcDbEntity
  8
AM_4
100
AcDbLine
 10
47.65
 20
-9.966039215965477
 30
0.0
 11
68.95304154026974
 21
-9.966039215965482
 31
0.0
  0
LINE
  5
21D
330
1B9
100
AcDbEntity
  8
AM_4
100
AcDbLine
 10
-71.30000000000001
 20
-9.966039215965484
 30
0.0
 11
-69.71000000000001
 21
-15.9
 31
0.0
  0
LINE
  5
21E
330
1B9
100
AcDbEntity
  8
AM_4
100
AcDbLine
 10
-71.30000000000001
 20
-9.966039215965484
 30
0.0
 11
-47.65
 21
-9.966039215965477
 31
0.0
  0
LINE
  5
21F
330
1B9
100
AcDbEntity
  8
AM_4
100
AcDbLine
 10
-69.71000000000001
 20
-15.9
 30
0.0
 11
68.43832332838087
 21
-15.9
 31
0.0
  0
LINE
  5
220
330
1B9
100
AcDbEntity
  8
AM_4
100
AcDbLine
 10
47.65
 20
11.92500000000001
 30
0.0
 11
-47.65
 21
11.92500000000001
 31
0.0
  0
LINE
  5
221
330
1B9
100
AcDbEntity
  8
AM_4
100
AcDbLine
 10
47.65
 20
11.92500000000001
 30
0.0
 11
47.65
 21
-11.925
 31
0.0
  0
LINE
  5
222
330
1B9
100
AcDbEntity
  8
AM_4
100
AcDbLine
 10
46.05999999999998
 20
-10.335
 30
0.0
 11
46.05999999999998
 21
-3.974999999999995
 31
0.0
  0
LINE
  5
223
330
1B9
100
AcDbEntity
  8
AM_4
100
AcDbLine
 10
-47.64999999999999
 20
-3.974999999999995
 30
0.0
 11
47.65
 21
-3.974999999999996
 31
0.0
  0
LINE
  5
224
330
1B9
100
AcDbEntity
  8
AM_4
100
AcDbLine
 10
-47.65
 20
11.92500000000001
 30
0.0
 11
-47.64999999999999
 21
-11.925
 31
0.0
  0
LINE
  5
225
330
1B9
100
AcDbEntity
  8
AM_4
100
AcDbLine
 10
-46.05999999999998
 20
-10.335
 30
0.0
 11
-46.05999999999996
 21
-3.974999999999995
 31
0.0
  0
LINE
  5
226
330
1B9
100
AcDbEntity
  8
AM_4
100
AcDbLine
 10
46.05999999999998
 20
-10.335
 30
0.0
 11
-46.05999999999998
 21
-10.335
 31
0.0
  0
LINE
  5
227
330
1B9
100
AcDbEntity
  8
AM_4
100
AcDbLine
 10
-46.05999999999998
 20
-10.335
 30
0.0
 11
-47.64999999999998
 21
-11.925
 31
0.0
  0
LINE
  5
228
330
1B9
100
AcDbEntity
  8
AM_4
100
AcDbLine
 10
47.65
 20
-11.925
 30
0.0
 11
-47.64999999999999
 21
-11.925
 31
0.0
  0
LINE
  5
229
330
1B9
100
AcDbEntity
  8
AM_4
100
AcDbLine
 10
47.64999999999999
 20
-11.92499999999999
 30
0.0
 11
46.05999999999999
 21
-10.33499999999999
 31
0.0
  0
LINE
  5
22A
330
1B9
100
AcDbEntity
  8
AM_4
100
AcDbLine
 10
-47.64999999999998
 20
11.92500000000001
 30
0.0
 11
-46.05999999999997
 21
10.33500000000001
 31
0.0
  0
LINE
  5
22B
330
1B9
100
AcDbEntity
  8
AM_4
100
AcDbLine
 10
46.05999999999998
 20
10.335
 30
0.0
 11
-46.05999999999998
 21
10.335
 31
0.0
  0
LINE
  5
22C
330
1B9
100
AcDbEntity
  8
AM_4
100
AcDbLine
 10
-46.05999999999996
 20
3.975000000000005
 30
0.0
 11
-46.05999999999998
 21
10.335
 31
0.0
  0
LINE
  5
22D
330
1B9
100
AcDbEntity
  8
AM_4
100
AcDbLine
 10
47.65
 20
3.975000000000005
 30
0.0
 11
-47.64999999999999
 21
3.975000000000004
 31
0.0
  0
LINE
  5
22E
330
1B9
100
AcDbEntity
  8
AM_4
100
AcDbLine
 10
46.05999999999998
 20
10.335
 30
0.0
 11
47.65
 21
11.92500000000001
 31
0.0
  0
LINE
  5
22F
330
1B9
100
AcDbEntity
  8
AM_4
100
AcDbLine
 10
46.05999999999998
 20
3.975000000000004
 30
0.0
 11
46.05999999999998
 21
10.335
 31
0.0
  0
ENDBLK
  5
1BC
330
1B9
100
AcDbEntity
  8
0
100
AcDbBlockEnd
  0
ENDSEC
  0
SECTION
  2
ENTITIES
  0
INSERT
  5
6F
330
1F
100
AcDbEntity
  8
0
100
AcDbBlockReference
  2
1_136302_4
 10
0.0
 20
0.0
 30
0.0
  0
POINT
  5
231
330
1F
100
AcDbEntity
  8
ConnectionPoints
100
AcDbPoint
 10
0.0
 20
1.800000000000004
 30
0.0000000000000044
  0
POINT
  5
232
330
1F
100
AcDbEntity
  8
ConnectionPoints
100
AcDbPoint
 10
0.0
 20
1.800000000000004
 30
0.0000000000000044
  0
POINT
  5
233
330
1F
100
AcDbEntity
  8
ConnectionPoints
100
AcDbPoint
 10
0.0
 20
-35.3
 30
0.0000000000000067
  0
POINT
  5
234
330
1F
100
AcDbEntity
  8
ConnectionPoints
100
AcDbPoint
 10
0.0
 20
0.0
 30
0.0
  0
POINT
  5
235
330
1F
100
AcDbEntity
  8
ConnectionPoints
100
AcDbPoint
 10
0.0
 20
0.0
 30
0.0
  0
POINT
  5
236
330
1F
100
AcDbEntity
  8
ConnectionPoints
100
AcDbPoint
 10
-61.74761128983049
 20
-0.0000000000000022
 30
-35.65
  0
POINT
  5
237
330
1F
100
AcDbEntity
  8
ConnectionPoints
100
AcDbPoint
 10
0.0
 20
-35.3
 30
0.0000000000000022
  0
ENDSEC
  0
SECTION
  2
OBJECTS
  0
DICTIONARY
  5
C
330
0
100
AcDbDictionary
281
     1
  3
ACAD_DETAILVIEWSTYLE
350
23F
  3
ACAD_GROUP
350
D
  3
ACAD_LAYOUT
350
1A
  3
ACAD_MATERIAL
350
43
  3
ACAD_MLEADERSTYLE
350
6B
  3
ACAD_MLINESTYLE
350
17
  3
ACAD_PLOTSETTINGS
350
19
  3
ACAD_PLOTSTYLENAME
350
E
  3
ACAD_SCALELIST
350
47
  3
ACAD_SECTIONVIEWSTYLE
350
240
  3
ACAD_TABLESTYLE
350
69
  3
ACAD_VISUALSTYLE
350
2A
  3
ACDB_RECOMPOSE_DATA
350
23C
  3
AcDbVariableDictionary
350
238
  0
SUN
  5
6D
330
29
100
AcDbSun
 90
        1
290
     0
 63
     7
421
 16777215
 40
1.0
291
     1
 91
  2455826
 92
 54000000
292
     0
 70
     2
 71
   256
280
     1
  0
DICTIONARY
  5
23F
102
{ACAD_REACTORS
330
C
102
}
330
C
100
AcDbDictionary
281
     1
  0
DICTIONARY
  5
D
102
{ACAD_REACTORS
330
C
102
}
330
C
100
AcDbDictionary
281
     1
  0
DICTIONARY
  5
1A
102
{ACAD_REACTORS
330
C
102
}
330
C
100
AcDbDictionary
281
     1
  3
Layout1
350
1E
  3
Layout2
350
26
  3
Model
350
22
  0
DICTIONARY
  5
43
102
{ACAD_REACTORS
330
C
102
}
330
C
100
AcDbDictionary
281
     1
  3
ByBlock
350
45
  3
ByLayer
350
44
  3
Global
350
46
  0
DICTIONARY
  5
6B
102
{ACAD_REACTORS
330
C
102
}
330
C
100
AcDbDictionary
281
     1
  3
Standard
350
6C
  0
DICTIONARY
  5
17
102
{ACAD_REACTORS
330
C
102
}
330
C
100
AcDbDictionary
281
     1
  3
Standard
350
18
  0
DICTIONARY
  5
19
102
{ACAD_REACTORS
330
C
102
}
330
C
100
AcDbDictionary
281
     1
  0
ACDBDICTIONARYWDFLT
  5
E
102
{ACAD_REACTORS
330
C
102
}
330
C
100
AcDbDictionary
281
     1
  3
Normal
350
F
100
AcDbDictionaryWithDefault
340
F
  0
DICTIONARY
  5
47
102
{ACAD_REACTORS
330
C
102
}
330
C
100
AcDbDictionary
281
     1
  3
A0
350
48
  3
A1
350
49
  3
A2
350
4A
  3
A3
350
4B
  3
A4
350
4C
  3
A5
350
4D
  3
A6
350
4E
  3
A7
350
4F
  3
A8
350
50
  3
A9
350
51
  3
B0
350
52
  3
B1
350
53
  3
B2
350
54
  3
B3
350
55
  3
B4
350
56
  3
B5
350
57
  3
B6
350
58
  3
B7
350
59
  3
B8
350
5A
  3
B9
350
5B
  3
C0
350
5C
  3
C1
350
5D
  3
C2
350
5E
  3
C3
350
5F
  3
C4
350
60
  3
C5
350
61
  3
C6
350
62
  3
C7
350
63
  3
C8
350
64
  3
C9
350
65
  3
D0
350
66
  3
D1
350
67
  3
D2
350
68
  0
DICTIONARY
  5
240
102
{ACAD_REACTORS
330
C
102
}
330
C
100
AcDbDictionary
281
     1
  0
DICTIONARY
  5
69
102
{ACAD_REACTORS
330
C
102
}
330
C
100
AcDbDictionary
281
     1
  3
Standard
350
6A
  0
DICTIONARY
  5
2A
102
{ACAD_REACTORS
330
C
102
}
330
C
100
AcDbDictionary
281
     1
  3
2dWireframe
350
2F
  3
Basic
350
32
  3
Brighten
350
36
  3
ColorChange
350
3A
  3
Conceptual
350
34
  3
Dim
350
35
  3
EdgeColorOff
350
3D
  3
Facepattern
350
39
  3
Flat
350
2B
  3
FlatWithEdges
350
2C
  3
Gouraud
350
2D
  3
GouraudWithEdges
350
2E
  3
Hidden
350
31
  3
JitterOff
350
3B
  3
Linepattern
350
38
  3
OverhangOff
350
3C
  3
Realistic
350
33
  3
Shaded
350
42
  3
Shaded with edges
350
41
  3
Shades of Gray
350
3E
  3
Sketchy
350
3F
  3
Thicken
350
37
  3
Wireframe
350
30
  3
X-Ray
350
40
  0
XRECORD
  5
23C
102
{ACAD_REACTORS
330
C
102
}
330
C
100
AcDbXrecord
280
     1
 90
        1
330
6A
  0
DICTIONARY
  5
238
102
{ACAD_REACTORS
330
C
102
}
330
C
100
AcDbDictionary
281
     1
  3
CANNOSCALE
350
239
  3
CMLEADERSTYLE
350
23E
  3
CTABLESTYLE
350
23D
  0
LAYOUT
  5
1E
102
{ACAD_REACTORS
330
1A
102
}
330
1A
100
AcDbPlotSettings
  1

  2
none_device
  4

  6

 40
0.0
 41
0.0
 42
0.0
 43
0.0
 44
0.0
 45
0.0
 46
0.0
 47
0.0
 48
0.0
 49
0.0
140
0.0
141
0.0
142
1.0
143
1.0
 70
   688
 72
     1
 73
     0
 74
     5
  7

 75
    16
 76
     0
 77
     2
 78
   300
147
1.0
148
0.0
149
0.0
100
AcDbLayout
  1
Layout1
 70
     1
 71
     1
 10
0.0
 20
0.0
 11
420.0
 21
297.0
 12
0.0
 22
0.0
 32
0.0
 14
1.000000000000000E+20
 24
1.000000000000000E+20
 34
1.000000000000000E+20
 15
-1.000000000000000E+20
 25
-1.000000000000000E+20
 35
-1.000000000000000E+20
146
0.0
 13
0.0
 23
0.0
 33
0.0
 16
1.0
 26
0.0
 36
0.0
 17
0.0
 27
1.0
 37
0.0
 76
     0
330
1B
  0
LAYOUT
  5
26
102
{ACAD_REACTORS
330
1A
102
}
330
1A
100
AcDbPlotSettings
  1

  2
none_device
  4

  6

 40
0.0
 41
0.0
 42
0.0
 43
0.0
 44
0.0
 45
0.0
 46
0.0
 47
0.0
 48
0.0
 49
0.0
140
0.0
141
0.0
142
1.0
143
1.0
 70
   688
 72
     1
 73
     0
 74
     5
  7

 75
    16
 76
     0
 77
     2
 78
   300
147
1.0
148
0.0
149
0.0
100
AcDbLayout
  1
Layout2
 70
     1
 71
     2
 10
0.0
 20
0.0
 11
0.0
 21
0.0
 12
0.0
 22
0.0
 32
0.0
 14
0.0
 24
0.0
 34
0.0
 15
0.0
 25
0.0
 35
0.0
146
0.0
 13
0.0
 23
0.0
 33
0.0
 16
1.0
 26
0.0
 36
0.0
 17
0.0
 27
1.0
 37
0.0
 76
     0
330
23
  0
LAYOUT
  5
22
102
{ACAD_REACTORS
330
1A
102
}
330
1A
100
AcDbPlotSettings
  1

  2
none_device
  4
Letter_(8.50_x_11.00_Inches)
  6

 40
6.35
 41
6.35
 42
6.35000508
 43
6.35000508
 44
215.9
 45
279.4
 46
0.0
 47
0.0
 48
0.0
 49
0.0
140
0.0
141
0.0
142
1.0
143
1.0
 70
  1712
 72
     1
 73
     0
 74
     0
  7

 75
     0
 76
     0
 77
     2
 78
   300
147
1.0
148
0.0
149
0.0
100
AcDbLayout
  1
Model
 70
     1
 71
     0
 10
0.0
 20
0.0
 11
420.0
 21
297.0
 12
0.0
 22
0.0
 32
0.0
 14
1.000000000000000E+20
 24
1.000000000000000E+20
 34
1.000000000000000E+20
 15
-1.000000000000000E+20
 25
-1.000000000000000E+20
 35
-1.000000000000000E+20
146
0.0
 13
0.0
 23
0.0
 33
0.0
 16
1.0
 26
0.0
 36
0.0
 17
0.0
 27
1.0
 37
0.0
 76
     0
330
1F
331
29
  0
MATERIAL
  5
45
102
{ACAD_REACTORS
330
43
102
}
330
43
100
AcDbMaterial
  1
ByBlock
 72
     1
 94
      127
  0
MATERIAL
  5
44
102
{ACAD_REACTORS
330
43
102
}
330
43
100
AcDbMaterial
  1
ByLayer
 72
     1
 94
      127
  0
MATERIAL
  5
46
102
{ACAD_REACTORS
330
43
102
}
330
43
100
AcDbMaterial
  1
Global
 72
     1
 94
      127
  0
MLEADERSTYLE
  5
6C
102
{ACAD_REACTORS
330
6B
102
}
330
6B
100
AcDbMLeaderStyle
179
     2
170
     2
171
     1
172
     0
 90
        2
 40
0.0
 41
0.0
173
     1
 91
-1056964608
340
14
 92
       -2
290
     1
 42
2.0
291
     1
 43
8.0
  3
Standard
341
0
 44
4.0
300

342
11
174
     1
178
     6
175
     1
176
     0
 93
-1056964608
 45
4.0
292
     0
297
     0
 46
4.0
343
0
 94
-1056964608
 47
1.0
 49
1.0
140
1.0
293
     1
141
0.0
294
     1
177
     0
142
1.0
295
     0
296
     0
143
3.75
271
     0
272
     9
273
     9
298
     0
  0
MLINESTYLE
  5
18
102
{ACAD_REACTORS
330
17
102
}
330
17
100
AcDbMlineStyle
  2
Standard
 70
     0
  3

 62
   256
 51
90.0
 52
90.0
 71
     2
 49
0.5
 62
   256
  6
BYLAYER
 49
-0.5
 62
   256
  6
BYLAYER
  0
ACDBPLACEHOLDER
  5
F
102
{ACAD_REACTORS
330
E
102
}
330
E
  0
SCALE
  5
48
102
{ACAD_REACTORS
330
47
102
}
330
47
100
AcDbScale
 70
     0
300
1:1
140
1.0
141
1.0
290
     1
  0
SCALE
  5
49
102
{ACAD_REACTORS
330
47
102
}
330
47
100
AcDbScale
 70
     0
300
1:2
140
1.0
141
2.0
290
     0
  0
SCALE
  5
4A
102
{ACAD_REACTORS
330
47
102
}
330
47
100
AcDbScale
 70
     0
300
1:4
140
1.0
141
4.0
290
     0
  0
SCALE
  5
4B
102
{ACAD_REACTORS
330
47
102
}
330
47
100
AcDbScale
 70
     0
300
1:5
140
1.0
141
5.0
290
     0
  0
SCALE
  5
4C
102
{ACAD_REACTORS
330
47
102
}
330
47
100
AcDbScale
 70
     0
300
1:8
140
1.0
141
8.0
290
     0
  0
SCALE
  5
4D
102
{ACAD_REACTORS
330
47
102
}
330
47
100
AcDbScale
 70
     0
300
1:10
140
1.0
141
10.0
290
     0
  0
SCALE
  5
4E
102
{ACAD_REACTORS
330
47
102
}
330
47
100
AcDbScale
 70
     0
300
1:16
140
1.0
141
16.0
290
     0
  0
SCALE
  5
4F
102
{ACAD_REACTORS
330
47
102
}
330
47
100
AcDbScale
 70
     0
300
1:20
140
1.0
141
20.0
290
     0
  0
SCALE
  5
50
102
{ACAD_REACTORS
330
47
102
}
330
47
100
AcDbScale
 70
     0
300
1:30
140
1.0
141
30.0
290
     0
  0
SCALE
  5
51
102
{ACAD_REACTORS
330
47
102
}
330
47
100
AcDbScale
 70
     0
300
1:40
140
1.0
141
40.0
290
     0
  0
SCALE
  5
52
102
{ACAD_REACTORS
330
47
102
}
330
47
100
AcDbScale
 70
     0
300
1:50
140
1.0
141
50.0
290
     0
  0
SCALE
  5
53
102
{ACAD_REACTORS
330
47
102
}
330
47
100
AcDbScale
 70
     0
300
1:100
140
1.0
141
100.0
290
     0
  0
SCALE
  5
54
102
{ACAD_REACTORS
330
47
102
}
330
47
100
AcDbScale
 70
     0
300
2:1
140
2.0
141
1.0
290
     0
  0
SCALE
  5
55
102
{ACAD_REACTORS
330
47
102
}
330
47
100
AcDbScale
 70
     0
300
4:1
140
4.0
141
1.0
290
     0
  0
SCALE
  5
56
102
{ACAD_REACTORS
330
47
102
}
330
47
100
AcDbScale
 70
     0
300
8:1
140
8.0
141
1.0
290
     0
  0
SCALE
  5
57
102
{ACAD_REACTORS
330
47
102
}
330
47
100
AcDbScale
 70
     0
300
10:1
140
10.0
141
1.0
290
     0
  0
SCALE
  5
58
102
{ACAD_REACTORS
330
47
102
}
330
47
100
AcDbScale
 70
     0
300
100:1
140
100.0
141
1.0
290
     0
  0
SCALE
  5
59
102
{ACAD_REACTORS
330
47
102
}
330
47
100
AcDbScale
 70
     0
300
1/128" = 1'-0"
140
0.0078125
141
12.0
290
     0
  0
SCALE
  5
5A
102
{ACAD_REACTORS
330
47
102
}
330
47
100
AcDbScale
 70
     0
300
1/64" = 1'-0"
140
0.015625
141
12.0
290
     0
  0
SCALE
  5
5B
102
{ACAD_REACTORS
330
47
102
}
330
47
100
AcDbScale
 70
     0
300
1/32" = 1'-0"
140
0.03125
141
12.0
290
     0
  0
SCALE
  5
5C
102
{ACAD_REACTORS
330
47
102
}
330
47
100
AcDbScale
 70
     0
300
1/16" = 1'-0"
140
0.0625
141
12.0
290
     0
  0
SCALE
  5
5D
102
{ACAD_REACTORS
330
47
102
}
330
47
100
AcDbScale
 70
     0
300
3/32" = 1'-0"
140
0.09375
141
12.0
290
     0
  0
SCALE
  5
5E
102
{ACAD_REACTORS
330
47
102
}
330
47
100
AcDbScale
 70
     0
300
1/8" = 1'-0"
140
0.125
141
12.0
290
     0
  0
SCALE
  5
5F
102
{ACAD_REACTORS
330
47
102
}
330
47
100
AcDbScale
 70
     0
300
3/16" = 1'-0"
140
0.1875
141
12.0
290
     0
  0
SCALE
  5
60
102
{ACAD_REACTORS
330
47
102
}
330
47
100
AcDbScale
 70
     0
300
1/4" = 1'-0"
140
0.25
141
12.0
290
     0
  0
SCALE
  5
61
102
{ACAD_REACTORS
330
47
102
}
330
47
100
AcDbScale
 70
     0
300
3/8" = 1'-0"
140
0.375
141
12.0
290
     0
  0
SCALE
  5
62
102
{ACAD_REACTORS
330
47
102
}
330
47
100
AcDbScale
 70
     0
300
1/2" = 1'-0"
140
0.5
141
12.0
290
     0
  0
SCALE
  5
63
102
{ACAD_REACTORS
330
47
102
}
330
47
100
AcDbScale
 70
     0
300
3/4" = 1'-0"
140
0.75
141
12.0
290
     0
  0
SCALE
  5
64
102
{ACAD_REACTORS
330
47
102
}
330
47
100
AcDbScale
 70
     0
300
1" = 1'-0"
140
1.0
141
12.0
290
     0
  0
SCALE
  5
65
102
{ACAD_REACTORS
330
47
102
}
330
47
100
AcDbScale
 70
     0
300
1-1/2" = 1'-0"
140
1.5
141
12.0
290
     0
  0
SCALE
  5
66
102
{ACAD_REACTORS
330
47
102
}
330
47
100
AcDbScale
 70
     0
300
3" = 1'-0"
140
3.0
141
12.0
290
     0
  0
SCALE
  5
67
102
{ACAD_REACTORS
330
47
102
}
330
47
100
AcDbScale
 70
     0
300
6" = 1'-0"
140
6.0
141
12.0
290
     0
  0
SCALE
  5
68
102
{ACAD_REACTORS
330
47
102
}
330
47
100
AcDbScale
 70
     0
300
1'-0" = 1'-0"
140
12.0
141
12.0
290
     0
  0
TABLESTYLE
  5
6A
102
{ACAD_REACTORS
330
69
102
}
102
{ACAD_XDICTIONARY
360
23A
102
}
330
69
100
AcDbTableStyle
  3
Standard
 70
     0
 71
     0
 40
0.06
 41
0.06
280
     0
281
     0
  7
Standard
140
4.5
170
     2
 62
     0
 63
   257
283
     0
 90
        4
 91
        0
  1

274
    -2
284
     1
 64
     0
275
    -2
285
     1
 65
     0
276
    -2
286
     1
 66
     0
277
    -2
287
     1
 67
     0
278
    -2
288
     1
 68
     0
279
    -2
289
     1
 69
     0
  7
Standard
140
6.0
170
     5
 62
     0
 63
   257
283
     0
 90
        4
 91
        0
  1

274
    -2
284
     1
 64
     0
275
    -2
285
     1
 65
     0
276
    -2
286
     1
 66
     0
277
    -2
287
     1
 67
     0
278
    -2
288
     1
 68
     0
279
    -2
289
     1
 69
     0
  7
Standard
140
4.5
170
     5
 62
     0
 63
   257
283
     0
 90
        4
 91
        0
  1

274
    -2
284
     1
 64
     0
275
    -2
285
     1
 65
     0
276
    -2
286
     1
 66
     0
277
    -2
287
     1
 67
     0
278
    -2
288
     1
 68
     0
279
    -2
289
     1
 69
     0
  0
VISUALSTYLE
  5
2F
102
{ACAD_REACTORS
330
2A
102
}
330
2A
100
AcDbVisualStyle
  2
2dWireframe
 70
     4
177
     3
291
     0
 70
    58
 90
        0
176
     1
 90
        2
176
     1
 90
        0
176
     1
 90
        0
176
     1
 40
0.6
176
     1
 40
30.0
176
     1
 62
     7
420
 16777215
176
     1
 90
        1
176
     1
 90
        4
176
     1
 62
     7
176
     1
 62
   257
176
     1
 90
        1
176
     1
 90
        1
176
     1
 40
1.0
176
     1
 90
        0
176
     1
 62
   257
176
     1
 40
1.0
176
     1
 90
        1
176
     1
 90
        6
176
     1
 90
        2
176
     1
 62
     7
176
     1
 90
        5
176
     1
 90
        0
176
     1
 90
        0
176
     1
290
     0
176
     1
 90
        1
176
     1
 40
0.0
176
     1
 90
        0
176
     1
290
     1
176
     1
290
     1
176
     1
290
     0
176
     1
290
     0
176
     1
290
     0
176
     1
290
     0
176
     1
290
     0
176
     1
290
     0
176
     1
290
     0
176
     1
 90
       50
176
     1
 40
0.0
176
     1
 40
1.0
176
     1
 90
        0
176
     1
 62
    18
420
        0
176
     1
 90
       50
176
     1
 90
        3
176
     1
 62
     5
420
      255
176
     1
290
     0
176
     1
 90
       50
176
     1
 90
       50
176
     1
 90
       50
176
     1
290
     0
176
     1
 90
       50
176
     1
 62
   256
176
     0
 40
1.0
176
     0
 90
        2
176
     1
  1
strokes_ogs.tif
176
     1
290
     0
176
     1
 40
1.0
176
     1
 40
1.0
176
     1
  0
VISUALSTYLE
  5
32
102
{ACAD_REACTORS
330
2A
102
}
330
2A
100
AcDbVisualStyle
  2
Basic
 70
     7
177
     3
291
     1
 70
    58
 90
        1
176
     1
 90
        0
176
     1
 90
        1
176
     1
 90
        0
176
     1
 40
0.6
176
     1
 40
30.0
176
     1
 62
     7
420
 16777215
176
     1
 90
        0
176
     1
 90
        4
176
     1
 62
     7
176
     1
 62
   257
176
     1
 90
        1
176
     1
 90
        1
176
     1
 40
1.0
176
     1
 90
        8
176
     1
 62
     7
176
     1
 40
1.0
176
     1
 90
        1
176
     1
 90
        6
176
     1
 90
        2
176
     1
 62
     7
176
     1
 90
        5
176
     1
 90
        0
176
     1
 90
        0
176
     1
290
     0
176
     1
 90
        1
176
     1
 40
0.0
176
     1
 90
        0
176
     1
290
     0
176
     1
290
     1
176
     1
290
     1
176
     1
290
     0
176
     1
290
     0
176
     1
290
     0
176
     1
290
     0
176
     1
290
     0
176
     1
290
     0
176
     1
 90
       50
176
     1
 40
0.0
176
     1
 40
1.0
176
     1
 90
        0
176
     1
 62
    18
420
        0
176
     1
 90
       50
176
     1
 90
        3
176
     1
 62
     5
420
      255
176
     1
290
     0
176
     1
 90
       50
176
     1
 90
       50
176
     1
 90
       50
176
     1
290
     0
176
     1
 90
       50
176
     1
 62
   256
176
     0
 40
1.0
176
     0
 90
        2
176
     1
  1
strokes_ogs.tif
176
     1
290
     0
176
     1
 40
1.0
176
     1
 40
1.0
176
     1
  0
VISUALSTYLE
  5
36
102
{ACAD_REACTORS
330
2A
102
}
330
2A
100
AcDbVisualStyle
  2
Brighten
 70
    12
177
     3
291
     1
 70
    58
 90
        2
176
     1
 90
        2
176
     1
 90
        0
176
     1
 90
        0
176
     1
 40
0.6
176
     1
 40
30.0
176
     1
 62
     7
420
 16777215
176
     1
 90
        1
176
     1
 90
        4
176
     1
 62
     7
176
     1
 62
   257
176
     1
 90
        1
176
     1
 90
        1
176
     1
 40
1.0
176
     1
 90
        8
176
     1
 62
     7
176
     1
 40
1.0
176
     1
 90
        1
176
     1
 90
        6
176
     1
 90
        2
176
     1
 62
     7
176
     1
 90
        5
176
     1
 90
        0
176
     1
 90
        0
176
     1
290
     0
176
     1
 90
        1
176
     1
 40
50.0
176
     1
 90
        0
176
     1
290
     0
176
     1
290
     1
176
     1
290
     1
176
     1
290
     0
176
     1
290
     0
176
     1
290
     0
176
     1
290
     0
176
     1
290
     0
176
     1
290
     0
176
     1
 90
       50
176
     1
 40
0.0
176
     1
 40
1.0
176
     1
 90
        0
176
     1
 62
    18
420
        0
176
     1
 90
       50
176
     1
 90
        3
176
     1
 62
     5
420
      255
176
     1
290
     0
176
     1
 90
       50
176
     1
 90
       50
176
     1
 90
       50
176
     1
290
     0
176
     1
 90
       50
176
     1
 62
   256
176
     0
 40
1.0
176
     0
 90
        2
176
     1
  1
strokes_ogs.tif
176
     1
290
     0
176
     1
 40
1.0
176
     1
 40
1.0
176
     1
  0
VISUALSTYLE
  5
3A
102
{ACAD_REACTORS
330
2A
102
}
330
2A
100
AcDbVisualStyle
  2
ColorChange
 70
    16
177
     3
291
     1
 70
    58
 90
        2
176
     1
 90
        2
176
     1
 90
        3
176
     1
 90
        0
176
     1
 40
0.6
176
     1
 40
30.0
176
     1
 62
     8
420
  8421504
176
     1
 90
        1
176
     1
 90
        4
176
     1
 62
     7
176
     1
 62
   257
176
     1
 90
        1
176
     1
 90
        1
176
     1
 40
1.0
176
     1
 90
        8
176
     1
 62
     8
420
  8421504
176
     1
 40
1.0
176
     1
 90
        1
176
     1
 90
        6
176
     1
 90
        2
176
     1
 62
     7
176
     1
 90
        5
176
     1
 90
        0
176
     1
 90
        0
176
     1
290
     0
176
     1
 90
        1
176
     1
 40
0.0
176
     1
 90
        0
176
     1
290
     0
176
     1
290
     1
176
     1
290
     1
176
     1
290
     0
176
     1
290
     0
176
     1
290
     0
176
     1
290
     0
176
     1
290
     0
176
     1
290
     0
176
     1
 90
       50
176
     1
 40
0.0
176
     1
 40
1.0
176
     1
 90
        0
176
     1
 62
    18
420
        0
176
     1
 90
       50
176
     1
 90
        3
176
     1
 62
     5
420
      255
176
     1
290
     0
176
     1
 90
       50
176
     1
 90
       50
176
     1
 90
       50
176
     1
290
     0
176
     1
 90
       50
176
     1
 62
   256
176
     0
 40
1.0
176
     0
 90
        2
176
     1
  1
strokes_ogs.tif
176
     1
290
     0
176
     1
 40
1.0
176
     1
 40
1.0
176
     1
  0
VISUALSTYLE
  5
34
102
{ACAD_REACTORS
330
2A
102
}
330
2A
100
AcDbVisualStyle
  2
Conceptual
 70
     9
177
     3
291
     0
 70
    58
 90
        3
176
     1
 90
        2
176
     1
 90
        0
176
     1
 90
        0
176
     1
 40
0.6
176
     1
 40
30.0
176
     1
 62
     7
420
 16777215
176
     1
 90
        2
176
     1
 90
        2
176
     1
 62
     7
176
     1
 62
   257
176
     1
 90
        1
176
     1
 90
        1
176
     1
 40
179.0
176
     1
 90
        8
176
     1
 62
     7
176
     1
 40
1.0
176
     1
 90
        1
176
     1
 90
        6
176
     1
 90
        2
176
     1
 62
     7
176
     1
 90
        3
176
     1
 90
        0
176
     1
 90
        0
176
     1
290
     0
176
     1
 90
        1
176
     1
 40
0.0
176
     1
 90
        0
176
     1
290
     0
176
     1
290
     1
176
     1
290
     1
176
     1
290
     0
176
     1
290
     0
176
     1
290
     0
176
     1
290
     0
176
     1
290
     0
176
     1
290
     0
176
     1
 90
       50
176
     1
 40
0.0
176
     1
 40
1.0
176
     1
 90
        0
176
     1
 62
    18
420
        0
176
     1
 90
       50
176
     1
 90
        3
176
     1
 62
     5
420
      255
176
     1
290
     0
176
     1
 90
       50
176
     1
 90
       50
176
     1
 90
       50
176
     1
290
     0
176
     1
 90
       50
176
     1
 62
   256
176
     0
 40
1.0
176
     0
 90
        2
176
     1
  1
strokes_ogs.tif
176
     1
290
     0
176
     1
 40
1.0
176
     1
 40
1.0
176
     1
  0
VISUALSTYLE
  5
35
102
{ACAD_REACTORS
330
2A
102
}
330
2A
100
AcDbVisualStyle
  2
Dim
 70
    11
177
     3
291
     1
 70
    58
 90
        2
176
     1
 90
        2
176
     1
 90
        0
176
     1
 90
        0
176
     1
 40
0.6
176
     1
 40
30.0
176
     1
 62
     7
420
 16777215
176
     1
 90
        1
176
     1
 90
        4
176
     1
 62
     7
176
     1
 62
   257
176
     1
 90
        1
176
     1
 90
        1
176
     1
 40
1.0
176
     1
 90
        8
176
     1
 62
     7
176
     1
 40
1.0
176
     1
 90
        1
176
     1
 90
        6
176
     1
 90
        2
176
     1
 62
     7
176
     1
 90
        5
176
     1
 90
        0
176
     1
 90
        0
176
     1
290
     0
176
     1
 90
        1
176
     1
 40
-50.0
176
     1
 90
        0
176
     1
290
     0
176
     1
290
     1
176
     1
290
     1
176
     1
290
     0
176
     1
290
     0
176
     1
290
     0
176
     1
290
     0
176
     1
290
     0
176
     1
290
     0
176
     1
 90
       50
176
     1
 40
0.0
176
     1
 40
1.0
176
     1
 90
        0
176
     1
 62
    18
420
        0
176
     1
 90
       50
176
     1
 90
        3
176
     1
 62
     5
420
      255
176
     1
290
     0
176
     1
 90
       50
176
     1
 90
       50
176
     1
 90
       50
176
     1
290
     0
176
     1
 90
       50
176
     1
 62
   256
176
     0
 40
1.0
176
     0
 90
        2
176
     1
  1
strokes_ogs.tif
176
     1
290
     0
176
     1
 40
1.0
176
     1
 40
1.0
176
     1
  0
VISUALSTYLE
  5
3D
102
{ACAD_REACTORS
330
2A
102
}
330
2A
100
AcDbVisualStyle
  2
EdgeColorOff
 70
    22
177
     3
291
     1
 70
    58
 90
        2
176
     0
 90
        2
176
     0
 90
        0
176
     0
 90
        0
176
     0
 40
0.6
176
     0
 40
30.0
176
     0
 62
     7
420
 16777215
176
     0
 90
        1
176
     0
 90
        4
176
     0
 62
     7
176
     0
 62
   257
176
     0
 90
        1
176
     0
 90
        1
176
     0
 40
1.0
176
     0
 90
        8
176
     2
 62
     7
176
     0
 40
1.0
176
     0
 90
        1
176
     0
 90
        6
176
     0
 90
        2
176
     0
 62
     7
176
     0
 90
        5
176
     0
 90
        0
176
     0
 90
        0
176
     0
290
     0
176
     0
 90
        1
176
     0
 40
0.0
176
     0
 90
        0
176
     0
290
     0
176
     0
290
     1
176
     0
290
     1
176
     0
290
     0
176
     0
290
     0
176
     0
290
     0
176
     0
290
     0
176
     0
290
     0
176
     0
290
     0
176
     0
 90
       50
176
     0
 40
0.0
176
     0
 40
1.0
176
     0
 90
        0
176
     0
 62
    18
420
        0
176
     0
 90
       50
176
     0
 90
        3
176
     0
 62
     5
420
      255
176
     0
290
     0
176
     0
 90
       50
176
     0
 90
       50
176
     0
 90
       50
176
     0
290
     0
176
     0
 90
       50
176
     0
 62
   256
176
     0
 40
1.0
176
     0
 90
        2
176
     0
  1
strokes_ogs.tif
176
     0
290
     0
176
     0
 40
1.0
176
     0
 40
1.0
176
     0
  0
VISUALSTYLE
  5
39
102
{ACAD_REACTORS
330
2A
102
}
330
2A
100
AcDbVisualStyle
  2
Facepattern
 70
    15
177
     3
291
     1
 70
    58
 90
        2
176
     1
 90
        2
176
     1
 90
        0
176
     1
 90
        0
176
     1
 40
0.6
176
     1
 40
30.0
176
     1
 62
     7
420
 16777215
176
     1
 90
        1
176
     1
 90
        4
176
     1
 62
     7
176
     1
 62
   257
176
     1
 90
        1
176
     1
 90
        1
176
     1
 40
1.0
176
     1
 90
        8
176
     1
 62
     7
176
     1
 40
1.0
176
     1
 90
        1
176
     1
 90
        6
176
     1
 90
        2
176
     1
 62
     7
176
     1
 90
        5
176
     1
 90
        0
176
     1
 90
        0
176
     1
290
     0
176
     1
 90
        1
176
     1
 40
0.0
176
     1
 90
        0
176
     1
290
     0
176
     1
290
     1
176
     1
290
     1
176
     1
290
     0
176
     1
290
     0
176
     1
290
     0
176
     1
290
     0
176
     1
290
     0
176
     1
290
     0
176
     1
 90
       50
176
     1
 40
0.0
176
     1
 40
1.0
176
     1
 90
        0
176
     1
 62
    18
420
        0
176
     1
 90
       50
176
     1
 90
        3
176
     1
 62
     5
420
      255
176
     1
290
     0
176
     1
 90
       50
176
     1
 90
       50
176
     1
 90
       50
176
     1
290
     0
176
     1
 90
       50
176
     1
 62
   256
176
     0
 40
1.0
176
     0
 90
        2
176
     1
  1
strokes_ogs.tif
176
     1
290
     0
176
     1
 40
1.0
176
     1
 40
1.0
176
     1
  0
VISUALSTYLE
  5
2B
102
{ACAD_REACTORS
330
2A
102
}
330
2A
100
AcDbVisualStyle
  2
Flat
 70
     0
177
     3
291
     1
 70
    58
 90
        2
176
     1
 90
        1
176
     1
 90
        1
176
     1
 90
        2
176
     1
 40
0.6
176
     1
 40
30.0
176
     1
 62
     7
420
 16777215
176
     1
 90
        0
176
     1
 90
        0
176
     1
 62
     7
176
     1
 62
   257
176
     1
 90
        1
176
     1
 90
        1
176
     1
 40
1.0
176
     1
 90
        8
176
     1
 62
     7
176
     1
 40
1.0
176
     1
 90
        1
176
     1
 90
        6
176
     1
 90
        2
176
     1
 62
     7
176
     1
 90
        5
176
     1
 90
        0
176
     1
 90
        0
176
     1
290
     0
176
     1
 90
       13
176
     1
 40
0.0
176
     1
 90
        0
176
     1
290
     0
176
     1
290
     1
176
     1
290
     1
176
     1
290
     0
176
     1
290
     0
176
     1
290
     0
176
     1
290
     0
176
     1
290
     0
176
     1
290
     0
176
     1
 90
       50
176
     1
 40
0.0
176
     1
 40
1.0
176
     1
 90
        0
176
     1
 62
    18
420
        0
176
     1
 90
       50
176
     1
 90
        3
176
     1
 62
     5
420
      255
176
     1
290
     0
176
     1
 90
       50
176
     1
 90
       50
176
     1
 90
       50
176
     1
290
     0
176
     1
 90
       50
176
     1
 62
   256
176
     0
 40
1.0
176
     0
 90
        2
176
     1
  1
strokes_ogs.tif
176
     1
290
     0
176
     1
 40
1.0
176
     1
 40
1.0
176
     1
  0
VISUALSTYLE
  5
2C
102
{ACAD_REACTORS
330
2A
102
}
330
2A
100
AcDbVisualStyle
  2
FlatWithEdges
 70
     1
177
     3
291
     1
 70
    58
 90
        2
176
     1
 90
        1
176
     1
 90
        1
176
     1
 90
        2
176
     1
 40
0.6
176
     1
 40
30.0
176
     1
 62
     7
420
 16777215
176
     1
 90
        1
176
     1
 90
        0
176
     1
 62
     7
176
     1
 62
   257
176
     1
 90
        1
176
     1
 90
        1
176
     1
 40
1.0
176
     1
 90
        0
176
     1
 62
   257
176
     1
 40
1.0
176
     1
 90
        1
176
     1
 90
        6
176
     1
 90
        2
176
     1
 62
     7
176
     1
 90
        5
176
     1
 90
        0
176
     1
 90
        0
176
     1
290
     0
176
     1
 90
       13
176
     1
 40
0.0
176
     1
 90
        0
176
     1
290
     0
176
     1
290
     1
176
     1
290
     1
176
     1
290
     0
176
     1
290
     0
176
     1
290
     0
176
     1
290
     0
176
     1
290
     0
176
     1
290
     0
176
     1
 90
       50
176
     1
 40
0.0
176
     1
 40
1.0
176
     1
 90
        0
176
     1
 62
    18
420
        0
176
     1
 90
       50
176
     1
 90
        3
176
     1
 62
     5
420
      255
176
     1
290
     0
176
     1
 90
       50
176
     1
 90
       50
176
     1
 90
       50
176
     1
290
     0
176
     1
 90
       50
176
     1
 62
   256
176
     0
 40
1.0
176
     0
 90
        2
176
     1
  1
strokes_ogs.tif
176
     1
290
     0
176
     1
 40
1.0
176
     1
 40
1.0
176
     1
  0
VISUALSTYLE
  5
2D
102
{ACAD_REACTORS
330
2A
102
}
330
2A
100
AcDbVisualStyle
  2
Gouraud
 70
     2
177
     3
291
     1
 70
    58
 90
        2
176
     1
 90
        2
176
     1
 90
        1
176
     1
 90
        2
176
     1
 40
0.6
176
     1
 40
30.0
176
     1
 62
     7
420
 16777215
176
     1
 90
        0
176
     1
 90
        0
176
     1
 62
     7
176
     1
 62
   257
176
     1
 90
        1
176
     1
 90
        1
176
     1
 40
1.0
176
     1
 90
        0
176
     1
 62
     7
176
     1
 40
1.0
176
     1
 90
        1
176
     1
 90
        6
176
     1
 90
        2
176
     1
 62
     7
176
     1
 90
        5
176
     1
 90
        0
176
     1
 90
        0
176
     1
290
     0
176
     1
 90
       13
176
     1
 40
0.0
176
     1
 90
        0
176
     1
290
     0
176
     1
290
     1
176
     1
290
     1
176
     1
290
     0
176
     1
290
     0
176
     1
290
     0
176
     1
290
     0
176
     1
290
     0
176
     1
290
     0
176
     1
 90
       50
176
     1
 40
0.0
176
     1
 40
1.0
176
     1
 90
        0
176
     1
 62
    18
420
        0
176
     1
 90
       50
176
     1
 90
        3
176
     1
 62
     5
420
      255
176
     1
290
     0
176
     1
 90
       50
176
     1
 90
       50
176
     1
 90
       50
176
     1
290
     0
176
     1
 90
       50
176
     1
 62
   256
176
     0
 40
1.0
176
     0
 90
        2
176
     1
  1
strokes_ogs.tif
176
     1
290
     0
176
     1
 40
1.0
176
     1
 40
1.0
176
     1
  0
VISUALSTYLE
  5
2E
102
{ACAD_REACTORS
330
2A
102
}
330
2A
100
AcDbVisualStyle
  2
GouraudWithEdges
 70
     3
177
     3
291
     1
 70
    58
 90
        2
176
     1
 90
        2
176
     1
 90
        1
176
     1
 90
        2
176
     1
 40
0.6
176
     1
 40
30.0
176
     1
 62
     7
420
 16777215
176
     1
 90
        1
176
     1
 90
        0
176
     1
 62
     7
176
     1
 62
   257
176
     1
 90
        1
176
     1
 90
        1
176
     1
 40
1.0
176
     1
 90
        0
176
     1
 62
   257
176
     1
 40
1.0
176
     1
 90
        1
176
     1
 90
        6
176
     1
 90
        2
176
     1
 62
     7
176
     1
 90
        5
176
     1
 90
        0
176
     1
 90
        0
176
     1
290
     0
176
     1
 90
       13
176
     1
 40
0.0
176
     1
 90
        0
176
     1
290
     0
176
     1
290
     1
176
     1
290
     1
176
     1
290
     0
176
     1
290
     0
176
     1
290
     0
176
     1
290
     0
176
     1
290
     0
176
     1
290
     0
176
     1
 90
       50
176
     1
 40
0.0
176
     1
 40
1.0
176
     1
 90
        0
176
     1
 62
    18
420
        0
176
     1
 90
       50
176
     1
 90
        3
176
     1
 62
     5
420
      255
176
     1
290
     0
176
     1
 90
       50
176
     1
 90
       50
176
     1
 90
       50
176
     1
290
     0
176
     1
 90
       50
176
     1
 62
   256
176
     0
 40
1.0
176
     0
 90
        2
176
     1
  1
strokes_ogs.tif
176
     1
290
     0
176
     1
 40
1.0
176
     1
 40
1.0
176
     1
  0
VISUALSTYLE
  5
31
102
{ACAD_REACTORS
330
2A
102
}
330
2A
100
AcDbVisualStyle
  2
Hidden
 70
     6
177
     3
291
     0
 70
    58
 90
        1
176
     1
 90
        2
176
     1
 90
        2
176
     1
 90
        0
176
     1
 40
0.6
176
     1
 40
30.0
176
     1
 62
     7
420
 16777215
176
     1
 90
        2
176
     1
 90
        2
176
     1
 62
     7
176
     1
 62
   257
176
     1
 90
        2
176
     1
 90
        1
176
     1
 40
40.0
176
     1
 90
        0
176
     1
 62
   257
176
     1
 40
1.0
176
     1
 90
        1
176
     1
 90
        6
176
     1
 90
        2
176
     1
 62
     7
176
     1
 90
        3
176
     1
 90
        0
176
     1
 90
        0
176
     1
290
     0
176
     1
 90
        1
176
     1
 40
0.0
176
     1
 90
        0
176
     1
290
     0
176
     1
290
     1
176
     1
290
     1
176
     1
290
     0
176
     1
290
     0
176
     1
290
     0
176
     1
290
     0
176
     1
290
     0
176
     1
290
     0
176
     1
 90
       50
176
     1
 40
0.0
176
     1
 40
1.0
176
     1
 90
        0
176
     1
 62
    18
420
        0
176
     1
 90
       50
176
     1
 90
        3
176
     1
 62
     5
420
      255
176
     1
290
     0
176
     1
 90
       50
176
     1
 90
       50
176
     1
 90
       50
176
     1
290
     0
176
     1
 90
       50
176
     1
 62
   256
176
     0
 40
1.0
176
     0
 90
        2
176
     1
  1
strokes_ogs.tif
176
     1
290
     0
176
     1
 40
1.0
176
     1
 40
1.0
176
     1
  0
VISUALSTYLE
  5
3B
102
{ACAD_REACTORS
330
2A
102
}
330
2A
100
AcDbVisualStyle
  2
JitterOff
 70
    20
177
     3
291
     1
 70
    58
 90
        2
176
     0
 90
        2
176
     0
 90
        0
176
     0
 90
        0
176
     0
 40
0.6
176
     0
 40
30.0
176
     0
 62
     7
420
 16777215
176
     0
 90
        1
176
     0
 90
        4
176
     0
 62
     7
176
     0
 62
   257
176
     0
 90
        1
176
     0
 90
        1
176
     0
 40
1.0
176
     0
 90
       10
176
     2
 62
     7
176
     0
 40
1.0
176
     0
 90
        1
176
     0
 90
        6
176
     0
 90
        2
176
     0
 62
     7
176
     0
 90
        5
176
     0
 90
        0
176
     0
 90
        0
176
     0
290
     0
176
     0
 90
        1
176
     0
 40
0.0
176
     0
 90
        0
176
     0
290
     0
176
     0
290
     1
176
     0
290
     1
176
     0
290
     0
176
     0
290
     0
176
     0
290
     0
176
     0
290
     0
176
     0
290
     0
176
     0
290
     0
176
     0
 90
       50
176
     0
 40
0.0
176
     0
 40
1.0
176
     0
 90
        0
176
     0
 62
    18
420
        0
176
     0
 90
       50
176
     0
 90
        3
176
     0
 62
     5
420
      255
176
     0
290
     0
176
     0
 90
       50
176
     0
 90
       50
176
     0
 90
       50
176
     0
290
     0
176
     0
 90
       50
176
     0
 62
   256
176
     0
 40
1.0
176
     0
 90
        2
176
     0
  1
strokes_ogs.tif
176
     0
290
     0
176
     0
 40
1.0
176
     0
 40
1.0
176
     0
  0
VISUALSTYLE
  5
38
102
{ACAD_REACTORS
330
2A
102
}
330
2A
100
AcDbVisualStyle
  2
Linepattern
 70
    14
177
     3
291
     1
 70
    58
 90
        2
176
     1
 90
        2
176
     1
 90
        0
176
     1
 90
        0
176
     1
 40
0.6
176
     1
 40
30.0
176
     1
 62
     7
420
 16777215
176
     1
 90
        1
176
     1
 90
        4
176
     1
 62
     7
176
     1
 62
   257
176
     1
 90
        7
176
     1
 90
        7
176
     1
 40
1.0
176
     1
 90
        8
176
     1
 62
     7
176
     1
 40
1.0
176
     1
 90
        1
176
     1
 90
        6
176
     1
 90
        2
176
     1
 62
     7
176
     1
 90
        5
176
     1
 90
        0
176
     1
 90
        0
176
     1
290
     0
176
     1
 90
        1
176
     1
 40
0.0
176
     1
 90
        0
176
     1
290
     0
176
     1
290
     1
176
     1
290
     1
176
     1
290
     0
176
     1
290
     0
176
     1
290
     0
176
     1
290
     0
176
     1
290
     0
176
     1
290
     0
176
     1
 90
       50
176
     1
 40
0.0
176
     1
 40
1.0
176
     1
 90
        0
176
     1
 62
    18
420
        0
176
     1
 90
       50
176
     1
 90
        3
176
     1
 62
     5
420
      255
176
     1
290
     0
176
     1
 90
       50
176
     1
 90
       50
176
     1
 90
       50
176
     1
290
     0
176
     1
 90
       50
176
     1
 62
   256
176
     0
 40
1.0
176
     0
 90
        2
176
     1
  1
strokes_ogs.tif
176
     1
290
     0
176
     1
 40
1.0
176
     1
 40
1.0
176
     1
  0
VISUALSTYLE
  5
3C
102
{ACAD_REACTORS
330
2A
102
}
330
2A
100
AcDbVisualStyle
  2
OverhangOff
 70
    21
177
     3
291
     1
 70
    58
 90
        2
176
     0
 90
        2
176
     0
 90
        0
176
     0
 90
        0
176
     0
 40
0.6
176
     0
 40
30.0
176
     0
 62
     7
420
 16777215
176
     0
 90
        1
176
     0
 90
        4
176
     0
 62
     7
176
     0
 62
   257
176
     0
 90
        1
176
     0
 90
        1
176
     0
 40
1.0
176
     0
 90
        9
176
     2
 62
     7
176
     0
 40
1.0
176
     0
 90
        1
176
     0
 90
        6
176
     0
 90
        2
176
     0
 62
     7
176
     0
 90
        5
176
     0
 90
        0
176
     0
 90
        0
176
     0
290
     0
176
     0
 90
        1
176
     0
 40
0.0
176
     0
 90
        0
176
     0
290
     0
176
     0
290
     1
176
     0
290
     1
176
     0
290
     0
176
     0
290
     0
176
     0
290
     0
176
     0
290
     0
176
     0
290
     0
176
     0
290
     0
176
     0
 90
       50
176
     0
 40
0.0
176
     0
 40
1.0
176
     0
 90
        0
176
     0
 62
    18
420
        0
176
     0
 90
       50
176
     0
 90
        3
176
     0
 62
     5
420
      255
176
     0
290
     0
176
     0
 90
       50
176
     0
 90
       50
176
     0
 90
       50
176
     0
290
     0
176
     0
 90
       50
176
     0
 62
   256
176
     0
 40
1.0
176
     0
 90
        2
176
     0
  1
strokes_ogs.tif
176
     0
290
     0
176
     0
 40
1.0
176
     0
 40
1.0
176
     0
  0
VISUALSTYLE
  5
33
102
{ACAD_REACTORS
330
2A
102
}
330
2A
100
AcDbVisualStyle
  2
Realistic
 70
     8
177
     3
291
     0
 70
    58
 90
        2
176
     1
 90
        3
176
     1
 90
        0
176
     1
 90
        2
176
     1
 40
0.6
176
     1
 40
30.0
176
     1
 62
     7
420
 16777215
176
     1
 90
        0
176
     1
 90
        0
176
     1
 62
     7
176
     1
 62
   257
176
     1
 90
        1
176
     1
 90
        1
176
     1
 40
1.0
176
     1
 90
        8
176
     1
 62
   257
176
     1
 40
1.0
176
     1
 90
        1
176
     1
 90
        6
176
     1
 90
        2
176
     1
 62
     7
176
     1
 90
        3
176
     1
 90
        0
176
     1
 90
        0
176
     1
290
     0
176
     1
 90
       13
176
     1
 40
0.0
176
     1
 90
        0
176
     1
290
     0
176
     1
290
     1
176
     1
290
     1
176
     1
290
     0
176
     1
290
     0
176
     1
290
     0
176
     1
290
     0
176
     1
290
     0
176
     1
290
     0
176
     1
 90
       50
176
     1
 40
0.0
176
     1
 40
1.0
176
     1
 90
        0
176
     1
 62
    18
420
        0
176
     1
 90
       50
176
     1
 90
        3
176
     1
 62
     5
420
      255
176
     1
290
     0
176
     1
 90
       50
176
     1
 90
       50
176
     1
 90
       50
176
     1
290
     0
176
     1
 90
       50
176
     1
 62
   256
176
     0
 40
1.0
176
     0
 90
        2
176
     1
  1
strokes_ogs.tif
176
     1
290
     0
176
     1
 40
1.0
176
     1
 40
1.0
176
     1
  0
VISUALSTYLE
  5
42
102
{ACAD_REACTORS
330
2A
102
}
330
2A
100
AcDbVisualStyle
  2
Shaded
 70
    27
177
     3
291
     0
 70
    58
 90
        2
176
     1
 90
        2
176
     1
 90
        1
176
     1
 90
        2
176
     1
 40
0.6
176
     1
 40
30.0
176
     1
 62
     7
420
 16777215
176
     1
 90
        0
176
     1
 90
        4
176
     1
 62
     7
176
     1
 62
   257
176
     1
 90
        1
176
     1
 90
        1
176
     1
 40
1.0
176
     1
 90
        8
176
     1
 62
   257
176
     1
 40
1.0
176
     1
 90
        1
176
     1
 90
        6
176
     1
 90
        2
176
     1
 62
     8
420
  7895160
176
     1
 90
        3
176
     1
 90
        0
176
     1
 90
        0
176
     1
290
     0
176
     1
 90
        5
176
     1
 40
0.0
176
     1
 90
        0
176
     1
290
     0
176
     1
290
     1
176
     1
290
     1
176
     1
290
     0
176
     1
290
     0
176
     1
290
     0
176
     1
290
     0
176
     1
290
     0
176
     1
290
     0
176
     1
 90
       50
176
     1
 40
0.0
176
     1
 40
1.0
176
     1
 90
        0
176
     1
 62
    18
420
        0
176
     1
 90
       50
176
     1
 90
        3
176
     1
 62
     5
420
      255
176
     1
290
     0
176
     1
 90
       50
176
     1
 90
       50
176
     1
 90
       50
176
     1
290
     0
176
     1
 90
       50
176
     1
 62
   256
176
     0
 40
1.0
176
     0
 90
        2
176
     1
  1
strokes_ogs.tif
176
     1
290
     0
176
     1
 40
1.0
176
     1
 40
1.0
176
     1
  0
VISUALSTYLE
  5
41
102
{ACAD_REACTORS
330
2A
102
}
330
2A
100
AcDbVisualStyle
  2
Shaded with edges
 70
    26
177
     3
291
     0
 70
    58
 90
        2
176
     1
 90
        2
176
     1
 90
        1
176
     1
 90
        2
176
     1
 40
0.6
176
     1
 40
30.0
176
     1
 62
     7
420
 16777215
176
     1
 90
        1
176
     1
 90
       10
176
     1
 62
     7
176
     1
 62
   257
176
     1
 90
        2
176
     1
 90
        1
176
     1
 40
1.0
176
     1
 90
        8
176
     1
 62
   257
176
     1
 40
1.0
176
     1
 90
        1
176
     1
 90
        6
176
     1
 90
        2
176
     1
 62
     7
176
     1
 90
        3
176
     1
 90
        0
176
     1
 90
        0
176
     1
290
     0
176
     1
 90
        5
176
     1
 40
0.0
176
     1
 90
        0
176
     1
290
     0
176
     1
290
     1
176
     1
290
     1
176
     1
290
     0
176
     1
290
     0
176
     1
290
     0
176
     1
290
     0
176
     1
290
     0
176
     1
290
     0
176
     1
 90
       50
176
     1
 40
0.0
176
     1
 40
1.0
176
     1
 90
        0
176
     1
 62
    18
420
        0
176
     1
 90
       50
176
     1
 90
        3
176
     1
 62
     5
420
      255
176
     1
290
     0
176
     1
 90
       50
176
     1
 90
       50
176
     1
 90
       50
176
     1
290
     0
176
     1
 90
       50
176
     1
 62
   256
176
     0
 40
1.0
176
     0
 90
        2
176
     1
  1
strokes_ogs.tif
176
     1
290
     0
176
     1
 40
1.0
176
     1
 40
1.0
176
     1
  0
VISUALSTYLE
  5
3E
102
{ACAD_REACTORS
330
2A
102
}
330
2A
100
AcDbVisualStyle
  2
Shades of Gray
 70
    23
177
     3
291
     0
 70
    58
 90
        2
176
     1
 90
        2
176
     1
 90
        3
176
     1
 90
        0
176
     1
 40
0.6
176
     1
 40
30.0
176
     1
 62
     7
420
 16777215
176
     1
 90
        2
176
     1
 90
        2
176
     1
 62
     7
176
     1
 62
     7
176
     1
 90
        1
176
     1
 90
        1
176
     1
 40
40.0
176
     1
 90
        8
176
     1
 62
     7
176
     1
 40
1.0
176
     1
 90
        1
176
     1
 90
        6
176
     1
 90
        2
176
     1
 62
     7
176
     1
 90
        3
176
     1
 90
        0
176
     1
 90
        0
176
     1
290
     0
176
     1
 90
        1
176
     1
 40
0.0
176
     1
 90
        0
176
     1
290
     0
176
     1
290
     1
176
     1
290
     1
176
     1
290
     0
176
     1
290
     0
176
     1
290
     0
176
     1
290
     0
176
     1
290
     0
176
     1
290
     0
176
     1
 90
       50
176
     1
 40
0.0
176
     1
 40
1.0
176
     1
 90
        0
176
     1
 62
    18
420
        0
176
     1
 90
       50
176
     1
 90
        3
176
     1
 62
     5
420
      255
176
     1
290
     0
176
     1
 90
       50
176
     1
 90
       50
176
     1
 90
       50
176
     1
290
     0
176
     1
 90
       50
176
     1
 62
   256
176
     0
 40
1.0
176
     0
 90
        2
176
     1
  1
strokes_ogs.tif
176
     1
290
     0
176
     1
 40
1.0
176
     1
 40
1.0
176
     1
  0
VISUALSTYLE
  5
3F
102
{ACAD_REACTORS
330
2A
102
}
330
2A
100
AcDbVisualStyle
  2
Sketchy
 70
    24
177
     3
291
     0
 70
    58
 90
        1
176
     1
 90
        2
176
     1
 90
        2
176
     1
 90
        0
176
     1
 40
0.6
176
     1
 40
30.0
176
     1
 62
     7
420
 16777215
176
     1
 90
        2
176
     1
 90
        2
176
     1
 62
     7
176
     1
 62
     7
176
     1
 90
        1
176
     1
 90
        1
176
     1
 40
40.0
176
     1
 90
       11
176
     1
 62
     7
176
     1
 40
1.0
176
     1
 90
        1
176
     1
 90
        6
176
     1
 90
        2
176
     1
 62
     7
176
     1
 90
        6
176
     1
 90
        0
176
     1
 90
        0
176
     1
290
     0
176
     1
 90
        1
176
     1
 40
0.0
176
     1
 90
        0
176
     1
290
     0
176
     1
290
     1
176
     1
290
     1
176
     1
290
     0
176
     1
290
     0
176
     1
290
     0
176
     1
290
     0
176
     1
290
     0
176
     1
290
     0
176
     1
 90
       50
176
     1
 40
0.0
176
     1
 40
1.0
176
     1
 90
        0
176
     1
 62
    18
420
        0
176
     1
 90
       50
176
     1
 90
        3
176
     1
 62
     5
420
      255
176
     1
290
     0
176
     1
 90
       50
176
     1
 90
       50
176
     1
 90
       50
176
     1
290
     0
176
     1
 90
       50
176
     1
 62
   256
176
     0
 40
1.0
176
     0
 90
        2
176
     1
  1
strokes_ogs.tif
176
     1
290
     0
176
     1
 40
1.0
176
     1
 40
1.0
176
     1
  0
VISUALSTYLE
  5
37
102
{ACAD_REACTORS
330
2A
102
}
330
2A
100
AcDbVisualStyle
  2
Thicken
 70
    13
177
     3
291
     1
 70
    58
 90
        2
176
     1
 90
        2
176
     1
 90
        0
176
     1
 90
        0
176
     1
 40
0.6
176
     1
 40
30.0
176
     1
 62
     7
420
 16777215
176
     1
 90
        1
176
     1
 90
        4
176
     1
 62
     7
176
     1
 62
   257
176
     1
 90
        1
176
     1
 90
        1
176
     1
 40
1.0
176
     1
 90
       12
176
     1
 62
     7
176
     1
 40
1.0
176
     1
 90
        1
176
     1
 90
        6
176
     1
 90
        2
176
     1
 62
     7
176
     1
 90
        5
176
     1
 90
        0
176
     1
 90
        0
176
     1
290
     0
176
     1
 90
        1
176
     1
 40
0.0
176
     1
 90
        0
176
     1
290
     0
176
     1
290
     1
176
     1
290
     1
176
     1
290
     0
176
     1
290
     0
176
     1
290
     0
176
     1
290
     0
176
     1
290
     0
176
     1
290
     0
176
     1
 90
       50
176
     1
 40
0.0
176
     1
 40
1.0
176
     1
 90
        0
176
     1
 62
    18
420
        0
176
     1
 90
       50
176
     1
 90
        3
176
     1
 62
     5
420
      255
176
     1
290
     0
176
     1
 90
       50
176
     1
 90
       50
176
     1
 90
       50
176
     1
290
     0
176
     1
 90
       50
176
     1
 62
   256
176
     0
 40
1.0
176
     0
 90
        2
176
     1
  1
strokes_ogs.tif
176
     1
290
     0
176
     1
 40
1.0
176
     1
 40
1.0
176
     1
  0
VISUALSTYLE
  5
30
102
{ACAD_REACTORS
330
2A
102
}
330
2A
100
AcDbVisualStyle
  2
Wireframe
 70
     5
177
     3
291
     0
 70
    58
 90
        0
176
     1
 90
        2
176
     1
 90
        0
176
     1
 90
        0
176
     1
 40
0.6
176
     1
 40
30.0
176
     1
 62
     7
420
 16777215
176
     1
 90
        1
176
     1
 90
        4
176
     1
 62
     7
176
     1
 62
   257
176
     1
 90
        1
176
     1
 90
        1
176
     1
 40
1.0
176
     1
 90
        0
176
     1
 62
   257
176
     1
 40
1.0
176
     1
 90
        1
176
     1
 90
        6
176
     1
 90
        2
176
     1
 62
     7
176
     1
 90
        3
176
     1
 90
        0
176
     1
 90
        0
176
     1
290
     0
176
     1
 90
        1
176
     1
 40
0.0
176
     1
 90
        0
176
     1
290
     0
176
     1
290
     1
176
     1
290
     1
176
     1
290
     0
176
     1
290
     0
176
     1
290
     0
176
     1
290
     0
176
     1
290
     0
176
     1
290
     0
176
     1
 90
       50
176
     1
 40
0.0
176
     1
 40
1.0
176
     1
 90
        0
176
     1
 62
    18
420
        0
176
     1
 90
       50
176
     1
 90
        3
176
     1
 62
     5
420
      255
176
     1
290
     0
176
     1
 90
       50
176
     1
 90
       50
176
     1
 90
       50
176
     1
290
     0
176
     1
 90
       50
176
     1
 62
   256
176
     0
 40
1.0
176
     0
 90
        2
176
     1
  1
strokes_ogs.tif
176
     1
290
     0
176
     1
 40
1.0
176
     1
 40
1.0
176
     1
  0
VISUALSTYLE
  5
40
102
{ACAD_REACTORS
330
2A
102
}
330
2A
100
AcDbVisualStyle
  2
X-Ray
 70
    25
177
     3
291
     0
 70
    58
 90
        2
176
     1
 90
        2
176
     1
 90
        1
176
     1
 90
        1
176
     1
 40
0.5
176
     1
 40
30.0
176
     1
 62
     7
420
 16777215
176
     1
 90
        1
176
     1
 90
        0
176
     1
 62
     7
176
     1
 62
   257
176
     1
 90
        1
176
     1
 90
        1
176
     1
 40
1.0
176
     1
 90
        8
176
     1
 62
     7
176
     1
 40
1.0
176
     1
 90
        1
176
     1
 90
        6
176
     1
 90
        2
176
     1
 62
     7
176
     1
 90
        3
176
     1
 90
        0
176
     1
 90
        0
176
     1
290
     0
176
     1
 90
       13
176
     1
 40
0.0
176
     1
 90
        0
176
     1
290
     0
176
     1
290
     1
176
     1
290
     1
176
     1
290
     0
176
     1
290
     0
176
     1
290
     0
176
     1
290
     0
176
     1
290
     0
176
     1
290
     0
176
     1
 90
       50
176
     1
 40
0.0
176
     1
 40
1.0
176
     1
 90
        0
176
     1
 62
    18
420
        0
176
     1
 90
       50
176
     1
 90
        3
176
     1
 62
     5
420
      255
176
     1
290
     0
176
     1
 90
       50
176
     1
 90
       50
176
     1
 90
       50
176
     1
290
     0
176
     1
 90
       50
176
     1
 62
   256
176
     0
 40
1.0
176
     0
 90
        2
176
     1
  1
strokes_ogs.tif
176
     1
290
     0
176
     1
 40
1.0
176
     1
 40
1.0
176
     1
  0
DICTIONARYVAR
  5
239
102
{ACAD_REACTORS
330
238
102
}
330
238
100
DictionaryVariables
280
     0
  1
1:1
  0
DICTIONARYVAR
  5
23E
102
{ACAD_REACTORS
330
238
102
}
330
238
100
DictionaryVariables
280
     0
  1
Standard
  0
DICTIONARYVAR
  5
23D
102
{ACAD_REACTORS
330
238
102
}
330
238
100
DictionaryVariables
280
     0
  1
Standard
  0
DICTIONARY
  5
23A
330
6A
100
AcDbDictionary
280
     1
281
     1
  3
ACAD_ROUNDTRIP_2008_TABLESTYLE_CELLSTYLEMAP
360
23B
  0
CELLSTYLEMAP
  5
23B
102
{ACAD_REACTORS
330
23A
102
}
330
23A
100
AcDbCellStyleMap
 90
        3
300
CELLSTYLE
  1
TABLEFORMAT_BEGIN
 90
        5
170
     1
 91
        0
 92
    32768
 62
   257
 93
        1
300
CONTENTFORMAT
  1
CONTENTFORMAT_BEGIN
 90
        0
 91
        0
 92
        4
 93
        0
300

 40
0.0
140
1.0
 94
        5
 62
     0
340
11
144
6.0
309
CONTENTFORMAT_END
171
     1
301
MARGIN
  1
CELLMARGIN_BEGIN
 40
1.5
 40
1.5
 40
1.5
 40
1.5
 40
1.5
 40
1.5
309
CELLMARGIN_END
 94
        6
 95
        1
302
GRIDFORMAT
  1
GRIDFORMAT_BEGIN
 90
        0
 91
        1
 62
     0
 92
       -2
340
14
 93
        0
 40
0.045
309
GRIDFORMAT_END
 95
        2
302
GRIDFORMAT
  1
GRIDFORMAT_BEGIN
 90
        0
 91
        1
 62
     0
 92
       -2
340
14
 93
        0
 40
0.045
309
GRIDFORMAT_END
 95
        4
302
GRIDFORMAT
  1
GRIDFORMAT_BEGIN
 90
        0
 91
        1
 62
     0
 92
       -2
340
14
 93
        0
 40
0.045
309
GRIDFORMAT_END
 95
        8
302
GRIDFORMAT
  1
GRIDFORMAT_BEGIN
 90
        0
 91
        1
 62
     0
 92
       -2
340
14
 93
        0
 40
0.045
309
GRIDFORMAT_END
 95
       16
302
GRIDFORMAT
  1
GRIDFORMAT_BEGIN
 90
        0
 91
        1
 62
     0
 92
       -2
340
14
 93
        0
 40
0.045
309
GRIDFORMAT_END
 95
       32
302
GRIDFORMAT
  1
GRIDFORMAT_BEGIN
 90
        0
 91
        1
 62
     0
 92
       -2
340
14
 93
        0
 40
0.045
309
GRIDFORMAT_END
309
TABLEFORMAT_END
  1
CELLSTYLE_BEGIN
 90
        1
 91
        1
300
_TITLE
309
CELLSTYLE_END
300
CELLSTYLE
  1
TABLEFORMAT_BEGIN
 90
        5
170
     1
 91
        0
 92
        0
 62
   257
 93
        1
300
CONTENTFORMAT
  1
CONTENTFORMAT_BEGIN
 90
        0
 91
        0
 92
        4
 93
        0
300

 40
0.0
140
1.0
 94
        5
 62
     0
340
11
144
4.5
309
CONTENTFORMAT_END
171
     1
301
MARGIN
  1
CELLMARGIN_BEGIN
 40
1.5
 40
1.5
 40
1.5
 40
1.5
 40
1.5
 40
1.5
309
CELLMARGIN_END
 94
        6
 95
        1
302
GRIDFORMAT
  1
GRIDFORMAT_BEGIN
 90
        0
 91
        1
 62
     0
 92
       -2
340
14
 93
        0
 40
0.045
309
GRIDFORMAT_END
 95
        2
302
GRIDFORMAT
  1
GRIDFORMAT_BEGIN
 90
        0
 91
        1
 62
     0
 92
       -2
340
14
 93
        0
 40
0.045
309
GRIDFORMAT_END
 95
        4
302
GRIDFORMAT
  1
GRIDFORMAT_BEGIN
 90
        0
 91
        1
 62
     0
 92
       -2
340
14
 93
        0
 40
0.045
309
GRIDFORMAT_END
 95
        8
302
GRIDFORMAT
  1
GRIDFORMAT_BEGIN
 90
        0
 91
        1
 62
     0
 92
       -2
340
14
 93
        0
 40
0.045
309
GRIDFORMAT_END
 95
       16
302
GRIDFORMAT
  1
GRIDFORMAT_BEGIN
 90
        0
 91
        1
 62
     0
 92
       -2
340
14
 93
        0
 40
0.045
309
GRIDFORMAT_END
 95
       32
302
GRIDFORMAT
  1
GRIDFORMAT_BEGIN
 90
        0
 91
        1
 62
     0
 92
       -2
340
14
 93
        0
 40
0.045
309
GRIDFORMAT_END
309
TABLEFORMAT_END
  1
CELLSTYLE_BEGIN
 90
        2
 91
        1
300
_HEADER
309
CELLSTYLE_END
300
CELLSTYLE
  1
TABLEFORMAT_BEGIN
 90
        5
170
     1
 91
        0
 92
        0
 62
   257
 93
        1
300
CONTENTFORMAT
  1
CONTENTFORMAT_BEGIN
 90
        0
 91
        0
 92
        4
 93
        0
300

 40
0.0
140
1.0
 94
        2
 62
     0
340
11
144
4.5
309
CONTENTFORMAT_END
171
     1
301
MARGIN
  1
CELLMARGIN_BEGIN
 40
1.5
 40
1.5
 40
1.5
 40
1.5
 40
1.5
 40
1.5
309
CELLMARGIN_END
 94
        6
 95
        1
302
GRIDFORMAT
  1
GRIDFORMAT_BEGIN
 90
        0
 91
        1
 62
     0
 92
       -2
340
14
 93
        0
 40
0.045
309
GRIDFORMAT_END
 95
        2
302
GRIDFORMAT
  1
GRIDFORMAT_BEGIN
 90
        0
 91
        1
 62
     0
 92
       -2
340
14
 93
        0
 40
0.045
309
GRIDFORMAT_END
 95
        4
302
GRIDFORMAT
  1
GRIDFORMAT_BEGIN
 90
        0
 91
        1
 62
     0
 92
       -2
340
14
 93
        0
 40
0.045
309
GRIDFORMAT_END
 95
        8
302
GRIDFORMAT
  1
GRIDFORMAT_BEGIN
 90
        0
 91
        1
 62
     0
 92
       -2
340
14
 93
        0
 40
0.045
309
GRIDFORMAT_END
 95
       16
302
GRIDFORMAT
  1
GRIDFORMAT_BEGIN
 90
        0
 91
        1
 62
     0
 92
       -2
340
14
 93
        0
 40
0.045
309
GRIDFORMAT_END
 95
       32
302
GRIDFORMAT
  1
GRIDFORMAT_BEGIN
 90
        0
 91
        1
 62
     0
 92
       -2
340
14
 93
        0
 40
0.045
309
GRIDFORMAT_END
309
TABLEFORMAT_END
  1
CELLSTYLE_BEGIN
 90
        3
 91
        2
300
_DATA
309
CELLSTYLE_END
  0
ENDSEC
  0
EOF