0
SECTION
  2
HEADER
  9
$ACADVER
  1
AC1027
  9
$ACADMAINTVER
 70
     8
  9
$DWGCODEPAGE
  3
ANSI_1252
  9
$REQUIREDVERSIONS
160
                 0
  9
$COMMENTS
  1
File was created by Cadenas
  9
$CUSTOMPROPERTYTAG
  1
NN
  9
$CUSTOMPROPERTY
  1
Grip Tight Medium Duty Narrow Slot Take Up Metric Bore
  9
$CUSTOMPROPERTYTAG
  1
NT
  9
$CUSTOMPROPERTY
  1
GTM Normal Duty Narrow Slot Take-Up Bearings
  9
$CUSTOMPROPERTYTAG
  1
NB
  9
$CUSTOMPROPERTY
  1
136302
  9
$CUSTOMPROPERTYTAG
  1
NBSYN
  9
$CUSTOMPROPERTY
  1
$PN.
  9
$CUSTOMPROPERTYTAG
  1
LINA
  9
$CUSTOMPROPERTY
  1
136302
  9
$CUSTOMPROPERTYTAG
  1
SERIES
  9
$CUSTOMPROPERTY
  1
212
  9
$CUSTOMPROPERTYTAG
  1
SS
  9
$CUSTOMPROPERTY
  1
55
  9
$CUSTOMPROPERTYTAG
  1
PN
  9
$CUSTOMPROPERTY
  1
136302
  9
$CUSTOMPROPERTYTAG
  1
DESCRIPTION
  9
$CUSTOMPROPERTY
  1
NSTU-GTM-55M
  9
$CUSTOMPROPERTYTAG
  1
PNSL
  9
$CUSTOMPROPERTY
  1
136218
  9
$CUSTOMPROPERTYTAG
  1
DESCRIPTIONSL
  9
$CUSTOMPROPERTY
  1
NSTU-GT-12
  9
$CUSTOMPROPERTYTAG
  1
PNA
  9
$CUSTOMPROPERTY
  1
136567
  9
$CUSTOMPROPERTYTAG
  1
DESCRIPTIONA
  9
$CUSTOMPROPERTY
  1
AN-GTM-12-55M-D
  9
$CUSTOMPROPERTYTAG
  1
W
  9
$CUSTOMPROPERTY
  1
4.9
  9
$CUSTOMPROPERTYTAG
  1
TUFS
  9
$CUSTOMPROPERTY
  1
NS415
  9
$CUSTOMPROPERTYTAG
  1
A
  9
$CUSTOMPROPERTY
  1
53.8
  9
$CUSTOMPROPERTYTAG
  1
B
  9
$CUSTOMPROPERTY
  1
169.9
  9
$CUSTOMPROPERTYTAG
  1
C
  9
$CUSTOMPROPERTY
  1
7.95
  9
$CUSTOMPROPERTYTAG
  1
D
  9
$CUSTOMPROPERTY
  1
95.3
  9
$CUSTOMPROPERTYTAG
  1
E
  9
$CUSTOMPROPERTY
  1
98.6
  9
$CUSTOMPROPERTYTAG
  1
F
  9
$CUSTOMPROPERTY
  1
25.4
  9
$CUSTOMPROPERTYTAG
  1
G
  9
$CUSTOMPROPERTY
  1
17.5
  9
$CUSTOMPROPERTYTAG
  1
H
  9
$CUSTOMPROPERTY
  1
32.5
  9
$CUSTOMPROPERTYTAG
  1
J
  9
$CUSTOMPROPERTY
  1
41.4
  9
$CUSTOMPROPERTYTAG
  1
L
  9
$CUSTOMPROPERTY
  1
93.7
  9
$CUSTOMPROPERTYTAG
  1
M
  9
$CUSTOMPROPERTY
  1
125.65/124.89
  9
$CUSTOMPROPERTYTAG
  1
N
  9
$CUSTOMPROPERTY
  1
146.1
  9
$CUSTOMPROPERTYTAG
  1
P
  9
$CUSTOMPROPERTY
  1
11.2
  9
$CUSTOMPROPERTYTAG
  1
R
  9
$CUSTOMPROPERTY
  1
18.5
  9
$CUSTOMPROPERTYTAG
  1
S
  9
$CUSTOMPROPERTY
  1
35.3
  9
$CUSTOMPROPERTYTAG
  1
Z
  9
$CUSTOMPROPERTY
  1
37.1
  9
$CUSTOMPROPERTYTAG
  1
CAPS
  9
$CUSTOMPROPERTY
  1
6955
  9
$CUSTOMPROPERTYTAG
  1
CAPD
  9
$CUSTOMPROPERTY
  1
11791
  9
$CUSTOMPROPERTYTAG
  1
COMPANY
  9
$CUSTOMPROPERTY
  1
baldor
  9
$INSBASE
 10
0.0
 20
0.0
 30
0.0
  9
$EXTMIN
 10
1.000000000000000E+20
 20
1.000000000000000E+20
 30
1.000000000000000E+20
  9
$EXTMAX
 10
-1.000000000000000E+20
 20
-1.000000000000000E+20
 30
-1.000000000000000E+20
  9
$LIMMIN
 10
0.0
 20
0.0
  9
$LIMMAX
 10
420.0
 20
297.0
  9
$ORTHOMODE
 70
     0
  9
$REGENMODE
 70
     1
  9
$FILLMODE
 70
     1
  9
$QTEXTMODE
 70
     0
  9
$MIRRTEXT
 70
     1
  9
$LTSCALE
 40
1.0
  9
$ATTMODE
 70
     1
  9
$TEXTSIZE
 40
2.5
  9
$TRACEWID
 40
1.0
  9
$TEXTSTYLE
  7
Standard
  9
$CLAYER
  8
0
  9
$CELTYPE
  6
ByLayer
  9
$CECOLOR
 62
   256
  9
$CELTSCALE
 40
1.0
  9
$DISPSILH
 70
     0
  9
$DIMSCALE
 40
1.0
  9
$DIMASZ
 40
2.5
  9
$DIMEXO
 40
0.625
  9
$DIMDLI
 40
3.75
  9
$DIMRND
 40
0.0
  9
$DIMDLE
 40
0.0
  9
$DIMEXE
 40
1.25
  9
$DIMTP
 40
0.0
  9
$DIMTM
 40
0.0
  9
$DIMTXT
 40
2.5
  9
$DIMCEN
 40
2.5
  9
$DIMTSZ
 40
0.0
  9
$DIMTOL
 70
     0
  9
$DIMLIM
 70
     0
  9
$DIMTIH
 70
     0
  9
$DIMTOH
 70
     0
  9
$DIMSE1
 70
     0
  9
$DIMSE2
 70
     0
  9
$DIMTAD
 70
     1
  9
$DIMZIN
 70
     8
  9
$DIMBLK
  1

  9
$DIMASO
 70
     1
  9
$DIMSHO
 70
     1
  9
$DIMPOST
  1

  9
$DIMAPOST
  1

  9
$DIMALT
 70
     0
  9
$DIMALTD
 70
     3
  9
$DIMALTF
 40
0.03937007874016
  9
$DIMLFAC
 40
1.0
  9
$DIMTOFL
 70
     1
  9
$DIMTVP
 40
0.0
  9
$DIMTIX
 70
     0
  9
$DIMSOXD
 70
     0
  9
$DIMSAH
 70
     0
  9
$DIMBLK1
  1

  9
$DIMBLK2
  1

  9
$DIMSTYLE
  2
ISO-25
  9
$DIMCLRD
 70
     0
  9
$DIMCLRE
 70
     0
  9
$DIMCLRT
 70
     0
  9
$DIMTFAC
 40
1.0
  9
$DIMGAP
 40
0.625
  9
$DIMJUST
 70
     0
  9
$DIMSD1
 70
     0
  9
$DIMSD2
 70
     0
  9
$DIMTOLJ
 70
     0
  9
$DIMTZIN
 70
     8
  9
$DIMALTZ
 70
     0
  9
$DIMALTTZ
 70
     0
  9
$DIMUPT
 70
     0
  9
$DIMDEC
 70
     2
  9
$DIMTDEC
 70
     2
  9
$DIMALTU
 70
     2
  9
$DIMALTTD
 70
     3
  9
$DIMTXSTY
  7
Standard
  9
$DIMAUNIT
 70
     0
  9
$DIMADEC
 70
     0
  9
$DIMALTRND
 40
0.0
  9
$DIMAZIN
 70
     0
  9
$DIMDSEP
 70
    44
  9
$DIMATFIT
 70
     3
  9
$DIMFRAC
 70
     0
  9
$DIMLDRBLK
  1

  9
$DIMLUNIT
 70
     2
  9
$DIMLWD
 70
    -2
  9
$DIMLWE
 70
    -2
  9
$DIMTMOVE
 70
     0
  9
$DIMFXL
 40
1.0
  9
$DIMFXLON
 70
     0
  9
$DIMJOGANG
 40
0.7853981633974483
  9
$DIMTFILL
 70
     0
  9
$DIMTFILLCLR
 70
     0
  9
$DIMARCSYM
 70
     0
  9
$DIMLTYPE
  6

  9
$DIMLTEX1
  6

  9
$DIMLTEX2
  6

  9
$DIMTXTDIRECTION
 70
     0
  9
$LUNITS
 70
     2
  9
$LUPREC
 70
     4
  9
$SKETCHINC
 40
1.0
  9
$FILLETRAD
 40
10.0
  9
$AUNITS
 70
     0
  9
$AUPREC
 70
     0
  9
$MENU
  1
.
  9
$ELEVATION
 40
0.0
  9
$PELEVATION
 40
0.0
  9
$THICKNESS
 40
0.0
  9
$LIMCHECK
 70
     0
  9
$CHAMFERA
 40
0.0
  9
$CHAMFERB
 40
0.0
  9
$CHAMFERC
 40
0.0
  9
$CHAMFERD
 40
0.0
  9
$SKPOLY
 70
     0
  9
$TDCREATE
 40
2458168.993595139
  9
$TDUCREATE
 40
2458168.951928472
  9
$TDUPDATE
 40
2458168.993595324
  9
$TDUUPDATE
 40
2458168.951928657
  9
$TDINDWG
 40
0.0000000116
  9
$TDUSRTIMER
 40
0.0000000116
  9
$USRTIMER
 70
     1
  9
$ANGBASE
 50
0.0
  9
$ANGDIR
 70
     0
  9
$PDMODE
 70
     0
  9
$PDSIZE
 40
0.0
  9
$PLINEWID
 40
0.0
  9
$SPLFRAME
 70
     0
  9
$SPLINETYPE
 70
     6
  9
$SPLINESEGS
 70
     8
  9
$HANDSEED
  5
237
  9
$SURFTAB1
 70
     6
  9
$SURFTAB2
 70
     6
  9
$SURFTYPE
 70
     6
  9
$SURFU
 70
     6
  9
$SURFV
 70
     6
  9
$UCSBASE
  2

  9
$UCSNAME
  2

  9
$UCSORG
 10
0.0
 20
0.0
 30
0.0
  9
$UCSXDIR
 10
1.0
 20
0.0
 30
0.0
  9
$UCSYDIR
 10
0.0
 20
1.0
 30
0.0
  9
$UCSORTHOREF
  2

  9
$UCSORTHOVIEW
 70
     0
  9
$UCSORGTOP
 10
0.0
 20
0.0
 30
0.0
  9
$UCSORGBOTTOM
 10
0.0
 20
0.0
 30
0.0
  9
$UCSORGLEFT
 10
0.0
 20
0.0
 30
0.0
  9
$UCSORGRIGHT
 10
0.0
 20
0.0
 30
0.0
  9
$UCSORGFRONT
 10
0.0
 20
0.0
 30
0.0
  9
$UCSORGBACK
 10
0.0
 20
0.0
 30
0.0
  9
$PUCSBASE
  2

  9
$PUCSNAME
  2

  9
$PUCSORG
 10
0.0
 20
0.0
 30
0.0
  9
$PUCSXDIR
 10
1.0
 20
0.0
 30
0.0
  9
$PUCSYDIR
 10
0.0
 20
1.0
 30
0.0
  9
$PUCSORTHOREF
  2

  9
$PUCSORTHOVIEW
 70
     0
  9
$PUCSORGTOP
 10
0.0
 20
0.0
 30
0.0
  9
$PUCSORGBOTTOM
 10
0.0
 20
0.0
 30
0.0
  9
$PUCSORGLEFT
 10
0.0
 20
0.0
 30
0.0
  9
$PUCSORGRIGHT
 10
0.0
 20
0.0
 30
0.0
  9
$PUCSORGFRONT
 10
0.0
 20
0.0
 30
0.0
  9
$PUCSORGBACK
 10
0.0
 20
0.0
 30
0.0
  9
$USERI1
 70
     0
  9
$USERI2
 70
     0
  9
$USERI3
 70
     0
  9
$USERI4
 70
     0
  9
$USERI5
 70
     0
  9
$USERR1
 40
0.0
  9
$USERR2
 40
0.0
  9
$USERR3
 40
0.0
  9
$USERR4
 40
0.0
  9
$USERR5
 40
0.0
  9
$WORLDVIEW
 70
     1
  9
$SHADEDGE
 70
     3
  9
$SHADEDIF
 70
    70
  9
$TILEMODE
 70
     1
  9
$MAXACTVP
 70
    64
  9
$PINSBASE
 10
0.0
 20
0.0
 30
0.0
  9
$PLIMCHECK
 70
     0
  9
$PEXTMIN
 10
1.000000000000000E+20
 20
1.000000000000000E+20
 30
1.000000000000000E+20
  9
$PEXTMAX
 10
-1.000000000000000E+20
 20
-1.000000000000000E+20
 30
-1.000000000000000E+20
  9
$PLIMMIN
 10
0.0
 20
0.0
  9
$PLIMMAX
 10
420.0
 20
297.0
  9
$UNITMODE
 70
     0
  9
$VISRETAIN
 70
     1
  9
$PLINEGEN
 70
     0
  9
$PSLTSCALE
 70
     1
  9
$TREEDEPTH
 70
  3020
  9
$CMLSTYLE
  2
Standard
  9
$CMLJUST
 70
     0
  9
$CMLSCALE
 40
20.0
  9
$PROXYGRAPHICS
 70
     1
  9
$MEASUREMENT
 70
     1
  9
$CELWEIGHT
370
    -1
  9
$ENDCAPS
280
     0
  9
$JOINSTYLE
280
     0
  9
$LWDISPLAY
290
     0
  9
$INSUNITS
 70
     4
  9
$HYPERLINKBASE
  1

  9
$STYLESHEET
  1

  9
$XEDIT
290
     1
  9
$CEPSNTYPE
380
     0
  9
$PSTYLEMODE
290
     1
  9
$FINGERPRINTGUID
  2
{F3F1B627-BD53-4CDB-9024-7856CF86200B}
  9
$VERSIONGUID
  2
{FAEB1C32-E019-11D5-929B-00C0DF256EC4}
  9
$EXTNAMES
290
     1
  9
$PSVPSCALE
 40
0.0
  9
$OLESTARTUP
290
     0
  9
$SORTENTS
280
   127
  9
$INDEXCTL
280
     0
  9
$HIDETEXT
280
     1
  9
$XCLIPFRAME
280
     2
  9
$HALOGAP
280
     0
  9
$OBSCOLOR
 70
   257
  9
$OBSLTYPE
280
     0
  9
$INTERSECTIONDISPLAY
280
     0
  9
$INTERSECTIONCOLOR
 70
   257
  9
$DIMASSOC
280
     2
  9
$PROJECTNAME
  1

  9
$CAMERADISPLAY
290
     0
  9
$LENSLENGTH
 40
50.0
  9
$CAMERAHEIGHT
 40
0.0
  9
$STEPSPERSEC
 40
2.0
  9
$STEPSIZE
 40
6.0
  9
$3DDWFPREC
 40
2.0
  9
$PSOLWIDTH
 40
5.0
  9
$PSOLHEIGHT
 40
80.0
  9
$LOFTANG1
 40
1.570796326794897
  9
$LOFTANG2
 40
1.570796326794897
  9
$LOFTMAG1
 40
0.0
  9
$LOFTMAG2
 40
0.0
  9
$LOFTPARAM
 70
     7
  9
$LOFTNORMALS
280
     1
  9
$LATITUDE
 40
37.795
  9
$LONGITUDE
 40
-122.394
  9
$NORTHDIRECTION
 40
0.0
  9
$TIMEZONE
 70
 -8000
  9
$LIGHTGLYPHDISPLAY
280
     1
  9
$TILEMODELIGHTSYNCH
280
     1
  9
$CMATERIAL
347
44
  9
$SOLIDHIST
280
     0
  9
$SHOWHIST
280
     1
  9
$DWFFRAME
280
     2
  9
$DGNFRAME
280
     2
  9
$REALWORLDSCALE
290
     1
  9
$INTERFERECOLOR
 62
   256
  9
$CSHADOW
280
     0
  9
$SHADOWPLANELOCATION
 40
0.0
  0
ENDSEC
  0
SECTION
  2
CLASSES
  0
CLASS
  1
ACDBDICTIONARYWDFLT
  2
AcDbDictionaryWithDefault
  3
ObjectDBX Classes
 90
        0
 91
        4
280
     0
281
     0
  0
CLASS
  1
VISUALSTYLE
  2
AcDbVisualStyle
  3
ObjectDBX Classes
 90
     4095
 91
        4
280
     0
281
     0
  0
CLASS
  1
MATERIAL
  2
AcDbMaterial
  3
ObjectDBX Classes
 90
     1153
 91
        4
280
     0
281
     0
  0
CLASS
  1
SCALE
  2
AcDbScale
  3
ObjectDBX Classes
 90
     1153
 91
        4
280
     0
281
     0
  0
CLASS
  1
TABLESTYLE
  2
AcDbTableStyle
  3
ObjectDBX Classes
 90
     4095
 91
        4
280
     0
281
     0
  0
CLASS
  1
MLEADERSTYLE
  2
AcDbMLeaderStyle
  3
ACDB_MLEADERSTYLE_CLASS
 90
     4095
 91
        4
280
     0
281
     0
  0
CLASS
  1
SUN
  2
AcDbSun
  3
SCENEOE
 90
     1153
 91
        4
280
     0
281
     0
  0
CLASS
  1
DICTIONARYVAR
  2
AcDbDictionaryVar
  3
ObjectDBX Classes
 90
        0
 91
        4
280
     0
281
     0
  0
CLASS
  1
CELLSTYLEMAP
  2
AcDbCellStyleMap
  3
ObjectDBX Classes
 90
     1152
 91
        4
280
     0
281
     0
  0
ENDSEC
  0
SECTION
  2
TABLES
  0
TABLE
  2
VPORT
  5
8
330
0
100
AcDbSymbolTable
 70
     1
  0
VPORT
  5
29
330
8
100
AcDbSymbolTableRecord
100
AcDbViewportTableRecord
  2
*Active
 70
     0
 10
0.0
 20
0.0
 11
1.0
 21
1.0
 12
-7.500000000000057
 22
0.0
 13
0.0
 23
0.0
 14
10.0
 24
10.0
 15
10.0
 25
10.0
 16
0.0
 26
0.0
 36
1.0
 17
0.0
 27
0.0
 37
0.0
 40
149.022
 41
0.4186173853524973
 42
50.0
 43
0.0
 44
0.0
 50
0.0
 51
0.0
 71
     0
 72
   100
 73
     1
 74
     3
 75
     0
 76
     0
 77
     0
 78
     0
281
     0
 65
     1
110
0.0
120
0.0
130
0.0
111
1.0
121
0.0
131
0.0
112
0.0
122
1.0
132
0.0
 79
     0
146
0.0
348
2F
 60
     3
 61
     5
292
     1
282
     1
141
0.0
142
0.0
 63
   250
361
6D
  0
ENDTAB
  0
TABLE
  2
LTYPE
  5
5
330
0
100
AcDbSymbolTable
 70
     3
  0
LTYPE
  5
14
330
5
100
AcDbSymbolTableRecord
100
AcDbLinetypeTableRecord
  2
ByBlock
 70
     0
  3

 72
    65
 73
     0
 40
0.0
  0
LTYPE
  5
15
330
5
100
AcDbSymbolTableRecord
100
AcDbLinetypeTableRecord
  2
ByLayer
 70
     0
  3

 72
    65
 73
     0
 40
0.0
  0
LTYPE
  5
16
330
5
100
AcDbSymbolTableRecord
100
AcDbLinetypeTableRecord
  2
Continuous
 70
     0
  3
Solid line
 72
    65
 73
     0
 40
0.0
  0
LTYPE
  5
A6
330
5
100
AcDbSymbolTableRecord
100
AcDbLinetypeTableRecord
  2
Dashed
 70
     0
  3

 72
    65
 73
     2
 40
2.0
 49
1.0
 74
     0
 49
-1.0
 74
     0
  0
LTYPE
  5
192
330
5
100
AcDbSymbolTableRecord
100
AcDbLinetypeTableRecord
  2
Center
 70
     0
  3

 72
    65
 73
     4
 40
1.5
 49
0.45
 74
     0
 49
-0.5
 74
     0
 49
0.05
 74
     0
 49
-0.5
 74
     0
  0
ENDTAB
  0
TABLE
  2
LAYER
  5
2
330
0
100
AcDbSymbolTable
 70
     7
  0
LAYER
  5
10
330
2
100
AcDbSymbolTableRecord
100
AcDbLayerTableRecord
  2
0
 70
     0
 62
     7
  6
Continuous
370
    -3
390
F
347
46
348
0
  0
LAYER
  5
72
330
2
100
AcDbSymbolTableRecord
100
AcDbLayerTableRecord
  2
AM_6
 70
     0
 62
    -2
  6
Continuous
370
    35
390
F
347
46
348
0
  0
LAYER
  5
A7
330
2
100
AcDbSymbolTableRecord
100
AcDbLayerTableRecord
  2
AM_9
 70
     0
 62
     6
  6
Dashed
370
    25
390
F
347
46
348
0
  0
LAYER
  5
14C
330
2
100
AcDbSymbolTableRecord
100
AcDbLayerTableRecord
  2
AM_4
 70
     0
 62
     7
  6
Continuous
370
    50
390
F
347
46
348
0
  0
LAYER
  5
18F
330
2
100
AcDbSymbolTableRecord
100
AcDbLayerTableRecord
  2
AM_5
 70
     0
 62
     3
  6
Continuous
370
    25
390
F
347
46
348
0
  0
LAYER
  5
193
330
2
100
AcDbSymbolTableRecord
100
AcDbLayerTableRecord
  2
AM_7
 70
     0
 62
     7
  6
Center
370
    25
390
F
347
46
348
0
  0
LAYER
  5
226
330
2
100
AcDbSymbolTableRecord
100
AcDbLayerTableRecord
  2
ConnectionPoints
 70
     0
 62
     7
  6
Continuous
370
    50
390
F
347
46
348
0
  0
ENDTAB
  0
TABLE
  2
STYLE
  5
3
330
0
100
AcDbSymbolTable
 70
     1
  0
STYLE
  5
11
330
3
100
AcDbSymbolTableRecord
100
AcDbTextStyleTableRecord
  2
Standard
 70
     0
 40
0.0
 41
1.0
 50
0.0
 71
     0
 42
2.5
  3
txt
  4

  0
ENDTAB
  0
TABLE
  2
VIEW
  5
6
330
0
100
AcDbSymbolTable
 70
     0
  0
ENDTAB
  0
TABLE
  2
UCS
  5
7
330
0
100
AcDbSymbolTable
 70
     0
  0
ENDTAB
  0
TABLE
  2
APPID
  5
9
330
0
100
AcDbSymbolTable
 70
     1
  0
APPID
  5
12
330
9
100
AcDbSymbolTableRecord
100
AcDbRegAppTableRecord
  2
ACAD
 70
     0
  0
ENDTAB
  0
TABLE
  2
DIMSTYLE
  5
A
330
0
100
AcDbSymbolTable
 70
     1
100
AcDbDimStyleTable
  0
DIMSTYLE
105
27
330
A
100
AcDbSymbolTableRecord
100
AcDbDimStyleTableRecord
  2
ISO-25
 70
     0
 41
2.5
 42
0.625
 43
3.75
 44
1.25
 73
     0
 74
     0
 77
     1
 78
     8
140
2.5
141
2.5
143
0.03937007874016
147
0.625
171
     3
172
     1
178
     0
271
     2
272
     2
274
     3
278
    44
283
     0
284
     8
340
11
  0
ENDTAB
  0
TABLE
  2
BLOCK_RECORD
  5
1
330
0
100
AcDbSymbolTable
 70
     6
  0
BLOCK_RECORD
  5
1F
330
1
100
AcDbSymbolTableRecord
100
AcDbBlockTableRecord
  2
*Model_Space
340
22
 70
     0
280
     1
281
     0
  0
BLOCK_RECORD
  5
1B
330
1
100
AcDbSymbolTableRecord
100
AcDbBlockTableRecord
  2
*Paper_Space
340
1E
 70
     0
280
     1
281
     0
  0
BLOCK_RECORD
  5
23
330
1
100
AcDbSymbolTableRecord
100
AcDbBlockTableRecord
  2
*Paper_Space0
340
26
 70
     0
280
     1
281
     0
  0
BLOCK_RECORD
  5
6E
330
1
100
AcDbSymbolTableRecord
100
AcDbBlockTableRecord
  2
1_136302_2
340
0
102
{BLKREFS
331
6F
102
}
 70
     0
280
     1
281
     0
  0
BLOCK_RECORD
  5
95
330
1
100
AcDbSymbolTableRecord
100
AcDbBlockTableRecord
  2
2_405016_Metric_0_in_136302_2
340
0
102
{BLKREFS
331
96
102
}
 70
     0
280
     1
281
     0
  0
BLOCK_RECORD
  5
10D
330
1
100
AcDbSymbolTableRecord
100
AcDbBlockTableRecord
  2
3_129525_0_in_136302_2
340
0
102
{BLKREFS
331
10E
102
}
 70
     0
280
     1
281
     0
  0
BLOCK_RECORD
  5
157
330
1
100
AcDbSymbolTableRecord
100
AcDbBlockTableRecord
  2
4_136567i_0_in_136302_2
340
0
102
{BLKREFS
331
158
102
}
 70
     0
280
     1
281
     0
  0
BLOCK_RECORD
  5
1B1
330
1
100
AcDbSymbolTableRecord
100
AcDbBlockTableRecord
  2
5_136302h_0_in_136302_2
340
0
102
{BLKREFS
331
1B2
102
}
 70
     0
280
     1
281
     0
  0
ENDTAB
  0
ENDSEC
  0
SECTION
  2
BLOCKS
  0
BLOCK
  5
20
330
1F
100
AcDbEntity
  8
0
100
AcDbBlockBegin
  2
*Model_Space
 70
     0
 10
0.0
 20
0.0
 30
0.0
  3
*Model_Space
  1

  0
ENDBLK
  5
21
330
1F
100
AcDbEntity
  8
0
100
AcDbBlockEnd
  0
BLOCK
  5
1C
330
1B
100
AcDbEntity
 67
     1
  8
0
100
AcDbBlockBegin
  2
*Paper_Space
 70
     0
 10
0.0
 20
0.0
 30
0.0
  3
*Paper_Space
  1

  0
ENDBLK
  5
1D
330
1B
100
AcDbEntity
 67
     1
  8
0
100
AcDbBlockEnd
  0
BLOCK
  5
24
330
23
100
AcDbEntity
  8
0
100
AcDbBlockBegin
  2
*Paper_Space0
 70
     0
 10
0.0
 20
0.0
 30
0.0
  3
*Paper_Space0
  1

  0
ENDBLK
  5
25
330
23
100
AcDbEntity
  8
0
100
AcDbBlockEnd
  0
BLOCK
  5
70
330
6E
100
AcDbEntity
  8
0
100
AcDbBlockBegin
  2
1_136302_2
 70
     2
 10
0.0
 20
0.0
 30
0.0
  3
1_136302_2
  1

  0
ATTDEF
  5
73
330
6E
100
AcDbEntity
  8
AM_6
100
AcDbText
 10
28.07999999999999
 20
73.05000000000001
 30
0.0
 40
0.5
  1
Grip Tight Medium Duty Narrow Slot Take Up Metric Bore
100
AcDbAttributeDefinition
  3

  2
NN
 70
     8
280
     0
  0
ATTDEF
  5
74
330
6E
100
AcDbEntity
  8
AM_6
100
AcDbText
 10
28.07999999999999
 20
72.55000000000001
 30
0.0
 40
0.5
  1
GTM Normal Duty Narrow Slot Take-Up Bearings
100
AcDbAttributeDefinition
  3

  2
NT
 70
     8
280
     0
  0
ATTDEF
  5
75
330
6E
100
AcDbEntity
  8
AM_6
100
AcDbText
 10
28.07999999999999
 20
72.05000000000001
 30
0.0
 40
0.5
  1
136302
100
AcDbAttributeDefinition
  3

  2
NB
 70
     8
280
     0
  0
ATTDEF
  5
76
330
6E
100
AcDbEntity
  8
AM_6
100
AcDbText
 10
28.07999999999999
 20
71.55000000000001
 30
0.0
 40
0.5
  1
$PN.
100
AcDbAttributeDefinition
  3

  2
NBSYN
 70
     8
280
     0
  0
ATTDEF
  5
77
330
6E
100
AcDbEntity
  8
AM_6
100
AcDbText
 10
28.07999999999999
 20
71.05000000000001
 30
0.0
 40
0.5
  1
136302
100
AcDbAttributeDefinition
  3

  2
LINA
 70
     8
280
     0
  0
ATTDEF
  5
78
330
6E
100
AcDbEntity
  8
AM_6
100
AcDbText
 10
28.07999999999999
 20
70.55000000000001
 30
0.0
 40
0.5
  1
212
100
AcDbAttributeDefinition
  3

  2
SERIES
 70
     8
280
     0
  0
ATTDEF
  5
79
330
6E
100
AcDbEntity
  8
AM_6
100
AcDbText
 10
28.07999999999999
 20
70.05000000000001
 30
0.0
 40
0.5
  1
55
100
AcDbAttributeDefinition
  3

  2
SS
 70
     8
280
     0
  0
ATTDEF
  5
7A
330
6E
100
AcDbEntity
  8
AM_6
100
AcDbText
 10
28.07999999999999
 20
69.55000000000001
 30
0.0
 40
0.5
  1
136302
100
AcDbAttributeDefinition
  3

  2
PN
 70
     8
280
     0
  0
ATTDEF
  5
7B
330
6E
100
AcDbEntity
  8
AM_6
100
AcDbText
 10
28.07999999999999
 20
69.05000000000001
 30
0.0
 40
0.5
  1
NSTU-GTM-55M
100
AcDbAttributeDefinition
  3

  2
DESCRIPTION
 70
     8
280
     0
  0
ATTDEF
  5
7C
330
6E
100
AcDbEntity
  8
AM_6
100
AcDbText
 10
28.07999999999999
 20
68.55000000000001
 30
0.0
 40
0.5
  1
136218
100
AcDbAttributeDefinition
  3

  2
PNSL
 70
     8
280
     0
  0
ATTDEF
  5
7D
330
6E
100
AcDbEntity
  8
AM_6
100
AcDbText
 10
28.07999999999999
 20
68.05000000000001
 30
0.0
 40
0.5
  1
NSTU-GT-12
100
AcDbAttributeDefinition
  3

  2
DESCRIPTIONSL
 70
     8
280
     0
  0
ATTDEF
  5
7E
330
6E
100
AcDbEntity
  8
AM_6
100
AcDbText
 10
28.07999999999999
 20
67.55000000000001
 30
0.0
 40
0.5
  1
136567
100
AcDbAttributeDefinition
  3

  2
PNA
 70
     8
280
     0
  0
ATTDEF
  5
7F
330
6E
100
AcDbEntity
  8
AM_6
100
AcDbText
 10
28.07999999999999
 20
67.05000000000001
 30
0.0
 40
0.5
  1
AN-GTM-12-55M-D
100
AcDbAttributeDefinition
  3

  2
DESCRIPTIONA
 70
     8
280
     0
  0
ATTDEF
  5
80
330
6E
100
AcDbEntity
  8
AM_6
100
AcDbText
 10
28.07999999999999
 20
66.55000000000001
 30
0.0
 40
0.5
  1
4.9
100
AcDbAttributeDefinition
  3

  2
W
 70
     8
280
     0
  0
ATTDEF
  5
81
330
6E
100
AcDbEntity
  8
AM_6
100
AcDbText
 10
28.07999999999999
 20
66.05000000000001
 30
0.0
 40
0.5
  1
NS415
100
AcDbAttributeDefinition
  3

  2
TUFS
 70
     8
280
     0
  0
ATTDEF
  5
82
330
6E
100
AcDbEntity
  8
AM_6
100
AcDbText
 10
28.07999999999999
 20
65.55000000000001
 30
0.0
 40
0.5
  1
53.8
100
AcDbAttributeDefinition
  3

  2
A
 70
     8
280
     0
  0
ATTDEF
  5
83
330
6E
100
AcDbEntity
  8
AM_6
100
AcDbText
 10
28.07999999999999
 20
65.05000000000001
 30
0.0
 40
0.5
  1
169.9
100
AcDbAttributeDefinition
  3

  2
B
 70
     8
280
     0
  0
ATTDEF
  5
84
330
6E
100
AcDbEntity
  8
AM_6
100
AcDbText
 10
28.07999999999999
 20
64.55000000000001
 30
0.0
 40
0.5
  1
7.95
100
AcDbAttributeDefinition
  3

  2
C
 70
     8
280
     0
  0
ATTDEF
  5
85
330
6E
100
AcDbEntity
  8
AM_6
100
AcDbText
 10
28.07999999999999
 20
64.05000000000001
 30
0.0
 40
0.5
  1
95.3
100
AcDbAttributeDefinition
  3

  2
D
 70
     8
280
     0
  0
ATTDEF
  5
86
330
6E
100
AcDbEntity
  8
AM_6
100
AcDbText
 10
28.07999999999999
 20
63.55000000000001
 30
0.0
 40
0.5
  1
98.6
100
AcDbAttributeDefinition
  3

  2
E
 70
     8
280
     0
  0
ATTDEF
  5
87
330
6E
100
AcDbEntity
  8
AM_6
100
AcDbText
 10
28.07999999999999
 20
63.05000000000001
 30
0.0
 40
0.5
  1
25.4
100
AcDbAttributeDefinition
  3

  2
F
 70
     8
280
     0
  0
ATTDEF
  5
88
330
6E
100
AcDbEntity
  8
AM_6
100
AcDbText
 10
28.07999999999999
 20
62.55000000000001
 30
0.0
 40
0.5
  1
17.5
100
AcDbAttributeDefinition
  3

  2
G
 70
     8
280
     0
  0
ATTDEF
  5
89
330
6E
100
AcDbEntity
  8
AM_6
100
AcDbText
 10
28.07999999999999
 20
62.05000000000001
 30
0.0
 40
0.5
  1
32.5
100
AcDbAttributeDefinition
  3

  2
H
 70
     8
280
     0
  0
ATTDEF
  5
8A
330
6E
100
AcDbEntity
  8
AM_6
100
AcDbText
 10
28.07999999999999
 20
61.55000000000001
 30
0.0
 40
0.5
  1
41.4
100
AcDbAttributeDefinition
  3

  2
J
 70
     8
280
     0
  0
ATTDEF
  5
8B
330
6E
100
AcDbEntity
  8
AM_6
100
AcDbText
 10
28.07999999999999
 20
61.05000000000001
 30
0.0
 40
0.5
  1
93.7
100
AcDbAttributeDefinition
  3

  2
L
 70
     8
280
     0
  0
ATTDEF
  5
8C
330
6E
100
AcDbEntity
  8
AM_6
100
AcDbText
 10
28.07999999999999
 20
60.55000000000001
 30
0.0
 40
0.5
  1
125.65/124.89
100
AcDbAttributeDefinition
  3

  2
M
 70
     8
280
     0
  0
ATTDEF
  5
8D
330
6E
100
AcDbEntity
  8
AM_6
100
AcDbText
 10
28.07999999999999
 20
60.05000000000001
 30
0.0
 40
0.5
  1
146.1
100
AcDbAttributeDefinition
  3

  2
N
 70
     8
280
     0
  0
ATTDEF
  5
8E
330
6E
100
AcDbEntity
  8
AM_6
100
AcDbText
 10
28.07999999999999
 20
59.55000000000001
 30
0.0
 40
0.5
  1
11.2
100
AcDbAttributeDefinition
  3

  2
P
 70
     8
280
     0
  0
ATTDEF
  5
8F
330
6E
100
AcDbEntity
  8
AM_6
100
AcDbText
 10
28.07999999999999
 20
59.05000000000001
 30
0.0
 40
0.5
  1
18.5
100
AcDbAttributeDefinition
  3

  2
R
 70
     8
280
     0
  0
ATTDEF
  5
90
330
6E
100
AcDbEntity
  8
AM_6
100
AcDbText
 10
28.07999999999999
 20
58.55000000000001
 30
0.0
 40
0.5
  1
35.3
100
AcDbAttributeDefinition
  3

  2
S
 70
     8
280
     0
  0
ATTDEF
  5
91
330
6E
100
AcDbEntity
  8
AM_6
100
AcDbText
 10
28.07999999999999
 20
58.05000000000001
 30
0.0
 40
0.5
  1
37.1
100
AcDbAttributeDefinition
  3

  2
Z
 70
     8
280
     0
  0
ATTDEF
  5
92
330
6E
100
AcDbEntity
  8
AM_6
100
AcDbText
 10
28.07999999999999
 20
57.55000000000001
 30
0.0
 40
0.5
  1
6955
100
AcDbAttributeDefinition
  3

  2
CAPS
 70
     8
280
     0
  0
ATTDEF
  5
93
330
6E
100
AcDbEntity
  8
AM_6
100
AcDbText
 10
28.07999999999999
 20
57.05000000000001
 30
0.0
 40
0.5
  1
11791
100
AcDbAttributeDefinition
  3

  2
CAPD
 70
     8
280
     0
  0
ATTDEF
  5
94
330
6E
100
AcDbEntity
  8
AM_6
100
AcDbText
 10
28.07999999999999
 20
56.55000000000001
 30
0.0
 40
0.5
  1
baldor
100
AcDbAttributeDefinition
  3

  2
COMPANY
 70
     8
280
     0
  0
INSERT
  5
96
330
6E
100
AcDbEntity
  8
0
100
AcDbBlockReference
  2
2_405016_Metric_0_in_136302_2
 10
0.0
 20
0.0
 30
0.0
  0
INSERT
  5
10E
330
6E
100
AcDbEntity
  8
0
100
AcDbBlockReference
  2
3_129525_0_in_136302_2
 10
0.0
 20
0.0
 30
0.0
  0
INSERT
  5
158
330
6E
100
AcDbEntity
  8
0
100
AcDbBlockReference
  2
4_136567i_0_in_136302_2
 10
0.0
 20
0.0
 30
0.0
  0
INSERT
  5
1B2
330
6E
100
AcDbEntity
  8
0
100
AcDbBlockReference
  2
5_136302h_0_in_136302_2
 10
0.0
 20
0.0
 30
0.0
  0
ENDBLK
  5
71
330
6E
100
AcDbEntity
  8
0
100
AcDbBlockEnd
  0
BLOCK
  5
97
330
95
100
AcDbEntity
  8
0
100
AcDbBlockBegin
  2
2_405016_Metric_0_in_136302_2
 70
     2
 10
0.0
 20
0.0
 30
0.0
  3
2_405016_Metric_0_in_136302_2
  1

  0
ATTDEF
  5
99
330
95
100
AcDbEntity
  8
AM_6
100
AcDbText
 10
10.55625
 20
-29.09490184921542
 30
0.0
 40
0.5
  1
405016 -Metric
100
AcDbAttributeDefinition
  3

  2
NN
 70
     8
280
     0
  0
ATTDEF
  5
9A
330
95
100
AcDbEntity
  8
AM_6
100
AcDbText
 10
10.55625
 20
-29.59490184921542
 30
0.0
 40
0.5
  1
Grease Fitting
100
AcDbAttributeDefinition
  3

  2
NT
 70
     8
280
     0
  0
ATTDEF
  5
9B
330
95
100
AcDbEntity
  8
AM_6
100
AcDbText
 10
10.55625
 20
-30.09490184921542
 30
0.0
 40
0.5
  1
405016-Metric
100
AcDbAttributeDefinition
  3

  2
NB
 70
     8
280
     0
  0
ATTDEF
  5
9C
330
95
100
AcDbEntity
  8
AM_6
100
AcDbText
 10
10.55625
 20
-30.59490184921542
 30
0.0
 40
0.5
  1
$MN.-Metric
100
AcDbAttributeDefinition
  3

  2
NBSYN
 70
     8
280
     0
  0
ATTDEF
  5
9D
330
95
100
AcDbEntity
  8
AM_6
100
AcDbText
 10
10.55625
 20
-31.09490184921542
 30
0.0
 40
0.5
  1
405016
100
AcDbAttributeDefinition
  3

  2
LINA
 70
     8
280
     0
  0
ATTDEF
  5
9E
330
95
100
AcDbEntity
  8
AM_6
100
AcDbText
 10
10.55625
 20
-31.59490184921542
 30
0.0
 40
0.5
  1
405016
100
AcDbAttributeDefinition
  3

  2
MN
 70
     8
280
     0
  0
ATTDEF
  5
9F
330
95
100
AcDbEntity
  8
AM_6
100
AcDbText
 10
10.55625
 20
-32.09490184921542
 30
0.0
 40
0.5
  1
7/16 HEX
100
AcDbAttributeDefinition
  3

  2
H
 70
     8
280
     0
  0
ATTDEF
  5
A0
330
95
100
AcDbEntity
  8
AM_6
100
AcDbText
 10
10.55625
 20
-32.59490184921542
 30
0.0
 40
0.5
  1
9.728
100
AcDbAttributeDefinition
  3

  2
NDR
 70
     8
280
     0
  0
ATTDEF
  5
A1
330
95
100
AcDbEntity
  8
AM_6
100
AcDbText
 10
10.55625
 20
-33.09490184921542
 30
0.0
 40
0.5
  1
8.560
100
AcDbAttributeDefinition
  3

  2
KDR
 70
     8
280
     0
  0
ATTDEF
  5
A2
330
95
100
AcDbEntity
  8
AM_6
100
AcDbText
 10
10.55625
 20
-33.59490184921542
 30
0.0
 40
0.5
  1
4.0005
100
AcDbAttributeDefinition
  3

  2
BZE
 70
     8
280
     0
  0
ATTDEF
  5
A3
330
95
100
AcDbEntity
  8
AM_6
100
AcDbText
 10
10.55625
 20
-34.09490184921542
 30
0.0
 40
0.5
  1
11.1125
100
AcDbAttributeDefinition
  3

  2
HEX
 70
     8
280
     0
  0
ATTDEF
  5
A4
330
95
100
AcDbEntity
  8
AM_6
100
AcDbText
 10
10.55625
 20
-34.59490184921542
 30
0.0
 40
0.5
  1
7.143750
100
AcDbAttributeDefinition
  3

  2
HEX2
 70
     8
280
     0
  0
ATTDEF
  5
A5
330
95
100
AcDbEntity
  8
AM_6
100
AcDbText
 10
10.55625
 20
-35.09490184921542
 30
0.0
 40
0.5
  1
baldor
100
AcDbAttributeDefinition
  3

  2
COMPANY
 70
     8
280
     0
  0
LWPOLYLINE
  5
A8
330
95
100
AcDbEntity
  8
AM_9
100
AcDbPolyline
 90
        5
 70
     0
 43
0.0
 10
-4.549376881905939
 20
-44.45716575011958
 10
-4.680053692952525
 20
-43.61722104716566
 10
-4.730040525586982
 20
-42.74453519314443
 10
-4.684077415975235
 20
-41.82541173564804
 10
-4.549376881905939
 20
-40.88529075011958
  0
LINE
  5
A9
330
95
100
AcDbEntity
  8
AM_9
100
AcDbLine
 10
-3.837282897828234
 20
-40.71926331106881
 30
0.0
 11
-4.549376881905939
 21
-40.88529075011958
 31
0.0
  0
LWPOLYLINE
  5
AA
330
95
100
AcDbEntity
  8
AM_9
100
AcDbPolyline
 90
        5
 70
     0
 43
0.0
 10
-4.549376881905939
 20
-40.88529075011958
 10
-5.050422008373633
 20
-40.08708835050992
 10
-5.477080537076167
 20
-39.25674219793952
 10
-5.81777375853646
 20
-38.38065630374616
 10
-6.06899892960875
 20
-37.48309494714501
  0
LINE
  5
AB
330
95
100
AcDbEntity
  8
AM_9
100
AcDbLine
 10
-5.333905179049323
 20
-37.31170502447113
 30
0.0
 11
-6.06899892960875
 21
-37.48309494714501
 31
0.0
  0
LINE
  5
AC
330
95
100
AcDbEntity
  8
AM_9
100
AcDbLine
 10
-6.06899892960875
 20
-37.48309494714501
 30
0.0
 11
-6.887292896806425
 21
-37.59610033531011
 31
0.0
  0
LWPOLYLINE
  5
AD
330
95
100
AcDbEntity
  8
AM_9
100
AcDbPolyline
 90
        3
 70
     0
 43
0.0
 10
-7.147354260923542
 20
-37.62492744350232
 10
-7.395910919975462
 20
-37.64531207475422
 10
-7.588696252319892
 20
-37.65279169482685
  0
LWPOLYLINE
  5
AE
330
95
100
AcDbEntity
  8
AM_9
100
AcDbPolyline
 90
        5
 70
     0
 43
0.0
 10
-6.06899892960875
 20
-44.62684494714501
 10
-5.830160733401209
 20
-44.61615077826178
 10
-5.503852774457661
 20
-44.58578491330026
 10
-5.07086122491889
 20
-44.53179039060552
 10
-4.549376881905939
 20
-44.45716575011958
  0
LINE
  5
AF
330
95
100
AcDbEntity
  8
AM_9
100
AcDbLine
 10
-3.837282897828234
 20
-44.29113831106881
 30
0.0
 11
-4.549376881905939
 21
-44.45716575011958
 31
0.0
  0
LINE
  5
B0
330
95
100
AcDbEntity
  8
AM_9
100
AcDbLine
 10
-11.49136154692728
 20
-44.95285201901979
 30
0.0
 11
-9.58764791636241
 21
-45.42342881516681
 31
0.0
  0
LINE
  5
B1
330
95
100
AcDbEntity
  8
AM_9
100
AcDbLine
 10
-11.16548248281835
 20
-38.65607452079887
 30
0.0
 11
-12.66477284326564
 21
-39.92007472781639
 31
0.0
  0
LWPOLYLINE
  5
B2
330
95
100
AcDbEntity
  8
AM_9
100
AcDbPolyline
 90
        3
 70
     0
 43
0.0
 10
-6.830431020205953
 20
-37.47599925250315
 10
-6.382400080731245
 20
-37.40866661256952
 10
-5.996343371387016
 20
-37.35656484729698
  0
LWPOLYLINE
  5
B3
330
95
100
AcDbEntity
  8
AM_9
100
AcDbPolyline
 90
       10
 70
     0
 43
0.0
 10
-9.635535797920017
 20
-38.74510729528978
 10
-9.682467551897329
 20
-38.70696625327189
 10
-9.878972334315016
 20
-38.57329056977239
 10
-10.0738555796717
 20
-38.47997317052682
 10
-10.26866617148691
 20
-38.42339671866156
 10
-10.46369953691382
 20
-38.4022818331822
 10
-10.67765271945166
 20
-38.4205548812737
 10
-10.87495863109362
 20
-38.47911846646617
 10
-11.05205901954244
 20
-38.57187727302976
 10
-11.17745343166541
 20
-38.66630536259683
  0
LWPOLYLINE
  5
B4
330
95
100
AcDbEntity
  8
AM_9
100
AcDbPolyline
 90
       10
 70
     0
 43
0.0
 10
-9.603739165611673
 20
-45.41932992892783
 10
-9.534928516381807
 20
-45.43516218914267
 10
-9.33989767885911
 20
-45.45609039760694
 10
-9.126015397013502
 20
-45.43761743027331
 10
-8.928797551944502
 20
-45.37888221838541
 10
-8.75179677656625
 20
-45.28598018675172
 10
-8.595817395063184
 20
-45.16389886470819
 10
-8.458955923592136
 20
-45.01416937280926
 10
-8.339020841459309
 20
-44.83461686828928
 10
-8.235396803603114
 20
-44.62121947230548
  0
LWPOLYLINE
  5
B5
330
95
100
AcDbEntity
  8
AM_9
100
AcDbPolyline
 90
        3
 70
     0
 43
0.0
 10
-2.778125000000004
 20
-33.745
 10
-1.389062500000003
 20
-33.02007281403007
 10
-0.0000000000000033
 20
-32.240778983853
  0
LWPOLYLINE
  5
B6
330
95
100
AcDbEntity
  8
AM_9
100
AcDbPolyline
 90
        3
 70
     0
 43
0.0
 10
-0.0000000000000033
 20
-32.240778983853
 10
1.382816900963395
 20
-33.01668148362153
 10
2.778124999999995
 20
-33.745
  0
LWPOLYLINE
  5
B7
330
95
100
AcDbEntity
  8
AM_9
100
AcDbPolyline
 90
        6
 70
     0
 43
0.0
 10
-3.837282897828234
 20
-44.29113831106881
 10
-3.973124856539691
 20
-44.28971497347935
 10
-4.16544852425725
 20
-44.30086209670619
 10
-4.429920560679957
 20
-44.32781574339293
 10
-4.766969289547205
 20
-44.37142327771371
 10
-5.333905179049323
 20
-44.45545502447114
  0
LINE
  5
B8
330
95
100
AcDbEntity
  8
AM_9
100
AcDbLine
 10
-3.611037658926576
 20
-42.19193808758665
 30
0.0
 11
-3.605746149316373
 21
-42.45134298235551
 31
0.0
  0
LWPOLYLINE
  5
B9
330
95
100
AcDbEntity
  8
AM_9
100
AcDbPolyline
 90
        3
 70
     0
 43
0.0
 10
-3.837282897828235
 20
-40.71926331106881
 10
-3.705296695971727
 20
-41.32716981401241
 10
-3.62874393278429
 20
-41.91190422190047
  0
LINE
  5
BA
330
95
100
AcDbEntity
  8
AM_9
100
AcDbLine
 10
-4.500907342102155
 20
-38.64598971292707
 30
0.0
 11
-4.485106171058627
 21
-38.67782873077597
 31
0.0
  0
LWPOLYLINE
  5
BB
330
95
100
AcDbEntity
  8
AM_9
100
AcDbPolyline
 90
        3
 70
     0
 43
0.0
 10
-5.333905179049323
 20
-37.31170502447113
 10
-4.936675458173815
 20
-37.88501849892114
 10
-4.662383813082184
 20
-38.34078415473224
  0
LWPOLYLINE
  5
BC
330
95
100
AcDbEntity
  8
AM_9
100
AcDbPolyline
 90
        3
 70
     0
 43
0.0
 10
-5.736282007269862
 20
-37.32773773910476
 10
-5.560509266840905
 20
-37.31396339412863
 10
-5.333905179049323
 20
-37.31170502447113
  0
LINE
  5
BD
330
95
100
AcDbEntity
  8
AM_9
100
AcDbLine
 10
-4.477259168340677
 20
-38.69374187574991
 30
0.0
 11
-4.485689043732696
 21
-38.67664667849584
 31
0.0
  0
LINE
  5
BE
330
95
100
AcDbEntity
  8
AM_9
100
AcDbLine
 10
-3.605746148079325
 20
-42.4527681062321
 30
0.0
 11
-3.605746148079325
 21
-42.43167328227922
 31
0.0
  0
LWPOLYLINE
  5
BF
330
95
100
AcDbEntity
  8
AM_9
100
AcDbPolyline
 90
        4
 70
     0
 43
0.0
 10
-3.606536359462952
 20
-42.55199965579722
 10
-3.608061141866099
 20
-42.62398433551977
 10
-3.660719790057631
 20
-43.31052124034201
 10
-3.837282897828234
 20
-44.29113831106881
  0
LINE
  5
C0
330
95
100
AcDbEntity
  8
AM_9
100
AcDbLine
 10
-3.605746149316373
 20
-42.45134298235551
 30
0.0
 11
-3.606536359462952
 21
-42.55199965579722
 31
0.0
  0
LWPOLYLINE
  5
C1
330
95
100
AcDbEntity
  8
AM_9
100
AcDbPolyline
 90
        3
 70
     0
 43
0.0
 10
-4.231432079604042
 20
-39.25737615344665
 10
-4.060772684155618
 20
-39.75892471870115
 10
-3.837282897828234
 20
-40.71926331106881
  0
LINE
  5
C2
330
95
100
AcDbEntity
  8
AM_9
100
AcDbLine
 10
-4.485106171058627
 20
-38.67782873077597
 30
0.0
 11
-4.353742642795734
 21
-38.95977632980037
 31
0.0
  0
ELLIPSE
  5
C3
330
95
100
AcDbEntity
  8
AM_9
100
AcDbEllipse
 10
-5.115285751734313
 20
-40.81306421886844
 30
0.0
 11
-0.8110435929052995
 21
3.478577195640689
 31
0.0
210
0.0
220
0.0
230
1.0
 40
0.3659981507706574
 41
2.150416404658166
 42
6.139946939636938
  0
LWPOLYLINE
  5
C4
330
95
100
AcDbEntity
  8
AM_9
100
AcDbPolyline
 90
        3
 70
     0
 43
0.0
 10
-7.760864787992072
 20
-39.91345337203565
 10
-7.698114323064442
 20
-40.57564052161345
 10
-7.588696252319892
 20
-41.22466669482686
  0
LWPOLYLINE
  5
C5
330
95
100
AcDbEntity
  8
AM_9
100
AcDbPolyline
 90
        3
 70
     0
 43
0.0
 10
-6.609853898455277
 20
-38.77592592808983
 10
-6.646959991776585
 20
-38.40364633553605
 10
-6.830431020205953
 20
-37.47599925250315
  0
LINE
  5
C6
330
95
100
AcDbEntity
  8
AM_9
100
AcDbLine
 10
-6.830431020205953
 20
-37.47599925250315
 30
0.0
 11
-7.588696252319892
 21
-37.65279169482685
 31
0.0
  0
LWPOLYLINE
  5
C7
330
95
100
AcDbEntity
  8
AM_9
100
AcDbPolyline
 90
        3
 70
     0
 43
0.0
 10
-7.588696252319892
 20
-37.65279169482685
 10
-7.697739397127515
 20
-38.34987070916351
 10
-7.760864787992072
 20
-39.04428852429533
  0
LINE
  5
C8
330
95
100
AcDbEntity
  8
AM_9
100
AcDbLine
 10
-6.887292896806425
 20
-37.59610033531011
 30
0.0
 11
-7.147354260923542
 21
-37.62492744350232
 31
0.0
  0
ELLIPSE
  5
C9
330
95
100
AcDbEntity
  8
AM_9
100
AcDbEllipse
 10
-6.26629664127093
 20
-41.08142681507381
 30
0.0
 11
-0.8110435929053261
 21
3.478577195640803
 31
0.0
210
0.0
220
0.0
230
1.0
 40
0.3659981507706697
 41
2.150416404658192
 42
6.1399469396369
  0
ELLIPSE
  5
CA
330
95
100
AcDbEntity
  8
AM_9
100
AcDbEllipse
 10
-6.266296641270926
 20
-41.08142681507382
 30
0.0
 11
-0.8110435929053127
 21
3.478577195640746
 31
0.0
210
0.0
220
0.0
230
1.0
 40
0.3659981507706735
 41
1.282540858688542
 42
1.95115673485051
  0
LWPOLYLINE
  5
CB
330
95
100
AcDbEntity
  8
AM_9
100
AcDbPolyline
 90
        3
 70
     0
 43
0.0
 10
-7.760864787992072
 20
-39.04428852429533
 10
-7.784509761460653
 20
-39.4820930938689
 10
-7.760864787992072
 20
-39.91345337203565
  0
ELLIPSE
  5
CC
330
95
100
AcDbEntity
  8
AM_9
100
AcDbEllipse
 10
-6.266296641270451
 20
-41.08142681507401
 30
0.0
 11
-0.8110435929056711
 21
3.478577195641178
 31
0.0
210
0.0
220
0.0
230
1.0
 40
0.3659981507707274
 41
0.0560213022651093
 42
0.862632757975738
  0
LWPOLYLINE
  5
CD
330
95
100
AcDbEntity
  8
AM_9
100
AcDbPolyline
 90
       16
 70
     0
 43
0.0
 10
-8.255163381685495
 20
-44.66767352407863
 10
-8.24941322957767
 20
-44.65581789067608
 10
-8.22077964970511
 20
-44.60647390781285
 10
-8.16245768769108
 20
-44.52555185749879
 10
-8.067630019694164
 20
-44.42086856740283
 10
-7.930178580272163
 20
-44.30266865066744
 10
-7.747487266871501
 20
-44.18489484891985
 10
-7.524982156610801
 20
-44.08455832637483
 10
-7.278430094849106
 20
-44.01693428806583
 10
-7.029408263251394
 20
-43.9892402135884
 10
-6.799654170040936
 20
-43.99871315548533
 10
-6.604800297285165
 20
-44.03485782855505
 10
-6.45317045738035
 20
-44.0838949825899
 10
-6.345636615612134
 20
-44.13294504759931
 10
-6.278278011404313
 20
-44.17233599280389
 10
-6.245951344497377
 20
-44.19525805305122
  0
LWPOLYLINE
  5
CE
330
95
100
AcDbEntity
  8
AM_9
100
AcDbPolyline
 90
        4
 70
     0
 43
0.0
 10
-6.241414701572783
 20
-44.19892780726909
 10
-6.244102542381998
 20
-44.19651736407739
 10
-6.268912581424811
 20
-44.17182516360095
 10
-6.280333311471458
 20
-44.15957664443756
  0
LWPOLYLINE
  5
CF
330
95
100
AcDbEntity
  8
AM_9
100
AcDbPolyline
 90
        4
 70
     0
 43
0.0
 10
-7.638594983060347
 20
-38.32128427174452
 10
-7.633027991221019
 20
-38.30330581852825
 10
-7.6230004038065
 20
-38.27500114876689
 10
-7.622744426414251
 20
-38.27438549841289
  0
LWPOLYLINE
  5
D0
330
95
100
AcDbEntity
  8
AM_9
100
AcDbPolyline
 90
       16
 70
     0
 43
0.0
 10
-7.629314320277917
 20
-38.28795981626781
 10
-7.658666144268502
 20
-38.33825273722169
 10
-7.717889268699886
 20
-38.41993117812285
 10
-7.813801166428293
 20
-38.52513124469412
 10
-7.95247216485054
 20
-38.64352214425673
 10
-8.136363108879323
 20
-38.76105406310568
 10
-8.35977233239563
 20
-38.86067979274932
 10
-8.606684546087031
 20
-38.92726859547795
 10
-8.855472582969167
 20
-38.95387405850337
 10
-9.084450492889347
 20
-38.94351147625314
 10
-9.278203165751833
 20
-38.90682876822132
 10
-9.428613952578656
 20
-38.85763292069176
 10
-9.534990001482635
 20
-38.80873323338253
 10
-9.60132754501603
 20
-38.76971041121163
 10
-9.632768620543535
 20
-38.74731398440911
 10
-9.636620979047422
 20
-38.74419731292706
  0
LINE
  5
D1
330
95
100
AcDbEntity
  8
AM_9
100
AcDbLine
 10
-4.498867597488414
 20
-37.80040698714611
 30
0.0
 11
-5.749702073295884
 21
-38.09204383472277
 31
0.0
  0
LINE
  5
D2
330
95
100
AcDbEntity
  8
AM_9
100
AcDbLine
 10
-4.48086943017289
 20
-43.53408460301415
 30
0.0
 11
-3.412724916061098
 21
-43.28504261954087
 31
0.0
  0
LWPOLYLINE
  5
D3
330
95
100
AcDbEntity
  8
AM_9
100
AcDbPolyline
 90
       11
 70
     0
 43
0.0
 10
-3.096128520611933
 20
-40.37324815757401
 10
-3.1625730843053
 20
-40.06318536004807
 10
-3.281280336792631
 20
-39.61043103280826
 10
-3.415613668153263
 20
-39.19573983368014
 10
-3.569173128090979
 20
-38.80795336822163
 10
-3.72940778886349
 20
-38.47881015362552
 10
-3.900563582124104
 20
-38.19968684955893
 10
-4.068570560479346
 20
-37.99363114871168
 10
-4.237973131810885
 20
-37.85524012688494
 10
-4.397035613753723
 20
-37.79581586980424
 10
-4.498659790440589
 20
-37.80035854774171
  0
LWPOLYLINE
  5
D4
330
95
100
AcDbEntity
  8
AM_9
100
AcDbPolyline
 90
       11
 70
     0
 43
0.0
 10
-3.412894494842745
 20
-43.2850821492517
 10
-3.284291520882657
 20
-43.21897056608314
 10
-3.16773914639421
 20
-43.07739677942889
 10
-3.070557447853726
 20
-42.85844987254283
 10
-3.001126812430814
 20
-42.58117718386941
 10
-2.957268343506167
 20
-42.23713980143761
 10
-2.942714645652548
 20
-41.85598889147064
 10
-2.956956816676948
 20
-41.42617048344425
 10
-2.998748603033096
 20
-40.98411945689948
 10
-3.069253891791885
 20
-40.51682779519101
 10
-3.096128520611933
 20
-40.37324815757401
  0
LINE
  5
D5
330
95
100
AcDbEntity
  8
AM_9
100
AcDbLine
 10
-4.498659790440589
 20
-37.80035854774171
 30
0.0
 11
-4.547549295795375
 21
-37.81672297245753
 31
0.0
  0
LWPOLYLINE
  5
D6
330
95
100
AcDbEntity
  8
AM_9
100
AcDbPolyline
 90
        3
 70
     0
 43
0.0
 10
-6.830431020205953
 20
-41.04787425250316
 10
-6.69114354935373
 20
-40.34623035747345
 10
-6.609853898455524
 20
-39.64509077583033
  0
LWPOLYLINE
  5
D7
330
95
100
AcDbEntity
  8
AM_9
100
AcDbPolyline
 90
        5
 70
     0
 43
0.0
 10
-4.547549295794521
 20
-41.73827702754266
 10
-4.40418573089837
 20
-42.13233339056031
 10
-4.243653641815982
 20
-42.49169258101902
 10
-4.079360450144664
 20
-42.78628096276115
 10
-3.926106496338928
 20
-43.00117559600979
  0
ARC
  5
D8
330
95
100
AcDbEntity
  8
AM_9
100
AcDbCircle
 10
-0.0000000000000022
 20
-39.7775
 30
0.0
 40
5.08
100
AcDbArc
 50
219.3590441729279
 51
0.0000008537736463
  0
LWPOLYLINE
  5
D9
330
95
100
AcDbEntity
  8
AM_9
100
AcDbPolyline
 90
        6
 70
     0
 43
0.0
 10
-3.926106496338928
 20
-43.00117559600979
 10
-3.906600444275937
 20
-43.02450398452264
 10
-3.739733627290442
 20
-43.1864851037963
 10
-3.574110867010547
 20
-43.27664742480979
 10
-3.423743718108898
 20
-43.28738010504424
 10
-3.412894494842745
 20
-43.2850821492517
  0
LINE
  5
DA
330
95
100
AcDbEntity
  8
AM_9
100
AcDbLine
 10
-5.996343371387016
 20
-37.35656484729698
 30
0.0
 11
-5.736282007269862
 21
-37.32773773910476
 31
0.0
  0
ELLIPSE
  5
DB
330
95
100
AcDbEntity
  8
AM_9
100
AcDbEllipse
 10
-5.115285751734374
 20
-40.81306421886849
 30
0.0
 11
-0.811043592905353
 21
3.478577195640824
 31
0.0
210
0.0
220
0.0
230
1.0
 40
0.3659981507705685
 41
0.0560213022650142
 42
0.8626327579757354
  0
LINE
  5
DC
330
95
100
AcDbEntity
  8
AM_9
100
AcDbLine
 10
-6.609853898455524
 20
-39.64509077583033
 30
0.0
 11
-6.609853898455277
 21
-38.77592592808983
 31
0.0
  0
ELLIPSE
  5
DD
330
95
100
AcDbEntity
  8
AM_9
100
AcDbEllipse
 10
-5.115285751734373
 20
-40.81306421886848
 30
0.0
 11
-0.8110435929053385
 21
3.478577195640832
 31
0.0
210
0.0
220
0.0
230
1.0
 40
0.3659981507706677
 41
1.144545279139737
 42
1.951156734850489
  0
LWPOLYLINE
  5
DE
330
95
100
AcDbEntity
  8
AM_9
100
AcDbPolyline
 90
        3
 70
     0
 43
0.0
 10
-5.333905179049323
 20
-44.45545502447114
 10
-5.495237602967162
 20
-43.71041542538193
 10
-5.736282007269853
 20
-42.96665993102582
  0
LINE
  5
DF
330
95
100
AcDbEntity
  8
AM_9
100
AcDbLine
 10
-5.736282007269853
 20
-42.96665993102582
 30
0.0
 11
-5.99634337138701
 21
-42.38012942772722
 31
0.0
  0
LWPOLYLINE
  5
E0
330
95
100
AcDbEntity
  8
AM_9
100
AcDbPolyline
 90
        3
 70
     0
 43
0.0
 10
-5.99634337138701
 20
-42.38012942772722
 10
-6.253713524124907
 20
-41.90910892482294
 10
-6.830431020205953
 20
-41.04787425250316
  0
LINE
  5
E1
330
95
100
AcDbEntity
  8
AM_9
100
AcDbLine
 10
-6.830431020205953
 20
-41.04787425250316
 30
0.0
 11
-7.588696252319892
 21
-41.22466669482686
 31
0.0
  0
LWPOLYLINE
  5
E2
330
95
100
AcDbEntity
  8
AM_9
100
AcDbPolyline
 90
        3
 70
     0
 43
0.0
 10
-7.588696252319892
 20
-41.22466669482686
 10
-7.397029361446427
 20
-41.93843506077803
 10
-7.147354260923541
 20
-42.6484920239326
  0
LINE
  5
E3
330
95
100
AcDbEntity
  8
AM_9
100
AcDbLine
 10
-7.147354260923541
 20
-42.6484920239326
 30
0.0
 11
-6.887292896806425
 21
-43.23502252723112
 31
0.0
  0
LWPOLYLINE
  5
E4
330
95
100
AcDbEntity
  8
AM_9
100
AcDbPolyline
 90
        3
 70
     0
 43
0.0
 10
-6.887292896806425
 20
-43.23502252723112
 10
-6.507011440078411
 20
-43.9387295930775
 10
-6.06899892960875
 20
-44.62684494714501
  0
LINE
  5
E5
330
95
100
AcDbEntity
  8
AM_9
100
AcDbLine
 10
-5.333905179049323
 20
-44.45545502447114
 30
0.0
 11
-6.06899892960875
 21
-44.62684494714501
 31
0.0
  0
LWPOLYLINE
  5
E6
330
95
100
AcDbEntity
  8
AM_9
100
AcDbPolyline
 90
        3
 70
     0
 43
0.0
 10
-0.0000000000000032
 20
-31.20109601614701
 10
-1.382816900963403
 20
-31.80801041734187
 10
-2.778125000000004
 20
-32.47499999999999
  0
LWPOLYLINE
  5
E7
330
95
100
AcDbEntity
  8
AM_9
100
AcDbPolyline
 90
        3
 70
     0
 43
0.0
 10
2.778124999999996
 20
-32.47499999999999
 10
1.389062499999996
 20
-31.81086468596994
 10
-0.0000000000000032
 20
-31.20109601614701
  0
LWPOLYLINE
  5
E8
330
95
100
AcDbEntity
  8
AM_9
100
AcDbPolyline
 90
        3
 70
     0
 43
0.0
 10
2.778124999999995
 20
-33.745
 10
4.167187499999996
 20
-34.40913531403006
 10
5.556249999999998
 20
-35.01890398385299
  0
LWPOLYLINE
  5
E9
330
95
100
AcDbEntity
  8
AM_9
100
AcDbPolyline
 90
        3
 70
     0
 43
0.0
 10
-5.556250000000004
 20
-35.01890398385299
 10
-4.173433099036604
 20
-34.41198958265813
 10
-2.778125000000004
 20
-33.745
  0
LINE
  5
EA
330
95
100
AcDbEntity
  8
AM_9
100
AcDbLine
 10
-0.0000000000000033
 20
-32.240778983853
 30
0.0
 11
-0.0000000000000032
 21
-31.20109601614701
 31
0.0
  0
LWPOLYLINE
  5
EB
330
95
100
AcDbEntity
  8
AM_9
100
AcDbPolyline
 90
        3
 70
     0
 43
0.0
 10
5.556249999999998
 20
-33.979221016147
 10
4.173433099036598
 20
-33.20331851637847
 10
2.778124999999996
 20
-32.47499999999999
  0
LWPOLYLINE
  5
EC
330
95
100
AcDbEntity
  8
AM_9
100
AcDbPolyline
 90
        3
 70
     0
 43
0.0
 10
-2.778125000000004
 20
-32.47499999999999
 10
-4.167187500000003
 20
-33.19992718596994
 10
-5.556250000000004
 20
-33.979221016147
  0
ELLIPSE
  5
ED
330
95
100
AcDbEntity
  8
AM_9
100
AcDbEllipse
 10
-0.0000000000000062
 20
-39.7775
 30
0.0
 11
-5.079999999999992
 21
7.569789948686656E-8
 31
0.0
210
0.0
220
0.0
230
1.0
 40
0.8660254037844402
 41
0.4619460369188744
 42
5.821239302964527
  0
LWPOLYLINE
  5
EE
330
95
100
AcDbEntity
  8
AM_9
100
AcDbPolyline
 90
        7
 70
     0
 43
0.0
 10
-4.54754929579453
 20
-41.73827702754267
 10
-4.680277139818007
 20
-41.33201089390838
 10
-4.804994146739737
 20
-40.92416923971287
 10
-4.917691338485698
 20
-40.49829675767452
 10
-5.008516140987743
 20
-40.05511714162146
 10
-5.065126856945114
 20
-39.61132388347286
 10
-5.079999999236804
 20
-39.26334199862463
  0
LINE
  5
EF
330
95
100
AcDbEntity
  8
AM_9
100
AcDbLine
 10
-5.080000000000003
 20
-37.9121875
 30
0.0
 11
-5.080000000000003
 21
-39.26561088939235
 31
0.0
  0
LINE
  5
F0
330
95
100
AcDbEntity
  8
AM_9
100
AcDbLine
 10
5.079999999999995
 20
-39.7775
 30
0.0
 11
5.079999999999996
 21
-37.9121875
 31
0.0
  0
LWPOLYLINE
  5
F1
330
95
100
AcDbEntity
  8
AM_9
100
AcDbPolyline
 90
        8
 70
     0
 43
0.0
 10
-5.079999999236804
 20
-39.26334199862463
 10
-5.079458245572026
 20
-39.19958631698212
 10
-5.050335633392996
 20
-38.81171697599753
 10
-4.982589552160021
 20
-38.48331484601791
 10
-4.878563523460396
 20
-38.20259458609682
 10
-4.75220799763814
 20
-37.99256082294767
 10
-4.610115106939386
 20
-37.85226857346145
 10
-4.547549295794531
 20
-37.81672297245734
  0
LINE
  5
F2
330
95
100
AcDbEntity
  8
AM_9
100
AcDbLine
 10
-5.556250000000005
 20
-40.575153983853
 30
0.0
 11
-5.556250000000004
 21
-33.979221016147
 31
0.0
  0
LWPOLYLINE
  5
F3
330
95
100
AcDbEntity
  8
AM_9
100
AcDbPolyline
 90
        3
 70
     0
 43
0.0
 10
-2.778125000000004
 20
-42.079375
 10
-4.167187500000003
 20
-41.35444781403006
 10
-5.556250000000005
 20
-40.575153983853
  0
LWPOLYLINE
  5
F4
330
95
100
AcDbEntity
  8
AM_9
100
AcDbPolyline
 90
        3
 70
     0
 43
0.0
 10
-0.0000000000000044
 20
-43.353278983853
 10
-1.382816900963403
 20
-42.74636458265812
 10
-2.778125000000004
 20
-42.079375
  0
LWPOLYLINE
  5
F5
330
95
100
AcDbEntity
  8
AM_9
100
AcDbPolyline
 90
        3
 70
     0
 43
0.0
 10
-2.778125000000004
 20
-40.809375
 10
-1.389062500000004
 20
-41.53430218596994
 10
-0.0000000000000046
 20
-42.31359601614701
  0
LWPOLYLINE
  5
F6
330
95
100
AcDbEntity
  8
AM_9
100
AcDbPolyline
 90
        3
 70
     0
 43
0.0
 10
-5.556250000000005
 20
-39.535471016147
 10
-4.173433099036604
 20
-40.14238541734187
 10
-2.778125000000004
 20
-40.809375
  0
LINE
  5
F7
330
95
100
AcDbEntity
  8
AM_9
100
AcDbLine
 10
-0.0000000000000044
 20
-43.353278983853
 30
0.0
 11
-0.0000000000000046
 21
-42.31359601614701
 31
0.0
  0
LWPOLYLINE
  5
F8
330
95
100
AcDbEntity
  8
AM_9
100
AcDbPolyline
 90
        3
 70
     0
 43
0.0
 10
2.778124999999995
 20
-42.079375
 10
1.389062499999995
 20
-42.74351031403006
 10
-0.0000000000000044
 20
-43.353278983853
  0
LWPOLYLINE
  5
F9
330
95
100
AcDbEntity
  8
AM_9
100
AcDbPolyline
 90
        3
 70
     0
 43
0.0
 10
5.556249999999997
 20
-40.575153983853
 10
4.173433099036598
 20
-41.35105648362153
 10
2.778124999999995
 20
-42.079375
  0
LINE
  5
FA
330
95
100
AcDbEntity
  8
AM_9
100
AcDbLine
 10
5.556249999999997
 20
-40.575153983853
 30
0.0
 11
5.556249999999998
 21
-33.979221016147
 31
0.0
  0
LWPOLYLINE
  5
FB
330
95
100
AcDbEntity
  8
AM_9
100
AcDbPolyline
 90
        3
 70
     0
 43
0.0
 10
2.778124999999996
 20
-40.809375
 10
4.167187499999996
 20
-40.14523968596994
 10
5.556249999999997
 20
-39.535471016147
  0
LWPOLYLINE
  5
FC
330
95
100
AcDbEntity
  8
AM_9
100
AcDbPolyline
 90
        3
 70
     0
 43
0.0
 10
-0.0000000000000046
 20
-42.31359601614701
 10
1.382816900963395
 20
-41.53769351637848
 10
2.778124999999996
 20
-40.809375
  0
LINE
  5
FD
330
95
100
AcDbEntity
  8
AM_9
100
AcDbLine
 10
-5.080000000000003
 20
-35.65
 30
0.0
 11
-5.080000000000003
 21
-36.6421875
 31
0.0
  0
LINE
  5
FE
330
95
100
AcDbEntity
  8
AM_9
100
AcDbLine
 10
5.079999999999996
 20
-36.6421875
 30
0.0
 11
5.079999999999996
 21
-35.65
 31
0.0
  0
LINE
  5
FF
330
95
100
AcDbEntity
  8
AM_9
100
AcDbLine
 10
-4.702588083318103
 20
-32.95267350379018
 30
0.0
 11
-4.857153757791755
 21
-35.42197524036602
 31
0.0
  0
LINE
  5
100
330
95
100
AcDbEntity
  8
AM_9
100
AcDbLine
 10
4.857153757791748
 20
-35.42197524036602
 30
0.0
 11
4.702588083318096
 21
-32.95267350379018
 31
0.0
  0
ELLIPSE
  5
101
330
95
100
AcDbEntity
  8
AM_9
100
AcDbEllipse
 10
-11.90625000000001
 20
-42.39640353647999
 30
0.0
 11
-0.5968279661269502
 21
2.559803407425775
 31
0.0
210
0.0
220
0.0
230
1.0
 40
0.3659981507706684
 41
0.0
 42
6.283185307179586
  0
ELLIPSE
  5
102
330
95
100
AcDbEntity
  8
AM_9
100
AcDbEllipse
 10
-10.14553017344001
 20
-41.98588496698483
 30
0.0
 11
-0.8025283190312625
 21
3.442055068134841
 31
0.0
210
0.0
220
0.0
230
1.0
 40
0.3659981507706686
 41
0.0
 42
6.283185307179586
  0
ELLIPSE
  5
103
330
95
100
AcDbEntity
  8
AM_9
100
AcDbEllipse
 10
-9.474104895899872
 20
-41.82933959258695
 30
0.0
 11
-0.7681852811307909
 21
3.294757303237119
 31
0.0
210
0.0
220
0.0
230
1.0
 40
0.3659981507706651
 41
0.0
 42
6.283185307179586
  0
ELLIPSE
  5
104
330
95
100
AcDbEntity
  8
AM_9
100
AcDbEllipse
 10
-5.115285751734383
 20
-40.81306421886845
 30
0.0
 11
-0.6344163215614956
 21
2.721020384145689
 31
0.0
210
0.0
220
0.0
230
1.0
 40
0.3659981507706679
 41
0.0
 42
6.283185307179586
  0
ELLIPSE
  5
105
330
95
100
AcDbEntity
  8
AM_9
100
AcDbEllipse
 10
0.0
 20
-37.91218749999999
 30
0.0
 11
-5.080000000000017
 21
6.221205739668575E-16
 31
0.0
210
0.0
220
0.0
230
1.0
 40
0.8660254037844389
 41
0.0
 42
6.283185307179586
  0
ELLIPSE
  5
106
330
95
100
AcDbEntity
  8
AM_9
100
AcDbEllipse
 10
-0.0000000000000053
 20
-37.91218750000006
 30
0.0
 11
-5.556249999999956
 21
6.804443777762427E-16
 31
0.0
210
0.0
220
0.0
230
1.0
 40
0.8660254037844334
 41
0.0
 42
6.283185307179586
  0
ELLIPSE
  5
107
330
95
100
AcDbEntity
  8
AM_9
100
AcDbEllipse
 10
-0.000000000000004
 20
-36.64218749999998
 30
0.0
 11
-5.556250000000006
 21
6.804443777762488E-16
 31
0.0
210
0.0
220
0.0
230
1.0
 40
0.8660254037844415
 41
0.0
 42
6.283185307179586
  0
ELLIPSE
  5
108
330
95
100
AcDbEntity
  8
AM_9
100
AcDbEllipse
 10
-0.0000000000000036
 20
-36.6421875
 30
0.0
 11
-5.079999999999996
 21
6.221205739668549E-16
 31
0.0
210
0.0
220
0.0
230
1.0
 40
0.8660254037844397
 41
0.0
 42
6.283185307179586
  0
ELLIPSE
  5
109
330
95
100
AcDbEntity
  8
AM_9
100
AcDbEllipse
 10
-0.0000000000000031
 20
-35.65000000000001
 30
0.0
 11
-5.080000000000011
 21
6.221205739668567E-16
 31
0.0
210
0.0
220
0.0
230
1.0
 40
0.8660254037844385
 41
0.0
 42
6.283185307179586
  0
ELLIPSE
  5
10A
330
95
100
AcDbEntity
  8
AM_9
100
AcDbEllipse
 10
-0.0000000000000089
 20
-35.65000000000003
 30
0.0
 11
-4.86428511515363
 21
5.957031196413008E-16
 31
0.0
210
0.0
220
0.0
230
1.0
 40
0.8660254037844364
 41
0.0
 42
6.283185307179586
  0
ELLIPSE
  5
10B
330
95
100
AcDbEntity
  8
AM_9
100
AcDbEllipse
 10
-0.0000000000001448
 20
-33.17344199719779
 30
0.0
 11
-4.709492504676663
 21
5.767464921460727E-16
 31
0.0
210
0.0
220
0.0
230
1.0
 40
0.8660254037844342
 41
0.0
 42
6.283185307179586
  0
ELLIPSE
  5
10C
330
95
100
AcDbEntity
  8
AM_9
100
AcDbEllipse
 10
0.000000000000036
 20
-32.871875
 30
0.0
 11
-4.106358510281522
 21
5.028838805767759E-16
 31
0.0
210
0.0
220
0.0
230
1.0
 40
0.8660254037844385
 41
0.0
 42
6.283185307179586
  0
ENDBLK
  5
98
330
95
100
AcDbEntity
  8
0
100
AcDbBlockEnd
  0
BLOCK
  5
10F
330
10D
100
AcDbEntity
  8
0
100
AcDbBlockBegin
  2
3_129525_0_in_136302_2
 70
     2
 10
0.0
 20
0.0
 30
0.0
  3
3_129525_0_in_136302_2
  1

  0
ATTDEF
  5
111
330
10D
100
AcDbEntity
  8
AM_6
100
AcDbText
 10
23.45
 20
54.98751516310689
 30
0.0
 40
0.5
  1
INS-GT-M B
100
AcDbAttributeDefinition
  3

  2
NN
 70
     8
280
     0
  0
ATTDEF
  5
112
330
10D
100
AcDbEntity
  8
AM_6
100
AcDbText
 10
23.45
 20
54.48751516310689
 30
0.0
 40
0.5
  1
GT Normal Duty Bearing Inserts
100
AcDbAttributeDefinition
  3

  2
NT
 70
     8
280
     0
  0
ATTDEF
  5
113
330
10D
100
AcDbEntity
  8
AM_6
100
AcDbText
 10
23.45
 20
53.98751516310689
 30
0.0
 40
0.5
  1
129525
100
AcDbAttributeDefinition
  3

  2
NB
 70
     8
280
     0
  0
ATTDEF
  5
114
330
10D
100
AcDbEntity
  8
AM_6
100
AcDbText
 10
23.45
 20
53.48751516310689
 30
0.0
 40
0.5
  1
$PN.
100
AcDbAttributeDefinition
  3

  2
NBSYN
 70
     8
280
     0
  0
ATTDEF
  5
115
330
10D
100
AcDbEntity
  8
AM_6
100
AcDbText
 10
23.45
 20
52.98751516310689
 30
0.0
 40
0.5
  1
129525
100
AcDbAttributeDefinition
  3

  2
LINA
 70
     8
280
     0
  0
ATTDEF
  5
116
330
10D
100
AcDbEntity
  8
AM_6
100
AcDbText
 10
23.45
 20
52.48751516310689
 30
0.0
 40
0.5
  1
212
100
AcDbAttributeDefinition
  3

  2
SERIES
 70
     8
280
     0
  0
ATTDEF
  5
117
330
10D
100
AcDbEntity
  8
AM_6
100
AcDbText
 10
23.45
 20
51.98751516310689
 30
0.0
 40
0.5
  1
129525
100
AcDbAttributeDefinition
  3

  2
PN
 70
     8
280
     0
  0
ATTDEF
  5
118
330
10D
100
AcDbEntity
  8
AM_6
100
AcDbText
 10
23.45
 20
51.48751516310689
 30
0.0
 40
0.5
  1
INS-GT-12
100
AcDbAttributeDefinition
  3

  2
DESCRIPTION
 70
     8
280
     0
  0
ATTDEF
  5
119
330
10D
100
AcDbEntity
  8
AM_6
100
AcDbText
 10
23.45
 20
50.98751516310689
 30
0.0
 40
0.5
  1
53.8
100
AcDbAttributeDefinition
  3

  2
A
 70
     8
280
     0
  0
ATTDEF
  5
11A
330
10D
100
AcDbEntity
  8
AM_6
100
AcDbText
 10
23.45
 20
50.48751516310689
 30
0.0
 40
0.5
  1
25.9
100
AcDbAttributeDefinition
  3

  2
C
 70
     8
280
     0
  0
ATTDEF
  5
11B
330
10D
100
AcDbEntity
  8
AM_6
100
AcDbText
 10
23.45
 20
49.98751516310689
 30
0.0
 40
0.5
  1
110.0
100
AcDbAttributeDefinition
  3

  2
D
 70
     8
280
     0
  0
ATTDEF
  5
11C
330
10D
100
AcDbEntity
  8
AM_6
100
AcDbText
 10
23.45
 20
49.48751516310689
 30
0.0
 40
0.5
  1
6.4
100
AcDbAttributeDefinition
  3

  2
J
 70
     8
280
     0
  0
ATTDEF
  5
11D
330
10D
100
AcDbEntity
  8
AM_6
100
AcDbText
 10
23.45
 20
48.98751516310689
 30
0.0
 40
0.5
  1
93.7
100
AcDbAttributeDefinition
  3

  2
L
 70
     8
280
     0
  0
ATTDEF
  5
11E
330
10D
100
AcDbEntity
  8
AM_6
100
AcDbText
 10
23.45
 20
48.48751516310689
 30
0.0
 40
0.5
  1
#10 - 32 x 1/4
100
AcDbAttributeDefinition
  3

  2
N
 70
     8
280
     0
  0
ATTDEF
  5
11F
330
10D
100
AcDbEntity
  8
AM_6
100
AcDbText
 10
23.45
 20
47.98751516310689
 30
0.0
 40
0.5
  1
18.5
100
AcDbAttributeDefinition
  3

  2
W
 70
     8
280
     0
  0
ATTDEF
  5
120
330
10D
100
AcDbEntity
  8
AM_6
100
AcDbText
 10
23.45
 20
47.48751516310689
 30
0.0
 40
0.5
  1
37.1
100
AcDbAttributeDefinition
  3

  2
X
 70
     8
280
     0
  0
ATTDEF
  5
121
330
10D
100
AcDbEntity
  8
AM_6
100
AcDbText
 10
23.45
 20
46.98751516310689
 30
0.0
 40
0.5
  1
35.3
100
AcDbAttributeDefinition
  3

  2
Y
 70
     8
280
     0
  0
ATTDEF
  5
122
330
10D
100
AcDbEntity
  8
AM_6
100
AcDbText
 10
23.45
 20
46.48751516310689
 30
0.0
 40
0.5
  1
baldor
100
AcDbAttributeDefinition
  3

  2
COMPANY
 70
     8
280
     0
  0
LINE
  5
123
330
10D
100
AcDbEntity
  8
AM_9
100
AcDbLine
 10
-26.025
 20
-34.9515873015873
 30
0.0
 11
-12.1125
 21
-34.9515873015873
 31
0.0
  0
LINE
  5
124
330
10D
100
AcDbEntity
  8
AM_9
100
AcDbLine
 10
-12.1125
 20
34.95158730158731
 30
0.0
 11
-26.025
 21
34.95158730158731
 31
0.0
  0
LINE
  5
125
330
10D
100
AcDbEntity
  8
AM_9
100
AcDbLine
 10
-12.1125
 20
34.95158730158731
 30
0.0
 11
-12.1125
 21
-34.9515873015873
 31
0.0
  0
LINE
  5
126
330
10D
100
AcDbEntity
  8
AM_9
100
AcDbLine
 10
-12.1125
 20
-34.9515873015873
 30
0.0
 11
18.45
 21
-36.01885331917884
 31
0.0
  0
LINE
  5
127
330
10D
100
AcDbEntity
  8
AM_9
100
AcDbLine
 10
18.45
 20
36.01885331917885
 30
0.0
 11
-12.1125
 21
34.95158730158731
 31
0.0
  0
LINE
  5
128
330
10D
100
AcDbEntity
  8
AM_9
100
AcDbLine
 10
-21.3875
 20
-38.29801587301586
 30
0.0
 11
-16.75
 21
-38.29801587301586
 31
0.0
  0
LINE
  5
129
330
10D
100
AcDbEntity
  8
AM_9
100
AcDbLine
 10
-16.75
 20
38.29801587301588
 30
0.0
 11
-21.3875
 21
38.29801587301588
 31
0.0
  0
LINE
  5
12A
330
10D
100
AcDbEntity
  8
AM_9
100
AcDbLine
 10
18.45
 20
9.385494126576393
 30
0.0
 11
18.45
 21
-9.385494126576393
 31
0.0
  0
LINE
  5
12B
330
10D
100
AcDbEntity
  8
AM_9
100
AcDbLine
 10
-24.989
 20
-41.64444444444445
 30
0.0
 11
-21.3875
 21
-41.64444444444445
 31
0.0
  0
LINE
  5
12C
330
10D
100
AcDbEntity
  8
AM_9
100
AcDbLine
 10
-21.3875
 20
41.64444444444445
 30
0.0
 11
-24.989
 21
41.64444444444445
 31
0.0
  0
LINE
  5
12D
330
10D
100
AcDbEntity
  8
AM_9
100
AcDbLine
 10
-21.3875
 20
41.64444444444445
 30
0.0
 11
-21.3875
 21
-41.64444444444445
 31
0.0
  0
LINE
  5
12E
330
10D
100
AcDbEntity
  8
AM_9
100
AcDbLine
 10
-15.9
 20
-41.64444444444445
 30
0.0
 11
-11.15
 21
-41.64444444444445
 31
0.0
  0
LINE
  5
12F
330
10D
100
AcDbEntity
  8
AM_9
100
AcDbLine
 10
-11.15
 20
41.64444444444445
 30
0.0
 11
-15.9
 21
41.64444444444445
 31
0.0
  0
LINE
  5
130
330
10D
100
AcDbEntity
  8
AM_9
100
AcDbLine
 10
17.41400000000001
 20
11.19118420901023
 30
0.0
 11
17.41400000000001
 21
-11.19118420901023
 31
0.0
  0
LINE
  5
131
330
10D
100
AcDbEntity
  8
AM_9
100
AcDbLine
 10
14.75
 20
-41.64444444444443
 30
0.0
 11
15.9
 21
-41.64444444444443
 31
0.0
  0
LINE
  5
132
330
10D
100
AcDbEntity
  8
AM_9
100
AcDbLine
 10
15.9
 20
41.64444444444445
 30
0.0
 11
14.75
 21
41.64444444444445
 31
0.0
  0
LINE
  5
133
330
10D
100
AcDbEntity
  8
AM_9
100
AcDbLine
 10
-26.025
 20
-40.60844444444444
 30
0.0
 11
-24.989
 21
-41.64444444444445
 31
0.0
  0
LINE
  5
134
330
10D
100
AcDbEntity
  8
AM_9
100
AcDbLine
 10
-24.989
 20
41.64444444444445
 30
0.0
 11
-26.025
 21
40.60844444444445
 31
0.0
  0
LINE
  5
135
330
10D
100
AcDbEntity
  8
AM_9
100
AcDbLine
 10
-24.989
 20
41.64444444444445
 30
0.0
 11
-24.989
 21
-41.64444444444445
 31
0.0
  0
LINE
  5
136
330
10D
100
AcDbEntity
  8
AM_9
100
AcDbLine
 10
-5.879999999999995
 20
-52.40999999999999
 30
0.0
 11
-3.319999999999995
 21
-52.40999999999999
 31
0.0
  0
LINE
  5
137
330
10D
100
AcDbEntity
  8
AM_9
100
AcDbLine
 10
-3.319999999999995
 20
52.41
 30
0.0
 11
-5.879999999999995
 21
52.41
 31
0.0
  0
LINE
  5
138
330
10D
100
AcDbEntity
  8
AM_9
100
AcDbLine
 10
14.75
 20
51.71148383473066
 30
0.0
 11
14.75
 21
-51.71148383473064
 31
0.0
  0
ARC
  5
139
330
10D
100
AcDbEntity
  8
AM_9
100
AcDbCircle
 10
13.714
 20
-51.71148383473064
 30
0.0
 40
1.036000000000007
100
AcDbArc
 50
291.4124670468844
 51
0.0
  0
ARC
  5
13A
330
10D
100
AcDbEntity
  8
AM_9
100
AcDbCircle
 10
13.714
 20
51.71148383473065
 30
0.0
 40
1.036000000000005
100
AcDbArc
 50
0.0
 51
68.58753295311558
  0
LINE
  5
13B
330
10D
100
AcDbEntity
  8
AM_9
100
AcDbLine
 10
-11.14999999999999
 20
51.71148383473066
 30
0.0
 11
-11.14999999999999
 21
-51.71148383473065
 31
0.0
  0
ARC
  5
13C
330
10D
100
AcDbEntity
  8
AM_9
100
AcDbCircle
 10
-10.114
 20
-51.71148383473066
 30
0.0
 40
1.035999999999991
100
AcDbArc
 50
180.0
 51
248.5875329531162
  0
ARC
  5
13D
330
10D
100
AcDbEntity
  8
AM_9
100
AcDbCircle
 10
-10.114
 20
51.71148383473067
 30
0.0
 40
1.035999999999987
100
AcDbArc
 50
111.4124670468838
 51
180.0
  0
ARC
  5
13E
330
10D
100
AcDbEntity
  8
AM_9
100
AcDbCircle
 10
1.799999999998843
 20
-21.33000000000355
 30
0.0
 40
33.66999999999626
100
AcDbArc
 50
248.5875329531156
 51
256.2541017719979
  0
ARC
  5
13F
330
10D
100
AcDbEntity
  8
AM_9
100
AcDbCircle
 10
1.799999999998561
 20
21.33000000000446
 30
0.0
 40
33.66999999999533
100
AcDbArc
 50
103.745898228002
 51
111.4124670468845
  0
LINE
  5
140
330
10D
100
AcDbEntity
  8
AM_9
100
AcDbLine
 10
-10.49222222222221
 20
52.67597538503957
 30
0.0
 11
-10.49222222222221
 21
-52.67597538503956
 31
0.0
  0
LINE
  5
141
330
10D
100
AcDbEntity
  8
AM_9
100
AcDbLine
 10
-5.879999999999995
 20
53.78407832615187
 30
0.0
 11
-5.879999999999995
 21
-53.78407832615186
 31
0.0
  0
ARC
  5
142
330
10D
100
AcDbEntity
  8
AM_9
100
AcDbCircle
 10
-6.138999999999993
 20
-53.78407832615186
 30
0.0
 40
0.2590000000000004
100
AcDbArc
 50
256.2541017719971
 51
0.0
  0
ARC
  5
143
330
10D
100
AcDbEntity
  8
AM_9
100
AcDbCircle
 10
-6.138999999999993
 20
53.78407832615187
 30
0.0
 40
0.2589999999999986
100
AcDbArc
 50
0.0
 51
103.7458982280029
  0
LINE
  5
144
330
10D
100
AcDbEntity
  8
AM_9
100
AcDbLine
 10
-6.200542635658909
 20
54.03566032868018
 30
0.0
 11
-6.200542635658909
 21
-54.03566032868017
 31
0.0
  0
LINE
  5
145
330
10D
100
AcDbEntity
  8
AM_9
100
AcDbLine
 10
-3.319999999999992
 20
54.38549273570219
 30
0.0
 11
-3.319999999999992
 21
-54.38549273570217
 31
0.0
  0
ARC
  5
146
330
10D
100
AcDbEntity
  8
AM_9
100
AcDbCircle
 10
-3.061000000000007
 20
-54.38549273570218
 30
0.0
 40
0.2589999999999844
100
AcDbArc
 50
180.0
 51
261.634137537458
  0
ARC
  5
147
330
10D
100
AcDbEntity
  8
AM_9
100
AcDbCircle
 10
-3.061000000000032
 20
54.38549273570221
 30
0.0
 40
0.258999999999954
100
AcDbArc
 50
98.36586246253759
 51
179.9999991462263
  0
ARC
  5
148
330
10D
100
AcDbEntity
  8
AM_9
100
AcDbCircle
 10
1.799999999998172
 20
-21.3299999999843
 30
0.0
 40
33.67000000001527
100
AcDbArc
 50
261.6342855690503
 51
291.4124670468772
  0
ARC
  5
149
330
10D
100
AcDbEntity
  8
AM_9
100
AcDbCircle
 10
1.799999999999955
 20
21.32999999999977
 30
0.0
 40
33.67000000000024
100
AcDbArc
 50
68.58753295311598
 51
98.3657144309565
  0
LINE
  5
14A
330
10D
100
AcDbEntity
  8
AM_9
100
AcDbLine
 10
-3.098682837716837
 20
54.64173676732361
 30
0.0
 11
-3.098682837716837
 21
-54.6417367673236
 31
0.0
  0
LINE
  5
14B
330
10D
100
AcDbEntity
  8
AM_9
100
AcDbLine
 10
14.09222222222223
 20
52.67597538503956
 30
0.0
 11
14.09222222222223
 21
-52.67597538503955
 31
0.0
  0
LINE
  5
14D
330
10D
100
AcDbEntity
  8
AM_4
100
AcDbLine
 10
18.45
 20
-9.385494126576393
 30
0.0
 11
18.45
 21
-40.60844444444444
 31
0.0
  0
LINE
  5
14E
330
10D
100
AcDbEntity
  8
AM_4
100
AcDbLine
 10
18.45
 20
40.60844444444445
 30
0.0
 11
17.414
 21
41.64444444444445
 31
0.0
  0
LINE
  5
14F
330
10D
100
AcDbEntity
  8
AM_4
100
AcDbLine
 10
17.414
 20
-41.64444444444445
 30
0.0
 11
18.45
 21
-40.60844444444444
 31
0.0
  0
LINE
  5
150
330
10D
100
AcDbEntity
  8
AM_4
100
AcDbLine
 10
18.45
 20
40.60844444444445
 30
0.0
 11
18.45
 21
9.385494126576393
 31
0.0
  0
LINE
  5
151
330
10D
100
AcDbEntity
  8
AM_4
100
AcDbLine
 10
-16.75
 20
-41.64444444444445
 30
0.0
 11
-15.9
 21
-41.64444444444445
 31
0.0
  0
LINE
  5
152
330
10D
100
AcDbEntity
  8
AM_4
100
AcDbLine
 10
-15.9
 20
41.64444444444445
 30
0.0
 11
-16.75
 21
41.64444444444445
 31
0.0
  0
LINE
  5
153
330
10D
100
AcDbEntity
  8
AM_4
100
AcDbLine
 10
17.41400000000001
 20
-11.19118420901023
 30
0.0
 11
17.414
 21
-41.64444444444443
 31
0.0
  0
LINE
  5
154
330
10D
100
AcDbEntity
  8
AM_4
100
AcDbLine
 10
15.9
 20
-41.64444444444443
 30
0.0
 11
17.414
 21
-41.64444444444443
 31
0.0
  0
LINE
  5
155
330
10D
100
AcDbEntity
  8
AM_4
100
AcDbLine
 10
17.414
 20
41.64444444444445
 30
0.0
 11
15.9
 21
41.64444444444445
 31
0.0
  0
LINE
  5
156
330
10D
100
AcDbEntity
  8
AM_4
100
AcDbLine
 10
17.414
 20
41.64444444444445
 30
0.0
 11
17.41400000000001
 21
11.19118420901023
 31
0.0
  0
ENDBLK
  5
110
330
10D
100
AcDbEntity
  8
0
100
AcDbBlockEnd
  0
BLOCK
  5
159
330
157
100
AcDbEntity
  8
0
100
AcDbBlockBegin
  2
4_136567i_0_in_136302_2
 70
     2
 10
0.0
 20
0.0
 30
0.0
  3
4_136567i_0_in_136302_2
  1

  0
ATTDEF
  5
15B
330
157
100
AcDbEntity
  8
AM_6
100
AcDbText
 10
28.07999999999999
 20
47.43562500000001
 30
0.0
 40
0.5
  1
Grip Tight Medium Duty Adapter and Nut Metric Bore
100
AcDbAttributeDefinition
  3

  2
NN
 70
     8
280
     0
  0
ATTDEF
  5
15C
330
157
100
AcDbEntity
  8
AM_6
100
AcDbText
 10
28.07999999999999
 20
46.93562500000001
 30
0.0
 40
0.5
  1
GT and GTM Adapter & Lock Nut Assemblies
100
AcDbAttributeDefinition
  3

  2
NT
 70
     8
280
     0
  0
ATTDEF
  5
15D
330
157
100
AcDbEntity
  8
AM_6
100
AcDbText
 10
28.07999999999999
 20
46.43562500000001
 30
0.0
 40
0.5
  1
136567i
100
AcDbAttributeDefinition
  3

  2
NB
 70
     8
280
     0
  0
ATTDEF
  5
15E
330
157
100
AcDbEntity
  8
AM_6
100
AcDbText
 10
28.07999999999999
 20
45.93562500000001
 30
0.0
 40
0.5
  1
$PN.i
100
AcDbAttributeDefinition
  3

  2
NBSYN
 70
     8
280
     0
  0
ATTDEF
  5
15F
330
157
100
AcDbEntity
  8
AM_6
100
AcDbText
 10
28.07999999999999
 20
45.43562500000001
 30
0.0
 40
0.5
  1
136567
100
AcDbAttributeDefinition
  3

  2
LINA
 70
     8
280
     0
  0
ATTDEF
  5
160
330
157
100
AcDbEntity
  8
AM_6
100
AcDbText
 10
28.07999999999999
 20
44.93562500000001
 30
0.0
 40
0.5
  1
212
100
AcDbAttributeDefinition
  3

  2
SERIES
 70
     8
280
     0
  0
ATTDEF
  5
161
330
157
100
AcDbEntity
  8
AM_6
100
AcDbText
 10
28.07999999999999
 20
44.43562500000001
 30
0.0
 40
0.5
  1
55
100
AcDbAttributeDefinition
  3

  2
SS
 70
     8
280
     0
  0
ATTDEF
  5
162
330
157
100
AcDbEntity
  8
AM_6
100
AcDbText
 10
28.07999999999999
 20
43.93562500000001
 30
0.0
 40
0.5
  1
136567
100
AcDbAttributeDefinition
  3

  2
PN
 70
     8
280
     0
  0
ATTDEF
  5
163
330
157
100
AcDbEntity
  8
AM_6
100
AcDbText
 10
28.07999999999999
 20
43.43562500000001
 30
0.0
 40
0.5
  1
AN-GTM-12-55M-D
100
AcDbAttributeDefinition
  3

  2
DESCRIPTION
 70
     8
280
     0
  0
ATTDEF
  5
164
330
157
100
AcDbEntity
  8
AM_6
100
AcDbText
 10
28.07999999999999
 20
42.93562500000001
 30
0.0
 40
0.5
  1
53.8
100
AcDbAttributeDefinition
  3

  2
A
 70
     8
280
     0
  0
ATTDEF
  5
165
330
157
100
AcDbEntity
  8
AM_6
100
AcDbText
 10
28.07999999999999
 20
42.43562500000001
 30
0.0
 40
0.5
  1
25.9
100
AcDbAttributeDefinition
  3

  2
C
 70
     8
280
     0
  0
ATTDEF
  5
166
330
157
100
AcDbEntity
  8
AM_6
100
AcDbText
 10
28.07999999999999
 20
41.93562500000001
 30
0.0
 40
0.5
  1
110
100
AcDbAttributeDefinition
  3

  2
D
 70
     8
280
     0
  0
ATTDEF
  5
167
330
157
100
AcDbEntity
  8
AM_6
100
AcDbText
 10
28.07999999999999
 20
41.43562500000001
 30
0.0
 40
0.5
  1
6.4
100
AcDbAttributeDefinition
  3

  2
J
 70
     8
280
     0
  0
ATTDEF
  5
168
330
157
100
AcDbEntity
  8
AM_6
100
AcDbText
 10
28.07999999999999
 20
40.93562500000001
 30
0.0
 40
0.5
  1
93.7
100
AcDbAttributeDefinition
  3

  2
L
 70
     8
280
     0
  0
ATTDEF
  5
169
330
157
100
AcDbEntity
  8
AM_6
100
AcDbText
 10
28.07999999999999
 20
40.43562500000001
 30
0.0
 40
0.5
  1
10 - 32 x 1/4
100
AcDbAttributeDefinition
  3

  2
N
 70
     8
280
     0
  0
ATTDEF
  5
16A
330
157
100
AcDbEntity
  8
AM_6
100
AcDbText
 10
28.07999999999999
 20
39.93562500000001
 30
0.0
 40
0.5
  1
18.5
100
AcDbAttributeDefinition
  3

  2
W
 70
     8
280
     0
  0
ATTDEF
  5
16B
330
157
100
AcDbEntity
  8
AM_6
100
AcDbText
 10
28.07999999999999
 20
39.43562500000001
 30
0.0
 40
0.5
  1
37.1
100
AcDbAttributeDefinition
  3

  2
X
 70
     8
280
     0
  0
ATTDEF
  5
16C
330
157
100
AcDbEntity
  8
AM_6
100
AcDbText
 10
28.07999999999999
 20
38.93562500000001
 30
0.0
 40
0.5
  1
35.3
100
AcDbAttributeDefinition
  3

  2
Y
 70
     8
280
     0
  0
ATTDEF
  5
16D
330
157
100
AcDbEntity
  8
AM_6
100
AcDbText
 10
28.07999999999999
 20
38.43562500000001
 30
0.0
 40
0.5
  1
baldor
100
AcDbAttributeDefinition
  3

  2
COMPANY
 70
     8
280
     0
  0
LINE
  5
16E
330
157
100
AcDbEntity
  8
AM_9
100
AcDbLine
 10
-33.71106881551097
 20
46.27723000000001
 30
0.0
 11
-33.71106881551097
 21
35.71027000000001
 31
0.0
  0
LINE
  5
16F
330
157
100
AcDbEntity
  8
AM_9
100
AcDbLine
 10
-30.03060881551097
 20
35.71027000000001
 30
0.0
 11
-30.03060881551097
 21
46.27723000000001
 31
0.0
  0
LINE
  5
170
330
157
100
AcDbEntity
  8
AM_9
100
AcDbLine
 10
-33.71106881551097
 20
35.71027000000001
 30
0.0
 11
-34.28383881551096
 21
35.13750000000001
 31
0.0
  0
LINE
  5
171
330
157
100
AcDbEntity
  8
AM_9
100
AcDbLine
 10
-29.45783881551098
 20
35.13750000000001
 30
0.0
 11
-30.03060881551097
 21
35.71027000000001
 31
0.0
  0
LINE
  5
172
330
157
100
AcDbEntity
  8
AM_9
100
AcDbLine
 10
-29.45783881551098
 20
35.13750000000001
 30
0.0
 11
-34.28383881551096
 21
35.13750000000001
 31
0.0
  0
LINE
  5
173
330
157
100
AcDbEntity
  8
AM_9
100
AcDbLine
 10
-30.03060881551097
 20
35.71027000000001
 30
0.0
 11
-33.71106881551097
 21
35.71027000000001
 31
0.0
  0
LINE
  5
174
330
157
100
AcDbEntity
  8
AM_9
100
AcDbLine
 10
-30.03060881551097
 20
46.27723000000001
 30
0.0
 11
-29.46201188731832
 21
46.84582692819267
 31
0.0
  0
LINE
  5
175
330
157
100
AcDbEntity
  8
AM_9
100
AcDbLine
 10
-34.27343552320618
 20
46.83959670769524
 30
0.0
 11
-33.71106881551097
 21
46.27723000000001
 31
0.0
  0
LINE
  5
176
330
157
100
AcDbEntity
  8
AM_9
100
AcDbLine
 10
-30.03060881551097
 20
46.27723000000001
 30
0.0
 11
-33.71106881551097
 21
46.27723000000001
 31
0.0
  0
LINE
  5
177
330
157
100
AcDbEntity
  8
AM_9
100
AcDbLine
 10
-16.75
 20
-43.72665873338413
 30
0.0
 11
-35.29999999999999
 21
-43.72665873338413
 31
0.0
  0
LINE
  5
178
330
157
100
AcDbEntity
  8
AM_9
100
AcDbLine
 10
-33.49999999999999
 20
-27.5
 30
0.0
 11
20.3
 21
-27.5
 31
0.0
  0
LINE
  5
179
330
157
100
AcDbEntity
  8
AM_9
100
AcDbLine
 10
20.3
 20
27.5
 30
0.0
 11
-33.49999999999999
 21
27.5
 31
0.0
  0
LINE
  5
17A
330
157
100
AcDbEntity
  8
AM_9
100
AcDbLine
 10
-26.025
 20
-34.95158743544446
 30
0.0
 11
-12.11249999999993
 21
-34.95158743544446
 31
0.0
  0
LINE
  5
17B
330
157
100
AcDbEntity
  8
AM_9
100
AcDbLine
 10
-12.11249999999993
 20
34.95158743544447
 30
0.0
 11
-26.025
 21
34.95158743544447
 31
0.0
  0
LINE
  5
17C
330
157
100
AcDbEntity
  8
AM_9
100
AcDbLine
 10
20.3
 20
1.270000000000005
 30
0.0
 11
-33.49999999999999
 21
1.270000000000005
 31
0.0
  0
LINE
  5
17D
330
157
100
AcDbEntity
  8
AM_9
100
AcDbLine
 10
20.3
 20
-1.269999999999996
 30
0.0
 11
-33.49999999999999
 21
-1.269999999999996
 31
0.0
  0
LINE
  5
17E
330
157
100
AcDbEntity
  8
AM_9
100
AcDbLine
 10
-35.29999999999999
 20
-34.95158743544444
 30
0.0
 11
-33.49999999999999
 21
-34.95158743544444
 31
0.0
  0
LINE
  5
17F
330
157
100
AcDbEntity
  8
AM_9
100
AcDbLine
 10
-33.49999999999999
 20
34.95158743544446
 30
0.0
 11
-35.29999999999999
 21
34.95158743544446
 31
0.0
  0
LINE
  5
180
330
157
100
AcDbEntity
  8
AM_9
100
AcDbLine
 10
-33.49999999999999
 20
34.95158743544446
 30
0.0
 11
-33.49999999999999
 21
-34.95158743544444
 31
0.0
  0
LINE
  5
181
330
157
100
AcDbEntity
  8
AM_9
100
AcDbLine
 10
-12.11249999999993
 20
-1.269999999999996
 30
0.0
 11
-12.11249999999993
 21
-34.95158743544444
 31
0.0
  0
LINE
  5
182
330
157
100
AcDbEntity
  8
AM_9
100
AcDbLine
 10
-12.11249999999993
 20
-34.95158743544444
 30
0.0
 11
18.45
 21
-36.01885345303597
 31
0.0
  0
LINE
  5
183
330
157
100
AcDbEntity
  8
AM_9
100
AcDbLine
 10
18.45
 20
36.01885345303599
 30
0.0
 11
-12.11249999999993
 21
34.95158743544445
 31
0.0
  0
LINE
  5
184
330
157
100
AcDbEntity
  8
AM_9
100
AcDbLine
 10
-12.11249999999993
 20
34.95158743544445
 30
0.0
 11
-12.11249999999993
 21
1.270000000000005
 31
0.0
  0
LINE
  5
185
330
157
100
AcDbEntity
  8
AM_9
100
AcDbLine
 10
20.3
 20
4.049691346263306
 30
0.0
 11
20.3
 21
-4.049691346263307
 31
0.0
  0
LINE
  5
186
330
157
100
AcDbEntity
  8
AM_9
100
AcDbLine
 10
-21.3875
 20
-38.29801587301591
 30
0.0
 11
-16.75
 21
-38.29801587301591
 31
0.0
  0
LINE
  5
187
330
157
100
AcDbEntity
  8
AM_9
100
AcDbLine
 10
-16.75
 20
38.29801587301592
 30
0.0
 11
-21.3875
 21
38.29801587301592
 31
0.0
  0
LINE
  5
188
330
157
100
AcDbEntity
  8
AM_9
100
AcDbLine
 10
-16.74999999999999
 20
19.09204807458188
 30
0.0
 11
-35.29999999999999
 21
19.09204807458188
 31
0.0
  0
LINE
  5
189
330
157
100
AcDbEntity
  8
AM_9
100
AcDbLine
 10
-21.3875
 20
41.64444444444448
 30
0.0
 11
-21.3875
 21
-41.64444444444447
 31
0.0
  0
LINE
  5
18A
330
157
100
AcDbEntity
  8
AM_9
100
AcDbLine
 10
-26.025
 20
41.64444444444448
 30
0.0
 11
-26.025
 21
-41.64444444444447
 31
0.0
  0
LINE
  5
18B
330
157
100
AcDbEntity
  8
AM_9
100
AcDbLine
 10
-26.025
 20
-41.64444444444447
 30
0.0
 11
-21.3875
 21
-41.64444444444447
 31
0.0
  0
LINE
  5
18C
330
157
100
AcDbEntity
  8
AM_9
100
AcDbLine
 10
-21.3875
 20
41.64444444444448
 30
0.0
 11
-26.025
 21
41.64444444444448
 31
0.0
  0
LINE
  5
18D
330
157
100
AcDbEntity
  8
AM_9
100
AcDbLine
 10
-16.74999999999999
 20
12.16254496394567
 30
0.0
 11
-16.74999999999999
 21
-12.16254496394567
 31
0.0
  0
LINE
  5
18E
330
157
100
AcDbEntity
  8
AM_9
100
AcDbLine
 10
-17.786
 20
10.59000491029159
 30
0.0
 11
-17.786
 21
-10.59000491029159
 31
0.0
  0
LINE
  5
190
330
157
100
AcDbEntity
  8
AM_5
100
AcDbLine
 10
-34.28383881551096
 20
46.83016118448904
 30
0.0
 11
-34.28383881551096
 21
35.13750000000001
 31
0.0
  0
LINE
  5
191
330
157
100
AcDbEntity
  8
AM_5
100
AcDbLine
 10
-29.45783881551097
 20
46.85000000000002
 30
0.0
 11
-29.45783881551097
 21
35.13750000000001
 31
0.0
  0
LINE
  5
194
330
157
100
AcDbEntity
  8
AM_7
100
AcDbLine
 10
-38.08
 20
0.0000000000000045
 30
0.0
 11
23.07999999999999
 21
0.0000000000000045
 31
0.0
  0
LINE
  5
195
330
157
100
AcDbEntity
  8
AM_7
100
AcDbLine
 10
-31.87083881551097
 20
34.55187500000001
 30
0.0
 11
-31.87083881551097
 21
47.43562500000001
 31
0.0
  0
LINE
  5
196
330
157
100
AcDbEntity
  8
AM_4
100
AcDbLine
 10
20.3
 20
-4.049691346263307
 30
0.0
 11
20.3
 21
-36.0834568765957
 31
0.0
  0
LINE
  5
197
330
157
100
AcDbEntity
  8
AM_4
100
AcDbLine
 10
18.45
 20
-36.01885345303597
 30
0.0
 11
20.3
 21
-36.0834568765957
 31
0.0
  0
LINE
  5
198
330
157
100
AcDbEntity
  8
AM_4
100
AcDbLine
 10
20.3
 20
36.08345687659572
 30
0.0
 11
18.45
 21
36.01885345303599
 31
0.0
  0
LINE
  5
199
330
157
100
AcDbEntity
  8
AM_4
100
AcDbLine
 10
20.3
 20
36.08345687659572
 30
0.0
 11
20.3
 21
4.049691346263306
 31
0.0
  0
LINE
  5
19A
330
157
100
AcDbEntity
  8
AM_4
100
AcDbLine
 10
-34.26400000000014
 20
46.84903223090128
 30
0.0
 11
-34.27391940775549
 21
46.84008059224453
 31
0.0
  0
LINE
  5
19B
330
157
100
AcDbEntity
  8
AM_4
100
AcDbLine
 10
-34.264
 20
46.85000000000001
 30
0.0
 11
-35.29999999999999
 21
45.81400000000001
 31
0.0
  0
LINE
  5
19C
330
157
100
AcDbEntity
  8
AM_4
100
AcDbLine
 10
-34.264
 20
26.14157493596503
 30
0.0
 11
-35.29999999999999
 21
25.62233485644289
 31
0.0
  0
LINE
  5
19D
330
157
100
AcDbEntity
  8
AM_4
100
AcDbLine
 10
-16.74999999999999
 20
25.62233485644289
 30
0.0
 11
-17.786
 21
26.14157493596504
 31
0.0
  0
LINE
  5
19E
330
157
100
AcDbEntity
  8
AM_4
100
AcDbLine
 10
-16.75
 20
45.81400000000003
 30
0.0
 11
-17.786
 21
46.85000000000003
 31
0.0
  0
LINE
  5
19F
330
157
100
AcDbEntity
  8
AM_4
100
AcDbLine
 10
-34.264
 20
46.84903223090142
 30
0.0
 11
-34.264
 21
26.14157493596503
 31
0.0
  0
LINE
  5
1A0
330
157
100
AcDbEntity
  8
AM_4
100
AcDbLine
 10
-17.786
 20
26.14157493596504
 30
0.0
 11
-34.264
 21
26.14157493596503
 31
0.0
  0
LINE
  5
1A1
330
157
100
AcDbEntity
  8
AM_4
100
AcDbLine
 10
-17.786
 20
46.85000000000002
 30
0.0
 11
-29.46579827632914
 21
46.85000000000002
 31
0.0
  0
LWPOLYLINE
  5
1A2
330
157
100
AcDbEntity
  8
AM_4
100
AcDbPolyline
 90
       20
 70
     0
 43
0.0
 10
-29.45783881551101
 20
46.85000000000002
 10
-29.46225944470953
 20
46.84978366615768
 10
-29.51742044858466
 20
46.84711743490475
 10
-29.63829680377822
 20
46.84148986043484
 10
-29.8149863121179
 20
46.83379549909679
 10
-30.05157315085068
 20
46.82448243373565
 10
-30.33390078353501
 20
46.81485332741559
 10
-30.6653095494657
 20
46.80561366052645
 10
-31.02785026922753
 20
46.79806107408315
 10
-31.42363886044081
 20
46.79286675989655
 10
-31.82834338104924
 20
46.79085053227461
 10
-32.24571833126578
 20
46.79226192355716
 10
-32.64419546198329
 20
46.79691630376788
 10
-33.03180990915507
 20
46.80454146035184
 10
-33.54555512630139
 20
46.81935049751775
 10
-33.78201456608189
 20
46.82796574236804
 10
-33.98180000640421
 20
46.83612755272591
 10
-34.14616154159658
 20
46.84344780713091
 10
-34.25001894680425
 20
46.8483549893939
 10
-34.26400000000029
 20
46.84903223090144
  0
LINE
  5
1A3
330
157
100
AcDbEntity
  8
AM_4
100
AcDbLine
 10
-17.786
 20
46.85000000000002
 30
0.0
 11
-17.786
 21
26.14157493596504
 31
0.0
  0
LINE
  5
1A4
330
157
100
AcDbEntity
  8
AM_4
100
AcDbLine
 10
-16.74999999999999
 20
24.63461065880229
 30
0.0
 11
-35.29999999999999
 21
24.63461065880229
 31
0.0
  0
LINE
  5
1A5
330
157
100
AcDbEntity
  8
AM_4
100
AcDbLine
 10
-34.264
 20
-46.7405872877096
 30
0.0
 11
-35.29999999999999
 21
-45.7021071286653
 31
0.0
  0
LINE
  5
1A6
330
157
100
AcDbEntity
  8
AM_4
100
AcDbLine
 10
-35.29999999999998
 20
20.07977227222247
 30
0.0
 11
-34.264
 21
20.59901235174462
 31
0.0
  0
LINE
  5
1A7
330
157
100
AcDbEntity
  8
AM_4
100
AcDbLine
 10
-35.29999999999999
 20
45.81400000000001
 30
0.0
 11
-35.29999999999999
 21
-45.7021071286653
 31
0.0
  0
LINE
  5
1A8
330
157
100
AcDbEntity
  8
AM_4
100
AcDbLine
 10
-16.75
 20
-45.70210712866532
 30
0.0
 11
-17.786
 21
-46.74058728770961
 31
0.0
  0
LINE
  5
1A9
330
157
100
AcDbEntity
  8
AM_4
100
AcDbLine
 10
-16.74999999999999
 20
-12.16254496394567
 30
0.0
 11
-16.75
 21
-45.70210712866532
 31
0.0
  0
LINE
  5
1AA
330
157
100
AcDbEntity
  8
AM_4
100
AcDbLine
 10
-16.75
 20
45.81400000000003
 30
0.0
 11
-16.74999999999999
 21
12.16254496394567
 31
0.0
  0
LINE
  5
1AB
330
157
100
AcDbEntity
  8
AM_4
100
AcDbLine
 10
-17.786
 20
20.59901235174462
 30
0.0
 11
-16.75
 21
20.07977227222248
 31
0.0
  0
LINE
  5
1AC
330
157
100
AcDbEntity
  8
AM_4
100
AcDbLine
 10
-17.786
 20
-46.74058728770961
 30
0.0
 11
-34.264
 21
-46.7405872877096
 31
0.0
  0
LINE
  5
1AD
330
157
100
AcDbEntity
  8
AM_4
100
AcDbLine
 10
-17.786
 20
-10.59000491029159
 30
0.0
 11
-17.786
 21
-46.74058728770961
 31
0.0
  0
LINE
  5
1AE
330
157
100
AcDbEntity
  8
AM_4
100
AcDbLine
 10
-17.786
 20
20.59901235174462
 30
0.0
 11
-17.786
 21
10.59000491029159
 31
0.0
  0
LINE
  5
1AF
330
157
100
AcDbEntity
  8
AM_4
100
AcDbLine
 10
-34.264
 20
20.59901235174462
 30
0.0
 11
-17.786
 21
20.59901235174462
 31
0.0
  0
LINE
  5
1B0
330
157
100
AcDbEntity
  8
AM_4
100
AcDbLine
 10
-34.264
 20
20.59901235174462
 30
0.0
 11
-34.264
 21
-46.7405872877096
 31
0.0
  0
ENDBLK
  5
15A
330
157
100
AcDbEntity
  8
0
100
AcDbBlockEnd
  0
BLOCK
  5
1B3
330
1B1
100
AcDbEntity
  8
0
100
AcDbBlockBegin
  2
5_136302h_0_in_136302_2
 70
     2
 10
0.0
 20
0.0
 30
0.0
  3
5_136302h_0_in_136302_2
  1

  0
ATTDEF
  5
1B5
330
1B1
100
AcDbEntity
  8
AM_6
100
AcDbText
 10
25.70000000000001
 20
73.05000000000001
 30
0.0
 40
0.5
  1
NSTU-GTM - Metric - Housing
100
AcDbAttributeDefinition
  3

  2
NN
 70
     8
280
     0
  0
ATTDEF
  5
1B6
330
1B1
100
AcDbEntity
  8
AM_6
100
AcDbText
 10
25.70000000000001
 20
72.55000000000001
 30
0.0
 40
0.5
  1
GTM Normal Duty Narrow Slot Take-Up Bearings
100
AcDbAttributeDefinition
  3

  2
NT
 70
     8
280
     0
  0
ATTDEF
  5
1B7
330
1B1
100
AcDbEntity
  8
AM_6
100
AcDbText
 10
25.70000000000001
 20
72.05000000000001
 30
0.0
 40
0.5
  1
136302h
100
AcDbAttributeDefinition
  3

  2
NB
 70
     8
280
     0
  0
ATTDEF
  5
1B8
330
1B1
100
AcDbEntity
  8
AM_6
100
AcDbText
 10
25.70000000000001
 20
71.55000000000001
 30
0.0
 40
0.5
  1
$PN.h
100
AcDbAttributeDefinition
  3

  2
NBSYN
 70
     8
280
     0
  0
ATTDEF
  5
1B9
330
1B1
100
AcDbEntity
  8
AM_6
100
AcDbText
 10
25.70000000000001
 20
71.05000000000001
 30
0.0
 40
0.5
  1
136302I
100
AcDbAttributeDefinition
  3

  2
LINA
 70
     8
280
     0
  0
ATTDEF
  5
1BA
330
1B1
100
AcDbEntity
  8
AM_6
100
AcDbText
 10
25.70000000000001
 20
70.55000000000001
 30
0.0
 40
0.5
  1
212
100
AcDbAttributeDefinition
  3

  2
SERIES
 70
     8
280
     0
  0
ATTDEF
  5
1BB
330
1B1
100
AcDbEntity
  8
AM_6
100
AcDbText
 10
25.70000000000001
 20
70.05000000000001
 30
0.0
 40
0.5
  1
55
100
AcDbAttributeDefinition
  3

  2
SS
 70
     8
280
     0
  0
ATTDEF
  5
1BC
330
1B1
100
AcDbEntity
  8
AM_6
100
AcDbText
 10
25.70000000000001
 20
69.55000000000001
 30
0.0
 40
0.5
  1
55.000
100
AcDbAttributeDefinition
  3

  2
SS1
 70
     8
280
     0
  0
ATTDEF
  5
1BD
330
1B1
100
AcDbEntity
  8
AM_6
100
AcDbText
 10
25.70000000000001
 20
69.05000000000001
 30
0.0
 40
0.5
  1
136302
100
AcDbAttributeDefinition
  3

  2
PN
 70
     8
280
     0
  0
ATTDEF
  5
1BE
330
1B1
100
AcDbEntity
  8
AM_6
100
AcDbText
 10
25.70000000000001
 20
68.55000000000001
 30
0.0
 40
0.5
  1
NSTU-GTM-55M
100
AcDbAttributeDefinition
  3

  2
DESCRIPTION
 70
     8
280
     0
  0
ATTDEF
  5
1BF
330
1B1
100
AcDbEntity
  8
AM_6
100
AcDbText
 10
25.70000000000001
 20
68.05000000000001
 30
0.0
 40
0.5
  1
136218
100
AcDbAttributeDefinition
  3

  2
PNSL
 70
     8
280
     0
  0
ATTDEF
  5
1C0
330
1B1
100
AcDbEntity
  8
AM_6
100
AcDbText
 10
25.70000000000001
 20
67.55000000000001
 30
0.0
 40
0.5
  1
NSTU-GT-12
100
AcDbAttributeDefinition
  3

  2
DESCRIPTIONSL
 70
     8
280
     0
  0
ATTDEF
  5
1C1
330
1B1
100
AcDbEntity
  8
AM_6
100
AcDbText
 10
25.70000000000001
 20
67.05000000000001
 30
0.0
 40
0.5
  1
136567
100
AcDbAttributeDefinition
  3

  2
PNA
 70
     8
280
     0
  0
ATTDEF
  5
1C2
330
1B1
100
AcDbEntity
  8
AM_6
100
AcDbText
 10
25.70000000000001
 20
66.55000000000001
 30
0.0
 40
0.5
  1
AN-GTM-12-55M-D
100
AcDbAttributeDefinition
  3

  2
DESCRIPTIONA
 70
     8
280
     0
  0
ATTDEF
  5
1C3
330
1B1
100
AcDbEntity
  8
AM_6
100
AcDbText
 10
25.70000000000001
 20
66.05000000000001
 30
0.0
 40
0.5
  1
4.9
100
AcDbAttributeDefinition
  3

  2
W
 70
     8
280
     0
  0
ATTDEF
  5
1C4
330
1B1
100
AcDbEntity
  8
AM_6
100
AcDbText
 10
25.70000000000001
 20
65.55000000000001
 30
0.0
 40
0.5
  1
NS415
100
AcDbAttributeDefinition
  3

  2
TUFS
 70
     8
280
     0
  0
ATTDEF
  5
1C5
330
1B1
100
AcDbEntity
  8
AM_6
100
AcDbText
 10
25.70000000000001
 20
65.05000000000001
 30
0.0
 40
0.5
  1
53.8
100
AcDbAttributeDefinition
  3

  2
A
 70
     8
280
     0
  0
ATTDEF
  5
1C6
330
1B1
100
AcDbEntity
  8
AM_6
100
AcDbText
 10
25.70000000000001
 20
64.55000000000001
 30
0.0
 40
0.5
  1
53.800
100
AcDbAttributeDefinition
  3

  2
A1
 70
     8
280
     0
  0
ATTDEF
  5
1C7
330
1B1
100
AcDbEntity
  8
AM_6
100
AcDbText
 10
25.70000000000001
 20
64.05000000000001
 30
0.0
 40
0.5
  1
169.9
100
AcDbAttributeDefinition
  3

  2
B
 70
     8
280
     0
  0
ATTDEF
  5
1C8
330
1B1
100
AcDbEntity
  8
AM_6
100
AcDbText
 10
25.70000000000001
 20
63.55000000000001
 30
0.0
 40
0.5
  1
169.900
100
AcDbAttributeDefinition
  3

  2
B1
 70
     8
280
     0
  0
ATTDEF
  5
1C9
330
1B1
100
AcDbEntity
  8
AM_6
100
AcDbText
 10
25.70000000000001
 20
63.05000000000001
 30
0.0
 40
0.5
  1
7.95
100
AcDbAttributeDefinition
  3

  2
C
 70
     8
280
     0
  0
ATTDEF
  5
1CA
330
1B1
100
AcDbEntity
  8
AM_6
100
AcDbText
 10
25.70000000000001
 20
62.55000000000001
 30
0.0
 40
0.5
  1
7.950
100
AcDbAttributeDefinition
  3

  2
C1
 70
     8
280
     0
  0
ATTDEF
  5
1CB
330
1B1
100
AcDbEntity
  8
AM_6
100
AcDbText
 10
25.70000000000001
 20
62.05000000000001
 30
0.0
 40
0.5
  1
95.3
100
AcDbAttributeDefinition
  3

  2
D
 70
     8
280
     0
  0
ATTDEF
  5
1CC
330
1B1
100
AcDbEntity
  8
AM_6
100
AcDbText
 10
25.70000000000001
 20
61.55000000000001
 30
0.0
 40
0.5
  1
95.300
100
AcDbAttributeDefinition
  3

  2
D1
 70
     8
280
     0
  0
ATTDEF
  5
1CD
330
1B1
100
AcDbEntity
  8
AM_6
100
AcDbText
 10
25.70000000000001
 20
61.05000000000001
 30
0.0
 40
0.5
  1
98.6
100
AcDbAttributeDefinition
  3

  2
E
 70
     8
280
     0
  0
ATTDEF
  5
1CE
330
1B1
100
AcDbEntity
  8
AM_6
100
AcDbText
 10
25.70000000000001
 20
60.55000000000001
 30
0.0
 40
0.5
  1
98.600
100
AcDbAttributeDefinition
  3

  2
E1
 70
     8
280
     0
  0
ATTDEF
  5
1CF
330
1B1
100
AcDbEntity
  8
AM_6
100
AcDbText
 10
25.70000000000001
 20
60.05000000000001
 30
0.0
 40
0.5
  1
25.4
100
AcDbAttributeDefinition
  3

  2
F
 70
     8
280
     0
  0
ATTDEF
  5
1D0
330
1B1
100
AcDbEntity
  8
AM_6
100
AcDbText
 10
25.70000000000001
 20
59.55000000000001
 30
0.0
 40
0.5
  1
25.400
100
AcDbAttributeDefinition
  3

  2
F1
 70
     8
280
     0
  0
ATTDEF
  5
1D1
330
1B1
100
AcDbEntity
  8
AM_6
100
AcDbText
 10
25.70000000000001
 20
59.05000000000001
 30
0.0
 40
0.5
  1
17.5
100
AcDbAttributeDefinition
  3

  2
G
 70
     8
280
     0
  0
ATTDEF
  5
1D2
330
1B1
100
AcDbEntity
  8
AM_6
100
AcDbText
 10
25.70000000000001
 20
58.55000000000001
 30
0.0
 40
0.5
  1
17.500
100
AcDbAttributeDefinition
  3

  2
G1
 70
     8
280
     0
  0
ATTDEF
  5
1D3
330
1B1
100
AcDbEntity
  8
AM_6
100
AcDbText
 10
25.70000000000001
 20
58.05000000000001
 30
0.0
 40
0.5
  1
32.5
100
AcDbAttributeDefinition
  3

  2
H
 70
     8
280
     0
  0
ATTDEF
  5
1D4
330
1B1
100
AcDbEntity
  8
AM_6
100
AcDbText
 10
25.70000000000001
 20
57.55000000000001
 30
0.0
 40
0.5
  1
32.500
100
AcDbAttributeDefinition
  3

  2
H1
 70
     8
280
     0
  0
ATTDEF
  5
1D5
330
1B1
100
AcDbEntity
  8
AM_6
100
AcDbText
 10
25.70000000000001
 20
57.05000000000001
 30
0.0
 40
0.5
  1
41.4
100
AcDbAttributeDefinition
  3

  2
J
 70
     8
280
     0
  0
ATTDEF
  5
1D6
330
1B1
100
AcDbEntity
  8
AM_6
100
AcDbText
 10
25.70000000000001
 20
56.55000000000001
 30
0.0
 40
0.5
  1
41.400
100
AcDbAttributeDefinition
  3

  2
J1
 70
     8
280
     0
  0
ATTDEF
  5
1D7
330
1B1
100
AcDbEntity
  8
AM_6
100
AcDbText
 10
25.70000000000001
 20
56.05000000000001
 30
0.0
 40
0.5
  1
93.7
100
AcDbAttributeDefinition
  3

  2
L
 70
     8
280
     0
  0
ATTDEF
  5
1D8
330
1B1
100
AcDbEntity
  8
AM_6
100
AcDbText
 10
25.70000000000001
 20
55.55000000000001
 30
0.0
 40
0.5
  1
93.700
100
AcDbAttributeDefinition
  3

  2
L1
 70
     8
280
     0
  0
ATTDEF
  5
1D9
330
1B1
100
AcDbEntity
  8
AM_6
100
AcDbText
 10
25.70000000000001
 20
55.05000000000001
 30
0.0
 40
0.5
  1
125.65/124.89
100
AcDbAttributeDefinition
  3

  2
M
 70
     8
280
     0
  0
ATTDEF
  5
1DA
330
1B1
100
AcDbEntity
  8
AM_6
100
AcDbText
 10
25.70000000000001
 20
54.55000000000001
 30
0.0
 40
0.5
  1
125.650
100
AcDbAttributeDefinition
  3

  2
M1
 70
     8
280
     0
  0
ATTDEF
  5
1DB
330
1B1
100
AcDbEntity
  8
AM_6
100
AcDbText
 10
25.70000000000001
 20
54.05000000000001
 30
0.0
 40
0.5
  1
146.1
100
AcDbAttributeDefinition
  3

  2
N
 70
     8
280
     0
  0
ATTDEF
  5
1DC
330
1B1
100
AcDbEntity
  8
AM_6
100
AcDbText
 10
25.70000000000001
 20
53.55000000000001
 30
0.0
 40
0.5
  1
146.100
100
AcDbAttributeDefinition
  3

  2
N1
 70
     8
280
     0
  0
ATTDEF
  5
1DD
330
1B1
100
AcDbEntity
  8
AM_6
100
AcDbText
 10
25.70000000000001
 20
53.05000000000001
 30
0.0
 40
0.5
  1
11.2
100
AcDbAttributeDefinition
  3

  2
P
 70
     8
280
     0
  0
ATTDEF
  5
1DE
330
1B1
100
AcDbEntity
  8
AM_6
100
AcDbText
 10
25.70000000000001
 20
52.55000000000001
 30
0.0
 40
0.5
  1
11.200
100
AcDbAttributeDefinition
  3

  2
P1
 70
     8
280
     0
  0
ATTDEF
  5
1DF
330
1B1
100
AcDbEntity
  8
AM_6
100
AcDbText
 10
25.70000000000001
 20
52.05000000000001
 30
0.0
 40
0.5
  1
18.5
100
AcDbAttributeDefinition
  3

  2
R
 70
     8
280
     0
  0
ATTDEF
  5
1E0
330
1B1
100
AcDbEntity
  8
AM_6
100
AcDbText
 10
25.70000000000001
 20
51.55000000000001
 30
0.0
 40
0.5
  1
18.500
100
AcDbAttributeDefinition
  3

  2
R1
 70
     8
280
     0
  0
ATTDEF
  5
1E1
330
1B1
100
AcDbEntity
  8
AM_6
100
AcDbText
 10
25.70000000000001
 20
51.05000000000001
 30
0.0
 40
0.5
  1
35.3
100
AcDbAttributeDefinition
  3

  2
S
 70
     8
280
     0
  0
ATTDEF
  5
1E2
330
1B1
100
AcDbEntity
  8
AM_6
100
AcDbText
 10
25.70000000000001
 20
50.55000000000001
 30
0.0
 40
0.5
  1
35.300
100
AcDbAttributeDefinition
  3

  2
S1
 70
     8
280
     0
  0
ATTDEF
  5
1E3
330
1B1
100
AcDbEntity
  8
AM_6
100
AcDbText
 10
25.70000000000001
 20
50.05000000000001
 30
0.0
 40
0.5
  1
37.1
100
AcDbAttributeDefinition
  3

  2
Z
 70
     8
280
     0
  0
ATTDEF
  5
1E4
330
1B1
100
AcDbEntity
  8
AM_6
100
AcDbText
 10
25.70000000000001
 20
49.55000000000001
 30
0.0
 40
0.5
  1
37.100
100
AcDbAttributeDefinition
  3

  2
Z1
 70
     8
280
     0
  0
ATTDEF
  5
1E5
330
1B1
100
AcDbEntity
  8
AM_6
100
AcDbText
 10
25.70000000000001
 20
49.05000000000001
 30
0.0
 40
0.5
  1
6955
100
AcDbAttributeDefinition
  3

  2
CAPS
 70
     8
280
     0
  0
ATTDEF
  5
1E6
330
1B1
100
AcDbEntity
  8
AM_6
100
AcDbText
 10
25.70000000000001
 20
48.55000000000001
 30
0.0
 40
0.5
  1
11791
100
AcDbAttributeDefinition
  3

  2
CAPD
 70
     8
280
     0
  0
ATTDEF
  5
1E7
330
1B1
100
AcDbEntity
  8
AM_6
100
AcDbText
 10
25.70000000000001
 20
48.05000000000001
 30
0.0
 40
0.5
  1
baldor
100
AcDbAttributeDefinition
  3

  2
COMPANY
 70
     8
280
     0
  0
LINE
  5
1E8
330
1B1
100
AcDbEntity
  8
AM_9
100
AcDbLine
 10
-4.769999999999998
 20
50.40833264451424
 30
0.0
 11
-4.77
 21
56.46666666666667
 31
0.0
  0
LINE
  5
1E9
330
1B1
100
AcDbEntity
  8
AM_9
100
AcDbLine
 10
-4.769999999999998
 20
52.00465791104143
 30
0.0
 11
15.9
 21
52.00465791104143
 31
0.0
  0
LINE
  5
1EA
330
1B1
100
AcDbEntity
  8
AM_9
100
AcDbLine
 10
15.9
 20
56.46666666666667
 30
0.0
 11
-4.77
 21
56.46666666666667
 31
0.0
  0
LINE
  5
1EB
330
1B1
100
AcDbEntity
  8
AM_9
100
AcDbLine
 10
-4.769999999999998
 20
-52.00465791104141
 30
0.0
 11
15.9
 21
-52.00465791104141
 31
0.0
  0
LINE
  5
1EC
330
1B1
100
AcDbEntity
  8
AM_9
100
AcDbLine
 10
-4.77
 20
-56.46666666666667
 30
0.0
 11
15.9
 21
-56.46666666666667
 31
0.0
  0
LINE
  5
1ED
330
1B1
100
AcDbEntity
  8
AM_9
100
AcDbLine
 10
-4.77
 20
-56.46666666666667
 30
0.0
 11
-4.769999999999998
 21
-50.40833264451424
 31
0.0
  0
LINE
  5
1EE
330
1B1
100
AcDbEntity
  8
AM_9
100
AcDbLine
 10
-4.769999999999998
 20
50.40833264451424
 30
0.0
 11
15.9
 21
50.40833264451424
 31
0.0
  0
LINE
  5
1EF
330
1B1
100
AcDbEntity
  8
AM_9
100
AcDbLine
 10
15.9
 20
-50.40833264451424
 30
0.0
 11
-4.769999999999998
 21
-50.40833264451424
 31
0.0
  0
LINE
  5
1F0
330
1B1
100
AcDbEntity
  8
AM_9
100
AcDbLine
 10
-15.9
 20
-55.0
 30
0.0
 11
-4.77
 21
-55.0
 31
0.0
  0
LINE
  5
1F1
330
1B1
100
AcDbEntity
  8
AM_9
100
AcDbLine
 10
-4.77
 20
55.0
 30
0.0
 11
-15.9
 21
55.0
 31
0.0
  0
LINE
  5
1F2
330
1B1
100
AcDbEntity
  8
AM_9
100
AcDbLine
 10
15.9
 20
13.25443322062471
 30
0.0
 11
15.9
 21
-13.2544332206247
 31
0.0
  0
LINE
  5
1F3
330
1B1
100
AcDbEntity
  8
AM_9
100
AcDbLine
 10
-15.9
 20
-13.25443322062471
 30
0.0
 11
-15.9
 21
13.2544332206247
 31
0.0
  0
LINE
  5
1F4
330
1B1
100
AcDbEntity
  8
AM_9
100
AcDbLine
 10
-9.966039215965484
 20
-18.14298934425741
 30
0.0
 11
-9.966039215965484
 21
18.14298934425741
 31
0.0
  0
LINE
  5
1F5
330
1B1
100
AcDbEntity
  8
AM_9
100
AcDbLine
 10
9.966039215965484
 20
-18.14298934425741
 30
0.0
 11
9.966039215965484
 21
18.14298934425741
 31
0.0
  0
LINE
  5
1F6
330
1B1
100
AcDbEntity
  8
AM_9
100
AcDbLine
 10
11.40398455721094
 20
-5.6
 30
0.0
 11
19.93244877037823
 21
-5.6
 31
0.0
  0
LINE
  5
1F7
330
1B1
100
AcDbEntity
  8
AM_9
100
AcDbLine
 10
19.93365248975833
 20
5.6
 30
0.0
 11
11.40286466978983
 21
5.6
 31
0.0
  0
LINE
  5
1F8
330
1B1
100
AcDbEntity
  8
AM_9
100
AcDbLine
 10
-19.93365248975833
 20
-5.6
 30
0.0
 11
-11.40286466978982
 21
-5.6
 31
0.0
  0
LINE
  5
1F9
330
1B1
100
AcDbEntity
  8
AM_9
100
AcDbLine
 10
-11.40398455721093
 20
5.6
 30
0.0
 11
-19.93244877037822
 21
5.6
 31
0.0
  0
LINE
  5
1FA
330
1B1
100
AcDbEntity
  8
AM_7
100
AcDbLine
 10
0.0000000000000059
 20
-21.735
 30
0.0
 11
0.0000000000000059
 21
21.735
 31
0.0
  0
LINE
  5
1FB
330
1B1
100
AcDbEntity
  8
AM_4
100
AcDbLine
 10
11.925
 20
52.33155838076485
 30
0.0
 11
11.925
 21
71.46
 31
0.0
  0
LINE
  5
1FC
330
1B1
100
AcDbEntity
  8
AM_4
100
AcDbLine
 10
-3.974999999999997
 20
62.825
 30
0.0
 11
-3.974999999999997
 21
73.05000000000001
 31
0.0
  0
LINE
  5
1FD
330
1B1
100
AcDbEntity
  8
AM_4
100
AcDbLine
 10
-11.925
 20
71.46
 30
0.0
 11
-11.925
 21
52.33155838076485
 31
0.0
  0
LINE
  5
1FE
330
1B1
100
AcDbEntity
  8
AM_4
100
AcDbLine
 10
3.975000000000004
 20
62.825
 30
0.0
 11
-3.974999999999997
 21
62.825
 31
0.0
  0
LINE
  5
1FF
330
1B1
100
AcDbEntity
  8
AM_4
100
AcDbLine
 10
3.975000000000002
 20
73.05000000000001
 30
0.0
 11
3.975000000000004
 21
62.825
 31
0.0
  0
LINE
  5
200
330
1B1
100
AcDbEntity
  8
AM_4
100
AcDbLine
 10
-10.335
 20
73.05
 30
0.0
 11
-3.974999999999997
 21
73.05000000000001
 31
0.0
  0
LWPOLYLINE
  5
201
330
1B1
100
AcDbEntity
  8
AM_4
100
AcDbPolyline
 90
       19
 70
     0
 43
0.0
 10
-11.92499999999999
 20
71.46
 10
-11.91894956996587
 20
71.59857763096878
 10
-11.9008443272894
 20
71.73610060249041
 10
-11.87082206379961
 20
71.87152228171301
 10
-11.82911126704959
 20
72.00381202788782
 10
-11.77602938138826
 20
72.13196303616772
 10
-11.71198039201725
 20
72.255
 10
-11.63745175041949
 20
72.37198653379816
 10
-11.55301066455917
 20
72.48203229940161
 10
-11.4592997820866
 20
72.5842997820866
 10
-11.35703229940159
 20
72.67801066455917
 10
-11.24698653379815
 20
72.7624517504195
 10
-11.12999999999999
 20
72.83698039201727
 10
-11.0069630361677
 20
72.90102938138827
 10
-10.8788120278878
 20
72.9541112670496
 10
-10.74652228171299
 20
72.99582206379962
 10
-10.6111006024904
 20
73.0258443272894
 10
-10.47357763096876
 20
73.04394956996587
 10
-10.33499999999999
 20
73.05
  0
LINE
  5
202
330
1B1
100
AcDbEntity
  8
AM_4
100
AcDbLine
 10
-3.974999999999997
 20
71.46
 30
0.0
 11
-11.925
 21
71.46
 31
0.0
  0
LINE
  5
203
330
1B1
100
AcDbEntity
  8
AM_4
100
AcDbLine
 10
11.925
 20
71.46
 30
0.0
 11
3.975000000000004
 21
71.46
 31
0.0
  0
LWPOLYLINE
  5
204
330
1B1
100
AcDbEntity
  8
AM_4
100
AcDbPolyline
 90
       19
 70
     0
 43
0.0
 10
10.33499999999999
 20
73.05
 10
10.47357763096877
 20
73.04394956996587
 10
10.61110060249042
 20
73.02584432728942
 10
10.74652228171301
 20
72.99582206379962
 10
10.87881202788781
 20
72.95411126704961
 10
11.00696303616771
 20
72.90102938138828
 10
11.13
 20
72.83698039201727
 10
11.24698653379816
 20
72.76245175041952
 10
11.3570322994016
 20
72.67801066455918
 10
11.45929978208661
 20
72.58429978208662
 10
11.55301066455918
 20
72.48203229940161
 10
11.6374517504195
 20
72.37198653379818
 10
11.71198039201726
 20
72.255
 10
11.77602938138828
 20
72.13196303616772
 10
11.8291112670496
 20
72.00381202788782
 10
11.87082206379963
 20
71.87152228171301
 10
11.90084432728942
 20
71.73610060249041
 10
11.91894956996588
 20
71.59857763096878
 10
11.92500000000001
 20
71.46
  0
LINE
  5
205
330
1B1
100
AcDbEntity
  8
AM_4
100
AcDbLine
 10
3.975000000000002
 20
73.05000000000001
 30
0.0
 11
10.33499999999999
 21
73.05
 31
0.0
  0
LINE
  5
206
330
1B1
100
AcDbEntity
  8
AM_4
100
AcDbLine
 10
3.975000000000003
 20
-62.825
 30
0.0
 11
3.975000000000002
 21
-73.05
 31
0.0
  0
LINE
  5
207
330
1B1
100
AcDbEntity
  8
AM_4
100
AcDbLine
 10
-3.974999999999997
 20
-73.05
 30
0.0
 11
-3.974999999999997
 21
-62.825
 31
0.0
  0
LINE
  5
208
330
1B1
100
AcDbEntity
  8
AM_4
100
AcDbLine
 10
-3.974999999999997
 20
-62.825
 30
0.0
 11
3.975000000000003
 21
-62.825
 31
0.0
  0
LINE
  5
209
330
1B1
100
AcDbEntity
  8
AM_4
100
AcDbLine
 10
11.92500000000001
 20
-71.45999997630713
 30
0.0
 11
11.925
 21
-52.33155838076485
 31
0.0
  0
LINE
  5
20A
330
1B1
100
AcDbEntity
  8
AM_4
100
AcDbLine
 10
-11.925
 20
-52.33155838076485
 30
0.0
 11
-11.925
 21
-71.45999997630713
 31
0.0
  0
LINE
  5
20B
330
1B1
100
AcDbEntity
  8
AM_4
100
AcDbLine
 10
3.975000000000002
 20
-73.05
 30
0.0
 11
10.33499999999999
 21
-73.05
 31
0.0
  0
LWPOLYLINE
  5
20C
330
1B1
100
AcDbEntity
  8
AM_4
100
AcDbPolyline
 90
       19
 70
     0
 43
0.0
 10
11.925
 20
-71.45999985983121
 10
11.91894958218239
 20
-71.59857749133337
 10
11.90084435162947
 20
-71.73610046445111
 10
11.87082210007797
 20
-71.87152214632036
 10
11.82911131499014
 20
-72.00381189617225
 10
11.77602944062616
 20
-72.13196290913166
 10
11.71198046210165
 20
-72.25499987861026
 10
11.637451830817
 20
-72.37198641897861
 10
11.55301075465793
 20
-72.48203219202608
 10
11.4592998812009
 20
-72.58429968297231
 10
11.3570324067771
 20
-72.67801057446043
 10
11.2469866486177
 20
-72.76245167002199
 10
11.13000012138971
 20
-72.83698032193287
 10
11.00696316320376
 20
-72.90102932215038
 10
10.87881215960337
 20
-72.95411121910905
 10
10.74652241710564
 20
-72.99582202752127
 10
10.61110074052971
 20
-73.02584430294935
 10
10.47357777060416
 20
-73.04394955774936
 10
10.33500014016876
 20
-73.05
  0
LINE
  5
20D
330
1B1
100
AcDbEntity
  8
AM_4
100
AcDbLine
 10
11.92500000000001
 20
-71.45999997630713
 30
0.0
 11
3.975000000000002
 21
-71.45999999999998
 31
0.0
  0
LINE
  5
20E
330
1B1
100
AcDbEntity
  8
AM_4
100
AcDbLine
 10
-3.974999999999997
 20
-71.45999998815356
 30
0.0
 11
-11.925
 21
-71.45999997630713
 31
0.0
  0
LWPOLYLINE
  5
20F
330
1B1
100
AcDbEntity
  8
AM_4
100
AcDbPolyline
 90
       19
 70
     0
 43
0.0
 10
-10.33499999999998
 20
-73.05
 10
-10.47357763096876
 20
-73.04394956996587
 10
-10.6111006024904
 20
-73.0258443272894
 10
-10.74652228171299
 20
-72.99582206379962
 10
-10.8788120278878
 20
-72.9541112670496
 10
-11.0069630361677
 20
-72.90102938138827
 10
-11.12999999999999
 20
-72.83698039201727
 10
-11.24698653379815
 20
-72.7624517504195
 10
-11.35703229940159
 20
-72.67801066455917
 10
-11.4592997820866
 20
-72.5842997820866
 10
-11.55301066455917
 20
-72.4820322994016
 10
-11.63745175041949
 20
-72.37198653379816
 10
-11.71198039201725
 20
-72.255
 10
-11.77602938138827
 20
-72.1319630361677
 10
-11.82911126704959
 20
-72.0038120278878
 10
-11.87082206379962
 20
-71.871522281713
 10
-11.90084432728941
 20
-71.73610060249041
 10
-11.91894956996588
 20
-71.59857763096876
 10
-11.925
 20
-71.45999999999998
  0
LINE
  5
210
330
1B1
100
AcDbEntity
  8
AM_4
100
AcDbLine
 10
-10.33499999999998
 20
-73.05
 30
0.0
 11
-3.974999999999997
 21
-73.05
 31
0.0
  0
LINE
  5
211
330
1B1
100
AcDbEntity
  8
AM_4
100
AcDbLine
 10
-9.966039215965477
 20
53.03930146598843
 30
0.0
 11
9.966039215965484
 21
53.03930146598842
 31
0.0
  0
LINE
  5
212
330
1B1
100
AcDbEntity
  8
AM_4
100
AcDbLine
 10
9.966039215965484
 20
-53.03930146598842
 30
0.0
 11
-9.966039215965477
 21
-53.03930146598843
 31
0.0
  0
LINE
  5
213
330
1B1
100
AcDbEntity
  8
AM_4
100
AcDbLine
 10
-9.966039215965477
 20
53.03930146598843
 30
0.0
 11
-9.96603921596548
 21
18.14298934425741
 31
0.0
  0
LINE
  5
214
330
1B1
100
AcDbEntity
  8
AM_4
100
AcDbLine
 10
-11.925
 20
52.33155838076485
 30
0.0
 11
-9.966039215965477
 21
53.03930146598843
 31
0.0
  0
LINE
  5
215
330
1B1
100
AcDbEntity
  8
AM_4
100
AcDbLine
 10
-9.966039215965477
 20
-53.03930146598843
 30
0.0
 11
-11.925
 21
-52.33155838076485
 31
0.0
  0
LINE
  5
216
330
1B1
100
AcDbEntity
  8
AM_4
100
AcDbLine
 10
-9.96603921596548
 20
-18.14298934425741
 30
0.0
 11
-9.966039215965477
 21
-53.03930146598843
 31
0.0
  0
LINE
  5
217
330
1B1
100
AcDbEntity
  8
AM_4
100
AcDbLine
 10
-15.9
 20
-13.25443322062471
 30
0.0
 11
-15.9
 21
-69.71000000000001
 31
0.0
  0
LINE
  5
218
330
1B1
100
AcDbEntity
  8
AM_4
100
AcDbLine
 10
-15.9
 20
-69.71000000000001
 30
0.0
 11
-11.925
 21
-70.77509803991371
 31
0.0
  0
LINE
  5
219
330
1B1
100
AcDbEntity
  8
AM_4
100
AcDbLine
 10
-11.925
 20
70.77509803991371
 30
0.0
 11
-15.9
 21
69.71000000000001
 31
0.0
  0
LINE
  5
21A
330
1B1
100
AcDbEntity
  8
AM_4
100
AcDbLine
 10
-15.9
 20
69.71000000000001
 30
0.0
 11
-15.9
 21
13.25443322062471
 31
0.0
  0
LINE
  5
21B
330
1B1
100
AcDbEntity
  8
AM_4
100
AcDbLine
 10
15.9
 20
-13.25443322062471
 30
0.0
 11
15.9
 21
-69.71000000000001
 31
0.0
  0
LINE
  5
21C
330
1B1
100
AcDbEntity
  8
AM_4
100
AcDbLine
 10
9.966039215965488
 20
-18.14298934425741
 30
0.0
 11
9.966039215965484
 21
-53.03930146598842
 31
0.0
  0
LINE
  5
21D
330
1B1
100
AcDbEntity
  8
AM_4
100
AcDbLine
 10
11.925
 20
-52.33155838076485
 30
0.0
 11
9.966039215965484
 21
-53.03930146598842
 31
0.0
  0
LINE
  5
21E
330
1B1
100
AcDbEntity
  8
AM_4
100
AcDbLine
 10
9.966039215965484
 20
53.03930146598842
 30
0.0
 11
11.925
 21
52.33155838076485
 31
0.0
  0
LINE
  5
21F
330
1B1
100
AcDbEntity
  8
AM_4
100
AcDbLine
 10
9.966039215965484
 20
53.03930146598842
 30
0.0
 11
9.966039215965488
 21
18.14298934425741
 31
0.0
  0
LINE
  5
220
330
1B1
100
AcDbEntity
  8
AM_4
100
AcDbLine
 10
15.9
 20
69.71000000000001
 30
0.0
 11
11.925
 21
70.77509803991371
 31
0.0
  0
LINE
  5
221
330
1B1
100
AcDbEntity
  8
AM_4
100
AcDbLine
 10
11.925
 20
-70.77509803991371
 30
0.0
 11
15.9
 21
-69.71000000000001
 31
0.0
  0
LINE
  5
222
330
1B1
100
AcDbEntity
  8
AM_4
100
AcDbLine
 10
15.9
 20
69.71000000000001
 30
0.0
 11
15.9
 21
13.25443322062471
 31
0.0
  0
CIRCLE
  5
223
330
1B1
100
AcDbEntity
  8
AM_4
100
AcDbCircle
 10
0.0000000000000059
 20
0.0
 30
0.0
 40
20.7
  0
CIRCLE
  5
224
330
1B1
100
AcDbEntity
  8
AM_4
100
AcDbCircle
 10
0.000000000000006
 20
0.0
 30
0.0
 40
12.7
  0
CIRCLE
  5
225
330
1B1
100
AcDbEntity
  8
AM_4
100
AcDbCircle
 10
0.000000000000006
 20
0.0
 30
0.0
 40
18.05000002649999
  0
ENDBLK
  5
1B4
330
1B1
100
AcDbEntity
  8
0
100
AcDbBlockEnd
  0
ENDSEC
  0
SECTION
  2
ENTITIES
  0
INSERT
  5
6F
330
1F
100
AcDbEntity
  8
0
100
AcDbBlockReference
  2
1_136302_2
 10
0.0
 20
0.0
 30
0.0
  0
POINT
  5
227
330
1F
100
AcDbEntity
  8
ConnectionPoints
100
AcDbPoint
 10
1.800000000000004
 20
0.0000000000000045
 30
-0.0000000000000001
  0
POINT
  5
228
330
1F
100
AcDbEntity
  8
ConnectionPoints
100
AcDbPoint
 10
1.800000000000004
 20
0.0000000000000045
 30
-0.0000000000000001
  0
POINT
  5
229
330
1F
100
AcDbEntity
  8
ConnectionPoints
100
AcDbPoint
 10
-35.3
 20
0.0000000000000045
 30
0.0000000000000022
  0
POINT
  5
22A
330
1F
100
AcDbEntity
  8
ConnectionPoints
100
AcDbPoint
 10
0.0
 20
0.0
 30
0.0
  0
POINT
  5
22B
330
1F
100
AcDbEntity
  8
ConnectionPoints
100
AcDbPoint
 10
0.0
 20
0.0
 30
0.0
  0
POINT
  5
22C
330
1F
100
AcDbEntity
  8
ConnectionPoints
100
AcDbPoint
 10
-0.0000000000000038
 20
-35.65
 30
-61.74761128983049
  0
POINT
  5
22D
330
1F
100
AcDbEntity
  8
ConnectionPoints
100
AcDbPoint
 10
-35.3
 20
0.0
 30
0.0000000000000022
  0
ENDSEC
  0
SECTION
  2
OBJECTS
  0
DICTIONARY
  5
C
330
0
100
AcDbDictionary
281
     1
  3
ACAD_DETAILVIEWSTYLE
350
235
  3
ACAD_GROUP
350
D
  3
ACAD_LAYOUT
350
1A
  3
ACAD_MATERIAL
350
43
  3
ACAD_MLEADERSTYLE
350
6B
  3
ACAD_MLINESTYLE
350
17
  3
ACAD_PLOTSETTINGS
350
19
  3
ACAD_PLOTSTYLENAME
350
E
  3
ACAD_SCALELIST
350
47
  3
ACAD_SECTIONVIEWSTYLE
350
236
  3
ACAD_TABLESTYLE
350
69
  3
ACAD_VISUALSTYLE
350
2A
  3
ACDB_RECOMPOSE_DATA
350
232
  3
AcDbVariableDictionary
350
22E
  0
SUN
  5
6D
330
29
100
AcDbSun
 90
        1
290
     0
 63
     7
421
 16777215
 40
1.0
291
     1
 91
  2455826
 92
 54000000
292
     0
 70
     2
 71
   256
280
     1
  0
DICTIONARY
  5
235
102
{ACAD_REACTORS
330
C
102
}
330
C
100
AcDbDictionary
281
     1
  0
DICTIONARY
  5
D
102
{ACAD_REACTORS
330
C
102
}
330
C
100
AcDbDictionary
281
     1
  0
DICTIONARY
  5
1A
102
{ACAD_REACTORS
330
C
102
}
330
C
100
AcDbDictionary
281
     1
  3
Layout1
350
1E
  3
Layout2
350
26
  3
Model
350
22
  0
DICTIONARY
  5
43
102
{ACAD_REACTORS
330
C
102
}
330
C
100
AcDbDictionary
281
     1
  3
ByBlock
350
45
  3
ByLayer
350
44
  3
Global
350
46
  0
DICTIONARY
  5
6B
102
{ACAD_REACTORS
330
C
102
}
330
C
100
AcDbDictionary
281
     1
  3
Standard
350
6C
  0
DICTIONARY
  5
17
102
{ACAD_REACTORS
330
C
102
}
330
C
100
AcDbDictionary
281
     1
  3
Standard
350
18
  0
DICTIONARY
  5
19
102
{ACAD_REACTORS
330
C
102
}
330
C
100
AcDbDictionary
281
     1
  0
ACDBDICTIONARYWDFLT
  5
E
102
{ACAD_REACTORS
330
C
102
}
330
C
100
AcDbDictionary
281
     1
  3
Normal
350
F
100
AcDbDictionaryWithDefault
340
F
  0
DICTIONARY
  5
47
102
{ACAD_REACTORS
330
C
102
}
330
C
100
AcDbDictionary
281
     1
  3
A0
350
48
  3
A1
350
49
  3
A2
350
4A
  3
A3
350
4B
  3
A4
350
4C
  3
A5
350
4D
  3
A6
350
4E
  3
A7
350
4F
  3
A8
350
50
  3
A9
350
51
  3
B0
350
52
  3
B1
350
53
  3
B2
350
54
  3
B3
350
55
  3
B4
350
56
  3
B5
350
57
  3
B6
350
58
  3
B7
350
59
  3
B8
350
5A
  3
B9
350
5B
  3
C0
350
5C
  3
C1
350
5D
  3
C2
350
5E
  3
C3
350
5F
  3
C4
350
60
  3
C5
350
61
  3
C6
350
62
  3
C7
350
63
  3
C8
350
64
  3
C9
350
65
  3
D0
350
66
  3
D1
350
67
  3
D2
350
68
  0
DICTIONARY
  5
236
102
{ACAD_REACTORS
330
C
102
}
330
C
100
AcDbDictionary
281
     1
  0
DICTIONARY
  5
69
102
{ACAD_REACTORS
330
C
102
}
330
C
100
AcDbDictionary
281
     1
  3
Standard
350
6A
  0
DICTIONARY
  5
2A
102
{ACAD_REACTORS
330
C
102
}
330
C
100
AcDbDictionary
281
     1
  3
2dWireframe
350
2F
  3
Basic
350
32
  3
Brighten
350
36
  3
ColorChange
350
3A
  3
Conceptual
350
34
  3
Dim
350
35
  3
EdgeColorOff
350
3D
  3
Facepattern
350
39
  3
Flat
350
2B
  3
FlatWithEdges
350
2C
  3
Gouraud
350
2D
  3
GouraudWithEdges
350
2E
  3
Hidden
350
31
  3
JitterOff
350
3B
  3
Linepattern
350
38
  3
OverhangOff
350
3C
  3
Realistic
350
33
  3
Shaded
350
42
  3
Shaded with edges
350
41
  3
Shades of Gray
350
3E
  3
Sketchy
350
3F
  3
Thicken
350
37
  3
Wireframe
350
30
  3
X-Ray
350
40
  0
XRECORD
  5
232
102
{ACAD_REACTORS
330
C
102
}
330
C
100
AcDbXrecord
280
     1
 90
        1
330
6A
  0
DICTIONARY
  5
22E
102
{ACAD_REACTORS
330
C
102
}
330
C
100
AcDbDictionary
281
     1
  3
CANNOSCALE
350
22F
  3
CMLEADERSTYLE
350
234
  3
CTABLESTYLE
350
233
  0
LAYOUT
  5
1E
102
{ACAD_REACTORS
330
1A
102
}
330
1A
100
AcDbPlotSettings
  1

  2
none_device
  4

  6

 40
0.0
 41
0.0
 42
0.0
 43
0.0
 44
0.0
 45
0.0
 46
0.0
 47
0.0
 48
0.0
 49
0.0
140
0.0
141
0.0
142
1.0
143
1.0
 70
   688
 72
     1
 73
     0
 74
     5
  7

 75
    16
 76
     0
 77
     2
 78
   300
147
1.0
148
0.0
149
0.0
100
AcDbLayout
  1
Layout1
 70
     1
 71
     1
 10
0.0
 20
0.0
 11
420.0
 21
297.0
 12
0.0
 22
0.0
 32
0.0
 14
1.000000000000000E+20
 24
1.000000000000000E+20
 34
1.000000000000000E+20
 15
-1.000000000000000E+20
 25
-1.000000000000000E+20
 35
-1.000000000000000E+20
146
0.0
 13
0.0
 23
0.0
 33
0.0
 16
1.0
 26
0.0
 36
0.0
 17
0.0
 27
1.0
 37
0.0
 76
     0
330
1B
  0
LAYOUT
  5
26
102
{ACAD_REACTORS
330
1A
102
}
330
1A
100
AcDbPlotSettings
  1

  2
none_device
  4

  6

 40
0.0
 41
0.0
 42
0.0
 43
0.0
 44
0.0
 45
0.0
 46
0.0
 47
0.0
 48
0.0
 49
0.0
140
0.0
141
0.0
142
1.0
143
1.0
 70
   688
 72
     1
 73
     0
 74
     5
  7

 75
    16
 76
     0
 77
     2
 78
   300
147
1.0
148
0.0
149
0.0
100
AcDbLayout
  1
Layout2
 70
     1
 71
     2
 10
0.0
 20
0.0
 11
0.0
 21
0.0
 12
0.0
 22
0.0
 32
0.0
 14
0.0
 24
0.0
 34
0.0
 15
0.0
 25
0.0
 35
0.0
146
0.0
 13
0.0
 23
0.0
 33
0.0
 16
1.0
 26
0.0
 36
0.0
 17
0.0
 27
1.0
 37
0.0
 76
     0
330
23
  0
LAYOUT
  5
22
102
{ACAD_REACTORS
330
1A
102
}
330
1A
100
AcDbPlotSettings
  1

  2
none_device
  4
Letter_(8.50_x_11.00_Inches)
  6

 40
6.35
 41
6.35
 42
6.35000508
 43
6.35000508
 44
215.9
 45
279.4
 46
0.0
 47
0.0
 48
0.0
 49
0.0
140
0.0
141
0.0
142
1.0
143
1.0
 70
  1712
 72
     1
 73
     0
 74
     0
  7

 75
     0
 76
     0
 77
     2
 78
   300
147
1.0
148
0.0
149
0.0
100
AcDbLayout
  1
Model
 70
     1
 71
     0
 10
0.0
 20
0.0
 11
420.0
 21
297.0
 12
0.0
 22
0.0
 32
0.0
 14
1.000000000000000E+20
 24
1.000000000000000E+20
 34
1.000000000000000E+20
 15
-1.000000000000000E+20
 25
-1.000000000000000E+20
 35
-1.000000000000000E+20
146
0.0
 13
0.0
 23
0.0
 33
0.0
 16
1.0
 26
0.0
 36
0.0
 17
0.0
 27
1.0
 37
0.0
 76
     0
330
1F
331
29
  0
MATERIAL
  5
45
102
{ACAD_REACTORS
330
43
102
}
330
43
100
AcDbMaterial
  1
ByBlock
 72
     1
 94
      127
  0
MATERIAL
  5
44
102
{ACAD_REACTORS
330
43
102
}
330
43
100
AcDbMaterial
  1
ByLayer
 72
     1
 94
      127
  0
MATERIAL
  5
46
102
{ACAD_REACTORS
330
43
102
}
330
43
100
AcDbMaterial
  1
Global
 72
     1
 94
      127
  0
MLEADERSTYLE
  5
6C
102
{ACAD_REACTORS
330
6B
102
}
330
6B
100
AcDbMLeaderStyle
179
     2
170
     2
171
     1
172
     0
 90
        2
 40
0.0
 41
0.0
173
     1
 91
-1056964608
340
14
 92
       -2
290
     1
 42
2.0
291
     1
 43
8.0
  3
Standard
341
0
 44
4.0
300

342
11
174
     1
178
     6
175
     1
176
     0
 93
-1056964608
 45
4.0
292
     0
297
     0
 46
4.0
343
0
 94
-1056964608
 47
1.0
 49
1.0
140
1.0
293
     1
141
0.0
294
     1
177
     0
142
1.0
295
     0
296
     0
143
3.75
271
     0
272
     9
273
     9
298
     0
  0
MLINESTYLE
  5
18
102
{ACAD_REACTORS
330
17
102
}
330
17
100
AcDbMlineStyle
  2
Standard
 70
     0
  3

 62
   256
 51
90.0
 52
90.0
 71
     2
 49
0.5
 62
   256
  6
BYLAYER
 49
-0.5
 62
   256
  6
BYLAYER
  0
ACDBPLACEHOLDER
  5
F
102
{ACAD_REACTORS
330
E
102
}
330
E
  0
SCALE
  5
48
102
{ACAD_REACTORS
330
47
102
}
330
47
100
AcDbScale
 70
     0
300
1:1
140
1.0
141
1.0
290
     1
  0
SCALE
  5
49
102
{ACAD_REACTORS
330
47
102
}
330
47
100
AcDbScale
 70
     0
300
1:2
140
1.0
141
2.0
290
     0
  0
SCALE
  5
4A
102
{ACAD_REACTORS
330
47
102
}
330
47
100
AcDbScale
 70
     0
300
1:4
140
1.0
141
4.0
290
     0
  0
SCALE
  5
4B
102
{ACAD_REACTORS
330
47
102
}
330
47
100
AcDbScale
 70
     0
300
1:5
140
1.0
141
5.0
290
     0
  0
SCALE
  5
4C
102
{ACAD_REACTORS
330
47
102
}
330
47
100
AcDbScale
 70
     0
300
1:8
140
1.0
141
8.0
290
     0
  0
SCALE
  5
4D
102
{ACAD_REACTORS
330
47
102
}
330
47
100
AcDbScale
 70
     0
300
1:10
140
1.0
141
10.0
290
     0
  0
SCALE
  5
4E
102
{ACAD_REACTORS
330
47
102
}
330
47
100
AcDbScale
 70
     0
300
1:16
140
1.0
141
16.0
290
     0
  0
SCALE
  5
4F
102
{ACAD_REACTORS
330
47
102
}
330
47
100
AcDbScale
 70
     0
300
1:20
140
1.0
141
20.0
290
     0
  0
SCALE
  5
50
102
{ACAD_REACTORS
330
47
102
}
330
47
100
AcDbScale
 70
     0
300
1:30
140
1.0
141
30.0
290
     0
  0
SCALE
  5
51
102
{ACAD_REACTORS
330
47
102
}
330
47
100
AcDbScale
 70
     0
300
1:40
140
1.0
141
40.0
290
     0
  0
SCALE
  5
52
102
{ACAD_REACTORS
330
47
102
}
330
47
100
AcDbScale
 70
     0
300
1:50
140
1.0
141
50.0
290
     0
  0
SCALE
  5
53
102
{ACAD_REACTORS
330
47
102
}
330
47
100
AcDbScale
 70
     0
300
1:100
140
1.0
141
100.0
290
     0
  0
SCALE
  5
54
102
{ACAD_REACTORS
330
47
102
}
330
47
100
AcDbScale
 70
     0
300
2:1
140
2.0
141
1.0
290
     0
  0
SCALE
  5
55
102
{ACAD_REACTORS
330
47
102
}
330
47
100
AcDbScale
 70
     0
300
4:1
140
4.0
141
1.0
290
     0
  0
SCALE
  5
56
102
{ACAD_REACTORS
330
47
102
}
330
47
100
AcDbScale
 70
     0
300
8:1
140
8.0
141
1.0
290
     0
  0
SCALE
  5
57
102
{ACAD_REACTORS
330
47
102
}
330
47
100
AcDbScale
 70
     0
300
10:1
140
10.0
141
1.0
290
     0
  0
SCALE
  5
58
102
{ACAD_REACTORS
330
47
102
}
330
47
100
AcDbScale
 70
     0
300
100:1
140
100.0
141
1.0
290
     0
  0
SCALE
  5
59
102
{ACAD_REACTORS
330
47
102
}
330
47
100
AcDbScale
 70
     0
300
1/128" = 1'-0"
140
0.0078125
141
12.0
290
     0
  0
SCALE
  5
5A
102
{ACAD_REACTORS
330
47
102
}
330
47
100
AcDbScale
 70
     0
300
1/64" = 1'-0"
140
0.015625
141
12.0
290
     0
  0
SCALE
  5
5B
102
{ACAD_REACTORS
330
47
102
}
330
47
100
AcDbScale
 70
     0
300
1/32" = 1'-0"
140
0.03125
141
12.0
290
     0
  0
SCALE
  5
5C
102
{ACAD_REACTORS
330
47
102
}
330
47
100
AcDbScale
 70
     0
300
1/16" = 1'-0"
140
0.0625
141
12.0
290
     0
  0
SCALE
  5
5D
102
{ACAD_REACTORS
330
47
102
}
330
47
100
AcDbScale
 70
     0
300
3/32" = 1'-0"
140
0.09375
141
12.0
290
     0
  0
SCALE
  5
5E
102
{ACAD_REACTORS
330
47
102
}
330
47
100
AcDbScale
 70
     0
300
1/8" = 1'-0"
140
0.125
141
12.0
290
     0
  0
SCALE
  5
5F
102
{ACAD_REACTORS
330
47
102
}
330
47
100
AcDbScale
 70
     0
300
3/16" = 1'-0"
140
0.1875
141
12.0
290
     0
  0
SCALE
  5
60
102
{ACAD_REACTORS
330
47
102
}
330
47
100
AcDbScale
 70
     0
300
1/4" = 1'-0"
140
0.25
141
12.0
290
     0
  0
SCALE
  5
61
102
{ACAD_REACTORS
330
47
102
}
330
47
100
AcDbScale
 70
     0
300
3/8" = 1'-0"
140
0.375
141
12.0
290
     0
  0
SCALE
  5
62
102
{ACAD_REACTORS
330
47
102
}
330
47
100
AcDbScale
 70
     0
300
1/2" = 1'-0"
140
0.5
141
12.0
290
     0
  0
SCALE
  5
63
102
{ACAD_REACTORS
330
47
102
}
330
47
100
AcDbScale
 70
     0
300
3/4" = 1'-0"
140
0.75
141
12.0
290
     0
  0
SCALE
  5
64
102
{ACAD_REACTORS
330
47
102
}
330
47
100
AcDbScale
 70
     0
300
1" = 1'-0"
140
1.0
141
12.0
290
     0
  0
SCALE
  5
65
102
{ACAD_REACTORS
330
47
102
}
330
47
100
AcDbScale
 70
     0
300
1-1/2" = 1'-0"
140
1.5
141
12.0
290
     0
  0
SCALE
  5
66
102
{ACAD_REACTORS
330
47
102
}
330
47
100
AcDbScale
 70
     0
300
3" = 1'-0"
140
3.0
141
12.0
290
     0
  0
SCALE
  5
67
102
{ACAD_REACTORS
330
47
102
}
330
47
100
AcDbScale
 70
     0
300
6" = 1'-0"
140
6.0
141
12.0
290
     0
  0
SCALE
  5
68
102
{ACAD_REACTORS
330
47
102
}
330
47
100
AcDbScale
 70
     0
300
1'-0" = 1'-0"
140
12.0
141
12.0
290
     0
  0
TABLESTYLE
  5
6A
102
{ACAD_REACTORS
330
69
102
}
102
{ACAD_XDICTIONARY
360
230
102
}
330
69
100
AcDbTableStyle
  3
Standard
 70
     0
 71
     0
 40
0.06
 41
0.06
280
     0
281
     0
  7
Standard
140
4.5
170
     2
 62
     0
 63
   257
283
     0
 90
        4
 91
        0
  1

274
    -2
284
     1
 64
     0
275
    -2
285
     1
 65
     0
276
    -2
286
     1
 66
     0
277
    -2
287
     1
 67
     0
278
    -2
288
     1
 68
     0
279
    -2
289
     1
 69
     0
  7
Standard
140
6.0
170
     5
 62
     0
 63
   257
283
     0
 90
        4
 91
        0
  1

274
    -2
284
     1
 64
     0
275
    -2
285
     1
 65
     0
276
    -2
286
     1
 66
     0
277
    -2
287
     1
 67
     0
278
    -2
288
     1
 68
     0
279
    -2
289
     1
 69
     0
  7
Standard
140
4.5
170
     5
 62
     0
 63
   257
283
     0
 90
        4
 91
        0
  1

274
    -2
284
     1
 64
     0
275
    -2
285
     1
 65
     0
276
    -2
286
     1
 66
     0
277
    -2
287
     1
 67
     0
278
    -2
288
     1
 68
     0
279
    -2
289
     1
 69
     0
  0
VISUALSTYLE
  5
2F
102
{ACAD_REACTORS
330
2A
102
}
330
2A
100
AcDbVisualStyle
  2
2dWireframe
 70
     4
177
     3
291
     0
 70
    58
 90
        0
176
     1
 90
        2
176
     1
 90
        0
176
     1
 90
        0
176
     1
 40
0.6
176
     1
 40
30.0
176
     1
 62
     7
420
 16777215
176
     1
 90
        1
176
     1
 90
        4
176
     1
 62
     7
176
     1
 62
   257
176
     1
 90
        1
176
     1
 90
        1
176
     1
 40
1.0
176
     1
 90
        0
176
     1
 62
   257
176
     1
 40
1.0
176
     1
 90
        1
176
     1
 90
        6
176
     1
 90
        2
176
     1
 62
     7
176
     1
 90
        5
176
     1
 90
        0
176
     1
 90
        0
176
     1
290
     0
176
     1
 90
        1
176
     1
 40
0.0
176
     1
 90
        0
176
     1
290
     1
176
     1
290
     1
176
     1
290
     0
176
     1
290
     0
176
     1
290
     0
176
     1
290
     0
176
     1
290
     0
176
     1
290
     0
176
     1
290
     0
176
     1
 90
       50
176
     1
 40
0.0
176
     1
 40
1.0
176
     1
 90
        0
176
     1
 62
    18
420
        0
176
     1
 90
       50
176
     1
 90
        3
176
     1
 62
     5
420
      255
176
     1
290
     0
176
     1
 90
       50
176
     1
 90
       50
176
     1
 90
       50
176
     1
290
     0
176
     1
 90
       50
176
     1
 62
   256
176
     0
 40
1.0
176
     0
 90
        2
176
     1
  1
strokes_ogs.tif
176
     1
290
     0
176
     1
 40
1.0
176
     1
 40
1.0
176
     1
  0
VISUALSTYLE
  5
32
102
{ACAD_REACTORS
330
2A
102
}
330
2A
100
AcDbVisualStyle
  2
Basic
 70
     7
177
     3
291
     1
 70
    58
 90
        1
176
     1
 90
        0
176
     1
 90
        1
176
     1
 90
        0
176
     1
 40
0.6
176
     1
 40
30.0
176
     1
 62
     7
420
 16777215
176
     1
 90
        0
176
     1
 90
        4
176
     1
 62
     7
176
     1
 62
   257
176
     1
 90
        1
176
     1
 90
        1
176
     1
 40
1.0
176
     1
 90
        8
176
     1
 62
     7
176
     1
 40
1.0
176
     1
 90
        1
176
     1
 90
        6
176
     1
 90
        2
176
     1
 62
     7
176
     1
 90
        5
176
     1
 90
        0
176
     1
 90
        0
176
     1
290
     0
176
     1
 90
        1
176
     1
 40
0.0
176
     1
 90
        0
176
     1
290
     0
176
     1
290
     1
176
     1
290
     1
176
     1
290
     0
176
     1
290
     0
176
     1
290
     0
176
     1
290
     0
176
     1
290
     0
176
     1
290
     0
176
     1
 90
       50
176
     1
 40
0.0
176
     1
 40
1.0
176
     1
 90
        0
176
     1
 62
    18
420
        0
176
     1
 90
       50
176
     1
 90
        3
176
     1
 62
     5
420
      255
176
     1
290
     0
176
     1
 90
       50
176
     1
 90
       50
176
     1
 90
       50
176
     1
290
     0
176
     1
 90
       50
176
     1
 62
   256
176
     0
 40
1.0
176
     0
 90
        2
176
     1
  1
strokes_ogs.tif
176
     1
290
     0
176
     1
 40
1.0
176
     1
 40
1.0
176
     1
  0
VISUALSTYLE
  5
36
102
{ACAD_REACTORS
330
2A
102
}
330
2A
100
AcDbVisualStyle
  2
Brighten
 70
    12
177
     3
291
     1
 70
    58
 90
        2
176
     1
 90
        2
176
     1
 90
        0
176
     1
 90
        0
176
     1
 40
0.6
176
     1
 40
30.0
176
     1
 62
     7
420
 16777215
176
     1
 90
        1
176
     1
 90
        4
176
     1
 62
     7
176
     1
 62
   257
176
     1
 90
        1
176
     1
 90
        1
176
     1
 40
1.0
176
     1
 90
        8
176
     1
 62
     7
176
     1
 40
1.0
176
     1
 90
        1
176
     1
 90
        6
176
     1
 90
        2
176
     1
 62
     7
176
     1
 90
        5
176
     1
 90
        0
176
     1
 90
        0
176
     1
290
     0
176
     1
 90
        1
176
     1
 40
50.0
176
     1
 90
        0
176
     1
290
     0
176
     1
290
     1
176
     1
290
     1
176
     1
290
     0
176
     1
290
     0
176
     1
290
     0
176
     1
290
     0
176
     1
290
     0
176
     1
290
     0
176
     1
 90
       50
176
     1
 40
0.0
176
     1
 40
1.0
176
     1
 90
        0
176
     1
 62
    18
420
        0
176
     1
 90
       50
176
     1
 90
        3
176
     1
 62
     5
420
      255
176
     1
290
     0
176
     1
 90
       50
176
     1
 90
       50
176
     1
 90
       50
176
     1
290
     0
176
     1
 90
       50
176
     1
 62
   256
176
     0
 40
1.0
176
     0
 90
        2
176
     1
  1
strokes_ogs.tif
176
     1
290
     0
176
     1
 40
1.0
176
     1
 40
1.0
176
     1
  0
VISUALSTYLE
  5
3A
102
{ACAD_REACTORS
330
2A
102
}
330
2A
100
AcDbVisualStyle
  2
ColorChange
 70
    16
177
     3
291
     1
 70
    58
 90
        2
176
     1
 90
        2
176
     1
 90
        3
176
     1
 90
        0
176
     1
 40
0.6
176
     1
 40
30.0
176
     1
 62
     8
420
  8421504
176
     1
 90
        1
176
     1
 90
        4
176
     1
 62
     7
176
     1
 62
   257
176
     1
 90
        1
176
     1
 90
        1
176
     1
 40
1.0
176
     1
 90
        8
176
     1
 62
     8
420
  8421504
176
     1
 40
1.0
176
     1
 90
        1
176
     1
 90
        6
176
     1
 90
        2
176
     1
 62
     7
176
     1
 90
        5
176
     1
 90
        0
176
     1
 90
        0
176
     1
290
     0
176
     1
 90
        1
176
     1
 40
0.0
176
     1
 90
        0
176
     1
290
     0
176
     1
290
     1
176
     1
290
     1
176
     1
290
     0
176
     1
290
     0
176
     1
290
     0
176
     1
290
     0
176
     1
290
     0
176
     1
290
     0
176
     1
 90
       50
176
     1
 40
0.0
176
     1
 40
1.0
176
     1
 90
        0
176
     1
 62
    18
420
        0
176
     1
 90
       50
176
     1
 90
        3
176
     1
 62
     5
420
      255
176
     1
290
     0
176
     1
 90
       50
176
     1
 90
       50
176
     1
 90
       50
176
     1
290
     0
176
     1
 90
       50
176
     1
 62
   256
176
     0
 40
1.0
176
     0
 90
        2
176
     1
  1
strokes_ogs.tif
176
     1
290
     0
176
     1
 40
1.0
176
     1
 40
1.0
176
     1
  0
VISUALSTYLE
  5
34
102
{ACAD_REACTORS
330
2A
102
}
330
2A
100
AcDbVisualStyle
  2
Conceptual
 70
     9
177
     3
291
     0
 70
    58
 90
        3
176
     1
 90
        2
176
     1
 90
        0
176
     1
 90
        0
176
     1
 40
0.6
176
     1
 40
30.0
176
     1
 62
     7
420
 16777215
176
     1
 90
        2
176
     1
 90
        2
176
     1
 62
     7
176
     1
 62
   257
176
     1
 90
        1
176
     1
 90
        1
176
     1
 40
179.0
176
     1
 90
        8
176
     1
 62
     7
176
     1
 40
1.0
176
     1
 90
        1
176
     1
 90
        6
176
     1
 90
        2
176
     1
 62
     7
176
     1
 90
        3
176
     1
 90
        0
176
     1
 90
        0
176
     1
290
     0
176
     1
 90
        1
176
     1
 40
0.0
176
     1
 90
        0
176
     1
290
     0
176
     1
290
     1
176
     1
290
     1
176
     1
290
     0
176
     1
290
     0
176
     1
290
     0
176
     1
290
     0
176
     1
290
     0
176
     1
290
     0
176
     1
 90
       50
176
     1
 40
0.0
176
     1
 40
1.0
176
     1
 90
        0
176
     1
 62
    18
420
        0
176
     1
 90
       50
176
     1
 90
        3
176
     1
 62
     5
420
      255
176
     1
290
     0
176
     1
 90
       50
176
     1
 90
       50
176
     1
 90
       50
176
     1
290
     0
176
     1
 90
       50
176
     1
 62
   256
176
     0
 40
1.0
176
     0
 90
        2
176
     1
  1
strokes_ogs.tif
176
     1
290
     0
176
     1
 40
1.0
176
     1
 40
1.0
176
     1
  0
VISUALSTYLE
  5
35
102
{ACAD_REACTORS
330
2A
102
}
330
2A
100
AcDbVisualStyle
  2
Dim
 70
    11
177
     3
291
     1
 70
    58
 90
        2
176
     1
 90
        2
176
     1
 90
        0
176
     1
 90
        0
176
     1
 40
0.6
176
     1
 40
30.0
176
     1
 62
     7
420
 16777215
176
     1
 90
        1
176
     1
 90
        4
176
     1
 62
     7
176
     1
 62
   257
176
     1
 90
        1
176
     1
 90
        1
176
     1
 40
1.0
176
     1
 90
        8
176
     1
 62
     7
176
     1
 40
1.0
176
     1
 90
        1
176
     1
 90
        6
176
     1
 90
        2
176
     1
 62
     7
176
     1
 90
        5
176
     1
 90
        0
176
     1
 90
        0
176
     1
290
     0
176
     1
 90
        1
176
     1
 40
-50.0
176
     1
 90
        0
176
     1
290
     0
176
     1
290
     1
176
     1
290
     1
176
     1
290
     0
176
     1
290
     0
176
     1
290
     0
176
     1
290
     0
176
     1
290
     0
176
     1
290
     0
176
     1
 90
       50
176
     1
 40
0.0
176
     1
 40
1.0
176
     1
 90
        0
176
     1
 62
    18
420
        0
176
     1
 90
       50
176
     1
 90
        3
176
     1
 62
     5
420
      255
176
     1
290
     0
176
     1
 90
       50
176
     1
 90
       50
176
     1
 90
       50
176
     1
290
     0
176
     1
 90
       50
176
     1
 62
   256
176
     0
 40
1.0
176
     0
 90
        2
176
     1
  1
strokes_ogs.tif
176
     1
290
     0
176
     1
 40
1.0
176
     1
 40
1.0
176
     1
  0
VISUALSTYLE
  5
3D
102
{ACAD_REACTORS
330
2A
102
}
330
2A
100
AcDbVisualStyle
  2
EdgeColorOff
 70
    22
177
     3
291
     1
 70
    58
 90
        2
176
     0
 90
        2
176
     0
 90
        0
176
     0
 90
        0
176
     0
 40
0.6
176
     0
 40
30.0
176
     0
 62
     7
420
 16777215
176
     0
 90
        1
176
     0
 90
        4
176
     0
 62
     7
176
     0
 62
   257
176
     0
 90
        1
176
     0
 90
        1
176
     0
 40
1.0
176
     0
 90
        8
176
     2
 62
     7
176
     0
 40
1.0
176
     0
 90
        1
176
     0
 90
        6
176
     0
 90
        2
176
     0
 62
     7
176
     0
 90
        5
176
     0
 90
        0
176
     0
 90
        0
176
     0
290
     0
176
     0
 90
        1
176
     0
 40
0.0
176
     0
 90
        0
176
     0
290
     0
176
     0
290
     1
176
     0
290
     1
176
     0
290
     0
176
     0
290
     0
176
     0
290
     0
176
     0
290
     0
176
     0
290
     0
176
     0
290
     0
176
     0
 90
       50
176
     0
 40
0.0
176
     0
 40
1.0
176
     0
 90
        0
176
     0
 62
    18
420
        0
176
     0
 90
       50
176
     0
 90
        3
176
     0
 62
     5
420
      255
176
     0
290
     0
176
     0
 90
       50
176
     0
 90
       50
176
     0
 90
       50
176
     0
290
     0
176
     0
 90
       50
176
     0
 62
   256
176
     0
 40
1.0
176
     0
 90
        2
176
     0
  1
strokes_ogs.tif
176
     0
290
     0
176
     0
 40
1.0
176
     0
 40
1.0
176
     0
  0
VISUALSTYLE
  5
39
102
{ACAD_REACTORS
330
2A
102
}
330
2A
100
AcDbVisualStyle
  2
Facepattern
 70
    15
177
     3
291
     1
 70
    58
 90
        2
176
     1
 90
        2
176
     1
 90
        0
176
     1
 90
        0
176
     1
 40
0.6
176
     1
 40
30.0
176
     1
 62
     7
420
 16777215
176
     1
 90
        1
176
     1
 90
        4
176
     1
 62
     7
176
     1
 62
   257
176
     1
 90
        1
176
     1
 90
        1
176
     1
 40
1.0
176
     1
 90
        8
176
     1
 62
     7
176
     1
 40
1.0
176
     1
 90
        1
176
     1
 90
        6
176
     1
 90
        2
176
     1
 62
     7
176
     1
 90
        5
176
     1
 90
        0
176
     1
 90
        0
176
     1
290
     0
176
     1
 90
        1
176
     1
 40
0.0
176
     1
 90
        0
176
     1
290
     0
176
     1
290
     1
176
     1
290
     1
176
     1
290
     0
176
     1
290
     0
176
     1
290
     0
176
     1
290
     0
176
     1
290
     0
176
     1
290
     0
176
     1
 90
       50
176
     1
 40
0.0
176
     1
 40
1.0
176
     1
 90
        0
176
     1
 62
    18
420
        0
176
     1
 90
       50
176
     1
 90
        3
176
     1
 62
     5
420
      255
176
     1
290
     0
176
     1
 90
       50
176
     1
 90
       50
176
     1
 90
       50
176
     1
290
     0
176
     1
 90
       50
176
     1
 62
   256
176
     0
 40
1.0
176
     0
 90
        2
176
     1
  1
strokes_ogs.tif
176
     1
290
     0
176
     1
 40
1.0
176
     1
 40
1.0
176
     1
  0
VISUALSTYLE
  5
2B
102
{ACAD_REACTORS
330
2A
102
}
330
2A
100
AcDbVisualStyle
  2
Flat
 70
     0
177
     3
291
     1
 70
    58
 90
        2
176
     1
 90
        1
176
     1
 90
        1
176
     1
 90
        2
176
     1
 40
0.6
176
     1
 40
30.0
176
     1
 62
     7
420
 16777215
176
     1
 90
        0
176
     1
 90
        0
176
     1
 62
     7
176
     1
 62
   257
176
     1
 90
        1
176
     1
 90
        1
176
     1
 40
1.0
176
     1
 90
        8
176
     1
 62
     7
176
     1
 40
1.0
176
     1
 90
        1
176
     1
 90
        6
176
     1
 90
        2
176
     1
 62
     7
176
     1
 90
        5
176
     1
 90
        0
176
     1
 90
        0
176
     1
290
     0
176
     1
 90
       13
176
     1
 40
0.0
176
     1
 90
        0
176
     1
290
     0
176
     1
290
     1
176
     1
290
     1
176
     1
290
     0
176
     1
290
     0
176
     1
290
     0
176
     1
290
     0
176
     1
290
     0
176
     1
290
     0
176
     1
 90
       50
176
     1
 40
0.0
176
     1
 40
1.0
176
     1
 90
        0
176
     1
 62
    18
420
        0
176
     1
 90
       50
176
     1
 90
        3
176
     1
 62
     5
420
      255
176
     1
290
     0
176
     1
 90
       50
176
     1
 90
       50
176
     1
 90
       50
176
     1
290
     0
176
     1
 90
       50
176
     1
 62
   256
176
     0
 40
1.0
176
     0
 90
        2
176
     1
  1
strokes_ogs.tif
176
     1
290
     0
176
     1
 40
1.0
176
     1
 40
1.0
176
     1
  0
VISUALSTYLE
  5
2C
102
{ACAD_REACTORS
330
2A
102
}
330
2A
100
AcDbVisualStyle
  2
FlatWithEdges
 70
     1
177
     3
291
     1
 70
    58
 90
        2
176
     1
 90
        1
176
     1
 90
        1
176
     1
 90
        2
176
     1
 40
0.6
176
     1
 40
30.0
176
     1
 62
     7
420
 16777215
176
     1
 90
        1
176
     1
 90
        0
176
     1
 62
     7
176
     1
 62
   257
176
     1
 90
        1
176
     1
 90
        1
176
     1
 40
1.0
176
     1
 90
        0
176
     1
 62
   257
176
     1
 40
1.0
176
     1
 90
        1
176
     1
 90
        6
176
     1
 90
        2
176
     1
 62
     7
176
     1
 90
        5
176
     1
 90
        0
176
     1
 90
        0
176
     1
290
     0
176
     1
 90
       13
176
     1
 40
0.0
176
     1
 90
        0
176
     1
290
     0
176
     1
290
     1
176
     1
290
     1
176
     1
290
     0
176
     1
290
     0
176
     1
290
     0
176
     1
290
     0
176
     1
290
     0
176
     1
290
     0
176
     1
 90
       50
176
     1
 40
0.0
176
     1
 40
1.0
176
     1
 90
        0
176
     1
 62
    18
420
        0
176
     1
 90
       50
176
     1
 90
        3
176
     1
 62
     5
420
      255
176
     1
290
     0
176
     1
 90
       50
176
     1
 90
       50
176
     1
 90
       50
176
     1
290
     0
176
     1
 90
       50
176
     1
 62
   256
176
     0
 40
1.0
176
     0
 90
        2
176
     1
  1
strokes_ogs.tif
176
     1
290
     0
176
     1
 40
1.0
176
     1
 40
1.0
176
     1
  0
VISUALSTYLE
  5
2D
102
{ACAD_REACTORS
330
2A
102
}
330
2A
100
AcDbVisualStyle
  2
Gouraud
 70
     2
177
     3
291
     1
 70
    58
 90
        2
176
     1
 90
        2
176
     1
 90
        1
176
     1
 90
        2
176
     1
 40
0.6
176
     1
 40
30.0
176
     1
 62
     7
420
 16777215
176
     1
 90
        0
176
     1
 90
        0
176
     1
 62
     7
176
     1
 62
   257
176
     1
 90
        1
176
     1
 90
        1
176
     1
 40
1.0
176
     1
 90
        0
176
     1
 62
     7
176
     1
 40
1.0
176
     1
 90
        1
176
     1
 90
        6
176
     1
 90
        2
176
     1
 62
     7
176
     1
 90
        5
176
     1
 90
        0
176
     1
 90
        0
176
     1
290
     0
176
     1
 90
       13
176
     1
 40
0.0
176
     1
 90
        0
176
     1
290
     0
176
     1
290
     1
176
     1
290
     1
176
     1
290
     0
176
     1
290
     0
176
     1
290
     0
176
     1
290
     0
176
     1
290
     0
176
     1
290
     0
176
     1
 90
       50
176
     1
 40
0.0
176
     1
 40
1.0
176
     1
 90
        0
176
     1
 62
    18
420
        0
176
     1
 90
       50
176
     1
 90
        3
176
     1
 62
     5
420
      255
176
     1
290
     0
176
     1
 90
       50
176
     1
 90
       50
176
     1
 90
       50
176
     1
290
     0
176
     1
 90
       50
176
     1
 62
   256
176
     0
 40
1.0
176
     0
 90
        2
176
     1
  1
strokes_ogs.tif
176
     1
290
     0
176
     1
 40
1.0
176
     1
 40
1.0
176
     1
  0
VISUALSTYLE
  5
2E
102
{ACAD_REACTORS
330
2A
102
}
330
2A
100
AcDbVisualStyle
  2
GouraudWithEdges
 70
     3
177
     3
291
     1
 70
    58
 90
        2
176
     1
 90
        2
176
     1
 90
        1
176
     1
 90
        2
176
     1
 40
0.6
176
     1
 40
30.0
176
     1
 62
     7
420
 16777215
176
     1
 90
        1
176
     1
 90
        0
176
     1
 62
     7
176
     1
 62
   257
176
     1
 90
        1
176
     1
 90
        1
176
     1
 40
1.0
176
     1
 90
        0
176
     1
 62
   257
176
     1
 40
1.0
176
     1
 90
        1
176
     1
 90
        6
176
     1
 90
        2
176
     1
 62
     7
176
     1
 90
        5
176
     1
 90
        0
176
     1
 90
        0
176
     1
290
     0
176
     1
 90
       13
176
     1
 40
0.0
176
     1
 90
        0
176
     1
290
     0
176
     1
290
     1
176
     1
290
     1
176
     1
290
     0
176
     1
290
     0
176
     1
290
     0
176
     1
290
     0
176
     1
290
     0
176
     1
290
     0
176
     1
 90
       50
176
     1
 40
0.0
176
     1
 40
1.0
176
     1
 90
        0
176
     1
 62
    18
420
        0
176
     1
 90
       50
176
     1
 90
        3
176
     1
 62
     5
420
      255
176
     1
290
     0
176
     1
 90
       50
176
     1
 90
       50
176
     1
 90
       50
176
     1
290
     0
176
     1
 90
       50
176
     1
 62
   256
176
     0
 40
1.0
176
     0
 90
        2
176
     1
  1
strokes_ogs.tif
176
     1
290
     0
176
     1
 40
1.0
176
     1
 40
1.0
176
     1
  0
VISUALSTYLE
  5
31
102
{ACAD_REACTORS
330
2A
102
}
330
2A
100
AcDbVisualStyle
  2
Hidden
 70
     6
177
     3
291
     0
 70
    58
 90
        1
176
     1
 90
        2
176
     1
 90
        2
176
     1
 90
        0
176
     1
 40
0.6
176
     1
 40
30.0
176
     1
 62
     7
420
 16777215
176
     1
 90
        2
176
     1
 90
        2
176
     1
 62
     7
176
     1
 62
   257
176
     1
 90
        2
176
     1
 90
        1
176
     1
 40
40.0
176
     1
 90
        0
176
     1
 62
   257
176
     1
 40
1.0
176
     1
 90
        1
176
     1
 90
        6
176
     1
 90
        2
176
     1
 62
     7
176
     1
 90
        3
176
     1
 90
        0
176
     1
 90
        0
176
     1
290
     0
176
     1
 90
        1
176
     1
 40
0.0
176
     1
 90
        0
176
     1
290
     0
176
     1
290
     1
176
     1
290
     1
176
     1
290
     0
176
     1
290
     0
176
     1
290
     0
176
     1
290
     0
176
     1
290
     0
176
     1
290
     0
176
     1
 90
       50
176
     1
 40
0.0
176
     1
 40
1.0
176
     1
 90
        0
176
     1
 62
    18
420
        0
176
     1
 90
       50
176
     1
 90
        3
176
     1
 62
     5
420
      255
176
     1
290
     0
176
     1
 90
       50
176
     1
 90
       50
176
     1
 90
       50
176
     1
290
     0
176
     1
 90
       50
176
     1
 62
   256
176
     0
 40
1.0
176
     0
 90
        2
176
     1
  1
strokes_ogs.tif
176
     1
290
     0
176
     1
 40
1.0
176
     1
 40
1.0
176
     1
  0
VISUALSTYLE
  5
3B
102
{ACAD_REACTORS
330
2A
102
}
330
2A
100
AcDbVisualStyle
  2
JitterOff
 70
    20
177
     3
291
     1
 70
    58
 90
        2
176
     0
 90
        2
176
     0
 90
        0
176
     0
 90
        0
176
     0
 40
0.6
176
     0
 40
30.0
176
     0
 62
     7
420
 16777215
176
     0
 90
        1
176
     0
 90
        4
176
     0
 62
     7
176
     0
 62
   257
176
     0
 90
        1
176
     0
 90
        1
176
     0
 40
1.0
176
     0
 90
       10
176
     2
 62
     7
176
     0
 40
1.0
176
     0
 90
        1
176
     0
 90
        6
176
     0
 90
        2
176
     0
 62
     7
176
     0
 90
        5
176
     0
 90
        0
176
     0
 90
        0
176
     0
290
     0
176
     0
 90
        1
176
     0
 40
0.0
176
     0
 90
        0
176
     0
290
     0
176
     0
290
     1
176
     0
290
     1
176
     0
290
     0
176
     0
290
     0
176
     0
290
     0
176
     0
290
     0
176
     0
290
     0
176
     0
290
     0
176
     0
 90
       50
176
     0
 40
0.0
176
     0
 40
1.0
176
     0
 90
        0
176
     0
 62
    18
420
        0
176
     0
 90
       50
176
     0
 90
        3
176
     0
 62
     5
420
      255
176
     0
290
     0
176
     0
 90
       50
176
     0
 90
       50
176
     0
 90
       50
176
     0
290
     0
176
     0
 90
       50
176
     0
 62
   256
176
     0
 40
1.0
176
     0
 90
        2
176
     0
  1
strokes_ogs.tif
176
     0
290
     0
176
     0
 40
1.0
176
     0
 40
1.0
176
     0
  0
VISUALSTYLE
  5
38
102
{ACAD_REACTORS
330
2A
102
}
330
2A
100
AcDbVisualStyle
  2
Linepattern
 70
    14
177
     3
291
     1
 70
    58
 90
        2
176
     1
 90
        2
176
     1
 90
        0
176
     1
 90
        0
176
     1
 40
0.6
176
     1
 40
30.0
176
     1
 62
     7
420
 16777215
176
     1
 90
        1
176
     1
 90
        4
176
     1
 62
     7
176
     1
 62
   257
176
     1
 90
        7
176
     1
 90
        7
176
     1
 40
1.0
176
     1
 90
        8
176
     1
 62
     7
176
     1
 40
1.0
176
     1
 90
        1
176
     1
 90
        6
176
     1
 90
        2
176
     1
 62
     7
176
     1
 90
        5
176
     1
 90
        0
176
     1
 90
        0
176
     1
290
     0
176
     1
 90
        1
176
     1
 40
0.0
176
     1
 90
        0
176
     1
290
     0
176
     1
290
     1
176
     1
290
     1
176
     1
290
     0
176
     1
290
     0
176
     1
290
     0
176
     1
290
     0
176
     1
290
     0
176
     1
290
     0
176
     1
 90
       50
176
     1
 40
0.0
176
     1
 40
1.0
176
     1
 90
        0
176
     1
 62
    18
420
        0
176
     1
 90
       50
176
     1
 90
        3
176
     1
 62
     5
420
      255
176
     1
290
     0
176
     1
 90
       50
176
     1
 90
       50
176
     1
 90
       50
176
     1
290
     0
176
     1
 90
       50
176
     1
 62
   256
176
     0
 40
1.0
176
     0
 90
        2
176
     1
  1
strokes_ogs.tif
176
     1
290
     0
176
     1
 40
1.0
176
     1
 40
1.0
176
     1
  0
VISUALSTYLE
  5
3C
102
{ACAD_REACTORS
330
2A
102
}
330
2A
100
AcDbVisualStyle
  2
OverhangOff
 70
    21
177
     3
291
     1
 70
    58
 90
        2
176
     0
 90
        2
176
     0
 90
        0
176
     0
 90
        0
176
     0
 40
0.6
176
     0
 40
30.0
176
     0
 62
     7
420
 16777215
176
     0
 90
        1
176
     0
 90
        4
176
     0
 62
     7
176
     0
 62
   257
176
     0
 90
        1
176
     0
 90
        1
176
     0
 40
1.0
176
     0
 90
        9
176
     2
 62
     7
176
     0
 40
1.0
176
     0
 90
        1
176
     0
 90
        6
176
     0
 90
        2
176
     0
 62
     7
176
     0
 90
        5
176
     0
 90
        0
176
     0
 90
        0
176
     0
290
     0
176
     0
 90
        1
176
     0
 40
0.0
176
     0
 90
        0
176
     0
290
     0
176
     0
290
     1
176
     0
290
     1
176
     0
290
     0
176
     0
290
     0
176
     0
290
     0
176
     0
290
     0
176
     0
290
     0
176
     0
290
     0
176
     0
 90
       50
176
     0
 40
0.0
176
     0
 40
1.0
176
     0
 90
        0
176
     0
 62
    18
420
        0
176
     0
 90
       50
176
     0
 90
        3
176
     0
 62
     5
420
      255
176
     0
290
     0
176
     0
 90
       50
176
     0
 90
       50
176
     0
 90
       50
176
     0
290
     0
176
     0
 90
       50
176
     0
 62
   256
176
     0
 40
1.0
176
     0
 90
        2
176
     0
  1
strokes_ogs.tif
176
     0
290
     0
176
     0
 40
1.0
176
     0
 40
1.0
176
     0
  0
VISUALSTYLE
  5
33
102
{ACAD_REACTORS
330
2A
102
}
330
2A
100
AcDbVisualStyle
  2
Realistic
 70
     8
177
     3
291
     0
 70
    58
 90
        2
176
     1
 90
        3
176
     1
 90
        0
176
     1
 90
        2
176
     1
 40
0.6
176
     1
 40
30.0
176
     1
 62
     7
420
 16777215
176
     1
 90
        0
176
     1
 90
        0
176
     1
 62
     7
176
     1
 62
   257
176
     1
 90
        1
176
     1
 90
        1
176
     1
 40
1.0
176
     1
 90
        8
176
     1
 62
   257
176
     1
 40
1.0
176
     1
 90
        1
176
     1
 90
        6
176
     1
 90
        2
176
     1
 62
     7
176
     1
 90
        3
176
     1
 90
        0
176
     1
 90
        0
176
     1
290
     0
176
     1
 90
       13
176
     1
 40
0.0
176
     1
 90
        0
176
     1
290
     0
176
     1
290
     1
176
     1
290
     1
176
     1
290
     0
176
     1
290
     0
176
     1
290
     0
176
     1
290
     0
176
     1
290
     0
176
     1
290
     0
176
     1
 90
       50
176
     1
 40
0.0
176
     1
 40
1.0
176
     1
 90
        0
176
     1
 62
    18
420
        0
176
     1
 90
       50
176
     1
 90
        3
176
     1
 62
     5
420
      255
176
     1
290
     0
176
     1
 90
       50
176
     1
 90
       50
176
     1
 90
       50
176
     1
290
     0
176
     1
 90
       50
176
     1
 62
   256
176
     0
 40
1.0
176
     0
 90
        2
176
     1
  1
strokes_ogs.tif
176
     1
290
     0
176
     1
 40
1.0
176
     1
 40
1.0
176
     1
  0
VISUALSTYLE
  5
42
102
{ACAD_REACTORS
330
2A
102
}
330
2A
100
AcDbVisualStyle
  2
Shaded
 70
    27
177
     3
291
     0
 70
    58
 90
        2
176
     1
 90
        2
176
     1
 90
        1
176
     1
 90
        2
176
     1
 40
0.6
176
     1
 40
30.0
176
     1
 62
     7
420
 16777215
176
     1
 90
        0
176
     1
 90
        4
176
     1
 62
     7
176
     1
 62
   257
176
     1
 90
        1
176
     1
 90
        1
176
     1
 40
1.0
176
     1
 90
        8
176
     1
 62
   257
176
     1
 40
1.0
176
     1
 90
        1
176
     1
 90
        6
176
     1
 90
        2
176
     1
 62
     8
420
  7895160
176
     1
 90
        3
176
     1
 90
        0
176
     1
 90
        0
176
     1
290
     0
176
     1
 90
        5
176
     1
 40
0.0
176
     1
 90
        0
176
     1
290
     0
176
     1
290
     1
176
     1
290
     1
176
     1
290
     0
176
     1
290
     0
176
     1
290
     0
176
     1
290
     0
176
     1
290
     0
176
     1
290
     0
176
     1
 90
       50
176
     1
 40
0.0
176
     1
 40
1.0
176
     1
 90
        0
176
     1
 62
    18
420
        0
176
     1
 90
       50
176
     1
 90
        3
176
     1
 62
     5
420
      255
176
     1
290
     0
176
     1
 90
       50
176
     1
 90
       50
176
     1
 90
       50
176
     1
290
     0
176
     1
 90
       50
176
     1
 62
   256
176
     0
 40
1.0
176
     0
 90
        2
176
     1
  1
strokes_ogs.tif
176
     1
290
     0
176
     1
 40
1.0
176
     1
 40
1.0
176
     1
  0
VISUALSTYLE
  5
41
102
{ACAD_REACTORS
330
2A
102
}
330
2A
100
AcDbVisualStyle
  2
Shaded with edges
 70
    26
177
     3
291
     0
 70
    58
 90
        2
176
     1
 90
        2
176
     1
 90
        1
176
     1
 90
        2
176
     1
 40
0.6
176
     1
 40
30.0
176
     1
 62
     7
420
 16777215
176
     1
 90
        1
176
     1
 90
       10
176
     1
 62
     7
176
     1
 62
   257
176
     1
 90
        2
176
     1
 90
        1
176
     1
 40
1.0
176
     1
 90
        8
176
     1
 62
   257
176
     1
 40
1.0
176
     1
 90
        1
176
     1
 90
        6
176
     1
 90
        2
176
     1
 62
     7
176
     1
 90
        3
176
     1
 90
        0
176
     1
 90
        0
176
     1
290
     0
176
     1
 90
        5
176
     1
 40
0.0
176
     1
 90
        0
176
     1
290
     0
176
     1
290
     1
176
     1
290
     1
176
     1
290
     0
176
     1
290
     0
176
     1
290
     0
176
     1
290
     0
176
     1
290
     0
176
     1
290
     0
176
     1
 90
       50
176
     1
 40
0.0
176
     1
 40
1.0
176
     1
 90
        0
176
     1
 62
    18
420
        0
176
     1
 90
       50
176
     1
 90
        3
176
     1
 62
     5
420
      255
176
     1
290
     0
176
     1
 90
       50
176
     1
 90
       50
176
     1
 90
       50
176
     1
290
     0
176
     1
 90
       50
176
     1
 62
   256
176
     0
 40
1.0
176
     0
 90
        2
176
     1
  1
strokes_ogs.tif
176
     1
290
     0
176
     1
 40
1.0
176
     1
 40
1.0
176
     1
  0
VISUALSTYLE
  5
3E
102
{ACAD_REACTORS
330
2A
102
}
330
2A
100
AcDbVisualStyle
  2
Shades of Gray
 70
    23
177
     3
291
     0
 70
    58
 90
        2
176
     1
 90
        2
176
     1
 90
        3
176
     1
 90
        0
176
     1
 40
0.6
176
     1
 40
30.0
176
     1
 62
     7
420
 16777215
176
     1
 90
        2
176
     1
 90
        2
176
     1
 62
     7
176
     1
 62
     7
176
     1
 90
        1
176
     1
 90
        1
176
     1
 40
40.0
176
     1
 90
        8
176
     1
 62
     7
176
     1
 40
1.0
176
     1
 90
        1
176
     1
 90
        6
176
     1
 90
        2
176
     1
 62
     7
176
     1
 90
        3
176
     1
 90
        0
176
     1
 90
        0
176
     1
290
     0
176
     1
 90
        1
176
     1
 40
0.0
176
     1
 90
        0
176
     1
290
     0
176
     1
290
     1
176
     1
290
     1
176
     1
290
     0
176
     1
290
     0
176
     1
290
     0
176
     1
290
     0
176
     1
290
     0
176
     1
290
     0
176
     1
 90
       50
176
     1
 40
0.0
176
     1
 40
1.0
176
     1
 90
        0
176
     1
 62
    18
420
        0
176
     1
 90
       50
176
     1
 90
        3
176
     1
 62
     5
420
      255
176
     1
290
     0
176
     1
 90
       50
176
     1
 90
       50
176
     1
 90
       50
176
     1
290
     0
176
     1
 90
       50
176
     1
 62
   256
176
     0
 40
1.0
176
     0
 90
        2
176
     1
  1
strokes_ogs.tif
176
     1
290
     0
176
     1
 40
1.0
176
     1
 40
1.0
176
     1
  0
VISUALSTYLE
  5
3F
102
{ACAD_REACTORS
330
2A
102
}
330
2A
100
AcDbVisualStyle
  2
Sketchy
 70
    24
177
     3
291
     0
 70
    58
 90
        1
176
     1
 90
        2
176
     1
 90
        2
176
     1
 90
        0
176
     1
 40
0.6
176
     1
 40
30.0
176
     1
 62
     7
420
 16777215
176
     1
 90
        2
176
     1
 90
        2
176
     1
 62
     7
176
     1
 62
     7
176
     1
 90
        1
176
     1
 90
        1
176
     1
 40
40.0
176
     1
 90
       11
176
     1
 62
     7
176
     1
 40
1.0
176
     1
 90
        1
176
     1
 90
        6
176
     1
 90
        2
176
     1
 62
     7
176
     1
 90
        6
176
     1
 90
        0
176
     1
 90
        0
176
     1
290
     0
176
     1
 90
        1
176
     1
 40
0.0
176
     1
 90
        0
176
     1
290
     0
176
     1
290
     1
176
     1
290
     1
176
     1
290
     0
176
     1
290
     0
176
     1
290
     0
176
     1
290
     0
176
     1
290
     0
176
     1
290
     0
176
     1
 90
       50
176
     1
 40
0.0
176
     1
 40
1.0
176
     1
 90
        0
176
     1
 62
    18
420
        0
176
     1
 90
       50
176
     1
 90
        3
176
     1
 62
     5
420
      255
176
     1
290
     0
176
     1
 90
       50
176
     1
 90
       50
176
     1
 90
       50
176
     1
290
     0
176
     1
 90
       50
176
     1
 62
   256
176
     0
 40
1.0
176
     0
 90
        2
176
     1
  1
strokes_ogs.tif
176
     1
290
     0
176
     1
 40
1.0
176
     1
 40
1.0
176
     1
  0
VISUALSTYLE
  5
37
102
{ACAD_REACTORS
330
2A
102
}
330
2A
100
AcDbVisualStyle
  2
Thicken
 70
    13
177
     3
291
     1
 70
    58
 90
        2
176
     1
 90
        2
176
     1
 90
        0
176
     1
 90
        0
176
     1
 40
0.6
176
     1
 40
30.0
176
     1
 62
     7
420
 16777215
176
     1
 90
        1
176
     1
 90
        4
176
     1
 62
     7
176
     1
 62
   257
176
     1
 90
        1
176
     1
 90
        1
176
     1
 40
1.0
176
     1
 90
       12
176
     1
 62
     7
176
     1
 40
1.0
176
     1
 90
        1
176
     1
 90
        6
176
     1
 90
        2
176
     1
 62
     7
176
     1
 90
        5
176
     1
 90
        0
176
     1
 90
        0
176
     1
290
     0
176
     1
 90
        1
176
     1
 40
0.0
176
     1
 90
        0
176
     1
290
     0
176
     1
290
     1
176
     1
290
     1
176
     1
290
     0
176
     1
290
     0
176
     1
290
     0
176
     1
290
     0
176
     1
290
     0
176
     1
290
     0
176
     1
 90
       50
176
     1
 40
0.0
176
     1
 40
1.0
176
     1
 90
        0
176
     1
 62
    18
420
        0
176
     1
 90
       50
176
     1
 90
        3
176
     1
 62
     5
420
      255
176
     1
290
     0
176
     1
 90
       50
176
     1
 90
       50
176
     1
 90
       50
176
     1
290
     0
176
     1
 90
       50
176
     1
 62
   256
176
     0
 40
1.0
176
     0
 90
        2
176
     1
  1
strokes_ogs.tif
176
     1
290
     0
176
     1
 40
1.0
176
     1
 40
1.0
176
     1
  0
VISUALSTYLE
  5
30
102
{ACAD_REACTORS
330
2A
102
}
330
2A
100
AcDbVisualStyle
  2
Wireframe
 70
     5
177
     3
291
     0
 70
    58
 90
        0
176
     1
 90
        2
176
     1
 90
        0
176
     1
 90
        0
176
     1
 40
0.6
176
     1
 40
30.0
176
     1
 62
     7
420
 16777215
176
     1
 90
        1
176
     1
 90
        4
176
     1
 62
     7
176
     1
 62
   257
176
     1
 90
        1
176
     1
 90
        1
176
     1
 40
1.0
176
     1
 90
        0
176
     1
 62
   257
176
     1
 40
1.0
176
     1
 90
        1
176
     1
 90
        6
176
     1
 90
        2
176
     1
 62
     7
176
     1
 90
        3
176
     1
 90
        0
176
     1
 90
        0
176
     1
290
     0
176
     1
 90
        1
176
     1
 40
0.0
176
     1
 90
        0
176
     1
290
     0
176
     1
290
     1
176
     1
290
     1
176
     1
290
     0
176
     1
290
     0
176
     1
290
     0
176
     1
290
     0
176
     1
290
     0
176
     1
290
     0
176
     1
 90
       50
176
     1
 40
0.0
176
     1
 40
1.0
176
     1
 90
        0
176
     1
 62
    18
420
        0
176
     1
 90
       50
176
     1
 90
        3
176
     1
 62
     5
420
      255
176
     1
290
     0
176
     1
 90
       50
176
     1
 90
       50
176
     1
 90
       50
176
     1
290
     0
176
     1
 90
       50
176
     1
 62
   256
176
     0
 40
1.0
176
     0
 90
        2
176
     1
  1
strokes_ogs.tif
176
     1
290
     0
176
     1
 40
1.0
176
     1
 40
1.0
176
     1
  0
VISUALSTYLE
  5
40
102
{ACAD_REACTORS
330
2A
102
}
330
2A
100
AcDbVisualStyle
  2
X-Ray
 70
    25
177
     3
291
     0
 70
    58
 90
        2
176
     1
 90
        2
176
     1
 90
        1
176
     1
 90
        1
176
     1
 40
0.5
176
     1
 40
30.0
176
     1
 62
     7
420
 16777215
176
     1
 90
        1
176
     1
 90
        0
176
     1
 62
     7
176
     1
 62
   257
176
     1
 90
        1
176
     1
 90
        1
176
     1
 40
1.0
176
     1
 90
        8
176
     1
 62
     7
176
     1
 40
1.0
176
     1
 90
        1
176
     1
 90
        6
176
     1
 90
        2
176
     1
 62
     7
176
     1
 90
        3
176
     1
 90
        0
176
     1
 90
        0
176
     1
290
     0
176
     1
 90
       13
176
     1
 40
0.0
176
     1
 90
        0
176
     1
290
     0
176
     1
290
     1
176
     1
290
     1
176
     1
290
     0
176
     1
290
     0
176
     1
290
     0
176
     1
290
     0
176
     1
290
     0
176
     1
290
     0
176
     1
 90
       50
176
     1
 40
0.0
176
     1
 40
1.0
176
     1
 90
        0
176
     1
 62
    18
420
        0
176
     1
 90
       50
176
     1
 90
        3
176
     1
 62
     5
420
      255
176
     1
290
     0
176
     1
 90
       50
176
     1
 90
       50
176
     1
 90
       50
176
     1
290
     0
176
     1
 90
       50
176
     1
 62
   256
176
     0
 40
1.0
176
     0
 90
        2
176
     1
  1
strokes_ogs.tif
176
     1
290
     0
176
     1
 40
1.0
176
     1
 40
1.0
176
     1
  0
DICTIONARYVAR
  5
22F
102
{ACAD_REACTORS
330
22E
102
}
330
22E
100
DictionaryVariables
280
     0
  1
1:1
  0
DICTIONARYVAR
  5
234
102
{ACAD_REACTORS
330
22E
102
}
330
22E
100
DictionaryVariables
280
     0
  1
Standard
  0
DICTIONARYVAR
  5
233
102
{ACAD_REACTORS
330
22E
102
}
330
22E
100
DictionaryVariables
280
     0
  1
Standard
  0
DICTIONARY
  5
230
330
6A
100
AcDbDictionary
280
     1
281
     1
  3
ACAD_ROUNDTRIP_2008_TABLESTYLE_CELLSTYLEMAP
360
231
  0
CELLSTYLEMAP
  5
231
102
{ACAD_REACTORS
330
230
102
}
330
230
100
AcDbCellStyleMap
 90
        3
300
CELLSTYLE
  1
TABLEFORMAT_BEGIN
 90
        5
170
     1
 91
        0
 92
    32768
 62
   257
 93
        1
300
CONTENTFORMAT
  1
CONTENTFORMAT_BEGIN
 90
        0
 91
        0
 92
        4
 93
        0
300

 40
0.0
140
1.0
 94
        5
 62
     0
340
11
144
6.0
309
CONTENTFORMAT_END
171
     1
301
MARGIN
  1
CELLMARGIN_BEGIN
 40
1.5
 40
1.5
 40
1.5
 40
1.5
 40
1.5
 40
1.5
309
CELLMARGIN_END
 94
        6
 95
        1
302
GRIDFORMAT
  1
GRIDFORMAT_BEGIN
 90
        0
 91
        1
 62
     0
 92
       -2
340
14
 93
        0
 40
0.045
309
GRIDFORMAT_END
 95
        2
302
GRIDFORMAT
  1
GRIDFORMAT_BEGIN
 90
        0
 91
        1
 62
     0
 92
       -2
340
14
 93
        0
 40
0.045
309
GRIDFORMAT_END
 95
        4
302
GRIDFORMAT
  1
GRIDFORMAT_BEGIN
 90
        0
 91
        1
 62
     0
 92
       -2
340
14
 93
        0
 40
0.045
309
GRIDFORMAT_END
 95
        8
302
GRIDFORMAT
  1
GRIDFORMAT_BEGIN
 90
        0
 91
        1
 62
     0
 92
       -2
340
14
 93
        0
 40
0.045
309
GRIDFORMAT_END
 95
       16
302
GRIDFORMAT
  1
GRIDFORMAT_BEGIN
 90
        0
 91
        1
 62
     0
 92
       -2
340
14
 93
        0
 40
0.045
309
GRIDFORMAT_END
 95
       32
302
GRIDFORMAT
  1
GRIDFORMAT_BEGIN
 90
        0
 91
        1
 62
     0
 92
       -2
340
14
 93
        0
 40
0.045
309
GRIDFORMAT_END
309
TABLEFORMAT_END
  1
CELLSTYLE_BEGIN
 90
        1
 91
        1
300
_TITLE
309
CELLSTYLE_END
300
CELLSTYLE
  1
TABLEFORMAT_BEGIN
 90
        5
170
     1
 91
        0
 92
        0
 62
   257
 93
        1
300
CONTENTFORMAT
  1
CONTENTFORMAT_BEGIN
 90
        0
 91
        0
 92
        4
 93
        0
300

 40
0.0
140
1.0
 94
        5
 62
     0
340
11
144
4.5
309
CONTENTFORMAT_END
171
     1
301
MARGIN
  1
CELLMARGIN_BEGIN
 40
1.5
 40
1.5
 40
1.5
 40
1.5
 40
1.5
 40
1.5
309
CELLMARGIN_END
 94
        6
 95
        1
302
GRIDFORMAT
  1
GRIDFORMAT_BEGIN
 90
        0
 91
        1
 62
     0
 92
       -2
340
14
 93
        0
 40
0.045
309
GRIDFORMAT_END
 95
        2
302
GRIDFORMAT
  1
GRIDFORMAT_BEGIN
 90
        0
 91
        1
 62
     0
 92
       -2
340
14
 93
        0
 40
0.045
309
GRIDFORMAT_END
 95
        4
302
GRIDFORMAT
  1
GRIDFORMAT_BEGIN
 90
        0
 91
        1
 62
     0
 92
       -2
340
14
 93
        0
 40
0.045
309
GRIDFORMAT_END
 95
        8
302
GRIDFORMAT
  1
GRIDFORMAT_BEGIN
 90
        0
 91
        1
 62
     0
 92
       -2
340
14
 93
        0
 40
0.045
309
GRIDFORMAT_END
 95
       16
302
GRIDFORMAT
  1
GRIDFORMAT_BEGIN
 90
        0
 91
        1
 62
     0
 92
       -2
340
14
 93
        0
 40
0.045
309
GRIDFORMAT_END
 95
       32
302
GRIDFORMAT
  1
GRIDFORMAT_BEGIN
 90
        0
 91
        1
 62
     0
 92
       -2
340
14
 93
        0
 40
0.045
309
GRIDFORMAT_END
309
TABLEFORMAT_END
  1
CELLSTYLE_BEGIN
 90
        2
 91
        1
300
_HEADER
309
CELLSTYLE_END
300
CELLSTYLE
  1
TABLEFORMAT_BEGIN
 90
        5
170
     1
 91
        0
 92
        0
 62
   257
 93
        1
300
CONTENTFORMAT
  1
CONTENTFORMAT_BEGIN
 90
        0
 91
        0
 92
        4
 93
        0
300

 40
0.0
140
1.0
 94
        2
 62
     0
340
11
144
4.5
309
CONTENTFORMAT_END
171
     1
301
MARGIN
  1
CELLMARGIN_BEGIN
 40
1.5
 40
1.5
 40
1.5
 40
1.5
 40
1.5
 40
1.5
309
CELLMARGIN_END
 94
        6
 95
        1
302
GRIDFORMAT
  1
GRIDFORMAT_BEGIN
 90
        0
 91
        1
 62
     0
 92
       -2
340
14
 93
        0
 40
0.045
309
GRIDFORMAT_END
 95
        2
302
GRIDFORMAT
  1
GRIDFORMAT_BEGIN
 90
        0
 91
        1
 62
     0
 92
       -2
340
14
 93
        0
 40
0.045
309
GRIDFORMAT_END
 95
        4
302
GRIDFORMAT
  1
GRIDFORMAT_BEGIN
 90
        0
 91
        1
 62
     0
 92
       -2
340
14
 93
        0
 40
0.045
309
GRIDFORMAT_END
 95
        8
302
GRIDFORMAT
  1
GRIDFORMAT_BEGIN
 90
        0
 91
        1
 62
     0
 92
       -2
340
14
 93
        0
 40
0.045
309
GRIDFORMAT_END
 95
       16
302
GRIDFORMAT
  1
GRIDFORMAT_BEGIN
 90
        0
 91
        1
 62
     0
 92
       -2
340
14
 93
        0
 40
0.045
309
GRIDFORMAT_END
 95
       32
302
GRIDFORMAT
  1
GRIDFORMAT_BEGIN
 90
        0
 91
        1
 62
     0
 92
       -2
340
14
 93
        0
 40
0.045
309
GRIDFORMAT_END
309
TABLEFORMAT_END
  1
CELLSTYLE_BEGIN
 90
        3
 91
        2
300
_DATA
309
CELLSTYLE_END
  0
ENDSEC
  0
EOF