0
SECTION
  2
HEADER
  9
$ACADVER
  1
AC1027
  9
$ACADMAINTVER
 70
     8
  9
$DWGCODEPAGE
  3
ANSI_1252
  9
$REQUIREDVERSIONS
160
                 0
  9
$COMMENTS
  1
File was created by Cadenas
  9
$CUSTOMPROPERTYTAG
  1
NN
  9
$CUSTOMPROPERTY
  1
Grip Tight Medium Duty Narrow Slot Take Up Metric Bore
  9
$CUSTOMPROPERTYTAG
  1
NT
  9
$CUSTOMPROPERTY
  1
GTM Normal Duty Narrow Slot Take-Up Bearings
  9
$CUSTOMPROPERTYTAG
  1
NB
  9
$CUSTOMPROPERTY
  1
136297
  9
$CUSTOMPROPERTYTAG
  1
NBSYN
  9
$CUSTOMPROPERTY
  1
$PN.
  9
$CUSTOMPROPERTYTAG
  1
LINA
  9
$CUSTOMPROPERTY
  1
136297
  9
$CUSTOMPROPERTYTAG
  1
SERIES
  9
$CUSTOMPROPERTY
  1
207
  9
$CUSTOMPROPERTYTAG
  1
SS
  9
$CUSTOMPROPERTY
  1
30
  9
$CUSTOMPROPERTYTAG
  1
PN
  9
$CUSTOMPROPERTY
  1
136297
  9
$CUSTOMPROPERTYTAG
  1
DESCRIPTION
  9
$CUSTOMPROPERTY
  1
NSTU-GTM-30M
  9
$CUSTOMPROPERTYTAG
  1
PNSL
  9
$CUSTOMPROPERTY
  1
136213
  9
$CUSTOMPROPERTYTAG
  1
DESCRIPTIONSL
  9
$CUSTOMPROPERTY
  1
NSTU-GT-07
  9
$CUSTOMPROPERTYTAG
  1
PNA
  9
$CUSTOMPROPERTY
  1
136562
  9
$CUSTOMPROPERTYTAG
  1
DESCRIPTIONA
  9
$CUSTOMPROPERTY
  1
AN-GTM-07-30M-D
  9
$CUSTOMPROPERTYTAG
  1
W
  9
$CUSTOMPROPERTY
  1
1.2
  9
$CUSTOMPROPERTYTAG
  1
TUFS
  9
$CUSTOMPROPERTY
  1
NS308
  9
$CUSTOMPROPERTYTAG
  1
A
  9
$CUSTOMPROPERTY
  1
41.1
  9
$CUSTOMPROPERTYTAG
  1
B
  9
$CUSTOMPROPERTY
  1
114.3
  9
$CUSTOMPROPERTYTAG
  1
C
  9
$CUSTOMPROPERTY
  1
6.35
  9
$CUSTOMPROPERTYTAG
  1
D
  9
$CUSTOMPROPERTY
  1
63.5
  9
$CUSTOMPROPERTYTAG
  1
E
  9
$CUSTOMPROPERTY
  1
68.3
  9
$CUSTOMPROPERTYTAG
  1
F
  9
$CUSTOMPROPERTY
  1
19.1
  9
$CUSTOMPROPERTYTAG
  1
G
  9
$CUSTOMPROPERTY
  1
12.7
  9
$CUSTOMPROPERTYTAG
  1
H
  9
$CUSTOMPROPERTY
  1
23.9
  9
$CUSTOMPROPERTYTAG
  1
J
  9
$CUSTOMPROPERTY
  1
35.1
  9
$CUSTOMPROPERTYTAG
  1
L
  9
$CUSTOMPROPERTY
  1
60.5
  9
$CUSTOMPROPERTYTAG
  1
M
  9
$CUSTOMPROPERTY
  1
89.15/88.39
  9
$CUSTOMPROPERTYTAG
  1
N
  9
$CUSTOMPROPERTY
  1
104.9
  9
$CUSTOMPROPERTYTAG
  1
P
  9
$CUSTOMPROPERTY
  1
8.1
  9
$CUSTOMPROPERTYTAG
  1
R
  9
$CUSTOMPROPERTY
  1
13.7
  9
$CUSTOMPROPERTYTAG
  1
S
  9
$CUSTOMPROPERTY
  1
27.4
  9
$CUSTOMPROPERTYTAG
  1
Z
  9
$CUSTOMPROPERTY
  1
29.0
  9
$CUSTOMPROPERTYTAG
  1
CAPS
  9
$CUSTOMPROPERTY
  1
3065
  9
$CUSTOMPROPERTYTAG
  1
CAPD
  9
$CUSTOMPROPERTY
  1
5759
  9
$CUSTOMPROPERTYTAG
  1
COMPANY
  9
$CUSTOMPROPERTY
  1
baldor
  9
$INSBASE
 10
0.0
 20
0.0
 30
0.0
  9
$EXTMIN
 10
1.000000000000000E+20
 20
1.000000000000000E+20
 30
1.000000000000000E+20
  9
$EXTMAX
 10
-1.000000000000000E+20
 20
-1.000000000000000E+20
 30
-1.000000000000000E+20
  9
$LIMMIN
 10
0.0
 20
0.0
  9
$LIMMAX
 10
420.0
 20
297.0
  9
$ORTHOMODE
 70
     0
  9
$REGENMODE
 70
     1
  9
$FILLMODE
 70
     1
  9
$QTEXTMODE
 70
     0
  9
$MIRRTEXT
 70
     1
  9
$LTSCALE
 40
1.0
  9
$ATTMODE
 70
     1
  9
$TEXTSIZE
 40
2.5
  9
$TRACEWID
 40
1.0
  9
$TEXTSTYLE
  7
Standard
  9
$CLAYER
  8
0
  9
$CELTYPE
  6
ByLayer
  9
$CECOLOR
 62
   256
  9
$CELTSCALE
 40
1.0
  9
$DISPSILH
 70
     0
  9
$DIMSCALE
 40
1.0
  9
$DIMASZ
 40
2.5
  9
$DIMEXO
 40
0.625
  9
$DIMDLI
 40
3.75
  9
$DIMRND
 40
0.0
  9
$DIMDLE
 40
0.0
  9
$DIMEXE
 40
1.25
  9
$DIMTP
 40
0.0
  9
$DIMTM
 40
0.0
  9
$DIMTXT
 40
2.5
  9
$DIMCEN
 40
2.5
  9
$DIMTSZ
 40
0.0
  9
$DIMTOL
 70
     0
  9
$DIMLIM
 70
     0
  9
$DIMTIH
 70
     0
  9
$DIMTOH
 70
     0
  9
$DIMSE1
 70
     0
  9
$DIMSE2
 70
     0
  9
$DIMTAD
 70
     1
  9
$DIMZIN
 70
     8
  9
$DIMBLK
  1

  9
$DIMASO
 70
     1
  9
$DIMSHO
 70
     1
  9
$DIMPOST
  1

  9
$DIMAPOST
  1

  9
$DIMALT
 70
     0
  9
$DIMALTD
 70
     3
  9
$DIMALTF
 40
0.03937007874016
  9
$DIMLFAC
 40
1.0
  9
$DIMTOFL
 70
     1
  9
$DIMTVP
 40
0.0
  9
$DIMTIX
 70
     0
  9
$DIMSOXD
 70
     0
  9
$DIMSAH
 70
     0
  9
$DIMBLK1
  1

  9
$DIMBLK2
  1

  9
$DIMSTYLE
  2
ISO-25
  9
$DIMCLRD
 70
     0
  9
$DIMCLRE
 70
     0
  9
$DIMCLRT
 70
     0
  9
$DIMTFAC
 40
1.0
  9
$DIMGAP
 40
0.625
  9
$DIMJUST
 70
     0
  9
$DIMSD1
 70
     0
  9
$DIMSD2
 70
     0
  9
$DIMTOLJ
 70
     0
  9
$DIMTZIN
 70
     8
  9
$DIMALTZ
 70
     0
  9
$DIMALTTZ
 70
     0
  9
$DIMUPT
 70
     0
  9
$DIMDEC
 70
     2
  9
$DIMTDEC
 70
     2
  9
$DIMALTU
 70
     2
  9
$DIMALTTD
 70
     3
  9
$DIMTXSTY
  7
Standard
  9
$DIMAUNIT
 70
     0
  9
$DIMADEC
 70
     0
  9
$DIMALTRND
 40
0.0
  9
$DIMAZIN
 70
     0
  9
$DIMDSEP
 70
    44
  9
$DIMATFIT
 70
     3
  9
$DIMFRAC
 70
     0
  9
$DIMLDRBLK
  1

  9
$DIMLUNIT
 70
     2
  9
$DIMLWD
 70
    -2
  9
$DIMLWE
 70
    -2
  9
$DIMTMOVE
 70
     0
  9
$DIMFXL
 40
1.0
  9
$DIMFXLON
 70
     0
  9
$DIMJOGANG
 40
0.7853981633974483
  9
$DIMTFILL
 70
     0
  9
$DIMTFILLCLR
 70
     0
  9
$DIMARCSYM
 70
     0
  9
$DIMLTYPE
  6

  9
$DIMLTEX1
  6

  9
$DIMLTEX2
  6

  9
$DIMTXTDIRECTION
 70
     0
  9
$LUNITS
 70
     2
  9
$LUPREC
 70
     4
  9
$SKETCHINC
 40
1.0
  9
$FILLETRAD
 40
10.0
  9
$AUNITS
 70
     0
  9
$AUPREC
 70
     0
  9
$MENU
  1
.
  9
$ELEVATION
 40
0.0
  9
$PELEVATION
 40
0.0
  9
$THICKNESS
 40
0.0
  9
$LIMCHECK
 70
     0
  9
$CHAMFERA
 40
0.0
  9
$CHAMFERB
 40
0.0
  9
$CHAMFERC
 40
0.0
  9
$CHAMFERD
 40
0.0
  9
$SKPOLY
 70
     0
  9
$TDCREATE
 40
2458168.993620463
  9
$TDUCREATE
 40
2458168.951953796
  9
$TDUPDATE
 40
2458168.993620636
  9
$TDUUPDATE
 40
2458168.95195397
  9
$TDINDWG
 40
0.0000000116
  9
$TDUSRTIMER
 40
0.0000000116
  9
$USRTIMER
 70
     1
  9
$ANGBASE
 50
0.0
  9
$ANGDIR
 70
     0
  9
$PDMODE
 70
     0
  9
$PDSIZE
 40
0.0
  9
$PLINEWID
 40
0.0
  9
$SPLFRAME
 70
     0
  9
$SPLINETYPE
 70
     6
  9
$SPLINESEGS
 70
     8
  9
$HANDSEED
  5
246
  9
$SURFTAB1
 70
     6
  9
$SURFTAB2
 70
     6
  9
$SURFTYPE
 70
     6
  9
$SURFU
 70
     6
  9
$SURFV
 70
     6
  9
$UCSBASE
  2

  9
$UCSNAME
  2

  9
$UCSORG
 10
0.0
 20
0.0
 30
0.0
  9
$UCSXDIR
 10
1.0
 20
0.0
 30
0.0
  9
$UCSYDIR
 10
0.0
 20
1.0
 30
0.0
  9
$UCSORTHOREF
  2

  9
$UCSORTHOVIEW
 70
     0
  9
$UCSORGTOP
 10
0.0
 20
0.0
 30
0.0
  9
$UCSORGBOTTOM
 10
0.0
 20
0.0
 30
0.0
  9
$UCSORGLEFT
 10
0.0
 20
0.0
 30
0.0
  9
$UCSORGRIGHT
 10
0.0
 20
0.0
 30
0.0
  9
$UCSORGFRONT
 10
0.0
 20
0.0
 30
0.0
  9
$UCSORGBACK
 10
0.0
 20
0.0
 30
0.0
  9
$PUCSBASE
  2

  9
$PUCSNAME
  2

  9
$PUCSORG
 10
0.0
 20
0.0
 30
0.0
  9
$PUCSXDIR
 10
1.0
 20
0.0
 30
0.0
  9
$PUCSYDIR
 10
0.0
 20
1.0
 30
0.0
  9
$PUCSORTHOREF
  2

  9
$PUCSORTHOVIEW
 70
     0
  9
$PUCSORGTOP
 10
0.0
 20
0.0
 30
0.0
  9
$PUCSORGBOTTOM
 10
0.0
 20
0.0
 30
0.0
  9
$PUCSORGLEFT
 10
0.0
 20
0.0
 30
0.0
  9
$PUCSORGRIGHT
 10
0.0
 20
0.0
 30
0.0
  9
$PUCSORGFRONT
 10
0.0
 20
0.0
 30
0.0
  9
$PUCSORGBACK
 10
0.0
 20
0.0
 30
0.0
  9
$USERI1
 70
     0
  9
$USERI2
 70
     0
  9
$USERI3
 70
     0
  9
$USERI4
 70
     0
  9
$USERI5
 70
     0
  9
$USERR1
 40
0.0
  9
$USERR2
 40
0.0
  9
$USERR3
 40
0.0
  9
$USERR4
 40
0.0
  9
$USERR5
 40
0.0
  9
$WORLDVIEW
 70
     1
  9
$SHADEDGE
 70
     3
  9
$SHADEDIF
 70
    70
  9
$TILEMODE
 70
     1
  9
$MAXACTVP
 70
    64
  9
$PINSBASE
 10
0.0
 20
0.0
 30
0.0
  9
$PLIMCHECK
 70
     0
  9
$PEXTMIN
 10
1.000000000000000E+20
 20
1.000000000000000E+20
 30
1.000000000000000E+20
  9
$PEXTMAX
 10
-1.000000000000000E+20
 20
-1.000000000000000E+20
 30
-1.000000000000000E+20
  9
$PLIMMIN
 10
0.0
 20
0.0
  9
$PLIMMAX
 10
420.0
 20
297.0
  9
$UNITMODE
 70
     0
  9
$VISRETAIN
 70
     1
  9
$PLINEGEN
 70
     0
  9
$PSLTSCALE
 70
     1
  9
$TREEDEPTH
 70
  3020
  9
$CMLSTYLE
  2
Standard
  9
$CMLJUST
 70
     0
  9
$CMLSCALE
 40
20.0
  9
$PROXYGRAPHICS
 70
     1
  9
$MEASUREMENT
 70
     1
  9
$CELWEIGHT
370
    -1
  9
$ENDCAPS
280
     0
  9
$JOINSTYLE
280
     0
  9
$LWDISPLAY
290
     0
  9
$INSUNITS
 70
     4
  9
$HYPERLINKBASE
  1

  9
$STYLESHEET
  1

  9
$XEDIT
290
     1
  9
$CEPSNTYPE
380
     0
  9
$PSTYLEMODE
290
     1
  9
$FINGERPRINTGUID
  2
{829EC90B-68CB-4E03-B3EB-0D83299A2FA5}
  9
$VERSIONGUID
  2
{FAEB1C32-E019-11D5-929B-00C0DF256EC4}
  9
$EXTNAMES
290
     1
  9
$PSVPSCALE
 40
0.0
  9
$OLESTARTUP
290
     0
  9
$SORTENTS
280
   127
  9
$INDEXCTL
280
     0
  9
$HIDETEXT
280
     1
  9
$XCLIPFRAME
280
     2
  9
$HALOGAP
280
     0
  9
$OBSCOLOR
 70
   257
  9
$OBSLTYPE
280
     0
  9
$INTERSECTIONDISPLAY
280
     0
  9
$INTERSECTIONCOLOR
 70
   257
  9
$DIMASSOC
280
     2
  9
$PROJECTNAME
  1

  9
$CAMERADISPLAY
290
     0
  9
$LENSLENGTH
 40
50.0
  9
$CAMERAHEIGHT
 40
0.0
  9
$STEPSPERSEC
 40
2.0
  9
$STEPSIZE
 40
6.0
  9
$3DDWFPREC
 40
2.0
  9
$PSOLWIDTH
 40
5.0
  9
$PSOLHEIGHT
 40
80.0
  9
$LOFTANG1
 40
1.570796326794897
  9
$LOFTANG2
 40
1.570796326794897
  9
$LOFTMAG1
 40
0.0
  9
$LOFTMAG2
 40
0.0
  9
$LOFTPARAM
 70
     7
  9
$LOFTNORMALS
280
     1
  9
$LATITUDE
 40
37.795
  9
$LONGITUDE
 40
-122.394
  9
$NORTHDIRECTION
 40
0.0
  9
$TIMEZONE
 70
 -8000
  9
$LIGHTGLYPHDISPLAY
280
     1
  9
$TILEMODELIGHTSYNCH
280
     1
  9
$CMATERIAL
347
44
  9
$SOLIDHIST
280
     0
  9
$SHOWHIST
280
     1
  9
$DWFFRAME
280
     2
  9
$DGNFRAME
280
     2
  9
$REALWORLDSCALE
290
     1
  9
$INTERFERECOLOR
 62
   256
  9
$CSHADOW
280
     0
  9
$SHADOWPLANELOCATION
 40
0.0
  0
ENDSEC
  0
SECTION
  2
CLASSES
  0
CLASS
  1
ACDBDICTIONARYWDFLT
  2
AcDbDictionaryWithDefault
  3
ObjectDBX Classes
 90
        0
 91
        4
280
     0
281
     0
  0
CLASS
  1
VISUALSTYLE
  2
AcDbVisualStyle
  3
ObjectDBX Classes
 90
     4095
 91
        4
280
     0
281
     0
  0
CLASS
  1
MATERIAL
  2
AcDbMaterial
  3
ObjectDBX Classes
 90
     1153
 91
        4
280
     0
281
     0
  0
CLASS
  1
SCALE
  2
AcDbScale
  3
ObjectDBX Classes
 90
     1153
 91
        4
280
     0
281
     0
  0
CLASS
  1
TABLESTYLE
  2
AcDbTableStyle
  3
ObjectDBX Classes
 90
     4095
 91
        4
280
     0
281
     0
  0
CLASS
  1
MLEADERSTYLE
  2
AcDbMLeaderStyle
  3
ACDB_MLEADERSTYLE_CLASS
 90
     4095
 91
        4
280
     0
281
     0
  0
CLASS
  1
SUN
  2
AcDbSun
  3
SCENEOE
 90
     1153
 91
        4
280
     0
281
     0
  0
CLASS
  1
DICTIONARYVAR
  2
AcDbDictionaryVar
  3
ObjectDBX Classes
 90
        0
 91
        4
280
     0
281
     0
  0
CLASS
  1
CELLSTYLEMAP
  2
AcDbCellStyleMap
  3
ObjectDBX Classes
 90
     1152
 91
        4
280
     0
281
     0
  0
ENDSEC
  0
SECTION
  2
TABLES
  0
TABLE
  2
VPORT
  5
8
330
0
100
AcDbSymbolTable
 70
     1
  0
VPORT
  5
29
330
8
100
AcDbSymbolTableRecord
100
AcDbViewportTableRecord
  2
*Active
 70
     0
 10
0.0
 20
0.0
 11
1.0
 21
1.0
 12
7.843287005638331
 22
-5.115000000000009
 13
0.0
 23
0.0
 14
10.0
 24
10.0
 15
10.0
 25
10.0
 16
0.0
 26
0.0
 36
1.0
 17
0.0
 27
0.0
 37
0.0
 40
49.81680000000004
 41
2.536638533757647
 42
50.0
 43
0.0
 44
0.0
 50
0.0
 51
0.0
 71
     0
 72
   100
 73
     1
 74
     3
 75
     0
 76
     0
 77
     0
 78
     0
281
     0
 65
     1
110
0.0
120
0.0
130
0.0
111
1.0
121
0.0
131
0.0
112
0.0
122
1.0
132
0.0
 79
     0
146
0.0
348
2F
 60
     3
 61
     5
292
     1
282
     1
141
0.0
142
0.0
 63
   250
361
6D
  0
ENDTAB
  0
TABLE
  2
LTYPE
  5
5
330
0
100
AcDbSymbolTable
 70
     3
  0
LTYPE
  5
14
330
5
100
AcDbSymbolTableRecord
100
AcDbLinetypeTableRecord
  2
ByBlock
 70
     0
  3

 72
    65
 73
     0
 40
0.0
  0
LTYPE
  5
15
330
5
100
AcDbSymbolTableRecord
100
AcDbLinetypeTableRecord
  2
ByLayer
 70
     0
  3

 72
    65
 73
     0
 40
0.0
  0
LTYPE
  5
16
330
5
100
AcDbSymbolTableRecord
100
AcDbLinetypeTableRecord
  2
Continuous
 70
     0
  3
Solid line
 72
    65
 73
     0
 40
0.0
  0
LTYPE
  5
A6
330
5
100
AcDbSymbolTableRecord
100
AcDbLinetypeTableRecord
  2
Dashed
 70
     0
  3

 72
    65
 73
     2
 40
2.0
 49
1.0
 74
     0
 49
-1.0
 74
     0
  0
LTYPE
  5
195
330
5
100
AcDbSymbolTableRecord
100
AcDbLinetypeTableRecord
  2
Center
 70
     0
  3

 72
    65
 73
     4
 40
1.5
 49
0.45
 74
     0
 49
-0.5
 74
     0
 49
0.05
 74
     0
 49
-0.5
 74
     0
  0
ENDTAB
  0
TABLE
  2
LAYER
  5
2
330
0
100
AcDbSymbolTable
 70
     7
  0
LAYER
  5
10
330
2
100
AcDbSymbolTableRecord
100
AcDbLayerTableRecord
  2
0
 70
     0
 62
     7
  6
Continuous
370
    -3
390
F
347
46
348
0
  0
LAYER
  5
72
330
2
100
AcDbSymbolTableRecord
100
AcDbLayerTableRecord
  2
AM_6
 70
     0
 62
    -2
  6
Continuous
370
    35
390
F
347
46
348
0
  0
LAYER
  5
A7
330
2
100
AcDbSymbolTableRecord
100
AcDbLayerTableRecord
  2
AM_9
 70
     0
 62
     6
  6
Dashed
370
    25
390
F
347
46
348
0
  0
LAYER
  5
EE
330
2
100
AcDbSymbolTableRecord
100
AcDbLayerTableRecord
  2
AM_4
 70
     0
 62
     7
  6
Continuous
370
    50
390
F
347
46
348
0
  0
LAYER
  5
196
330
2
100
AcDbSymbolTableRecord
100
AcDbLayerTableRecord
  2
AM_7
 70
     0
 62
     7
  6
Center
370
    25
390
F
347
46
348
0
  0
LAYER
  5
1BC
330
2
100
AcDbSymbolTableRecord
100
AcDbLayerTableRecord
  2
AM_5
 70
     0
 62
     3
  6
Continuous
370
    25
390
F
347
46
348
0
  0
LAYER
  5
235
330
2
100
AcDbSymbolTableRecord
100
AcDbLayerTableRecord
  2
ConnectionPoints
 70
     0
 62
     7
  6
Continuous
370
    50
390
F
347
46
348
0
  0
ENDTAB
  0
TABLE
  2
STYLE
  5
3
330
0
100
AcDbSymbolTable
 70
     1
  0
STYLE
  5
11
330
3
100
AcDbSymbolTableRecord
100
AcDbTextStyleTableRecord
  2
Standard
 70
     0
 40
0.0
 41
1.0
 50
0.0
 71
     0
 42
2.5
  3
txt
  4

  0
ENDTAB
  0
TABLE
  2
VIEW
  5
6
330
0
100
AcDbSymbolTable
 70
     0
  0
ENDTAB
  0
TABLE
  2
UCS
  5
7
330
0
100
AcDbSymbolTable
 70
     0
  0
ENDTAB
  0
TABLE
  2
APPID
  5
9
330
0
100
AcDbSymbolTable
 70
     1
  0
APPID
  5
12
330
9
100
AcDbSymbolTableRecord
100
AcDbRegAppTableRecord
  2
ACAD
 70
     0
  0
ENDTAB
  0
TABLE
  2
DIMSTYLE
  5
A
330
0
100
AcDbSymbolTable
 70
     1
100
AcDbDimStyleTable
  0
DIMSTYLE
105
27
330
A
100
AcDbSymbolTableRecord
100
AcDbDimStyleTableRecord
  2
ISO-25
 70
     0
 41
2.5
 42
0.625
 43
3.75
 44
1.25
 73
     0
 74
     0
 77
     1
 78
     8
140
2.5
141
2.5
143
0.03937007874016
147
0.625
171
     3
172
     1
178
     0
271
     2
272
     2
274
     3
278
    44
283
     0
284
     8
340
11
  0
ENDTAB
  0
TABLE
  2
BLOCK_RECORD
  5
1
330
0
100
AcDbSymbolTable
 70
     6
  0
BLOCK_RECORD
  5
1F
330
1
100
AcDbSymbolTableRecord
100
AcDbBlockTableRecord
  2
*Model_Space
340
22
 70
     0
280
     1
281
     0
  0
BLOCK_RECORD
  5
1B
330
1
100
AcDbSymbolTableRecord
100
AcDbBlockTableRecord
  2
*Paper_Space
340
1E
 70
     0
280
     1
281
     0
  0
BLOCK_RECORD
  5
23
330
1
100
AcDbSymbolTableRecord
100
AcDbBlockTableRecord
  2
*Paper_Space0
340
26
 70
     0
280
     1
281
     0
  0
BLOCK_RECORD
  5
6E
330
1
100
AcDbSymbolTableRecord
100
AcDbBlockTableRecord
  2
1_136297_4
340
0
102
{BLKREFS
331
6F
102
}
 70
     0
280
     1
281
     0
  0
BLOCK_RECORD
  5
95
330
1
100
AcDbSymbolTableRecord
100
AcDbBlockTableRecord
  2
2_405016_Metric_0_in_136297_4
340
0
102
{BLKREFS
331
96
102
}
 70
     0
280
     1
281
     0
  0
BLOCK_RECORD
  5
121
330
1
100
AcDbSymbolTableRecord
100
AcDbBlockTableRecord
  2
3_129520_0_in_136297_4
340
0
102
{BLKREFS
331
122
102
}
 70
     0
280
     1
281
     0
  0
BLOCK_RECORD
  5
166
330
1
100
AcDbSymbolTableRecord
100
AcDbBlockTableRecord
  2
4_136562i_0_in_136297_4
340
0
102
{BLKREFS
331
167
102
}
 70
     0
280
     1
281
     0
  0
BLOCK_RECORD
  5
1BE
330
1
100
AcDbSymbolTableRecord
100
AcDbBlockTableRecord
  2
5_136297h_0_in_136297_4
340
0
102
{BLKREFS
331
1BF
102
}
 70
     0
280
     1
281
     0
  0
ENDTAB
  0
ENDSEC
  0
SECTION
  2
BLOCKS
  0
BLOCK
  5
20
330
1F
100
AcDbEntity
  8
0
100
AcDbBlockBegin
  2
*Model_Space
 70
     0
 10
0.0
 20
0.0
 30
0.0
  3
*Model_Space
  1

  0
ENDBLK
  5
21
330
1F
100
AcDbEntity
  8
0
100
AcDbBlockEnd
  0
BLOCK
  5
1C
330
1B
100
AcDbEntity
 67
     1
  8
0
100
AcDbBlockBegin
  2
*Paper_Space
 70
     0
 10
0.0
 20
0.0
 30
0.0
  3
*Paper_Space
  1

  0
ENDBLK
  5
1D
330
1B
100
AcDbEntity
 67
     1
  8
0
100
AcDbBlockEnd
  0
BLOCK
  5
24
330
23
100
AcDbEntity
  8
0
100
AcDbBlockBegin
  2
*Paper_Space0
 70
     0
 10
0.0
 20
0.0
 30
0.0
  3
*Paper_Space0
  1

  0
ENDBLK
  5
25
330
23
100
AcDbEntity
  8
0
100
AcDbBlockEnd
  0
BLOCK
  5
70
330
6E
100
AcDbEntity
  8
0
100
AcDbBlockBegin
  2
1_136297_4
 70
     2
 10
0.0
 20
0.0
 30
0.0
  3
1_136297_4
  1

  0
ATTDEF
  5
73
330
6E
100
AcDbEntity
  8
AM_6
100
AcDbText
 10
74.78800000000015
 20
19.305
 30
0.0
 40
0.5
  1
Grip Tight Medium Duty Narrow Slot Take Up Metric Bore
100
AcDbAttributeDefinition
  3

  2
NN
 70
     8
280
     0
  0
ATTDEF
  5
74
330
6E
100
AcDbEntity
  8
AM_6
100
AcDbText
 10
74.78800000000015
 20
18.805
 30
0.0
 40
0.5
  1
GTM Normal Duty Narrow Slot Take-Up Bearings
100
AcDbAttributeDefinition
  3

  2
NT
 70
     8
280
     0
  0
ATTDEF
  5
75
330
6E
100
AcDbEntity
  8
AM_6
100
AcDbText
 10
74.78800000000015
 20
18.305
 30
0.0
 40
0.5
  1
136297
100
AcDbAttributeDefinition
  3

  2
NB
 70
     8
280
     0
  0
ATTDEF
  5
76
330
6E
100
AcDbEntity
  8
AM_6
100
AcDbText
 10
74.78800000000015
 20
17.805
 30
0.0
 40
0.5
  1
$PN.
100
AcDbAttributeDefinition
  3

  2
NBSYN
 70
     8
280
     0
  0
ATTDEF
  5
77
330
6E
100
AcDbEntity
  8
AM_6
100
AcDbText
 10
74.78800000000015
 20
17.305
 30
0.0
 40
0.5
  1
136297
100
AcDbAttributeDefinition
  3

  2
LINA
 70
     8
280
     0
  0
ATTDEF
  5
78
330
6E
100
AcDbEntity
  8
AM_6
100
AcDbText
 10
74.78800000000015
 20
16.805
 30
0.0
 40
0.5
  1
207
100
AcDbAttributeDefinition
  3

  2
SERIES
 70
     8
280
     0
  0
ATTDEF
  5
79
330
6E
100
AcDbEntity
  8
AM_6
100
AcDbText
 10
74.78800000000015
 20
16.305
 30
0.0
 40
0.5
  1
30
100
AcDbAttributeDefinition
  3

  2
SS
 70
     8
280
     0
  0
ATTDEF
  5
7A
330
6E
100
AcDbEntity
  8
AM_6
100
AcDbText
 10
74.78800000000015
 20
15.805
 30
0.0
 40
0.5
  1
136297
100
AcDbAttributeDefinition
  3

  2
PN
 70
     8
280
     0
  0
ATTDEF
  5
7B
330
6E
100
AcDbEntity
  8
AM_6
100
AcDbText
 10
74.78800000000015
 20
15.305
 30
0.0
 40
0.5
  1
NSTU-GTM-30M
100
AcDbAttributeDefinition
  3

  2
DESCRIPTION
 70
     8
280
     0
  0
ATTDEF
  5
7C
330
6E
100
AcDbEntity
  8
AM_6
100
AcDbText
 10
74.78800000000015
 20
14.805
 30
0.0
 40
0.5
  1
136213
100
AcDbAttributeDefinition
  3

  2
PNSL
 70
     8
280
     0
  0
ATTDEF
  5
7D
330
6E
100
AcDbEntity
  8
AM_6
100
AcDbText
 10
74.78800000000015
 20
14.305
 30
0.0
 40
0.5
  1
NSTU-GT-07
100
AcDbAttributeDefinition
  3

  2
DESCRIPTIONSL
 70
     8
280
     0
  0
ATTDEF
  5
7E
330
6E
100
AcDbEntity
  8
AM_6
100
AcDbText
 10
74.78800000000015
 20
13.805
 30
0.0
 40
0.5
  1
136562
100
AcDbAttributeDefinition
  3

  2
PNA
 70
     8
280
     0
  0
ATTDEF
  5
7F
330
6E
100
AcDbEntity
  8
AM_6
100
AcDbText
 10
74.78800000000015
 20
13.305
 30
0.0
 40
0.5
  1
AN-GTM-07-30M-D
100
AcDbAttributeDefinition
  3

  2
DESCRIPTIONA
 70
     8
280
     0
  0
ATTDEF
  5
80
330
6E
100
AcDbEntity
  8
AM_6
100
AcDbText
 10
74.78800000000015
 20
12.805
 30
0.0
 40
0.5
  1
1.2
100
AcDbAttributeDefinition
  3

  2
W
 70
     8
280
     0
  0
ATTDEF
  5
81
330
6E
100
AcDbEntity
  8
AM_6
100
AcDbText
 10
74.78800000000015
 20
12.305
 30
0.0
 40
0.5
  1
NS308
100
AcDbAttributeDefinition
  3

  2
TUFS
 70
     8
280
     0
  0
ATTDEF
  5
82
330
6E
100
AcDbEntity
  8
AM_6
100
AcDbText
 10
74.78800000000015
 20
11.805
 30
0.0
 40
0.5
  1
41.1
100
AcDbAttributeDefinition
  3

  2
A
 70
     8
280
     0
  0
ATTDEF
  5
83
330
6E
100
AcDbEntity
  8
AM_6
100
AcDbText
 10
74.78800000000015
 20
11.305
 30
0.0
 40
0.5
  1
114.3
100
AcDbAttributeDefinition
  3

  2
B
 70
     8
280
     0
  0
ATTDEF
  5
84
330
6E
100
AcDbEntity
  8
AM_6
100
AcDbText
 10
74.78800000000015
 20
10.805
 30
0.0
 40
0.5
  1
6.35
100
AcDbAttributeDefinition
  3

  2
C
 70
     8
280
     0
  0
ATTDEF
  5
85
330
6E
100
AcDbEntity
  8
AM_6
100
AcDbText
 10
74.78800000000015
 20
10.305
 30
0.0
 40
0.5
  1
63.5
100
AcDbAttributeDefinition
  3

  2
D
 70
     8
280
     0
  0
ATTDEF
  5
86
330
6E
100
AcDbEntity
  8
AM_6
100
AcDbText
 10
74.78800000000015
 20
9.805
 30
0.0
 40
0.5
  1
68.3
100
AcDbAttributeDefinition
  3

  2
E
 70
     8
280
     0
  0
ATTDEF
  5
87
330
6E
100
AcDbEntity
  8
AM_6
100
AcDbText
 10
74.78800000000015
 20
9.305
 30
0.0
 40
0.5
  1
19.1
100
AcDbAttributeDefinition
  3

  2
F
 70
     8
280
     0
  0
ATTDEF
  5
88
330
6E
100
AcDbEntity
  8
AM_6
100
AcDbText
 10
74.78800000000015
 20
8.805
 30
0.0
 40
0.5
  1
12.7
100
AcDbAttributeDefinition
  3

  2
G
 70
     8
280
     0
  0
ATTDEF
  5
89
330
6E
100
AcDbEntity
  8
AM_6
100
AcDbText
 10
74.78800000000015
 20
8.305
 30
0.0
 40
0.5
  1
23.9
100
AcDbAttributeDefinition
  3

  2
H
 70
     8
280
     0
  0
ATTDEF
  5
8A
330
6E
100
AcDbEntity
  8
AM_6
100
AcDbText
 10
74.78800000000015
 20
7.805
 30
0.0
 40
0.5
  1
35.1
100
AcDbAttributeDefinition
  3

  2
J
 70
     8
280
     0
  0
ATTDEF
  5
8B
330
6E
100
AcDbEntity
  8
AM_6
100
AcDbText
 10
74.78800000000015
 20
7.305
 30
0.0
 40
0.5
  1
60.5
100
AcDbAttributeDefinition
  3

  2
L
 70
     8
280
     0
  0
ATTDEF
  5
8C
330
6E
100
AcDbEntity
  8
AM_6
100
AcDbText
 10
74.78800000000015
 20
6.805
 30
0.0
 40
0.5
  1
89.15/88.39
100
AcDbAttributeDefinition
  3

  2
M
 70
     8
280
     0
  0
ATTDEF
  5
8D
330
6E
100
AcDbEntity
  8
AM_6
100
AcDbText
 10
74.78800000000015
 20
6.305
 30
0.0
 40
0.5
  1
104.9
100
AcDbAttributeDefinition
  3

  2
N
 70
     8
280
     0
  0
ATTDEF
  5
8E
330
6E
100
AcDbEntity
  8
AM_6
100
AcDbText
 10
74.78800000000015
 20
5.805
 30
0.0
 40
0.5
  1
8.1
100
AcDbAttributeDefinition
  3

  2
P
 70
     8
280
     0
  0
ATTDEF
  5
8F
330
6E
100
AcDbEntity
  8
AM_6
100
AcDbText
 10
74.78800000000015
 20
5.305
 30
0.0
 40
0.5
  1
13.7
100
AcDbAttributeDefinition
  3

  2
R
 70
     8
280
     0
  0
ATTDEF
  5
90
330
6E
100
AcDbEntity
  8
AM_6
100
AcDbText
 10
74.78800000000015
 20
4.805
 30
0.0
 40
0.5
  1
27.4
100
AcDbAttributeDefinition
  3

  2
S
 70
     8
280
     0
  0
ATTDEF
  5
91
330
6E
100
AcDbEntity
  8
AM_6
100
AcDbText
 10
74.78800000000015
 20
4.305
 30
0.0
 40
0.5
  1
29.0
100
AcDbAttributeDefinition
  3

  2
Z
 70
     8
280
     0
  0
ATTDEF
  5
92
330
6E
100
AcDbEntity
  8
AM_6
100
AcDbText
 10
74.78800000000015
 20
3.805
 30
0.0
 40
0.5
  1
3065
100
AcDbAttributeDefinition
  3

  2
CAPS
 70
     8
280
     0
  0
ATTDEF
  5
93
330
6E
100
AcDbEntity
  8
AM_6
100
AcDbText
 10
74.78800000000015
 20
3.305
 30
0.0
 40
0.5
  1
5759
100
AcDbAttributeDefinition
  3

  2
CAPD
 70
     8
280
     0
  0
ATTDEF
  5
94
330
6E
100
AcDbEntity
  8
AM_6
100
AcDbText
 10
74.78800000000015
 20
2.805
 30
0.0
 40
0.5
  1
baldor
100
AcDbAttributeDefinition
  3

  2
COMPANY
 70
     8
280
     0
  0
INSERT
  5
96
330
6E
100
AcDbEntity
  8
0
100
AcDbBlockReference
  2
2_405016_Metric_0_in_136297_4
 10
0.0
 20
0.0
 30
0.0
  0
INSERT
  5
122
330
6E
100
AcDbEntity
  8
0
100
AcDbBlockReference
  2
3_129520_0_in_136297_4
 10
0.0
 20
0.0
 30
0.0
  0
INSERT
  5
167
330
6E
100
AcDbEntity
  8
0
100
AcDbBlockReference
  2
4_136562i_0_in_136297_4
 10
0.0
 20
0.0
 30
0.0
  0
INSERT
  5
1BF
330
6E
100
AcDbEntity
  8
0
100
AcDbBlockReference
  2
5_136297h_0_in_136297_4
 10
0.0
 20
0.0
 30
0.0
  0
ENDBLK
  5
71
330
6E
100
AcDbEntity
  8
0
100
AcDbBlockEnd
  0
BLOCK
  5
97
330
95
100
AcDbEntity
  8
0
100
AcDbBlockBegin
  2
2_405016_Metric_0_in_136297_4
 70
     2
 10
0.0
 20
0.0
 30
0.0
  3
2_405016_Metric_0_in_136297_4
  1

  0
ATTDEF
  5
99
330
95
100
AcDbEntity
  8
AM_6
100
AcDbText
 10
-27.97213566916615
 20
5.556249999999999
 30
0.0
 40
0.5
  1
405016 -Metric
100
AcDbAttributeDefinition
  3

  2
NN
 70
     8
280
     0
  0
ATTDEF
  5
9A
330
95
100
AcDbEntity
  8
AM_6
100
AcDbText
 10
-27.97213566916615
 20
5.056249999999999
 30
0.0
 40
0.5
  1
Grease Fitting
100
AcDbAttributeDefinition
  3

  2
NT
 70
     8
280
     0
  0
ATTDEF
  5
9B
330
95
100
AcDbEntity
  8
AM_6
100
AcDbText
 10
-27.97213566916615
 20
4.556249999999999
 30
0.0
 40
0.5
  1
405016-Metric
100
AcDbAttributeDefinition
  3

  2
NB
 70
     8
280
     0
  0
ATTDEF
  5
9C
330
95
100
AcDbEntity
  8
AM_6
100
AcDbText
 10
-27.97213566916615
 20
4.056249999999999
 30
0.0
 40
0.5
  1
$MN.-Metric
100
AcDbAttributeDefinition
  3

  2
NBSYN
 70
     8
280
     0
  0
ATTDEF
  5
9D
330
95
100
AcDbEntity
  8
AM_6
100
AcDbText
 10
-27.97213566916615
 20
3.556249999999999
 30
0.0
 40
0.5
  1
405016
100
AcDbAttributeDefinition
  3

  2
LINA
 70
     8
280
     0
  0
ATTDEF
  5
9E
330
95
100
AcDbEntity
  8
AM_6
100
AcDbText
 10
-27.97213566916615
 20
3.056249999999999
 30
0.0
 40
0.5
  1
405016
100
AcDbAttributeDefinition
  3

  2
MN
 70
     8
280
     0
  0
ATTDEF
  5
9F
330
95
100
AcDbEntity
  8
AM_6
100
AcDbText
 10
-27.97213566916615
 20
2.556249999999999
 30
0.0
 40
0.5
  1
7/16 HEX
100
AcDbAttributeDefinition
  3

  2
H
 70
     8
280
     0
  0
ATTDEF
  5
A0
330
95
100
AcDbEntity
  8
AM_6
100
AcDbText
 10
-27.97213566916615
 20
2.056249999999999
 30
0.0
 40
0.5
  1
9.728
100
AcDbAttributeDefinition
  3

  2
NDR
 70
     8
280
     0
  0
ATTDEF
  5
A1
330
95
100
AcDbEntity
  8
AM_6
100
AcDbText
 10
-27.97213566916615
 20
1.556249999999999
 30
0.0
 40
0.5
  1
8.560
100
AcDbAttributeDefinition
  3

  2
KDR
 70
     8
280
     0
  0
ATTDEF
  5
A2
330
95
100
AcDbEntity
  8
AM_6
100
AcDbText
 10
-27.97213566916615
 20
1.056249999999999
 30
0.0
 40
0.5
  1
4.0005
100
AcDbAttributeDefinition
  3

  2
BZE
 70
     8
280
     0
  0
ATTDEF
  5
A3
330
95
100
AcDbEntity
  8
AM_6
100
AcDbText
 10
-27.97213566916615
 20
0.5562499999999995
 30
0.0
 40
0.5
  1
11.1125
100
AcDbAttributeDefinition
  3

  2
HEX
 70
     8
280
     0
  0
ATTDEF
  5
A4
330
95
100
AcDbEntity
  8
AM_6
100
AcDbText
 10
-27.97213566916615
 20
0.0562499999999995
 30
0.0
 40
0.5
  1
7.143750
100
AcDbAttributeDefinition
  3

  2
HEX2
 70
     8
280
     0
  0
ATTDEF
  5
A5
330
95
100
AcDbEntity
  8
AM_6
100
AcDbText
 10
-27.97213566916615
 20
-0.4437500000000005
 30
0.0
 40
0.5
  1
baldor
100
AcDbAttributeDefinition
  3

  2
COMPANY
 70
     8
280
     0
  0
LINE
  5
A8
330
95
100
AcDbEntity
  8
AM_9
100
AcDbLine
 10
-50.67961317856189
 20
-3.837282897828231
 30
0.0
 11
-50.96718113844837
 21
-4.549376881905936
 31
0.0
  0
LINE
  5
A9
330
95
100
AcDbEntity
  8
AM_9
100
AcDbLine
 10
-46.83977208918406
 20
-5.333905179049321
 30
0.0
 11
-47.1366281431605
 21
-6.068998929608747
 31
0.0
  0
LWPOLYLINE
  5
AA
330
95
100
AcDbEntity
  8
AM_9
100
AcDbPolyline
 90
        3
 70
     0
 43
0.0
 10
-40.34802942625569
 20
-0.0000000000000024
 10
-40.8935622675633
 20
-1.382816900963401
 10
-41.34946543544275
 20
-2.778125000000001
  0
LWPOLYLINE
  5
AB
330
95
100
AcDbEntity
  8
AM_9
100
AcDbPolyline
 90
        3
 70
     0
 43
0.0
 10
-41.34946543544275
 20
2.778124999999998
 10
-40.89583032585109
 20
1.389062499999997
 10
-40.34802942625569
 20
-0.0000000000000024
  0
LWPOLYLINE
  5
AC
330
95
100
AcDbEntity
  8
AM_9
100
AcDbPolyline
 90
        3
 70
     0
 43
0.0
 10
-45.36832853926297
 20
-7.58869625231989
 10
-45.77186556716562
 20
-7.397029361446425
 10
-46.15819961029519
 20
-7.147354260923539
  0
LWPOLYLINE
  5
AD
330
95
100
AcDbEntity
  8
AM_9
100
AcDbPolyline
 90
        3
 70
     0
 43
0.0
 10
-39.14976090983028
 20
-2.778125000000002
 10
-38.80142041112572
 20
-1.389062500000002
 10
-38.54724570242492
 20
-0.0000000000000027
  0
LWPOLYLINE
  5
AE
330
95
100
AcDbEntity
  8
AM_9
100
AcDbPolyline
 90
        3
 70
     0
 43
0.0
 10
-38.54724570242492
 20
-0.0000000000000027
 10
-38.80008257112849
 20
1.382816900963397
 10
-39.14976090983028
 20
2.778124999999998
  0
LWPOLYLINE
  5
AF
330
95
100
AcDbEntity
  8
AM_9
100
AcDbPolyline
 90
        4
 70
     0
 43
0.0
 10
-45.69338195881642
 20
-5.996343371387007
 10
-45.46059129977186
 20
-6.253713524124906
 10
-45.2550730219856
 20
-6.529083721607241
 10
-45.06211504676412
 20
-6.830431020205951
  0
LWPOLYLINE
  5
B0
330
95
100
AcDbEntity
  8
AM_9
100
AcDbPolyline
 90
        3
 70
     0
 43
0.0
 10
-41.95198064284811
 20
5.556249999999999
 10
-41.69914377414454
 20
4.173433099036599
 10
-41.34946543544275
 20
2.778124999999998
  0
LINE
  5
B1
330
95
100
AcDbEntity
  8
AM_9
100
AcDbLine
 10
-40.34802942625569
 20
-0.0000000000000024
 30
0.0
 11
-38.54724570242492
 21
-0.0000000000000027
 31
0.0
  0
LWPOLYLINE
  5
B2
330
95
100
AcDbEntity
  8
AM_9
100
AcDbPolyline
 90
        3
 70
     0
 43
0.0
 10
-41.34946543544275
 20
-2.778125000000001
 10
-41.69780593414731
 20
-4.167187500000002
 10
-41.95198064284811
 20
-5.556250000000003
  0
LWPOLYLINE
  5
B3
330
95
100
AcDbEntity
  8
AM_9
100
AcDbPolyline
 90
        3
 70
     0
 43
0.0
 10
-45.06211504676412
 20
-6.830431020205951
 10
-45.39221059814425
 20
-6.691143549353728
 10
-45.75324366104594
 20
-6.609853898455522
  0
LWPOLYLINE
  5
B4
330
95
100
AcDbEntity
  8
AM_9
100
AcDbPolyline
 90
        3
 70
     0
 43
0.0
 10
-46.00226444714365
 20
-7.734382251555056
 10
-45.80195966520267
 20
-7.69811432306444
 10
-45.36832853926297
 20
-7.58869625231989
  0
LINE
  5
B5
330
95
100
AcDbEntity
  8
AM_9
100
AcDbLine
 10
-45.06211504676412
 20
-6.830431020205951
 30
0.0
 11
-45.36832853926297
 21
-7.58869625231989
 31
0.0
  0
ELLIPSE
  5
B6
330
95
100
AcDbEntity
  8
AM_9
100
AcDbEllipse
 10
-51.52228226762987
 20
-11.90625
 30
0.0
 11
-2.437227270755876
 21
0.9842359150649298
 31
0.0
210
0.0
220
0.0
230
1.0
 40
0.2113091308703502
 41
3.040609649696531
 42
6.384168311072845
  0
ELLIPSE
  5
B7
330
95
100
AcDbEntity
  8
AM_9
100
AcDbEllipse
 10
-50.8112432478138
 20
-10.14553017343999
 30
0.0
 11
-3.277232327750504
 21
1.323458750723529
 31
0.0
210
0.0
220
0.0
230
1.0
 40
0.2113091308703494
 41
3.036820417802976
 42
5.801105639492174
  0
ELLIPSE
  5
B8
330
95
100
AcDbEntity
  8
AM_9
100
AcDbEllipse
 10
-50.540098705667
 20
-9.474104895899602
 30
0.0
 11
-3.136987913476609
 21
1.266823248949768
 31
0.0
210
0.0
220
0.0
230
1.0
 40
0.2113091308703369
 41
3.383247458540877
 42
6.02922887118071
  0
LWPOLYLINE
  5
B9
330
95
100
AcDbEntity
  8
AM_9
100
AcDbPolyline
 90
        5
 70
     0
 43
0.0
 10
-50.96718113844837
 20
-4.549376881905936
 10
-51.52248580631345
 20
-4.680053692952522
 10
-52.05324641433528
 20
-4.730040525586979
 10
-52.55915395102998
 20
-4.684077415975232
 10
-53.02940413121006
 20
-4.549376881905936
  0
LWPOLYLINE
  5
BA
330
95
100
AcDbEntity
  8
AM_9
100
AcDbPolyline
 90
        5
 70
     0
 43
0.0
 10
-47.1366281431605
 20
-6.068998929608747
 10
-48.1231968758212
 20
-5.830160733401207
 10
-49.09182706230393
 20
-5.503852774457659
 10
-50.04734443907799
 20
-5.070861224918887
 10
-50.96718113844837
 20
-4.549376881905936
  0
LWPOLYLINE
  5
BB
330
95
100
AcDbEntity
  8
AM_9
100
AcDbPolyline
 90
        3
 70
     0
 43
0.0
 10
-46.46354647691307
 20
-6.887292896806422
 10
-46.81241999213321
 20
-6.507011440078409
 10
-47.1366281431605
 20
-6.068998929608747
  0
ELLIPSE
  5
BC
330
95
100
AcDbEntity
  8
AM_9
100
AcDbEllipse
 10
-49.2446757753841
 20
-6.266296641270868
 30
0.0
 11
-3.312005593886945
 21
1.337501387545364
 31
0.0
210
0.0
220
0.0
230
1.0
 40
0.2113091308703511
 41
3.80634037200274
 42
6.919181903097275
  0
LINE
  5
BD
330
95
100
AcDbEntity
  8
AM_9
100
AcDbLine
 10
-39.95461316164755
 20
5.081049061129095
 30
0.0
 11
-40.15119691901734
 21
5.556249999999999
 31
0.0
  0
LWPOLYLINE
  5
BE
330
95
100
AcDbEntity
  8
AM_9
100
AcDbPolyline
 90
        3
 70
     0
 43
0.0
 10
-39.14976090983028
 20
2.778124999999998
 10
-39.60339601942194
 20
4.167187499999998
 10
-39.95461316164755
 20
5.081049061129095
  0
LWPOLYLINE
  5
BF
330
95
100
AcDbEntity
  8
AM_9
100
AcDbPolyline
 90
        3
 70
     0
 43
0.0
 10
-39.95461006076563
 20
-5.081041392296855
 10
-39.60566407770973
 20
-4.173433099036602
 10
-39.14976090983028
 20
-2.778125000000002
  0
LINE
  5
C0
330
95
100
AcDbEntity
  8
AM_9
100
AcDbLine
 10
-40.15119691901734
 20
-5.556250000000003
 30
0.0
 11
-39.95461006076563
 21
-5.081041392296855
 31
0.0
  0
LINE
  5
C1
330
95
100
AcDbEntity
  8
AM_9
100
AcDbLine
 10
-50.96243712019989
 20
-3.058387021916506
 30
0.0
 11
-50.99000742293858
 21
-3.126658350638856
 31
0.0
  0
LINE
  5
C2
330
95
100
AcDbEntity
  8
AM_9
100
AcDbLine
 10
-45.99999999999999
 20
-5.693164100579951
 30
0.0
 11
-45.6846039428272
 21
-4.912160420603781
 31
0.0
  0
ELLIPSE
  5
C3
330
95
100
AcDbEntity
  8
AM_9
100
AcDbEllipse
 10
-48.77985812390536
 20
-5.115285751734353
 30
0.0
 11
-2.59072437566266
 21
1.046223307591072
 31
0.0
210
0.0
220
0.0
230
1.0
 40
0.2113091308703504
 41
3.141592653589793
 42
6.283185307179586
  0
LWPOLYLINE
  5
C4
330
95
100
AcDbEntity
  8
AM_9
100
AcDbPolyline
 90
        4
 70
     0
 43
0.0
 10
-50.96255725343739
 20
-3.058684545841783
 10
-50.96609206944444
 20
-3.069253891791882
 10
-50.95142143693342
 20
-3.162573084305297
 10
-50.90296913267875
 20
-3.235023631994052
  0
LWPOLYLINE
  5
C5
330
95
100
AcDbEntity
  8
AM_9
100
AcDbPolyline
 90
        5
 70
     0
 43
0.0
 10
-45.68457996010939
 20
-4.912101024934069
 10
-45.68695069784064
 20
-4.917691338485696
 10
-45.76862533643765
 20
-5.008516140987742
 10
-45.92149176280432
 20
-5.065126856945112
 10
-46.09583661554758
 20
-5.079999999236803
  0
LWPOLYLINE
  5
C6
330
95
100
AcDbEntity
  8
AM_9
100
AcDbPolyline
 90
        3
 70
     0
 43
0.0
 10
-48.46558374834352
 20
-4.434184386909876
 10
-47.76990123385837
 20
-4.766969289547203
 10
-46.83977208918406
 20
-5.333905179049321
  0
LWPOLYLINE
  5
C7
330
95
100
AcDbEntity
  8
AM_9
100
AcDbPolyline
 90
        3
 70
     0
 43
0.0
 10
-50.67961317856189
 20
-3.837282897828231
 10
-49.93781614807399
 20
-3.973124856539688
 10
-49.20958547493969
 20
-4.163853732670687
  0
LWPOLYLINE
  5
C8
330
95
100
AcDbEntity
  8
AM_9
100
AcDbPolyline
 90
        3
 70
     0
 43
0.0
 10
-46.83977208918406
 20
-5.333905179049321
 10
-46.40864055791258
 20
-5.49523760296716
 10
-45.99872882543434
 20
-5.736282007269851
  0
LWPOLYLINE
  5
C9
330
95
100
AcDbEntity
  8
AM_9
100
AcDbPolyline
 90
        4
 70
     0
 43
0.0
 10
-51.61714953931205
 20
-3.60574614931637
 10
-51.51872150538242
 20
-3.608061141866096
 10
-51.15070306146775
 20
-3.660719790057628
 10
-50.67961317856189
 20
-3.837282897828231
  0
ELLIPSE
  5
CA
330
95
100
AcDbEntity
  8
AM_9
100
AcDbEllipse
 10
-48.77985812390527
 20
-5.115285751734393
 30
0.0
 11
-3.312005593887029
 21
1.337501387545434
 31
0.0
210
0.0
220
0.0
230
1.0
 40
0.2113091308703504
 41
3.814164134970078
 42
4.693414305478905
  0
ELLIPSE
  5
CB
330
95
100
AcDbEntity
  8
AM_9
100
AcDbEllipse
 10
-48.77985812390524
 20
-5.115285751734374
 30
0.0
 11
-3.312005593887086
 21
1.337501387545446
 31
0.0
210
0.0
220
0.0
230
1.0
 40
0.2113091308703432
 41
-1.274431972977218
 42
-0.6725714813802854
  0
LINE
  5
CC
330
95
100
AcDbEntity
  8
AM_9
100
AcDbLine
 10
-46.15819961029519
 20
-7.147354260923539
 30
0.0
 11
-46.46354647691307
 21
-6.887292896806422
 31
0.0
  0
ELLIPSE
  5
CD
330
95
100
AcDbEntity
  8
AM_9
100
AcDbEllipse
 10
-49.244675775384
 20
-6.266296641270944
 30
0.0
 11
-3.312005593887015
 21
1.337501387545428
 31
0.0
210
0.0
220
0.0
230
1.0
 40
0.2113091308703499
 41
2.800469246484361
 42
3.607080702195141
  0
ELLIPSE
  5
CE
330
95
100
AcDbEntity
  8
AM_9
100
AcDbEllipse
 10
-49.24467577554221
 20
-6.266296641059133
 30
0.0
 11
-3.312005594113955
 21
1.337501387730505
 31
0.0
210
0.0
220
0.0
230
1.0
 40
0.2113091308871969
 41
-3.777589249501891
 42
-3.764628581854612
  0
LINE
  5
CF
330
95
100
AcDbEntity
  8
AM_9
100
AcDbLine
 10
-52.48899788719111
 20
-5.200237628270037
 30
0.0
 11
-52.46207074508948
 21
-5.241858854021228
 31
0.0
  0
LINE
  5
D0
330
95
100
AcDbEntity
  8
AM_9
100
AcDbLine
 10
-45.75324366104594
 20
-6.609853898455522
 30
0.0
 11
-45.99999999999999
 21
-6.609853898455401
 31
0.0
  0
ELLIPSE
  5
D1
330
95
100
AcDbEntity
  8
AM_9
100
AcDbEllipse
 10
-48.77985812390534
 20
-5.115285751734351
 30
0.0
 11
-3.312005593887108
 21
1.337501387545476
 31
0.0
210
0.0
220
0.0
230
1.0
 40
0.2113091308703491
 41
2.800469246484381
 42
3.607080702195121
  0
LINE
  5
D2
330
95
100
AcDbEntity
  8
AM_9
100
AcDbLine
 10
-45.99872882543434
 20
-5.736282007269851
 30
0.0
 11
-45.69338195881642
 21
-5.996343371387007
 31
0.0
  0
LWPOLYLINE
  5
D3
330
95
100
AcDbEntity
  8
AM_9
100
AcDbPolyline
 90
       17
 70
     0
 43
0.0
 10
-45.85415313765213
 20
-4.547549295794519
 10
-46.05652675058742
 20
-4.404185730898368
 10
-46.32973101581563
 20
-4.243653641815979
 10
-46.6508645244857
 20
-4.079360450144661
 10
-47.02908127239007
 20
-3.906600444275934
 10
-47.43298894328483
 20
-3.739733627290439
 10
-47.87395757675648
 20
-3.574110867010544
 10
-48.3147866958647
 20
-3.423743718108895
 10
-48.76837257010563
 20
-3.284291520882655
 10
-49.19584851220753
 20
-3.167739146394208
 10
-49.61029380728543
 20
-3.070557447853723
 10
-49.97602969912521
 20
-3.001126812430812
 10
-50.30451146191519
 20
-2.957268343506164
 10
-50.56764855717158
 20
-2.942714645652545
 10
-50.77364699751568
 20
-2.956956816676945
 10
-50.90513368376306
 20
-2.998748603033093
 10
-50.96255725343739
 20
-3.058684545841783
  0
LWPOLYLINE
  5
D4
330
95
100
AcDbEntity
  8
AM_9
100
AcDbPolyline
 90
        4
 70
     0
 43
0.0
 10
-45.85415313765213
 20
-4.547549295794528
 10
-45.7283047616616
 20
-4.680277139818005
 10
-45.67476449620634
 20
-4.804994146739736
 10
-45.68457996010939
 20
-4.912101024934069
  0
LINE
  5
D5
330
95
100
AcDbEntity
  8
AM_9
100
AcDbLine
 10
-43.7553922603314
 20
5.079999999999997
 30
0.0
 11
-45.99999999999999
 21
5.079999999999997
 31
0.0
  0
LINE
  5
D6
330
95
100
AcDbEntity
  8
AM_9
100
AcDbLine
 10
-45.99999999999999
 20
-5.080000000000001
 30
0.0
 11
-43.7553922603314
 21
-5.080000000000001
 31
0.0
  0
LINE
  5
D7
330
95
100
AcDbEntity
  8
AM_9
100
AcDbLine
 10
-39.83716857408417
 20
5.079999999999997
 30
0.0
 11
-41.55568773471892
 21
5.079999999999997
 31
0.0
  0
LINE
  5
D8
330
95
100
AcDbEntity
  8
AM_9
100
AcDbLine
 10
-41.55568773471892
 20
-5.080000000000001
 30
0.0
 11
-39.83716857408417
 21
-5.080000000000001
 31
0.0
  0
LWPOLYLINE
  5
D9
330
95
100
AcDbEntity
  8
AM_9
100
AcDbPolyline
 90
        3
 70
     0
 43
0.0
 10
-45.15988307603297
 20
-5.556250000000002
 10
-45.70541591734059
 20
-4.173433099036602
 10
-46.01192043412261
 20
-3.272176712855389
  0
LINE
  5
DA
330
95
100
AcDbEntity
  8
AM_9
100
AcDbLine
 10
-45.15988307603297
 20
-5.556250000000002
 30
0.0
 11
-40.15119691901734
 21
-5.556250000000003
 31
0.0
  0
LWPOLYLINE
  5
DB
330
95
100
AcDbEntity
  8
AM_9
100
AcDbPolyline
 90
        3
 70
     0
 43
0.0
 10
-43.96161455960757
 20
-2.778125000000001
 10
-43.613274060903
 20
-4.167187500000002
 10
-43.3590993522022
 20
-5.556250000000002
  0
LINE
  5
DC
330
95
100
AcDbEntity
  8
AM_9
100
AcDbLine
 10
-45.15988307603297
 20
5.556249999999999
 30
0.0
 11
-40.15119691901734
 21
5.556249999999999
 31
0.0
  0
LWPOLYLINE
  5
DD
330
95
100
AcDbEntity
  8
AM_9
100
AcDbPolyline
 90
        3
 70
     0
 43
0.0
 10
-46.01184284880893
 20
3.272422197644767
 10
-45.70768397562838
 20
4.167187499999998
 10
-45.15988307603297
 20
5.556249999999999
  0
LINE
  5
DE
330
95
100
AcDbEntity
  8
AM_9
100
AcDbLine
 10
-45.99999999999999
 20
-0.0000000000000003
 30
0.0
 11
-44.96305056879464
 21
-0.0000000000000003
 31
0.0
  0
LWPOLYLINE
  5
DF
330
95
100
AcDbEntity
  8
AM_9
100
AcDbPolyline
 90
        3
 70
     0
 43
0.0
 10
-43.3590993522022
 20
5.556249999999999
 10
-43.61193622090578
 20
4.173433099036599
 10
-43.96161455960757
 20
2.778124999999999
  0
LWPOLYLINE
  5
E0
330
95
100
AcDbEntity
  8
AM_9
100
AcDbPolyline
 90
        3
 70
     0
 43
0.0
 10
-43.96161455960757
 20
2.778124999999999
 10
-44.41524966919922
 20
1.389062499999999
 10
-44.96305056879464
 20
-0.0000000000000003
  0
LWPOLYLINE
  5
E1
330
95
100
AcDbEntity
  8
AM_9
100
AcDbPolyline
 90
        3
 70
     0
 43
0.0
 10
-44.96305056879464
 20
-0.0000000000000003
 10
-44.41751772748702
 20
-1.3828169009634
 10
-43.96161455960757
 20
-2.778125000000001
  0
LINE
  5
E2
330
95
100
AcDbEntity
  8
AM_9
100
AcDbLine
 10
-35.50515736897344
 20
4.708725846697615
 30
0.0
 11
-39.79321270139204
 21
4.863490642280838
 31
0.0
  0
LINE
  5
E3
330
95
100
AcDbEntity
  8
AM_9
100
AcDbLine
 10
-39.79321270139204
 20
-4.863490642280843
 30
0.0
 11
-35.50515736897344
 21
-4.708725846697618
 31
0.0
  0
LINE
  5
E4
330
95
100
AcDbEntity
  8
AM_9
100
AcDbLine
 10
-33.83991132865683
 20
3.352827683708302
 30
0.0
 11
-34.1881309026784
 21
3.84528452797339
 31
0.0
  0
LINE
  5
E5
330
95
100
AcDbEntity
  8
AM_9
100
AcDbLine
 10
-34.1881309026784
 20
-3.845284527973392
 30
0.0
 11
-33.83991132865683
 21
-3.352827683708305
 31
0.0
  0
ELLIPSE
  5
E6
330
95
100
AcDbEntity
  8
AM_9
100
AcDbEllipse
 10
-43.75539226033138
 20
-0.000000000000002
 30
0.0
 11
3.402221888881212E-16
 21
5.556249999999953
 31
0.0
210
0.0
220
0.0
230
1.0
 40
0.500000000000006
 41
0.0
 42
6.283185307179586
  0
ELLIPSE
  5
E7
330
95
100
AcDbEntity
  8
AM_9
100
AcDbEllipse
 10
-43.75539226033139
 20
0.0000000000000009
 30
0.0
 11
3.110602869834278E-16
 21
5.080000000000002
 31
0.0
210
0.0
220
0.0
230
1.0
 40
0.4999999999999983
 41
0.0
 42
6.283185307179586
  0
ELLIPSE
  5
E8
330
95
100
AcDbEntity
  8
AM_9
100
AcDbEllipse
 10
-41.55568773471892
 20
-0.0000000000000169
 30
0.0
 11
3.402221888881229E-16
 21
5.556249999999981
 31
0.0
210
0.0
220
0.0
230
1.0
 40
0.5000000000000036
 41
0.0
 42
6.283185307179586
  0
ELLIPSE
  5
E9
330
95
100
AcDbEntity
  8
AM_9
100
AcDbEllipse
 10
-41.55568773471891
 20
0.000000000000008
 30
0.0
 11
3.110602869834283E-16
 21
5.08000000000001
 31
0.0
210
0.0
220
0.0
230
1.0
 40
0.4999999999999989
 41
0.0
 42
6.283185307179586
  0
ELLIPSE
  5
EA
330
95
100
AcDbEntity
  8
AM_9
100
AcDbEllipse
 10
-39.83716857408417
 20
0.0000000000000082
 30
0.0
 11
3.110602869834265E-16
 21
5.07999999999998
 31
0.0
210
0.0
220
0.0
230
1.0
 40
0.5000000000000019
 41
0.0
 42
6.283185307179586
  0
ELLIPSE
  5
EB
330
95
100
AcDbEntity
  8
AM_9
100
AcDbEllipse
 10
-39.8371685741666
 20
-0.0000000000127063
 30
0.0
 11
2.978515598214296E-16
 21
4.864285115166356
 31
0.0
210
0.0
220
0.0
230
1.0
 40
0.5000000000001298
 41
0.0
 42
6.283185307179586
  0
ELLIPSE
  5
EC
330
95
100
AcDbEntity
  8
AM_9
100
AcDbEllipse
 10
-35.5476442853395
 20
-0.0000000000003642
 30
0.0
 11
2.883732460730240E-16
 21
4.709492504676462
 31
0.0
210
0.0
220
0.0
230
1.0
 40
0.5000000000000165
 41
0.0
 42
6.283185307179586
  0
ELLIPSE
  5
ED
330
95
100
AcDbEntity
  8
AM_9
100
AcDbEllipse
 10
-35.02531492430691
 20
-0.0000000000000333
 30
0.0
 11
2.514419402883876E-16
 21
4.106358510281515
 31
0.0
210
0.0
220
0.0
230
1.0
 40
0.5000000000000011
 41
0.0
 42
6.283185307179586
  0
LINE
  5
EF
330
95
100
AcDbEntity
  8
AM_4
100
AcDbLine
 10
-46.21806131252471
 20
-7.76086478799207
 30
0.0
 11
-46.00226444714365
 21
-7.734382251555056
 31
0.0
  0
LINE
  5
F0
330
95
100
AcDbEntity
  8
AM_4
100
AcDbLine
 10
-49.11843790409769
 20
-12.93739051932093
 30
0.0
 11
-47.57889944730918
 21
-11.53205948275794
 31
0.0
  0
LINE
  5
F1
330
95
100
AcDbEntity
  8
AM_4
100
AcDbLine
 10
-54.09997269672601
 20
-8.898626575676335
 30
0.0
 11
-53.96805977054146
 21
-10.9789469745965
 31
0.0
  0
ELLIPSE
  5
F2
330
95
100
AcDbEntity
  8
AM_4
100
AcDbEllipse
 10
-51.52228226762988
 20
-11.90625
 30
0.0
 11
-2.437227270755869
 21
0.9842359150649287
 31
0.0
210
0.0
220
0.0
230
1.0
 40
0.211309130870347
 41
0.100983003893254
 42
3.04060964969654
  0
LINE
  5
F3
330
95
100
AcDbEntity
  8
AM_4
100
AcDbLine
 10
-52.74183617132358
 20
-3.837282897828231
 30
0.0
 11
-53.02940413121006
 21
-4.549376881905936
 31
0.0
  0
LWPOLYLINE
  5
F4
330
95
100
AcDbEntity
  8
AM_4
100
AcDbPolyline
 90
       10
 70
     0
 43
0.0
 10
-53.49706232854116
 20
-8.07747509632657
 10
-53.50628032915054
 20
-8.080364644766444
 10
-53.64389324739039
 20
-8.135280046973136
 10
-53.76828845959188
 20
-8.2090100712119
 10
-53.87898668684488
 20
-8.30326574528845
 10
-53.9720143374898
 20
-8.417682356403484
 10
-54.04847586434376
 20
-8.564256921551959
 10
-54.09050303291138
 20
-8.715763135774973
 10
-54.10142598872347
 20
-8.863935841192214
 10
-54.09921969959847
 20
-8.909374298835749
  0
LWPOLYLINE
  5
F5
330
95
100
AcDbEntity
  8
AM_4
100
AcDbPolyline
 90
       10
 70
     0
 43
0.0
 10
-47.58778345027407
 20
-11.54005024013671
 10
-47.58431233857386
 20
-11.53695615895073
 10
-47.48448828161156
 20
-11.42943329718838
 10
-47.40559072563366
 20
-11.30344524990243
 10
-47.34931839483336
 20
-11.15315891525876
 10
-47.32577493336971
 20
-11.00278056995401
 10
-47.33046925405594
 20
-10.85858428832984
 10
-47.35853897623458
 20
-10.72252017315461
 10
-47.40663900319841
 20
-10.59370797970442
 10
-47.44216585271396
 20
-10.52313611729917
  0
ELLIPSE
  5
F6
330
95
100
AcDbEntity
  8
AM_4
100
AcDbEllipse
 10
-50.81124324781381
 20
-10.14553017344
 30
0.0
 11
-3.277232327750511
 21
1.323458750723535
 31
0.0
210
0.0
220
0.0
230
1.0
 40
0.2113091308703447
 41
0.1042567436499571
 42
3.036820417802985
  0
LWPOLYLINE
  5
F7
330
95
100
AcDbEntity
  8
AM_4
100
AcDbPolyline
 90
        3
 70
     0
 43
0.0
 10
-47.43055153202466
 20
-7.58869625231989
 10
-47.08680658831476
 20
-7.697739397127513
 10
-46.74240075884014
 20
-7.758592464327529
  0
LINE
  5
F8
330
95
100
AcDbEntity
  8
AM_4
100
AcDbLine
 10
-46.74810727299366
 20
-7.757990703186896
 30
0.0
 11
-46.71987387133774
 21
-7.76086478799207
 31
0.0
  0
ELLIPSE
  5
F9
330
95
100
AcDbEntity
  8
AM_4
100
AcDbEllipse
 10
-49.24467577538401
 20
-6.266296641270937
 30
0.0
 11
-3.312005593887029
 21
1.337501387545433
 31
0.0
210
0.0
220
0.0
230
1.0
 40
0.2113091308703486
 41
1.711945269609624
 42
2.505596057672109
  0
LWPOLYLINE
  5
FA
330
95
100
AcDbEntity
  8
AM_4
100
AcDbPolyline
 90
        4
 70
     0
 43
0.0
 10
-53.02940413121006
 20
-4.549376881905936
 10
-52.65152533291593
 20
-5.05042200837363
 10
-52.234221817952
 20
-5.477080537076166
 10
-52.09459754522388
 20
-5.592268783583251
  0
LINE
  5
FB
330
95
100
AcDbEntity
  8
AM_4
100
AcDbLine
 10
-52.09709047198537
 20
-5.590323799250987
 30
0.0
 11
-52.07699271064112
 21
-5.606004100241778
 31
0.0
  0
LWPOLYLINE
  5
FC
330
95
100
AcDbEntity
  8
AM_4
100
AcDbPolyline
 90
        3
 70
     0
 43
0.0
 10
-52.09459754522388
 20
-5.592268783583251
 10
-51.76590829661874
 20
-5.817773758536458
 10
-51.26107412868392
 20
-6.068998929608745
  0
LWPOLYLINE
  5
FD
330
95
100
AcDbEntity
  8
AM_4
100
AcDbPolyline
 90
        4
 70
     0
 43
0.0
 10
-46.25505621985895
 20
-6.609853898455276
 10
-46.48997155937187
 20
-6.646959991776583
 10
-46.80232850259258
 20
-6.724401268817782
 10
-47.12433803952582
 20
-6.830431020205951
  0
LINE
  5
FE
330
95
100
AcDbEntity
  8
AM_4
100
AcDbLine
 10
-50.99000742293858
 20
-3.126658350638856
 30
0.0
 11
-51.37058249956802
 21
-4.069062444143282
 31
0.0
  0
LINE
  5
FF
330
95
100
AcDbEntity
  8
AM_4
100
AcDbLine
 10
-46.18913374824252
 20
-6.161509059325487
 30
0.0
 11
-45.99999999999999
 21
-5.693164100579951
 31
0.0
  0
ELLIPSE
  5
100
330
95
100
AcDbEntity
  8
AM_4
100
AcDbEllipse
 10
-48.77985812390526
 20
-5.115285751734385
 30
0.0
 11
-2.590724375662752
 21
1.046223307591104
 31
0.0
210
0.0
220
0.0
230
1.0
 40
0.2113091308703504
 41
0.0
 42
3.141592653589793
  0
LWPOLYLINE
  5
101
330
95
100
AcDbEntity
  8
AM_4
100
AcDbPolyline
 90
        4
 70
     0
 43
0.0
 10
-52.74183617132358
 20
-3.837282897828231
 10
-52.31979378484036
 20
-3.705296695971724
 10
-51.91200662339998
 20
-3.624930539193417
 10
-51.61714953931205
 20
-3.60574614931637
  0
LWPOLYLINE
  5
102
330
95
100
AcDbEntity
  8
AM_4
100
AcDbPolyline
 90
        7
 70
     0
 43
0.0
 10
-50.96421807470744
 20
-5.333905179049321
 10
-51.22607013818361
 20
-4.936675458173813
 10
-51.51420333977255
 20
-4.585948207644054
 10
-51.83713829402345
 20
-4.290054100087518
 10
-52.19009481924162
 20
-4.060772684155615
 10
-52.46119764611395
 20
-3.934543968436728
 10
-52.74183617132358
 20
-3.837282897828231
  0
LINE
  5
103
330
95
100
AcDbEntity
  8
AM_4
100
AcDbLine
 10
-51.58337125932419
 20
-3.605746148079322
 30
0.0
 11
-51.61990856618729
 21
-3.605746148079322
 31
0.0
  0
ELLIPSE
  5
104
330
95
100
AcDbEntity
  8
AM_4
100
AcDbEllipse
 10
-48.77985812393768
 20
-5.115285751927191
 30
0.0
 11
-3.312005593898022
 21
1.337501387374411
 31
0.0
210
0.0
220
0.0
230
1.0
 40
0.2113091309046891
 41
3.806340371993103
 42
3.814164134960455
  0
ELLIPSE
  5
105
330
95
100
AcDbEntity
  8
AM_4
100
AcDbEllipse
 10
-48.77985812390561
 20
-5.11528575173419
 30
0.0
 11
-3.312005593886581
 21
1.337501387545287
 31
0.0
210
0.0
220
0.0
230
1.0
 40
0.211309130870348
 41
5.610613825799306
 42
7.795870906981635
  0
ELLIPSE
  5
106
330
95
100
AcDbEntity
  8
AM_4
100
AcDbEllipse
 10
-49.24467577538404
 20
-6.266296641270927
 30
0.0
 11
-3.312005593886986
 21
1.337501387545423
 31
0.0
210
0.0
220
0.0
230
1.0
 40
0.2113091308703516
 41
0.6359965959176765
 42
1.51268559980195
  0
LWPOLYLINE
  5
107
330
95
100
AcDbEntity
  8
AM_4
100
AcDbPolyline
 90
        3
 70
     0
 43
0.0
 10
-46.71987387133774
 20
-7.76086478799207
 10
-46.47983881962551
 20
-7.784509761460651
 10
-46.21806131252471
 20
-7.76086478799207
  0
LWPOLYLINE
  5
108
330
95
100
AcDbEntity
  8
AM_4
100
AcDbPolyline
 90
       19
 70
     0
 43
0.0
 10
-47.43359611592594
 20
-10.53895715394514
 10
-47.47879947087845
 20
-10.4441199188546
 10
-47.53509208189688
 20
-10.29778705555471
 10
-47.58437734934783
 20
-10.12175347321215
 10
-47.61918073820656
 20
-9.91952467054425
 10
-47.63276741083866
 20
-9.697805560031817
 10
-47.6204798455835
 20
-9.464651109908901
 10
-47.57379487139767
 20
-9.201900418948014
 10
-47.49395788714885
 20
-8.948955327283922
 10
-47.38527757162846
 20
-8.71400632567639
 10
-47.25290611288501
 20
-8.501628035919554
 10
-47.10263740716795
 20
-8.314894919597524
 10
-46.94098822298346
 20
-8.155860907447288
 10
-46.77550278437485
 20
-8.02572805432201
 10
-46.6145875988346
 20
-7.924453435964832
 10
-46.46645853873222
 20
-7.850198767057989
 10
-46.33749188308734
 20
-7.799246634835071
 10
-46.23136773627814
 20
-7.766791229280694
 10
-46.17201910944852
 20
-7.752576810482718
  0
LWPOLYLINE
  5
109
330
95
100
AcDbEntity
  8
AM_4
100
AcDbPolyline
 90
       19
 70
     0
 43
0.0
 10
-52.46207074508948
 20
-5.241858854021228
 10
-52.44157436879106
 20
-5.276020894559089
 10
-52.38648892176661
 20
-5.38011709367908
 10
-52.32931094804774
 20
-5.513389165739129
 10
-52.27609208122084
 20
-5.676768701054347
 10
-52.23410467471957
 20
-5.868316135495138
 10
-52.21061539198593
 20
-6.082552160627256
 10
-52.21127793258037
 20
-6.311745273084324
 10
-52.23940354721706
 20
-6.547900728453213
 10
-52.30323523261682
 20
-6.806486492678932
 10
-52.39828890205025
 20
-7.050999997813902
 10
-52.51967719401134
 20
-7.274991958583399
 10
-52.66188035916886
 20
-7.474673962270542
 10
-52.81879390378086
 20
-7.64757305960747
 10
-52.9833974240976
 20
-7.792040664611734
 10
-53.1476411901182
 20
-7.907436807979408
 10
-53.30302280334483
 20
-7.994657208244924
 10
-53.44206612528233
 20
-8.056538596137308
 10
-53.51544024340719
 20
-8.083302303111347
  0
ELLIPSE
  5
10A
330
95
100
AcDbEntity
  8
AM_4
100
AcDbEllipse
 10
-50.54009870566675
 20
-9.474104895899872
 30
0.0
 11
-3.136987913476893
 21
1.266823248950021
 31
0.0
210
0.0
220
0.0
230
1.0
 40
0.2113091308703506
 41
6.041254537696465
 42
9.666432765720852
  0
ELLIPSE
  5
10B
330
95
100
AcDbEntity
  8
AM_4
100
AcDbEllipse
 10
-50.54009870569041
 20
-9.47410489585396
 30
0.0
 11
-3.136987913451392
 21
1.266823248905196
 31
0.0
210
0.0
220
0.0
230
1.0
 40
0.2113091308680462
 41
-0.2539564360008759
 42
-0.2419307694849682
  0
ELLIPSE
  5
10C
330
95
100
AcDbEntity
  8
AM_4
100
AcDbEllipse
 10
-48.77985812390527
 20
-5.115285751734371
 30
0.0
 11
-3.312005593887243
 21
1.337501387545106
 31
0.0
210
0.0
220
0.0
230
1.0
 40
0.2113091308703628
 41
1.711945269609619
 42
2.518556725320328
  0
LINE
  5
10D
330
95
100
AcDbEntity
  8
AM_4
100
AcDbLine
 10
-45.99999999999999
 20
-6.609853898455401
 30
0.0
 11
-46.25505621985895
 21
-6.609853898455276
 31
0.0
  0
LWPOLYLINE
  5
10E
330
95
100
AcDbEntity
  8
AM_4
100
AcDbPolyline
 90
        3
 70
     0
 43
0.0
 10
-47.12433803952582
 20
-6.830431020205951
 10
-47.83712045873445
 20
-6.382400080731244
 10
-48.59373832161928
 20
-5.996343371387013
  0
LINE
  5
10F
330
95
100
AcDbEntity
  8
AM_4
100
AcDbLine
 10
-48.59373832161928
 20
-5.996343371387013
 30
0.0
 11
-49.25436207087929
 21
-5.736282007269859
 31
0.0
  0
LWPOLYLINE
  5
110
330
95
100
AcDbEntity
  8
AM_4
100
AcDbPolyline
 90
        4
 70
     0
 43
0.0
 10
-49.25436207087929
 20
-5.736282007269859
 10
-49.83830895206221
 20
-5.560509266840902
 10
-50.3972580465236
 20
-5.432128708591388
 10
-50.96421807470744
 20
-5.333905179049321
  0
LINE
  5
111
330
95
100
AcDbEntity
  8
AM_4
100
AcDbLine
 10
-50.96421807470744
 20
-5.333905179049321
 30
0.0
 11
-51.26107412868389
 21
-6.068998929608747
 31
0.0
  0
LWPOLYLINE
  5
112
330
95
100
AcDbEntity
  8
AM_4
100
AcDbPolyline
 90
        3
 70
     0
 43
0.0
 10
-51.26107412868389
 20
-6.068998929608747
 10
-50.50720666934532
 20
-6.504786871533986
 10
-49.71917972235801
 20
-6.887292896806422
  0
LINE
  5
113
330
95
100
AcDbEntity
  8
AM_4
100
AcDbLine
 10
-49.71917972235801
 20
-6.887292896806422
 30
0.0
 11
-49.05855597309809
 21
-7.14735426092354
 31
0.0
  0
LWPOLYLINE
  5
114
330
95
100
AcDbEntity
  8
AM_4
100
AcDbPolyline
 90
        3
 70
     0
 43
0.0
 10
-49.05855597309809
 20
-7.14735426092354
 10
-48.25463198140586
 20
-7.395910919975459
 10
-47.43055153202466
 20
-7.58869625231989
  0
LINE
  5
115
330
95
100
AcDbEntity
  8
AM_4
100
AcDbLine
 10
-47.12433803952582
 20
-6.830431020205951
 30
0.0
 11
-47.43055153202466
 21
-7.58869625231989
 31
0.0
  0
ARC
  5
116
330
95
100
AcDbEntity
  8
AM_4
100
AcDbCircle
 10
-46.98620828232475
 20
0.0000000000000115
 30
0.0
 40
5.079999999999986
100
AcDbArc
 50
90.0
 51
219.6412344517279
  0
LWPOLYLINE
  5
117
330
95
100
AcDbEntity
  8
AM_4
100
AcDbPolyline
 90
       10
 70
     0
 43
0.0
 10
-50.90296913267875
 20
-3.235023631994052
 10
-50.86070016018166
 20
-3.281280336792628
 10
-50.70125045958302
 20
-3.41561366815326
 10
-50.46864744338991
 20
-3.569173128090976
 10
-50.18172423867482
 20
-3.729407788863487
 10
-49.83269899969977
 20
-3.900563582124101
 10
-49.45013716031694
 20
-4.068570560479343
 10
-49.02358422069758
 20
-4.237973131810882
 10
-48.58164108238608
 20
-4.397035613753721
 10
-48.11826342699687
 20
-4.547549295795372
  0
ELLIPSE
  5
118
330
95
100
AcDbEntity
  8
AM_4
100
AcDbEllipse
 10
-46.98620828232471
 20
0.0000000000000018
 30
0.0
 11
3.110602869834277E-16
 21
5.08
 31
0.0
210
0.0
220
0.0
230
1.0
 40
0.4999999999999997
 41
0.0
 42
2.679646633022822
  0
LINE
  5
119
330
95
100
AcDbEntity
  8
AM_4
100
AcDbLine
 10
-45.99999999999999
 20
5.079999999999997
 30
0.0
 11
-46.98620828232472
 21
5.079999999999997
 31
0.0
  0
LINE
  5
11A
330
95
100
AcDbEntity
  8
AM_4
100
AcDbLine
 10
-46.09959033491103
 20
-5.080000000000001
 30
0.0
 11
-45.99999999999999
 21
-5.080000000000001
 31
0.0
  0
LWPOLYLINE
  5
11B
330
95
100
AcDbEntity
  8
AM_4
100
AcDbPolyline
 90
        8
 70
     0
 43
0.0
 10
-46.09583661554758
 20
-5.079999999236803
 10
-46.13360939342588
 20
-5.079458245572024
 10
-46.40979884553531
 20
-5.050335633392995
 10
-46.72471621707046
 20
-4.982589552160019
 10
-47.09107134836665
 20
-4.878563523460394
 10
-47.48510103683142
 20
-4.752207997638139
 10
-47.91927349302048
 20
-4.610115106939384
 10
-48.11826342699731
 20
-4.547549295794528
  0
LWPOLYLINE
  5
11C
330
95
100
AcDbEntity
  8
AM_4
100
AcDbPolyline
 90
        3
 70
     0
 43
0.0
 10
-46.16131908522004
 20
-2.778125
 10
-46.50965958392459
 20
-1.389062500000001
 10
-46.7638342926254
 20
-0.0000000000000003
  0
LINE
  5
11D
330
95
100
AcDbEntity
  8
AM_4
100
AcDbLine
 10
-46.01192043412261
 20
-3.272176712855389
 30
0.0
 11
-46.16131908522004
 21
-2.778125
 31
0.0
  0
LINE
  5
11E
330
95
100
AcDbEntity
  8
AM_4
100
AcDbLine
 10
-46.16131908522004
 20
2.778124999999998
 30
0.0
 11
-46.01184284880893
 21
3.272422197644767
 31
0.0
  0
LWPOLYLINE
  5
11F
330
95
100
AcDbEntity
  8
AM_4
100
AcDbPolyline
 90
        3
 70
     0
 43
0.0
 10
-46.7638342926254
 20
-0.0000000000000003
 10
-46.51099742392183
 20
1.382816900963398
 10
-46.16131908522004
 20
2.778124999999998
  0
LINE
  5
120
330
95
100
AcDbEntity
  8
AM_4
100
AcDbLine
 10
-46.7638342926254
 20
-0.0000000000000003
 30
0.0
 11
-45.99999999999999
 21
-0.0000000000000003
 31
0.0
  0
ENDBLK
  5
98
330
95
100
AcDbEntity
  8
0
100
AcDbBlockEnd
  0
BLOCK
  5
123
330
121
100
AcDbEntity
  8
0
100
AcDbBlockBegin
  2
3_129520_0_in_136297_4
 70
     2
 10
0.0
 20
0.0
 30
0.0
  3
3_129520_0_in_136297_4
  1

  0
ATTDEF
  5
125
330
121
100
AcDbEntity
  8
AM_6
100
AcDbText
 10
40.99948524199046
 20
13.93
 30
0.0
 40
0.5
  1
INS-GT-M B
100
AcDbAttributeDefinition
  3

  2
NN
 70
     8
280
     0
  0
ATTDEF
  5
126
330
121
100
AcDbEntity
  8
AM_6
100
AcDbText
 10
40.99948524199046
 20
13.43
 30
0.0
 40
0.5
  1
GT Normal Duty Bearing Inserts
100
AcDbAttributeDefinition
  3

  2
NT
 70
     8
280
     0
  0
ATTDEF
  5
127
330
121
100
AcDbEntity
  8
AM_6
100
AcDbText
 10
40.99948524199046
 20
12.93
 30
0.0
 40
0.5
  1
129520
100
AcDbAttributeDefinition
  3

  2
NB
 70
     8
280
     0
  0
ATTDEF
  5
128
330
121
100
AcDbEntity
  8
AM_6
100
AcDbText
 10
40.99948524199046
 20
12.43
 30
0.0
 40
0.5
  1
$PN.
100
AcDbAttributeDefinition
  3

  2
NBSYN
 70
     8
280
     0
  0
ATTDEF
  5
129
330
121
100
AcDbEntity
  8
AM_6
100
AcDbText
 10
40.99948524199046
 20
11.93
 30
0.0
 40
0.5
  1
129520
100
AcDbAttributeDefinition
  3

  2
LINA
 70
     8
280
     0
  0
ATTDEF
  5
12A
330
121
100
AcDbEntity
  8
AM_6
100
AcDbText
 10
40.99948524199046
 20
11.43
 30
0.0
 40
0.5
  1
207
100
AcDbAttributeDefinition
  3

  2
SERIES
 70
     8
280
     0
  0
ATTDEF
  5
12B
330
121
100
AcDbEntity
  8
AM_6
100
AcDbText
 10
40.99948524199046
 20
10.93
 30
0.0
 40
0.5
  1
129520
100
AcDbAttributeDefinition
  3

  2
PN
 70
     8
280
     0
  0
ATTDEF
  5
12C
330
121
100
AcDbEntity
  8
AM_6
100
AcDbText
 10
40.99948524199046
 20
10.43
 30
0.0
 40
0.5
  1
INS-GT-07
100
AcDbAttributeDefinition
  3

  2
DESCRIPTION
 70
     8
280
     0
  0
ATTDEF
  5
12D
330
121
100
AcDbEntity
  8
AM_6
100
AcDbText
 10
40.99948524199046
 20
9.930000000000001
 30
0.0
 40
0.5
  1
41.1
100
AcDbAttributeDefinition
  3

  2
A
 70
     8
280
     0
  0
ATTDEF
  5
12E
330
121
100
AcDbEntity
  8
AM_6
100
AcDbText
 10
40.99948524199046
 20
9.430000000000001
 30
0.0
 40
0.5
  1
19.1
100
AcDbAttributeDefinition
  3

  2
C
 70
     8
280
     0
  0
ATTDEF
  5
12F
330
121
100
AcDbEntity
  8
AM_6
100
AcDbText
 10
40.99948524199046
 20
8.930000000000001
 30
0.0
 40
0.5
  1
72.0
100
AcDbAttributeDefinition
  3

  2
D
 70
     8
280
     0
  0
ATTDEF
  5
130
330
121
100
AcDbEntity
  8
AM_6
100
AcDbText
 10
40.99948524199046
 20
8.430000000000001
 30
0.0
 40
0.5
  1
5.1
100
AcDbAttributeDefinition
  3

  2
J
 70
     8
280
     0
  0
ATTDEF
  5
131
330
121
100
AcDbEntity
  8
AM_6
100
AcDbText
 10
40.99948524199046
 20
7.930000000000001
 30
0.0
 40
0.5
  1
60.5
100
AcDbAttributeDefinition
  3

  2
L
 70
     8
280
     0
  0
ATTDEF
  5
132
330
121
100
AcDbEntity
  8
AM_6
100
AcDbText
 10
40.99948524199046
 20
7.430000000000001
 30
0.0
 40
0.5
  1
#10 - 32 x 1/4
100
AcDbAttributeDefinition
  3

  2
N
 70
     8
280
     0
  0
ATTDEF
  5
133
330
121
100
AcDbEntity
  8
AM_6
100
AcDbText
 10
40.99948524199046
 20
6.930000000000001
 30
0.0
 40
0.5
  1
13.7
100
AcDbAttributeDefinition
  3

  2
W
 70
     8
280
     0
  0
ATTDEF
  5
134
330
121
100
AcDbEntity
  8
AM_6
100
AcDbText
 10
40.99948524199046
 20
6.430000000000001
 30
0.0
 40
0.5
  1
29.0
100
AcDbAttributeDefinition
  3

  2
X
 70
     8
280
     0
  0
ATTDEF
  5
135
330
121
100
AcDbEntity
  8
AM_6
100
AcDbText
 10
40.99948524199046
 20
5.930000000000001
 30
0.0
 40
0.5
  1
27.4
100
AcDbAttributeDefinition
  3

  2
Y
 70
     8
280
     0
  0
ATTDEF
  5
136
330
121
100
AcDbEntity
  8
AM_6
100
AcDbText
 10
40.99948524199046
 20
5.430000000000001
 30
0.0
 40
0.5
  1
baldor
100
AcDbAttributeDefinition
  3

  2
COMPANY
 70
     8
280
     0
  0
LINE
  5
137
330
121
100
AcDbEntity
  8
AM_9
100
AcDbLine
 10
22.56746031746032
 20
-20.15
 30
0.0
 11
22.56746031746032
 21
-9.274999999999999
 31
0.0
  0
LINE
  5
138
330
121
100
AcDbEntity
  8
AM_9
100
AcDbLine
 10
-22.56746031746032
 20
-9.274999999999999
 30
0.0
 11
-22.56746031746032
 21
-20.15
 31
0.0
  0
LINE
  5
139
330
121
100
AcDbEntity
  8
AM_9
100
AcDbLine
 10
22.56746031746032
 20
-9.274999999999999
 30
0.0
 11
23.37779677351632
 21
13.93
 31
0.0
  0
LINE
  5
13A
330
121
100
AcDbEntity
  8
AM_9
100
AcDbLine
 10
-23.37779677351632
 20
13.93
 30
0.0
 11
-22.56746031746032
 21
-9.274999999999999
 31
0.0
  0
LINE
  5
13B
330
121
100
AcDbEntity
  8
AM_9
100
AcDbLine
 10
-22.56746031746032
 20
-9.274999999999999
 30
0.0
 11
22.56746031746032
 21
-9.274999999999999
 31
0.0
  0
LINE
  5
13C
330
121
100
AcDbEntity
  8
AM_9
100
AcDbLine
 10
24.7281746031746
 20
-16.525
 30
0.0
 11
24.7281746031746
 21
-12.9
 31
0.0
  0
LINE
  5
13D
330
121
100
AcDbEntity
  8
AM_9
100
AcDbLine
 10
-24.7281746031746
 20
-12.9
 30
0.0
 11
-24.7281746031746
 21
-16.525
 31
0.0
  0
LINE
  5
13E
330
121
100
AcDbEntity
  8
AM_9
100
AcDbLine
 10
26.88888888888888
 20
11.15
 30
0.0
 11
26.88888888888888
 21
12.7
 31
0.0
  0
LINE
  5
13F
330
121
100
AcDbEntity
  8
AM_9
100
AcDbLine
 10
-26.88888888888888
 20
12.7
 30
0.0
 11
-26.88888888888888
 21
11.15
 31
0.0
  0
LINE
  5
140
330
121
100
AcDbEntity
  8
AM_9
100
AcDbLine
 10
26.12488888888889
 20
-20.15
 30
0.0
 11
26.88888888888889
 21
-19.386
 31
0.0
  0
LINE
  5
141
330
121
100
AcDbEntity
  8
AM_9
100
AcDbLine
 10
-26.88888888888889
 20
-19.386
 30
0.0
 11
-26.12488888888889
 21
-20.15
 31
0.0
  0
LINE
  5
142
330
121
100
AcDbEntity
  8
AM_9
100
AcDbLine
 10
26.88888888888889
 20
-19.386
 30
0.0
 11
26.88888888888889
 21
-16.525
 31
0.0
  0
LINE
  5
143
330
121
100
AcDbEntity
  8
AM_9
100
AcDbLine
 10
-26.88888888888889
 20
-16.525
 30
0.0
 11
-26.88888888888889
 21
-19.386
 31
0.0
  0
LINE
  5
144
330
121
100
AcDbEntity
  8
AM_9
100
AcDbLine
 10
-26.88888888888889
 20
-19.386
 30
0.0
 11
26.88888888888889
 21
-19.386
 31
0.0
  0
LINE
  5
145
330
121
100
AcDbEntity
  8
AM_9
100
AcDbLine
 10
-26.88888888888889
 20
-16.525
 30
0.0
 11
26.88888888888889
 21
-16.525
 31
0.0
  0
LINE
  5
146
330
121
100
AcDbEntity
  8
AM_9
100
AcDbLine
 10
26.88888888888889
 20
-12.7
 30
0.0
 11
26.88888888888889
 21
-7.950000000000002
 31
0.0
  0
LINE
  5
147
330
121
100
AcDbEntity
  8
AM_9
100
AcDbLine
 10
-26.88888888888889
 20
-7.950000000000002
 30
0.0
 11
-26.88888888888889
 21
-12.7
 31
0.0
  0
LINE
  5
148
330
121
100
AcDbEntity
  8
AM_9
100
AcDbLine
 10
34.09
 20
-4.519999999999995
 30
0.0
 11
34.09
 21
-2.479999999999999
 31
0.0
  0
LINE
  5
149
330
121
100
AcDbEntity
  8
AM_9
100
AcDbLine
 10
-34.09
 20
-2.479999999999999
 30
0.0
 11
-34.09
 21
-4.519999999999995
 31
0.0
  0
LINE
  5
14A
330
121
100
AcDbEntity
  8
AM_9
100
AcDbLine
 10
-33.57487805166828
 20
-7.950000000000002
 30
0.0
 11
33.57487805166848
 21
-7.950000000000002
 31
0.0
  0
ARC
  5
14B
330
121
100
AcDbEntity
  8
AM_9
100
AcDbCircle
 10
33.574878040284
 20
-7.186000000000012
 30
0.0
 40
0.7639999999999896
100
AcDbArc
 50
270.0
 51
338.5875329531169
  0
ARC
  5
14C
330
121
100
AcDbEntity
  8
AM_9
100
AcDbCircle
 10
-33.574878040284
 20
-7.186000000000012
 30
0.0
 40
0.7639999999999942
100
AcDbArc
 50
201.4124670468831
 51
270.0
  0
LINE
  5
14D
330
121
100
AcDbEntity
  8
AM_9
100
AcDbLine
 10
-33.57487638096208
 20
11.15
 30
0.0
 11
33.57487804028401
 21
11.15
 31
0.0
  0
ARC
  5
14E
330
121
100
AcDbEntity
  8
AM_9
100
AcDbCircle
 10
33.57487804028399
 20
10.38599999999997
 30
0.0
 40
0.7640000000000312
100
AcDbArc
 50
21.4124568047854
 51
90.0
  0
ARC
  5
14F
330
121
100
AcDbEntity
  8
AM_9
100
AcDbCircle
 10
-33.57487804028399
 20
10.38599999999997
 30
0.0
 40
0.7640000000000331
100
AcDbArc
 50
90.0
 51
158.5875431952146
  0
ARC
  5
150
330
121
100
AcDbEntity
  8
AM_9
100
AcDbCircle
 10
11.17000000000078
 20
1.599999999999755
 30
0.0
 40
24.82999999999918
100
AcDbArc
 50
338.5875329531158
 51
345.1589346450359
  0
ARC
  5
151
330
121
100
AcDbEntity
  8
AM_9
100
AcDbCircle
 10
-11.17000000000477
 20
1.599999999998447
 30
0.0
 40
24.82999999999499
100
AcDbArc
 50
194.8410653549636
 51
201.4124670468848
  0
LINE
  5
152
330
121
100
AcDbEntity
  8
AM_9
100
AcDbLine
 10
-34.28614400981682
 20
-7.464920634920633
 30
0.0
 11
34.28614400981682
 21
-7.464920634920633
 31
0.0
  0
LINE
  5
153
330
121
100
AcDbEntity
  8
AM_9
100
AcDbLine
 10
-34.98704192514777
 20
-4.519999999999995
 30
0.0
 11
34.98704431704321
 21
-4.519999999999995
 31
0.0
  0
ARC
  5
154
330
121
100
AcDbEntity
  8
AM_9
100
AcDbCircle
 10
34.98704431704319
 20
-4.711000000000004
 30
0.0
 40
0.191000000000011
100
AcDbArc
 50
345.1589545282374
 51
90.0
  0
ARC
  5
155
330
121
100
AcDbEntity
  8
AM_9
100
AcDbCircle
 10
-34.98704431704319
 20
-4.711000000000004
 30
0.0
 40
0.1910000000000087
100
AcDbArc
 50
90.0
 51
194.8410454717627
  0
LINE
  5
156
330
121
100
AcDbEntity
  8
AM_9
100
AcDbLine
 10
-35.17167258467195
 20
-4.759922416052435
 30
0.0
 11
35.17167258467195
 21
-4.759922416052435
 31
0.0
  0
LINE
  5
157
330
121
100
AcDbEntity
  8
AM_9
100
AcDbLine
 10
-35.50014590992385
 20
-2.479999999999999
 30
0.0
 11
35.50014590996116
 21
-2.479999999999999
 31
0.0
  0
ARC
  5
158
330
121
100
AcDbEntity
  8
AM_9
100
AcDbCircle
 10
35.50014590996117
 20
-2.289000000000017
 30
0.0
 40
0.1909999999999812
100
AcDbArc
 50
270.0
 51
350.9185022622709
  0
ARC
  5
159
330
121
100
AcDbEntity
  8
AM_9
100
AcDbCircle
 10
-35.50014590996117
 20
-2.289000000000017
 30
0.0
 40
0.1909999999999853
100
AcDbArc
 50
189.0814977377291
 51
270.0
  0
ARC
  5
15A
330
121
100
AcDbEntity
  8
AM_9
100
AcDbCircle
 10
11.17000000000024
 20
1.600000000000049
 30
0.0
 40
24.82999999999976
100
AcDbArc
 50
350.9185022622673
 51
21.4124667317426
  0
ARC
  5
15B
330
121
100
AcDbEntity
  8
AM_9
100
AcDbCircle
 10
-11.17000000000028
 20
1.600000000000053
 30
0.0
 40
24.82999999999972
100
AcDbArc
 50
158.5875332682574
 51
189.0814977377329
  0
LINE
  5
15C
330
121
100
AcDbEntity
  8
AM_9
100
AcDbLine
 10
-35.68875169220892
 20
-2.319147286821708
 30
0.0
 11
35.68875169220892
 21
-2.319147286821708
 31
0.0
  0
LINE
  5
15D
330
121
100
AcDbEntity
  8
AM_9
100
AcDbLine
 10
-34.28614405967623
 20
10.66492050777588
 30
0.0
 11
34.28614405967623
 21
10.66492050777588
 31
0.0
  0
LINE
  5
15E
330
121
100
AcDbEntity
  8
AM_4
100
AcDbLine
 10
26.88888888888888
 20
12.7
 30
0.0
 11
26.88888888888888
 21
13.166
 31
0.0
  0
LINE
  5
15F
330
121
100
AcDbEntity
  8
AM_4
100
AcDbLine
 10
-26.88888888888888
 20
13.166
 30
0.0
 11
-26.88888888888888
 21
12.7
 31
0.0
  0
LINE
  5
160
330
121
100
AcDbEntity
  8
AM_4
100
AcDbLine
 10
-26.12488888888889
 20
13.93
 30
0.0
 11
-26.88888888888889
 21
13.166
 31
0.0
  0
LINE
  5
161
330
121
100
AcDbEntity
  8
AM_4
100
AcDbLine
 10
26.88888888888889
 20
13.166
 30
0.0
 11
26.12488888888889
 21
13.93
 31
0.0
  0
LINE
  5
162
330
121
100
AcDbEntity
  8
AM_4
100
AcDbLine
 10
-26.88888888888889
 20
13.166
 30
0.0
 11
26.88888888888889
 21
13.166
 31
0.0
  0
LINE
  5
163
330
121
100
AcDbEntity
  8
AM_4
100
AcDbLine
 10
-26.12488888888889
 20
13.93
 30
0.0
 11
26.12488888888889
 21
13.93
 31
0.0
  0
LINE
  5
164
330
121
100
AcDbEntity
  8
AM_4
100
AcDbLine
 10
26.88888888888889
 20
-12.9
 30
0.0
 11
26.88888888888889
 21
-12.7
 31
0.0
  0
LINE
  5
165
330
121
100
AcDbEntity
  8
AM_4
100
AcDbLine
 10
-26.88888888888889
 20
-12.7
 30
0.0
 11
-26.88888888888889
 21
-12.9
 31
0.0
  0
ENDBLK
  5
124
330
121
100
AcDbEntity
  8
0
100
AcDbBlockEnd
  0
BLOCK
  5
168
330
166
100
AcDbEntity
  8
0
100
AcDbBlockBegin
  2
4_136562i_0_in_136297_4
 70
     2
 10
0.0
 20
0.0
 30
0.0
  3
4_136562i_0_in_136297_4
  1

  0
ATTDEF
  5
16A
330
166
100
AcDbEntity
  8
AM_6
100
AcDbText
 10
35.25000000000001
 20
17.435
 30
0.0
 40
0.5
  1
Grip Tight Medium Duty Adapter and Nut Metric Bore
100
AcDbAttributeDefinition
  3

  2
NN
 70
     8
280
     0
  0
ATTDEF
  5
16B
330
166
100
AcDbEntity
  8
AM_6
100
AcDbText
 10
35.25000000000001
 20
16.935
 30
0.0
 40
0.5
  1
GT and GTM Adapter & Lock Nut Assemblies
100
AcDbAttributeDefinition
  3

  2
NT
 70
     8
280
     0
  0
ATTDEF
  5
16C
330
166
100
AcDbEntity
  8
AM_6
100
AcDbText
 10
35.25000000000001
 20
16.435
 30
0.0
 40
0.5
  1
136562i
100
AcDbAttributeDefinition
  3

  2
NB
 70
     8
280
     0
  0
ATTDEF
  5
16D
330
166
100
AcDbEntity
  8
AM_6
100
AcDbText
 10
35.25000000000001
 20
15.935
 30
0.0
 40
0.5
  1
$PN.i
100
AcDbAttributeDefinition
  3

  2
NBSYN
 70
     8
280
     0
  0
ATTDEF
  5
16E
330
166
100
AcDbEntity
  8
AM_6
100
AcDbText
 10
35.25000000000001
 20
15.435
 30
0.0
 40
0.5
  1
136562
100
AcDbAttributeDefinition
  3

  2
LINA
 70
     8
280
     0
  0
ATTDEF
  5
16F
330
166
100
AcDbEntity
  8
AM_6
100
AcDbText
 10
35.25000000000001
 20
14.935
 30
0.0
 40
0.5
  1
207
100
AcDbAttributeDefinition
  3

  2
SERIES
 70
     8
280
     0
  0
ATTDEF
  5
170
330
166
100
AcDbEntity
  8
AM_6
100
AcDbText
 10
35.25000000000001
 20
14.435
 30
0.0
 40
0.5
  1
30
100
AcDbAttributeDefinition
  3

  2
SS
 70
     8
280
     0
  0
ATTDEF
  5
171
330
166
100
AcDbEntity
  8
AM_6
100
AcDbText
 10
35.25000000000001
 20
13.935
 30
0.0
 40
0.5
  1
136562
100
AcDbAttributeDefinition
  3

  2
PN
 70
     8
280
     0
  0
ATTDEF
  5
172
330
166
100
AcDbEntity
  8
AM_6
100
AcDbText
 10
35.25000000000001
 20
13.435
 30
0.0
 40
0.5
  1
AN-GTM-07-30M-D
100
AcDbAttributeDefinition
  3

  2
DESCRIPTION
 70
     8
280
     0
  0
ATTDEF
  5
173
330
166
100
AcDbEntity
  8
AM_6
100
AcDbText
 10
35.25000000000001
 20
12.935
 30
0.0
 40
0.5
  1
41.1
100
AcDbAttributeDefinition
  3

  2
A
 70
     8
280
     0
  0
ATTDEF
  5
174
330
166
100
AcDbEntity
  8
AM_6
100
AcDbText
 10
35.25000000000001
 20
12.435
 30
0.0
 40
0.5
  1
19.1
100
AcDbAttributeDefinition
  3

  2
C
 70
     8
280
     0
  0
ATTDEF
  5
175
330
166
100
AcDbEntity
  8
AM_6
100
AcDbText
 10
35.25000000000001
 20
11.935
 30
0.0
 40
0.5
  1
72
100
AcDbAttributeDefinition
  3

  2
D
 70
     8
280
     0
  0
ATTDEF
  5
176
330
166
100
AcDbEntity
  8
AM_6
100
AcDbText
 10
35.25000000000001
 20
11.435
 30
0.0
 40
0.5
  1
5.1
100
AcDbAttributeDefinition
  3

  2
J
 70
     8
280
     0
  0
ATTDEF
  5
177
330
166
100
AcDbEntity
  8
AM_6
100
AcDbText
 10
35.25000000000001
 20
10.935
 30
0.0
 40
0.5
  1
60.5
100
AcDbAttributeDefinition
  3

  2
L
 70
     8
280
     0
  0
ATTDEF
  5
178
330
166
100
AcDbEntity
  8
AM_6
100
AcDbText
 10
35.25000000000001
 20
10.435
 30
0.0
 40
0.5
  1
10 - 32 x 1/4
100
AcDbAttributeDefinition
  3

  2
N
 70
     8
280
     0
  0
ATTDEF
  5
179
330
166
100
AcDbEntity
  8
AM_6
100
AcDbText
 10
35.25000000000001
 20
9.935000000000002
 30
0.0
 40
0.5
  1
13.7
100
AcDbAttributeDefinition
  3

  2
W
 70
     8
280
     0
  0
ATTDEF
  5
17A
330
166
100
AcDbEntity
  8
AM_6
100
AcDbText
 10
35.25000000000001
 20
9.435000000000002
 30
0.0
 40
0.5
  1
29.0
100
AcDbAttributeDefinition
  3

  2
X
 70
     8
280
     0
  0
ATTDEF
  5
17B
330
166
100
AcDbEntity
  8
AM_6
100
AcDbText
 10
35.25000000000001
 20
8.935000000000002
 30
0.0
 40
0.5
  1
27.4
100
AcDbAttributeDefinition
  3

  2
Y
 70
     8
280
     0
  0
ATTDEF
  5
17C
330
166
100
AcDbEntity
  8
AM_6
100
AcDbText
 10
35.25000000000001
 20
8.435000000000002
 30
0.0
 40
0.5
  1
baldor
100
AcDbAttributeDefinition
  3

  2
COMPANY
 70
     8
280
     0
  0
LINE
  5
17D
330
166
100
AcDbEntity
  8
AM_9
100
AcDbLine
 10
-2.55
 20
-12.9
 30
0.0
 11
-2.55
 21
-27.4
 31
0.0
  0
LINE
  5
17E
330
166
100
AcDbEntity
  8
AM_9
100
AcDbLine
 10
2.55
 20
-12.9
 30
0.0
 11
2.55
 21
-27.4
 31
0.0
  0
LINE
  5
17F
330
166
100
AcDbEntity
  8
AM_9
100
AcDbLine
 10
22.56746031746032
 20
-25.8
 30
0.0
 11
-22.56746040388889
 21
-25.8
 31
0.0
  0
LINE
  5
180
330
166
100
AcDbEntity
  8
AM_9
100
AcDbLine
 10
22.56746031746032
 20
-20.15
 30
0.0
 11
22.56746040388889
 21
-27.4
 31
0.0
  0
LINE
  5
181
330
166
100
AcDbEntity
  8
AM_9
100
AcDbLine
 10
-24.82902267850686
 20
-26.636
 30
0.0
 11
-27.37902267850686
 21
-26.636
 31
0.0
  0
LINE
  5
182
330
166
100
AcDbEntity
  8
AM_9
100
AcDbLine
 10
-24.82902267850686
 20
-13.664
 30
0.0
 11
-27.37902267850687
 21
-13.664
 31
0.0
  0
LINE
  5
183
330
166
100
AcDbEntity
  8
AM_9
100
AcDbLine
 10
27.37902267850684
 20
-26.636
 30
0.0
 11
24.82902267850685
 21
-26.636
 31
0.0
  0
LINE
  5
184
330
166
100
AcDbEntity
  8
AM_9
100
AcDbLine
 10
27.37902267850684
 20
-13.664
 30
0.0
 11
24.82902267850686
 21
-13.664
 31
0.0
  0
LINE
  5
185
330
166
100
AcDbEntity
  8
AM_9
100
AcDbLine
 10
14.94613996990527
 20
15.3
 30
0.0
 11
14.94613996990527
 21
-25.8
 31
0.0
  0
LINE
  5
186
330
166
100
AcDbEntity
  8
AM_9
100
AcDbLine
 10
-15.0
 20
15.3
 30
0.0
 11
-15.0
 21
-25.8
 31
0.0
  0
LINE
  5
187
330
166
100
AcDbEntity
  8
AM_9
100
AcDbLine
 10
-23.17577946410099
 20
-12.9
 30
0.0
 11
-23.17577946410099
 21
-27.4
 31
0.0
  0
LINE
  5
188
330
166
100
AcDbEntity
  8
AM_9
100
AcDbLine
 10
23.17577946410097
 20
-12.9
 30
0.0
 11
23.17577946410097
 21
-27.4
 31
0.0
  0
LINE
  5
189
330
166
100
AcDbEntity
  8
AM_9
100
AcDbLine
 10
-22.56746040388889
 20
-25.8
 30
0.0
 11
-22.56746040388889
 21
-27.4
 31
0.0
  0
LINE
  5
18A
330
166
100
AcDbEntity
  8
AM_9
100
AcDbLine
 10
22.53169698627011
 20
-20.15
 30
0.0
 11
22.5316969862701
 21
-9.274999999999999
 31
0.0
  0
LINE
  5
18B
330
166
100
AcDbEntity
  8
AM_9
100
AcDbLine
 10
-22.56746040388889
 20
-9.274999999999999
 30
0.0
 11
-22.56746040388889
 21
-20.15
 31
0.0
  0
LINE
  5
18C
330
166
100
AcDbEntity
  8
AM_9
100
AcDbLine
 10
22.5316969862701
 20
-9.274999999999999
 30
0.0
 11
23.34327496087952
 21
13.92999992305882
 31
0.0
  0
LINE
  5
18D
330
166
100
AcDbEntity
  8
AM_9
100
AcDbLine
 10
-23.3777968599449
 20
13.93
 30
0.0
 11
-22.56746040388889
 21
-9.274999999999999
 31
0.0
  0
LINE
  5
18E
330
166
100
AcDbEntity
  8
AM_9
100
AcDbLine
 10
-22.56746040388889
 20
-9.274999999999999
 30
0.0
 11
22.5316969862701
 21
-9.274999999999999
 31
0.0
  0
LINE
  5
18F
330
166
100
AcDbEntity
  8
AM_9
100
AcDbLine
 10
24.72817460317461
 20
-16.525
 30
0.0
 11
24.72817460317461
 21
-12.9
 31
0.0
  0
LINE
  5
190
330
166
100
AcDbEntity
  8
AM_9
100
AcDbLine
 10
-24.72817460317461
 20
-12.9
 30
0.0
 11
-24.72817460317461
 21
-16.525
 31
0.0
  0
LINE
  5
191
330
166
100
AcDbEntity
  8
AM_9
100
AcDbLine
 10
26.8888888888889
 20
-20.15
 30
0.0
 11
26.8888888888889
 21
-16.525
 31
0.0
  0
LINE
  5
192
330
166
100
AcDbEntity
  8
AM_9
100
AcDbLine
 10
-26.8888888888889
 20
-16.525
 30
0.0
 11
-26.8888888888889
 21
-20.15
 31
0.0
  0
LINE
  5
193
330
166
100
AcDbEntity
  8
AM_9
100
AcDbLine
 10
-26.8888888888889
 20
-16.525
 30
0.0
 11
26.8888888888889
 21
-16.525
 31
0.0
  0
LINE
  5
194
330
166
100
AcDbEntity
  8
AM_9
100
AcDbLine
 10
-26.8888888888889
 20
-20.15
 30
0.0
 11
26.8888888888889
 21
-20.15
 31
0.0
  0
LINE
  5
197
330
166
100
AcDbEntity
  8
AM_7
100
AcDbLine
 10
0.0
 20
-29.535
 30
0.0
 11
0.0
 21
17.435
 31
0.0
  0
LINE
  5
198
330
166
100
AcDbEntity
  8
AM_7
100
AcDbLine
 10
-2.533649999999998
 20
-24.52917070950809
 30
0.0
 11
2.533649999999996
 21
-24.52917070950809
 31
0.0
  0
LINE
  5
199
330
166
100
AcDbEntity
  8
AM_4
100
AcDbLine
 10
-30.25
 20
-26.636
 30
0.0
 11
-29.486
 21
-27.4
 31
0.0
  0
LINE
  5
19A
330
166
100
AcDbEntity
  8
AM_4
100
AcDbLine
 10
-27.37902267850686
 20
-26.636
 30
0.0
 11
-26.71495424524188
 21
-27.4
 31
0.0
  0
LINE
  5
19B
330
166
100
AcDbEntity
  8
AM_4
100
AcDbLine
 10
-27.37902267850687
 20
-13.664
 30
0.0
 11
-27.37902267850686
 21
-26.636
 31
0.0
  0
LINE
  5
19C
330
166
100
AcDbEntity
  8
AM_4
100
AcDbLine
 10
-30.25000000000001
 20
-13.664
 30
0.0
 11
-30.25000000000001
 21
-26.636
 31
0.0
  0
LINE
  5
19D
330
166
100
AcDbEntity
  8
AM_4
100
AcDbLine
 10
-30.25000000000001
 20
-26.636
 30
0.0
 11
-27.37902267850686
 21
-26.636
 31
0.0
  0
LINE
  5
19E
330
166
100
AcDbEntity
  8
AM_4
100
AcDbLine
 10
-26.71495424524189
 20
-12.90000000000001
 30
0.0
 11
-27.37902267850687
 21
-13.664
 31
0.0
  0
LINE
  5
19F
330
166
100
AcDbEntity
  8
AM_4
100
AcDbLine
 10
-29.48600000000001
 20
-12.9
 30
0.0
 11
-30.25000000000002
 21
-13.664
 31
0.0
  0
LINE
  5
1A0
330
166
100
AcDbEntity
  8
AM_4
100
AcDbLine
 10
-30.25000000000002
 20
-13.664
 30
0.0
 11
-27.37902267850687
 21
-13.664
 31
0.0
  0
LINE
  5
1A1
330
166
100
AcDbEntity
  8
AM_4
100
AcDbLine
 10
29.486
 20
-27.4
 30
0.0
 11
30.25
 21
-26.636
 31
0.0
  0
LINE
  5
1A2
330
166
100
AcDbEntity
  8
AM_4
100
AcDbLine
 10
27.37902267850684
 20
-26.636
 30
0.0
 11
30.25000000000001
 21
-26.636
 31
0.0
  0
LINE
  5
1A3
330
166
100
AcDbEntity
  8
AM_4
100
AcDbLine
 10
30.25000000000001
 20
-26.636
 30
0.0
 11
30.25000000000001
 21
-13.664
 31
0.0
  0
LINE
  5
1A4
330
166
100
AcDbEntity
  8
AM_4
100
AcDbLine
 10
27.37902267850684
 20
-13.664
 30
0.0
 11
30.25000000000002
 21
-13.664
 31
0.0
  0
LINE
  5
1A5
330
166
100
AcDbEntity
  8
AM_4
100
AcDbLine
 10
30.25000000000002
 20
-13.664
 30
0.0
 11
29.48600000000001
 21
-12.9
 31
0.0
  0
LINE
  5
1A6
330
166
100
AcDbEntity
  8
AM_4
100
AcDbLine
 10
26.71495424524187
 20
-27.4
 30
0.0
 11
27.37902267850684
 21
-26.636
 31
0.0
  0
LINE
  5
1A7
330
166
100
AcDbEntity
  8
AM_4
100
AcDbLine
 10
27.37902267850684
 20
-26.636
 30
0.0
 11
27.37902267850684
 21
-13.664
 31
0.0
  0
LINE
  5
1A8
330
166
100
AcDbEntity
  8
AM_4
100
AcDbLine
 10
27.37902267850684
 20
-13.664
 30
0.0
 11
26.71495424524188
 21
-12.9
 31
0.0
  0
LINE
  5
1A9
330
166
100
AcDbEntity
  8
AM_4
100
AcDbLine
 10
-25.72577946410098
 20
-12.9
 30
0.0
 11
-25.72577946410098
 21
-27.4
 31
0.0
  0
LINE
  5
1AA
330
166
100
AcDbEntity
  8
AM_4
100
AcDbLine
 10
29.48600000000001
 20
-12.9
 30
0.0
 11
-29.48600000000001
 21
-12.9
 31
0.0
  0
LINE
  5
1AB
330
166
100
AcDbEntity
  8
AM_4
100
AcDbLine
 10
-29.486
 20
-27.4
 30
0.0
 11
29.486
 21
-27.4
 31
0.0
  0
LINE
  5
1AC
330
166
100
AcDbEntity
  8
AM_4
100
AcDbLine
 10
25.72577946410097
 20
-12.9
 30
0.0
 11
25.72577946410097
 21
-27.4
 31
0.0
  0
LINE
  5
1AD
330
166
100
AcDbEntity
  8
AM_4
100
AcDbLine
 10
23.34327496087952
 20
13.92999992305882
 30
0.0
 11
23.39118702471738
 21
15.3
 31
0.0
  0
LINE
  5
1AE
330
166
100
AcDbEntity
  8
AM_4
100
AcDbLine
 10
-23.42563831414859
 20
15.3
 30
0.0
 11
-23.3777968599449
 21
13.93
 31
0.0
  0
LINE
  5
1AF
330
166
100
AcDbEntity
  8
AM_4
100
AcDbLine
 10
-23.42563831414859
 20
15.3
 30
0.0
 11
23.39118702471738
 21
15.3
 31
0.0
  0
LINE
  5
1B0
330
166
100
AcDbEntity
  8
AM_4
100
AcDbLine
 10
-24.16495424524188
 20
-27.4
 30
0.0
 11
-24.82902267850686
 21
-26.636
 31
0.0
  0
LINE
  5
1B1
330
166
100
AcDbEntity
  8
AM_4
100
AcDbLine
 10
24.82902267850685
 20
-26.636
 30
0.0
 11
24.16495424524187
 21
-27.4
 31
0.0
  0
LINE
  5
1B2
330
166
100
AcDbEntity
  8
AM_4
100
AcDbLine
 10
-24.82902267850686
 20
-13.664
 30
0.0
 11
-24.16495424524189
 21
-12.9
 31
0.0
  0
LINE
  5
1B3
330
166
100
AcDbEntity
  8
AM_4
100
AcDbLine
 10
24.16495424524188
 20
-12.9
 30
0.0
 11
24.82902267850686
 21
-13.664
 31
0.0
  0
LINE
  5
1B4
330
166
100
AcDbEntity
  8
AM_4
100
AcDbLine
 10
-24.82902267850686
 20
-26.636
 30
0.0
 11
-1.132250088923146
 21
-26.63600000000277
 31
0.0
  0
LINE
  5
1B5
330
166
100
AcDbEntity
  8
AM_4
100
AcDbLine
 10
1.132250088928082
 20
-26.636
 30
0.0
 11
24.82902267850685
 21
-26.636
 31
0.0
  0
LINE
  5
1B6
330
166
100
AcDbEntity
  8
AM_4
100
AcDbLine
 10
24.82902267850686
 20
-13.664
 30
0.0
 11
24.82902267850685
 21
-26.636
 31
0.0
  0
LINE
  5
1B7
330
166
100
AcDbEntity
  8
AM_4
100
AcDbLine
 10
-24.82902267850686
 20
-13.664
 30
0.0
 11
24.82902267850686
 21
-13.664
 31
0.0
  0
LINE
  5
1B8
330
166
100
AcDbEntity
  8
AM_4
100
AcDbLine
 10
-24.82902267850686
 20
-26.636
 30
0.0
 11
-24.82902267850686
 21
-13.664
 31
0.0
  0
CIRCLE
  5
1B9
330
166
100
AcDbEntity
  8
AM_4
100
AcDbCircle
 10
0.0
 20
-24.52917070950808
 30
0.0
 40
1.840229999999998
  0
LWPOLYLINE
  5
1BA
330
166
100
AcDbEntity
  8
AM_4
100
AcDbPolyline
 90
       33
 70
     0
 43
0.0
 10
-1.132250088923146
 20
-26.63600000000277
 10
-1.285470023552299
 20
-26.53889971005611
 10
-1.578778747157706
 20
-26.29913233729853
 10
-1.836161398681996
 20
-26.00734676989691
 10
-2.044773121361559
 20
-25.67475212929623
 10
-2.200822053690489
 20
-25.30279636772963
 10
-2.294768706047082
 20
-24.9080360790174
 10
-2.323345926254496
 20
-24.49183204335841
 10
-2.283069876333065
 20
-24.08058998862386
 10
-2.171322048715224
 20
-23.67042034695441
 10
-1.997103957351947
 20
-23.29628714926266
 10
-1.754285995263127
 20
-22.94741680305515
 10
-1.469567886039019
 20
-22.66052345335244
 10
-1.128892042727621
 20
-22.42039773018331
 10
-0.7758332694466548
 20
-22.25480733453809
 10
-0.3875206644346744
 20
-22.15000628176178
 10
-0.0127329965003526
 20
-22.11620698454488
 10
0.3735807942473255
 20
-22.14760009871928
 10
0.7325694239165931
 20
-22.23937267999158
 10
1.080955402679157
 20
-22.39346447641701
 10
1.394699976560707
 20
-22.59961937449955
 10
1.678292883764201
 20
-22.86087274171609
 10
1.917267868983154
 20
-23.16651364721931
 10
2.108674053744404
 20
-23.51607936786683
 10
2.241941758213168
 20
-23.89537725138953
 10
2.313327473429587
 20
-24.30239811589872
 10
2.316786092642038
 20
-24.71404352248767
 10
2.249821550179221
 20
-25.13213570500844
 10
2.116763012171744
 20
-25.52391953931873
 10
1.913136330786188
 20
-25.89807276209049
 10
1.72109356698815
 20
-26.14976563694855
 10
1.493110538122885
 20
-26.37757719583668
 10
1.132250088928082
 20
-26.636
  0
LWPOLYLINE
  5
1BB
330
166
100
AcDbEntity
  8
AM_4
100
AcDbPolyline
 90
        5
 70
     0
 43
0.0
 10
1.132250088928082
 20
-26.636
 10
0.5784548341019704
 20
-26.74924803234708
 10
-0.0101084047726186
 20
-26.78907320248596
 10
-0.5713370953007847
 20
-26.75022338149589
 10
-1.132250088923146
 20
-26.63600000000277
  0
ARC
  5
1BD
330
166
100
AcDbEntity
  8
AM_5
100
AcDbCircle
 10
-0.0000000000000041
 20
-24.52917070950808
 30
0.0
 40
2.413000000000003
100
AcDbArc
 50
75.0
 51
14.99999999999994
  0
ENDBLK
  5
169
330
166
100
AcDbEntity
  8
0
100
AcDbBlockEnd
  0
BLOCK
  5
1C0
330
1BE
100
AcDbEntity
  8
0
100
AcDbBlockBegin
  2
5_136297h_0_in_136297_4
 70
     2
 10
0.0
 20
0.0
 30
0.0
  3
5_136297h_0_in_136297_4
  1

  0
ATTDEF
  5
1C2
330
1BE
100
AcDbEntity
  8
AM_6
100
AcDbText
 10
74.78800000000015
 20
19.305
 30
0.0
 40
0.5
  1
NSTU-GTM - Metric - Housing
100
AcDbAttributeDefinition
  3

  2
NN
 70
     8
280
     0
  0
ATTDEF
  5
1C3
330
1BE
100
AcDbEntity
  8
AM_6
100
AcDbText
 10
74.78800000000015
 20
18.805
 30
0.0
 40
0.5
  1
GTM Normal Duty Narrow Slot Take-Up Bearings
100
AcDbAttributeDefinition
  3

  2
NT
 70
     8
280
     0
  0
ATTDEF
  5
1C4
330
1BE
100
AcDbEntity
  8
AM_6
100
AcDbText
 10
74.78800000000015
 20
18.305
 30
0.0
 40
0.5
  1
136297h
100
AcDbAttributeDefinition
  3

  2
NB
 70
     8
280
     0
  0
ATTDEF
  5
1C5
330
1BE
100
AcDbEntity
  8
AM_6
100
AcDbText
 10
74.78800000000015
 20
17.805
 30
0.0
 40
0.5
  1
$PN.h
100
AcDbAttributeDefinition
  3

  2
NBSYN
 70
     8
280
     0
  0
ATTDEF
  5
1C6
330
1BE
100
AcDbEntity
  8
AM_6
100
AcDbText
 10
74.78800000000015
 20
17.305
 30
0.0
 40
0.5
  1
136297I
100
AcDbAttributeDefinition
  3

  2
LINA
 70
     8
280
     0
  0
ATTDEF
  5
1C7
330
1BE
100
AcDbEntity
  8
AM_6
100
AcDbText
 10
74.78800000000015
 20
16.805
 30
0.0
 40
0.5
  1
207
100
AcDbAttributeDefinition
  3

  2
SERIES
 70
     8
280
     0
  0
ATTDEF
  5
1C8
330
1BE
100
AcDbEntity
  8
AM_6
100
AcDbText
 10
74.78800000000015
 20
16.305
 30
0.0
 40
0.5
  1
30
100
AcDbAttributeDefinition
  3

  2
SS
 70
     8
280
     0
  0
ATTDEF
  5
1C9
330
1BE
100
AcDbEntity
  8
AM_6
100
AcDbText
 10
74.78800000000015
 20
15.805
 30
0.0
 40
0.5
  1
30.000
100
AcDbAttributeDefinition
  3

  2
SS1
 70
     8
280
     0
  0
ATTDEF
  5
1CA
330
1BE
100
AcDbEntity
  8
AM_6
100
AcDbText
 10
74.78800000000015
 20
15.305
 30
0.0
 40
0.5
  1
136297
100
AcDbAttributeDefinition
  3

  2
PN
 70
     8
280
     0
  0
ATTDEF
  5
1CB
330
1BE
100
AcDbEntity
  8
AM_6
100
AcDbText
 10
74.78800000000015
 20
14.805
 30
0.0
 40
0.5
  1
NSTU-GTM-30M
100
AcDbAttributeDefinition
  3

  2
DESCRIPTION
 70
     8
280
     0
  0
ATTDEF
  5
1CC
330
1BE
100
AcDbEntity
  8
AM_6
100
AcDbText
 10
74.78800000000015
 20
14.305
 30
0.0
 40
0.5
  1
136213
100
AcDbAttributeDefinition
  3

  2
PNSL
 70
     8
280
     0
  0
ATTDEF
  5
1CD
330
1BE
100
AcDbEntity
  8
AM_6
100
AcDbText
 10
74.78800000000015
 20
13.805
 30
0.0
 40
0.5
  1
NSTU-GT-07
100
AcDbAttributeDefinition
  3

  2
DESCRIPTIONSL
 70
     8
280
     0
  0
ATTDEF
  5
1CE
330
1BE
100
AcDbEntity
  8
AM_6
100
AcDbText
 10
74.78800000000015
 20
13.305
 30
0.0
 40
0.5
  1
136562
100
AcDbAttributeDefinition
  3

  2
PNA
 70
     8
280
     0
  0
ATTDEF
  5
1CF
330
1BE
100
AcDbEntity
  8
AM_6
100
AcDbText
 10
74.78800000000015
 20
12.805
 30
0.0
 40
0.5
  1
AN-GTM-07-30M-D
100
AcDbAttributeDefinition
  3

  2
DESCRIPTIONA
 70
     8
280
     0
  0
ATTDEF
  5
1D0
330
1BE
100
AcDbEntity
  8
AM_6
100
AcDbText
 10
74.78800000000015
 20
12.305
 30
0.0
 40
0.5
  1
1.2
100
AcDbAttributeDefinition
  3

  2
W
 70
     8
280
     0
  0
ATTDEF
  5
1D1
330
1BE
100
AcDbEntity
  8
AM_6
100
AcDbText
 10
74.78800000000015
 20
11.805
 30
0.0
 40
0.5
  1
NS308
100
AcDbAttributeDefinition
  3

  2
TUFS
 70
     8
280
     0
  0
ATTDEF
  5
1D2
330
1BE
100
AcDbEntity
  8
AM_6
100
AcDbText
 10
74.78800000000015
 20
11.305
 30
0.0
 40
0.5
  1
41.1
100
AcDbAttributeDefinition
  3

  2
A
 70
     8
280
     0
  0
ATTDEF
  5
1D3
330
1BE
100
AcDbEntity
  8
AM_6
100
AcDbText
 10
74.78800000000015
 20
10.805
 30
0.0
 40
0.5
  1
41.100
100
AcDbAttributeDefinition
  3

  2
A1
 70
     8
280
     0
  0
ATTDEF
  5
1D4
330
1BE
100
AcDbEntity
  8
AM_6
100
AcDbText
 10
74.78800000000015
 20
10.305
 30
0.0
 40
0.5
  1
114.3
100
AcDbAttributeDefinition
  3

  2
B
 70
     8
280
     0
  0
ATTDEF
  5
1D5
330
1BE
100
AcDbEntity
  8
AM_6
100
AcDbText
 10
74.78800000000015
 20
9.805
 30
0.0
 40
0.5
  1
114.300
100
AcDbAttributeDefinition
  3

  2
B1
 70
     8
280
     0
  0
ATTDEF
  5
1D6
330
1BE
100
AcDbEntity
  8
AM_6
100
AcDbText
 10
74.78800000000015
 20
9.305
 30
0.0
 40
0.5
  1
6.35
100
AcDbAttributeDefinition
  3

  2
C
 70
     8
280
     0
  0
ATTDEF
  5
1D7
330
1BE
100
AcDbEntity
  8
AM_6
100
AcDbText
 10
74.78800000000015
 20
8.805
 30
0.0
 40
0.5
  1
6.350
100
AcDbAttributeDefinition
  3

  2
C1
 70
     8
280
     0
  0
ATTDEF
  5
1D8
330
1BE
100
AcDbEntity
  8
AM_6
100
AcDbText
 10
74.78800000000015
 20
8.305
 30
0.0
 40
0.5
  1
63.5
100
AcDbAttributeDefinition
  3

  2
D
 70
     8
280
     0
  0
ATTDEF
  5
1D9
330
1BE
100
AcDbEntity
  8
AM_6
100
AcDbText
 10
74.78800000000015
 20
7.805
 30
0.0
 40
0.5
  1
63.500
100
AcDbAttributeDefinition
  3

  2
D1
 70
     8
280
     0
  0
ATTDEF
  5
1DA
330
1BE
100
AcDbEntity
  8
AM_6
100
AcDbText
 10
74.78800000000015
 20
7.305
 30
0.0
 40
0.5
  1
68.3
100
AcDbAttributeDefinition
  3

  2
E
 70
     8
280
     0
  0
ATTDEF
  5
1DB
330
1BE
100
AcDbEntity
  8
AM_6
100
AcDbText
 10
74.78800000000015
 20
6.805
 30
0.0
 40
0.5
  1
68.300
100
AcDbAttributeDefinition
  3

  2
E1
 70
     8
280
     0
  0
ATTDEF
  5
1DC
330
1BE
100
AcDbEntity
  8
AM_6
100
AcDbText
 10
74.78800000000015
 20
6.305
 30
0.0
 40
0.5
  1
19.1
100
AcDbAttributeDefinition
  3

  2
F
 70
     8
280
     0
  0
ATTDEF
  5
1DD
330
1BE
100
AcDbEntity
  8
AM_6
100
AcDbText
 10
74.78800000000015
 20
5.805
 30
0.0
 40
0.5
  1
19.100
100
AcDbAttributeDefinition
  3

  2
F1
 70
     8
280
     0
  0
ATTDEF
  5
1DE
330
1BE
100
AcDbEntity
  8
AM_6
100
AcDbText
 10
74.78800000000015
 20
5.305
 30
0.0
 40
0.5
  1
12.7
100
AcDbAttributeDefinition
  3

  2
G
 70
     8
280
     0
  0
ATTDEF
  5
1DF
330
1BE
100
AcDbEntity
  8
AM_6
100
AcDbText
 10
74.78800000000015
 20
4.805
 30
0.0
 40
0.5
  1
12.700
100
AcDbAttributeDefinition
  3

  2
G1
 70
     8
280
     0
  0
ATTDEF
  5
1E0
330
1BE
100
AcDbEntity
  8
AM_6
100
AcDbText
 10
74.78800000000015
 20
4.305
 30
0.0
 40
0.5
  1
23.9
100
AcDbAttributeDefinition
  3

  2
H
 70
     8
280
     0
  0
ATTDEF
  5
1E1
330
1BE
100
AcDbEntity
  8
AM_6
100
AcDbText
 10
74.78800000000015
 20
3.805
 30
0.0
 40
0.5
  1
23.900
100
AcDbAttributeDefinition
  3

  2
H1
 70
     8
280
     0
  0
ATTDEF
  5
1E2
330
1BE
100
AcDbEntity
  8
AM_6
100
AcDbText
 10
74.78800000000015
 20
3.305
 30
0.0
 40
0.5
  1
35.1
100
AcDbAttributeDefinition
  3

  2
J
 70
     8
280
     0
  0
ATTDEF
  5
1E3
330
1BE
100
AcDbEntity
  8
AM_6
100
AcDbText
 10
74.78800000000015
 20
2.805
 30
0.0
 40
0.5
  1
35.100
100
AcDbAttributeDefinition
  3

  2
J1
 70
     8
280
     0
  0
ATTDEF
  5
1E4
330
1BE
100
AcDbEntity
  8
AM_6
100
AcDbText
 10
74.78800000000015
 20
2.305
 30
0.0
 40
0.5
  1
60.5
100
AcDbAttributeDefinition
  3

  2
L
 70
     8
280
     0
  0
ATTDEF
  5
1E5
330
1BE
100
AcDbEntity
  8
AM_6
100
AcDbText
 10
74.78800000000015
 20
1.805
 30
0.0
 40
0.5
  1
60.500
100
AcDbAttributeDefinition
  3

  2
L1
 70
     8
280
     0
  0
ATTDEF
  5
1E6
330
1BE
100
AcDbEntity
  8
AM_6
100
AcDbText
 10
74.78800000000015
 20
1.305
 30
0.0
 40
0.5
  1
89.15/88.39
100
AcDbAttributeDefinition
  3

  2
M
 70
     8
280
     0
  0
ATTDEF
  5
1E7
330
1BE
100
AcDbEntity
  8
AM_6
100
AcDbText
 10
74.78800000000015
 20
0.8049999999999997
 30
0.0
 40
0.5
  1
89.150
100
AcDbAttributeDefinition
  3

  2
M1
 70
     8
280
     0
  0
ATTDEF
  5
1E8
330
1BE
100
AcDbEntity
  8
AM_6
100
AcDbText
 10
74.78800000000015
 20
0.3049999999999997
 30
0.0
 40
0.5
  1
104.9
100
AcDbAttributeDefinition
  3

  2
N
 70
     8
280
     0
  0
ATTDEF
  5
1E9
330
1BE
100
AcDbEntity
  8
AM_6
100
AcDbText
 10
74.78800000000015
 20
-0.1950000000000003
 30
0.0
 40
0.5
  1
104.900
100
AcDbAttributeDefinition
  3

  2
N1
 70
     8
280
     0
  0
ATTDEF
  5
1EA
330
1BE
100
AcDbEntity
  8
AM_6
100
AcDbText
 10
74.78800000000015
 20
-0.6950000000000003
 30
0.0
 40
0.5
  1
8.1
100
AcDbAttributeDefinition
  3

  2
P
 70
     8
280
     0
  0
ATTDEF
  5
1EB
330
1BE
100
AcDbEntity
  8
AM_6
100
AcDbText
 10
74.78800000000015
 20
-1.195
 30
0.0
 40
0.5
  1
8.100
100
AcDbAttributeDefinition
  3

  2
P1
 70
     8
280
     0
  0
ATTDEF
  5
1EC
330
1BE
100
AcDbEntity
  8
AM_6
100
AcDbText
 10
74.78800000000015
 20
-1.695
 30
0.0
 40
0.5
  1
13.7
100
AcDbAttributeDefinition
  3

  2
R
 70
     8
280
     0
  0
ATTDEF
  5
1ED
330
1BE
100
AcDbEntity
  8
AM_6
100
AcDbText
 10
74.78800000000015
 20
-2.195
 30
0.0
 40
0.5
  1
13.700
100
AcDbAttributeDefinition
  3

  2
R1
 70
     8
280
     0
  0
ATTDEF
  5
1EE
330
1BE
100
AcDbEntity
  8
AM_6
100
AcDbText
 10
74.78800000000015
 20
-2.695
 30
0.0
 40
0.5
  1
27.4
100
AcDbAttributeDefinition
  3

  2
S
 70
     8
280
     0
  0
ATTDEF
  5
1EF
330
1BE
100
AcDbEntity
  8
AM_6
100
AcDbText
 10
74.78800000000015
 20
-3.195
 30
0.0
 40
0.5
  1
27.400
100
AcDbAttributeDefinition
  3

  2
S1
 70
     8
280
     0
  0
ATTDEF
  5
1F0
330
1BE
100
AcDbEntity
  8
AM_6
100
AcDbText
 10
74.78800000000015
 20
-3.695
 30
0.0
 40
0.5
  1
29.0
100
AcDbAttributeDefinition
  3

  2
Z
 70
     8
280
     0
  0
ATTDEF
  5
1F1
330
1BE
100
AcDbEntity
  8
AM_6
100
AcDbText
 10
74.78800000000015
 20
-4.195
 30
0.0
 40
0.5
  1
29.000
100
AcDbAttributeDefinition
  3

  2
Z1
 70
     8
280
     0
  0
ATTDEF
  5
1F2
330
1BE
100
AcDbEntity
  8
AM_6
100
AcDbText
 10
74.78800000000015
 20
-4.695
 30
0.0
 40
0.5
  1
3065
100
AcDbAttributeDefinition
  3

  2
CAPS
 70
     8
280
     0
  0
ATTDEF
  5
1F3
330
1BE
100
AcDbEntity
  8
AM_6
100
AcDbText
 10
74.78800000000015
 20
-5.195
 30
0.0
 40
0.5
  1
5759
100
AcDbAttributeDefinition
  3

  2
CAPD
 70
     8
280
     0
  0
ATTDEF
  5
1F4
330
1BE
100
AcDbEntity
  8
AM_6
100
AcDbText
 10
74.78800000000015
 20
-5.695
 30
0.0
 40
0.5
  1
baldor
100
AcDbAttributeDefinition
  3

  2
COMPANY
 70
     8
280
     0
  0
LINE
  5
1F5
330
1BE
100
AcDbEntity
  8
AM_9
100
AcDbLine
 10
59.65
 20
9.546359275337007
 30
0.0
 11
59.65
 21
17.54999999999988
 31
0.0
  0
LINE
  5
1F6
330
1BE
100
AcDbEntity
  8
AM_9
100
AcDbLine
 10
51.55
 20
17.54999999999988
 30
0.0
 11
51.55
 21
9.549999999999999
 31
0.0
  0
LINE
  5
1F7
330
1BE
100
AcDbEntity
  8
AM_9
100
AcDbLine
 10
59.65
 20
-17.54999999999988
 30
0.0
 11
59.65
 21
-9.546359275337007
 31
0.0
  0
LINE
  5
1F8
330
1BE
100
AcDbEntity
  8
AM_9
100
AcDbLine
 10
51.55
 20
-9.55
 30
0.0
 11
51.55
 21
-17.54999999999988
 31
0.0
  0
LINE
  5
1F9
330
1BE
100
AcDbEntity
  8
AM_9
100
AcDbLine
 10
59.55734636780373
 20
-9.51107724050071
 30
0.0
 11
59.64999999920087
 21
-9.549999999661102
 31
0.0
  0
LINE
  5
1FA
330
1BE
100
AcDbEntity
  8
AM_9
100
AcDbLine
 10
44.4
 20
9.55
 30
0.0
 11
44.4
 21
-9.55
 31
0.0
  0
LWPOLYLINE
  5
1FB
330
1BE
100
AcDbEntity
  8
AM_9
100
AcDbPolyline
 90
       21
 70
     0
 43
0.0
 10
51.55
 20
9.55
 10
51.60061518249288
 20
9.528645177490162
 10
51.75645792607574
 20
9.464291609731076
 10
52.00232172799734
 20
9.367138781337665
 10
52.34341522257251
 20
9.24150119907867
 10
52.77445140651039
 20
9.098556196131952
 10
53.2934799688931
 20
8.95097953600037
 10
53.89228572195437
 20
8.815684208014765
 10
54.56765871365616
 20
8.710093485806572
 10
55.22279027104575
 20
8.656921345352387
 10
55.91310023453288
 20
8.654364896216508
 10
56.52027077319921
 20
8.697522537826776
 10
57.11856089688975
 20
8.781003769362737
 10
57.67406962787888
 20
8.893917293369084
 10
58.18988692653851
 20
9.028151211197954
 10
58.66702334899142
 20
9.176417177921813
 10
59.07111992794484
 20
9.319263573597208
 10
59.37496682026707
 20
9.436650597225546
 10
59.57478330116932
 20
9.518345564816109
 10
59.64799684574719
 20
9.549150667110624
 10
59.64999999920087
 20
9.549999999661102
  0
LINE
  5
1FC
330
1BE
100
AcDbEntity
  8
AM_9
100
AcDbLine
 10
44.4
 20
-9.55
 30
0.0
 11
51.55
 21
-9.55
 31
0.0
  0
LINE
  5
1FD
330
1BE
100
AcDbEntity
  8
AM_9
100
AcDbLine
 10
59.64136928364734
 20
-9.55
 30
0.0
 11
68.3
 21
-9.55
 31
0.0
  0
LINE
  5
1FE
330
1BE
100
AcDbEntity
  8
AM_9
100
AcDbLine
 10
68.3
 20
9.55
 30
0.0
 11
59.64136928364734
 21
9.55
 31
0.0
  0
LINE
  5
1FF
330
1BE
100
AcDbEntity
  8
AM_9
100
AcDbLine
 10
51.55000000000001
 20
9.55
 30
0.0
 11
44.4
 21
9.55
 31
0.0
  0
LWPOLYLINE
  5
200
330
1BE
100
AcDbEntity
  8
AM_9
100
AcDbPolyline
 90
       21
 70
     0
 43
0.0
 10
59.64999999920087
 20
-9.549999999661102
 10
59.61287864134533
 20
-9.534316702845857
 10
59.48247476341655
 20
-9.480169317505162
 10
59.25563638333477
 20
-9.38955149978746
 10
58.94036885515076
 20
-9.271357186974361
 10
58.53531889232804
 20
-9.133241319469114
 10
58.0329518701482
 20
-8.984389506385932
 10
57.44445711551879
 20
-8.843190716646786
 10
56.80639537013028
 20
-8.732433211257435
 10
56.10428410464363
 20
-8.663388624446917
 10
55.46207563296721
 20
-8.649799022579739
 10
54.80372529082964
 20
-8.685277969786826
 10
54.21781343233381
 20
-8.758449617816895
 10
53.65327588199431
 20
-8.865085154223001
 10
53.12021229696154
 20
-8.997185507265081
 10
52.63894303785657
 20
-9.141545729965918
 10
52.21613993867395
 20
-9.287115209505995
 10
51.87999169210894
 20
-9.414800147150155
 10
51.66432528977199
 20
-9.502080583994667
 10
51.55805825248527
 20
-9.546585415231064
 10
51.55
 20
-9.55
  0
LINE
  5
201
330
1BE
100
AcDbEntity
  8
AM_9
100
AcDbLine
 10
59.64999999920087
 20
9.549999999661102
 30
0.0
 11
59.56231484573934
 21
9.513145585807374
 31
0.0
  0
LINE
  5
202
330
1BE
100
AcDbEntity
  8
AM_9
100
AcDbLine
 10
14.4
 20
-3.809999999999995
 30
0.0
 11
14.4
 21
12.7
 31
0.0
  0
LINE
  5
203
330
1BE
100
AcDbEntity
  8
AM_9
100
AcDbLine
 10
-14.4
 20
-3.809999999999995
 30
0.0
 11
-14.4
 21
12.7
 31
0.0
  0
LINE
  5
204
330
1BE
100
AcDbEntity
  8
AM_9
100
AcDbLine
 10
36.00000000000001
 20
-12.7
 30
0.0
 11
36.00000000000001
 21
12.7
 31
0.0
  0
LINE
  5
205
330
1BE
100
AcDbEntity
  8
AM_9
100
AcDbLine
 10
-36.00000000000001
 20
12.7
 30
0.0
 11
-36.00000000000001
 21
-12.7
 31
0.0
  0
LINE
  5
206
330
1BE
100
AcDbEntity
  8
AM_9
100
AcDbLine
 10
14.4
 20
-3.809999999999995
 30
0.0
 11
-14.4
 21
-3.809999999999995
 31
0.0
  0
LINE
  5
207
330
1BE
100
AcDbEntity
  8
AM_7
100
AcDbLine
 10
37.052
 20
0.0
 30
0.0
 11
69.78800000000015
 21
0.0
 31
0.0
  0
LINE
  5
208
330
1BE
100
AcDbEntity
  8
AM_7
100
AcDbLine
 10
55.6
 20
19.305
 30
0.0
 11
55.6
 21
-19.305
 31
0.0
  0
LINE
  5
209
330
1BE
100
AcDbEntity
  8
AM_4
100
AcDbLine
 10
38.54000000000006
 20
-12.7
 30
0.0
 11
38.54000000000012
 21
-15.4333333545
 31
0.0
  0
ARC
  5
20A
330
1BE
100
AcDbEntity
  8
AM_4
100
AcDbCircle
 10
40.65666664550015
 20
-15.43333335449997
 30
0.0
 40
2.116666645500025
100
AcDbArc
 50
180.0
 51
270.0
  0
LINE
  5
20B
330
1BE
100
AcDbEntity
  8
AM_4
100
AcDbLine
 10
38.54000000000012
 20
15.4333333545
 30
0.0
 11
38.54000000000006
 21
12.7
 31
0.0
  0
ARC
  5
20C
330
1BE
100
AcDbEntity
  8
AM_4
100
AcDbCircle
 10
40.65666664550013
 20
15.43333335449998
 30
0.0
 40
2.116666645500011
100
AcDbArc
 50
90.0
 51
180.0
  0
LINE
  5
20D
330
1BE
100
AcDbEntity
  8
AM_4
100
AcDbLine
 10
68.30000000000011
 20
15.43333335449976
 30
0.0
 11
68.30000000000011
 21
-15.43333335449976
 31
0.0
  0
ARC
  5
20E
330
1BE
100
AcDbEntity
  8
AM_4
100
AcDbCircle
 10
66.18333335450012
 20
-15.43333335449979
 30
0.0
 40
2.116666645499999
100
AcDbArc
 50
270.0
 51
0.0
  0
ARC
  5
20F
330
1BE
100
AcDbEntity
  8
AM_4
100
AcDbCircle
 10
66.18333335450012
 20
15.43333335449979
 30
0.0
 40
2.11666664549999
100
AcDbArc
 50
0.0
 51
90.0
  0
LINE
  5
210
330
1BE
100
AcDbEntity
  8
AM_4
100
AcDbLine
 10
66.18333335450014
 20
17.54999999999988
 30
0.0
 11
66.18333335450014
 21
-17.54999999999988
 31
0.0
  0
LINE
  5
211
330
1BE
100
AcDbEntity
  8
AM_4
100
AcDbLine
 10
40.65666664549999
 20
-12.7
 30
0.0
 11
40.65666664550015
 21
-17.54999999999988
 31
0.0
  0
LWPOLYLINE
  5
212
330
1BE
100
AcDbEntity
  8
AM_4
100
AcDbPolyline
 90
       20
 70
     0
 43
0.0
 10
51.55
 20
17.54999999999988
 10
51.60420189344146
 20
17.53757116901804
 10
51.77140887094119
 20
17.50023171370894
 10
52.03688223987879
 20
17.44407659271443
 10
52.40766058970922
 20
17.37213374662112
 10
52.86125761635508
 20
17.29452832094503
 10
53.40562256113424
 20
17.21671549234057
 10
54.00399607132868
 20
17.15072093354478
 10
54.66843468268281
 20
17.1016903825448
 10
55.3296239241953
 20
17.07843971861494
 10
56.01876907309217
 20
17.08143341574634
 10
56.66294680710539
 20
17.10934995593733
 10
57.29516895290475
 20
17.16023303393311
 10
57.86898920909422
 20
17.22638418330971
 10
58.39533094858879
 20
17.30357983517097
 10
58.84216667122077
 20
17.38135911613276
 10
59.20869719052524
 20
17.45344365484649
 10
59.46442067429624
 20
17.50810518439744
 10
59.61520178148109
 20
17.54200231860676
 10
59.64999999993583
 20
17.54999999998508
  0
LINE
  5
213
330
1BE
100
AcDbEntity
  8
AM_4
100
AcDbLine
 10
40.65666664550015
 20
-17.54999999999988
 30
0.0
 11
51.55000000000001
 21
-17.54999999999988
 31
0.0
  0
LINE
  5
214
330
1BE
100
AcDbEntity
  8
AM_4
100
AcDbLine
 10
59.64124351078804
 20
-17.54999999999988
 30
0.0
 11
66.18333335450014
 21
-17.54999999999988
 31
0.0
  0
LINE
  5
215
330
1BE
100
AcDbEntity
  8
AM_4
100
AcDbLine
 10
66.18333335450014
 20
17.54999999999988
 30
0.0
 11
59.64124351078802
 21
17.54999999999988
 31
0.0
  0
LINE
  5
216
330
1BE
100
AcDbEntity
  8
AM_4
100
AcDbLine
 10
51.55000000000001
 20
17.54999999999988
 30
0.0
 11
40.65666664550015
 21
17.54999999999988
 31
0.0
  0
LINE
  5
217
330
1BE
100
AcDbEntity
  8
AM_4
100
AcDbLine
 10
40.65666664550015
 20
17.54999999999988
 30
0.0
 11
40.65666664550002
 21
12.7
 31
0.0
  0
LWPOLYLINE
  5
218
330
1BE
100
AcDbEntity
  8
AM_4
100
AcDbPolyline
 90
       21
 70
     0
 43
0.0
 10
59.64999999993583
 20
-17.54999999998508
 10
59.64780130059839
 20
-17.54949273822814
 10
59.56770640727273
 20
-17.53119203403777
 10
59.38483987107604
 20
-17.49071218817814
 10
59.09434538212405
 20
-17.43015919748205
 10
58.71357058416044
 20
-17.35783171316469
 10
58.23578638718025
 20
-17.27852337090301
 10
57.6876518874768
 20
-17.20343833084777
 10
57.06165262255647
 20
-17.13874057184551
 10
56.41475478582934
 20
-17.09572535346274
 10
55.72353350346505
 20
-17.07674619259991
 10
55.06495550565717
 20
-17.0846794705351
 10
54.4027778517351
 20
-17.11821663819841
 10
53.79475438315499
 20
-17.17145630798783
 10
53.22029214662033
 20
-17.24131692961514
 10
52.71436978937385
 20
-17.31839662649158
 10
52.27595618175739
 20
-17.3968177350225
 10
51.93670360237356
 20
-17.46481435620943
 10
51.69418499159679
 20
-17.5172883426592
 10
51.58692435720067
 20
-17.54151578726382
 10
51.55
 20
-17.54999999999988
  0
LINE
  5
219
330
1BE
100
AcDbEntity
  8
AM_4
100
AcDbLine
 10
-45.99999999999999
 20
7.960295474387525
 30
0.0
 11
-45.99999999999999
 21
-7.960295474387525
 31
0.0
  0
LWPOLYLINE
  5
21A
330
1BE
100
AcDbEntity
  8
AM_4
100
AcDbPolyline
 90
       15
 70
     0
 43
0.0
 10
43.25926263864835
 20
7.960295474387527
 10
43.11628661106154
 20
7.142545046496712
 10
42.98533502141704
 20
6.304088110382011
 10
42.85147846101383
 20
5.31453682969699
 10
42.73779007269719
 20
4.302753874402447
 10
42.64644907546433
 20
3.274464650316228
 10
42.57713198441866
 20
2.191645681993928
 10
42.53485456090299
 20
1.097698282166051
 10
42.52055385340132
 20
0.0000000000000011
 10
42.54356013071422
 20
-1.396232393767493
 10
42.61147947937752
 20
-2.782208371313993
 10
42.72649448606506
 20
-4.189142068141789
 10
42.88309962777458
 20
-5.564416742627987
 10
43.05757911794689
 20
-6.779204931129703
 10
43.25926263864835
 20
-7.960295474387523
  0
LWPOLYLINE
  5
21B
330
1BE
100
AcDbEntity
  8
AM_4
100
AcDbPolyline
 90
        5
 70
     0
 43
0.0
 10
43.05880165541074
 20
12.7
 10
43.05508022266699
 20
11.65170120424606
 10
43.0819618860897
 20
10.51469719223087
 10
43.14781108969087
 20
9.2757460888801
 10
43.25926263864835
 20
7.960295474387527
  0
LINE
  5
21C
330
1BE
100
AcDbEntity
  8
AM_4
100
AcDbLine
 10
31.75
 20
7.960295474387525
 30
0.0
 11
43.25926263864835
 21
7.960295474387527
 31
0.0
  0
LINE
  5
21D
330
1BE
100
AcDbEntity
  8
AM_4
100
AcDbLine
 10
-44.72999999999999
 20
12.7
 30
0.0
 11
-45.99999999999999
 21
7.960295474387525
 31
0.0
  0
LINE
  5
21E
330
1BE
100
AcDbEntity
  8
AM_4
100
AcDbLine
 10
-44.72999999999999
 20
12.7
 30
0.0
 11
43.05880165541074
 21
12.7
 31
0.0
  0
LINE
  5
21F
330
1BE
100
AcDbEntity
  8
AM_4
100
AcDbLine
 10
-45.99999999999999
 20
7.960295474387525
 30
0.0
 11
-31.75
 21
7.960295474387525
 31
0.0
  0
LWPOLYLINE
  5
220
330
1BE
100
AcDbEntity
  8
AM_4
100
AcDbPolyline
 90
        5
 70
     0
 43
0.0
 10
43.25926263864835
 20
-7.960295474387523
 10
43.15124047993662
 20
-9.22612389522482
 10
43.08485565704171
 20
-10.4399363864153
 10
43.0555159995724
 20
-11.60828908880418
 10
43.05880165541074
 20
-12.7
  0
LINE
  5
221
330
1BE
100
AcDbEntity
  8
AM_4
100
AcDbLine
 10
31.75
 20
-7.960295474387523
 30
0.0
 11
43.25926263864835
 21
-7.960295474387523
 31
0.0
  0
LINE
  5
222
330
1BE
100
AcDbEntity
  8
AM_4
100
AcDbLine
 10
-45.99999999999999
 20
-7.960295474387525
 30
0.0
 11
-44.72999999999999
 21
-12.7
 31
0.0
  0
LINE
  5
223
330
1BE
100
AcDbEntity
  8
AM_4
100
AcDbLine
 10
-45.99999999999999
 20
-7.960295474387525
 30
0.0
 11
-31.75
 21
-7.960295474387523
 31
0.0
  0
LINE
  5
224
330
1BE
100
AcDbEntity
  8
AM_4
100
AcDbLine
 10
-44.72999999999999
 20
-12.7
 30
0.0
 11
43.05880165541074
 21
-12.7
 31
0.0
  0
LINE
  5
225
330
1BE
100
AcDbEntity
  8
AM_4
100
AcDbLine
 10
31.75
 20
9.525000000000002
 30
0.0
 11
-31.75
 21
9.525000000000002
 31
0.0
  0
LINE
  5
226
330
1BE
100
AcDbEntity
  8
AM_4
100
AcDbLine
 10
31.75
 20
9.525000000000002
 30
0.0
 11
31.75
 21
-9.524999999999995
 31
0.0
  0
LINE
  5
227
330
1BE
100
AcDbEntity
  8
AM_4
100
AcDbLine
 10
30.48
 20
-8.254999999999995
 30
0.0
 11
30.48
 21
-3.174999999999998
 31
0.0
  0
LINE
  5
228
330
1BE
100
AcDbEntity
  8
AM_4
100
AcDbLine
 10
30.48
 20
-8.254999999999995
 30
0.0
 11
-30.47999999999999
 21
-8.254999999999995
 31
0.0
  0
LINE
  5
229
330
1BE
100
AcDbEntity
  8
AM_4
100
AcDbLine
 10
31.75
 20
-9.524999999999995
 30
0.0
 11
-31.75
 21
-9.524999999999995
 31
0.0
  0
LINE
  5
22A
330
1BE
100
AcDbEntity
  8
AM_4
100
AcDbLine
 10
31.75
 20
-9.524999999999993
 30
0.0
 11
30.48000006555631
 21
-8.255000065556297
 31
0.0
  0
LINE
  5
22B
330
1BE
100
AcDbEntity
  8
AM_4
100
AcDbLine
 10
30.48
 20
8.254999999999992
 30
0.0
 11
-30.47999999999999
 21
8.254999999999992
 31
0.0
  0
LINE
  5
22C
330
1BE
100
AcDbEntity
  8
AM_4
100
AcDbLine
 10
31.75
 20
3.175000000000004
 30
0.0
 11
-31.75
 21
3.175000000000004
 31
0.0
  0
LINE
  5
22D
330
1BE
100
AcDbEntity
  8
AM_4
100
AcDbLine
 10
-30.47999999999999
 20
3.175000000000003
 30
0.0
 11
-30.47999999999999
 21
8.254999999999992
 31
0.0
  0
LINE
  5
22E
330
1BE
100
AcDbEntity
  8
AM_4
100
AcDbLine
 10
-31.75
 20
9.524999999999997
 30
0.0
 11
-30.48
 21
8.254999999999995
 31
0.0
  0
LINE
  5
22F
330
1BE
100
AcDbEntity
  8
AM_4
100
AcDbLine
 10
-31.75
 20
-3.174999999999998
 30
0.0
 11
31.75
 21
-3.174999999999997
 31
0.0
  0
LINE
  5
230
330
1BE
100
AcDbEntity
  8
AM_4
100
AcDbLine
 10
-31.75
 20
9.525000000000002
 30
0.0
 11
-31.75
 21
-9.524999999999995
 31
0.0
  0
LINE
  5
231
330
1BE
100
AcDbEntity
  8
AM_4
100
AcDbLine
 10
-30.47999999999999
 20
-8.25499999999999
 30
0.0
 11
-31.74999999999999
 21
-9.524999999999995
 31
0.0
  0
LINE
  5
232
330
1BE
100
AcDbEntity
  8
AM_4
100
AcDbLine
 10
-30.47999999999999
 20
-8.254999999999995
 30
0.0
 11
-30.47999999999999
 21
-3.174999999999998
 31
0.0
  0
LINE
  5
233
330
1BE
100
AcDbEntity
  8
AM_4
100
AcDbLine
 10
30.48
 20
8.254999999999992
 30
0.0
 11
31.75000000000001
 21
9.524999999999997
 31
0.0
  0
LINE
  5
234
330
1BE
100
AcDbEntity
  8
AM_4
100
AcDbLine
 10
30.48
 20
3.175000000000004
 30
0.0
 11
30.48
 21
8.254999999999992
 31
0.0
  0
ENDBLK
  5
1C1
330
1BE
100
AcDbEntity
  8
0
100
AcDbBlockEnd
  0
ENDSEC
  0
SECTION
  2
ENTITIES
  0
INSERT
  5
6F
330
1F
100
AcDbEntity
  8
0
100
AcDbBlockReference
  2
1_136297_4
 10
0.0
 20
0.0
 30
0.0
  0
POINT
  5
236
330
1F
100
AcDbEntity
  8
ConnectionPoints
100
AcDbPoint
 10
0.0
 20
1.600000000000001
 30
0.0000000000000035
  0
POINT
  5
237
330
1F
100
AcDbEntity
  8
ConnectionPoints
100
AcDbPoint
 10
0.0
 20
1.600000000000001
 30
0.0000000000000035
  0
POINT
  5
238
330
1F
100
AcDbEntity
  8
ConnectionPoints
100
AcDbPoint
 10
0.0
 20
-27.4
 30
0.0000000000000052
  0
POINT
  5
239
330
1F
100
AcDbEntity
  8
ConnectionPoints
100
AcDbPoint
 10
0.0
 20
0.0
 30
0.0
  0
POINT
  5
23A
330
1F
100
AcDbEntity
  8
ConnectionPoints
100
AcDbPoint
 10
0.0
 20
0.0
 30
0.0
  0
POINT
  5
23B
330
1F
100
AcDbEntity
  8
ConnectionPoints
100
AcDbPoint
 10
-39.83716857408417
 20
-0.0000000000000014
 30
-22.99999999999999
  0
POINT
  5
23C
330
1F
100
AcDbEntity
  8
ConnectionPoints
100
AcDbPoint
 10
0.0
 20
-27.4
 30
0.0000000000000017
  0
ENDSEC
  0
SECTION
  2
OBJECTS
  0
DICTIONARY
  5
C
330
0
100
AcDbDictionary
281
     1
  3
ACAD_DETAILVIEWSTYLE
350
244
  3
ACAD_GROUP
350
D
  3
ACAD_LAYOUT
350
1A
  3
ACAD_MATERIAL
350
43
  3
ACAD_MLEADERSTYLE
350
6B
  3
ACAD_MLINESTYLE
350
17
  3
ACAD_PLOTSETTINGS
350
19
  3
ACAD_PLOTSTYLENAME
350
E
  3
ACAD_SCALELIST
350
47
  3
ACAD_SECTIONVIEWSTYLE
350
245
  3
ACAD_TABLESTYLE
350
69
  3
ACAD_VISUALSTYLE
350
2A
  3
ACDB_RECOMPOSE_DATA
350
241
  3
AcDbVariableDictionary
350
23D
  0
SUN
  5
6D
330
29
100
AcDbSun
 90
        1
290
     0
 63
     7
421
 16777215
 40
1.0
291
     1
 91
  2455826
 92
 54000000
292
     0
 70
     2
 71
   256
280
     1
  0
DICTIONARY
  5
244
102
{ACAD_REACTORS
330
C
102
}
330
C
100
AcDbDictionary
281
     1
  0
DICTIONARY
  5
D
102
{ACAD_REACTORS
330
C
102
}
330
C
100
AcDbDictionary
281
     1
  0
DICTIONARY
  5
1A
102
{ACAD_REACTORS
330
C
102
}
330
C
100
AcDbDictionary
281
     1
  3
Layout1
350
1E
  3
Layout2
350
26
  3
Model
350
22
  0
DICTIONARY
  5
43
102
{ACAD_REACTORS
330
C
102
}
330
C
100
AcDbDictionary
281
     1
  3
ByBlock
350
45
  3
ByLayer
350
44
  3
Global
350
46
  0
DICTIONARY
  5
6B
102
{ACAD_REACTORS
330
C
102
}
330
C
100
AcDbDictionary
281
     1
  3
Standard
350
6C
  0
DICTIONARY
  5
17
102
{ACAD_REACTORS
330
C
102
}
330
C
100
AcDbDictionary
281
     1
  3
Standard
350
18
  0
DICTIONARY
  5
19
102
{ACAD_REACTORS
330
C
102
}
330
C
100
AcDbDictionary
281
     1
  0
ACDBDICTIONARYWDFLT
  5
E
102
{ACAD_REACTORS
330
C
102
}
330
C
100
AcDbDictionary
281
     1
  3
Normal
350
F
100
AcDbDictionaryWithDefault
340
F
  0
DICTIONARY
  5
47
102
{ACAD_REACTORS
330
C
102
}
330
C
100
AcDbDictionary
281
     1
  3
A0
350
48
  3
A1
350
49
  3
A2
350
4A
  3
A3
350
4B
  3
A4
350
4C
  3
A5
350
4D
  3
A6
350
4E
  3
A7
350
4F
  3
A8
350
50
  3
A9
350
51
  3
B0
350
52
  3
B1
350
53
  3
B2
350
54
  3
B3
350
55
  3
B4
350
56
  3
B5
350
57
  3
B6
350
58
  3
B7
350
59
  3
B8
350
5A
  3
B9
350
5B
  3
C0
350
5C
  3
C1
350
5D
  3
C2
350
5E
  3
C3
350
5F
  3
C4
350
60
  3
C5
350
61
  3
C6
350
62
  3
C7
350
63
  3
C8
350
64
  3
C9
350
65
  3
D0
350
66
  3
D1
350
67
  3
D2
350
68
  0
DICTIONARY
  5
245
102
{ACAD_REACTORS
330
C
102
}
330
C
100
AcDbDictionary
281
     1
  0
DICTIONARY
  5
69
102
{ACAD_REACTORS
330
C
102
}
330
C
100
AcDbDictionary
281
     1
  3
Standard
350
6A
  0
DICTIONARY
  5
2A
102
{ACAD_REACTORS
330
C
102
}
330
C
100
AcDbDictionary
281
     1
  3
2dWireframe
350
2F
  3
Basic
350
32
  3
Brighten
350
36
  3
ColorChange
350
3A
  3
Conceptual
350
34
  3
Dim
350
35
  3
EdgeColorOff
350
3D
  3
Facepattern
350
39
  3
Flat
350
2B
  3
FlatWithEdges
350
2C
  3
Gouraud
350
2D
  3
GouraudWithEdges
350
2E
  3
Hidden
350
31
  3
JitterOff
350
3B
  3
Linepattern
350
38
  3
OverhangOff
350
3C
  3
Realistic
350
33
  3
Shaded
350
42
  3
Shaded with edges
350
41
  3
Shades of Gray
350
3E
  3
Sketchy
350
3F
  3
Thicken
350
37
  3
Wireframe
350
30
  3
X-Ray
350
40
  0
XRECORD
  5
241
102
{ACAD_REACTORS
330
C
102
}
330
C
100
AcDbXrecord
280
     1
 90
        1
330
6A
  0
DICTIONARY
  5
23D
102
{ACAD_REACTORS
330
C
102
}
330
C
100
AcDbDictionary
281
     1
  3
CANNOSCALE
350
23E
  3
CMLEADERSTYLE
350
243
  3
CTABLESTYLE
350
242
  0
LAYOUT
  5
1E
102
{ACAD_REACTORS
330
1A
102
}
330
1A
100
AcDbPlotSettings
  1

  2
none_device
  4

  6

 40
0.0
 41
0.0
 42
0.0
 43
0.0
 44
0.0
 45
0.0
 46
0.0
 47
0.0
 48
0.0
 49
0.0
140
0.0
141
0.0
142
1.0
143
1.0
 70
   688
 72
     1
 73
     0
 74
     5
  7

 75
    16
 76
     0
 77
     2
 78
   300
147
1.0
148
0.0
149
0.0
100
AcDbLayout
  1
Layout1
 70
     1
 71
     1
 10
0.0
 20
0.0
 11
420.0
 21
297.0
 12
0.0
 22
0.0
 32
0.0
 14
1.000000000000000E+20
 24
1.000000000000000E+20
 34
1.000000000000000E+20
 15
-1.000000000000000E+20
 25
-1.000000000000000E+20
 35
-1.000000000000000E+20
146
0.0
 13
0.0
 23
0.0
 33
0.0
 16
1.0
 26
0.0
 36
0.0
 17
0.0
 27
1.0
 37
0.0
 76
     0
330
1B
  0
LAYOUT
  5
26
102
{ACAD_REACTORS
330
1A
102
}
330
1A
100
AcDbPlotSettings
  1

  2
none_device
  4

  6

 40
0.0
 41
0.0
 42
0.0
 43
0.0
 44
0.0
 45
0.0
 46
0.0
 47
0.0
 48
0.0
 49
0.0
140
0.0
141
0.0
142
1.0
143
1.0
 70
   688
 72
     1
 73
     0
 74
     5
  7

 75
    16
 76
     0
 77
     2
 78
   300
147
1.0
148
0.0
149
0.0
100
AcDbLayout
  1
Layout2
 70
     1
 71
     2
 10
0.0
 20
0.0
 11
0.0
 21
0.0
 12
0.0
 22
0.0
 32
0.0
 14
0.0
 24
0.0
 34
0.0
 15
0.0
 25
0.0
 35
0.0
146
0.0
 13
0.0
 23
0.0
 33
0.0
 16
1.0
 26
0.0
 36
0.0
 17
0.0
 27
1.0
 37
0.0
 76
     0
330
23
  0
LAYOUT
  5
22
102
{ACAD_REACTORS
330
1A
102
}
330
1A
100
AcDbPlotSettings
  1

  2
none_device
  4
Letter_(8.50_x_11.00_Inches)
  6

 40
6.35
 41
6.35
 42
6.35000508
 43
6.35000508
 44
215.9
 45
279.4
 46
0.0
 47
0.0
 48
0.0
 49
0.0
140
0.0
141
0.0
142
1.0
143
1.0
 70
  1712
 72
     1
 73
     0
 74
     0
  7

 75
     0
 76
     0
 77
     2
 78
   300
147
1.0
148
0.0
149
0.0
100
AcDbLayout
  1
Model
 70
     1
 71
     0
 10
0.0
 20
0.0
 11
420.0
 21
297.0
 12
0.0
 22
0.0
 32
0.0
 14
1.000000000000000E+20
 24
1.000000000000000E+20
 34
1.000000000000000E+20
 15
-1.000000000000000E+20
 25
-1.000000000000000E+20
 35
-1.000000000000000E+20
146
0.0
 13
0.0
 23
0.0
 33
0.0
 16
1.0
 26
0.0
 36
0.0
 17
0.0
 27
1.0
 37
0.0
 76
     0
330
1F
331
29
  0
MATERIAL
  5
45
102
{ACAD_REACTORS
330
43
102
}
330
43
100
AcDbMaterial
  1
ByBlock
 72
     1
 94
      127
  0
MATERIAL
  5
44
102
{ACAD_REACTORS
330
43
102
}
330
43
100
AcDbMaterial
  1
ByLayer
 72
     1
 94
      127
  0
MATERIAL
  5
46
102
{ACAD_REACTORS
330
43
102
}
330
43
100
AcDbMaterial
  1
Global
 72
     1
 94
      127
  0
MLEADERSTYLE
  5
6C
102
{ACAD_REACTORS
330
6B
102
}
330
6B
100
AcDbMLeaderStyle
179
     2
170
     2
171
     1
172
     0
 90
        2
 40
0.0
 41
0.0
173
     1
 91
-1056964608
340
14
 92
       -2
290
     1
 42
2.0
291
     1
 43
8.0
  3
Standard
341
0
 44
4.0
300

342
11
174
     1
178
     6
175
     1
176
     0
 93
-1056964608
 45
4.0
292
     0
297
     0
 46
4.0
343
0
 94
-1056964608
 47
1.0
 49
1.0
140
1.0
293
     1
141
0.0
294
     1
177
     0
142
1.0
295
     0
296
     0
143
3.75
271
     0
272
     9
273
     9
298
     0
  0
MLINESTYLE
  5
18
102
{ACAD_REACTORS
330
17
102
}
330
17
100
AcDbMlineStyle
  2
Standard
 70
     0
  3

 62
   256
 51
90.0
 52
90.0
 71
     2
 49
0.5
 62
   256
  6
BYLAYER
 49
-0.5
 62
   256
  6
BYLAYER
  0
ACDBPLACEHOLDER
  5
F
102
{ACAD_REACTORS
330
E
102
}
330
E
  0
SCALE
  5
48
102
{ACAD_REACTORS
330
47
102
}
330
47
100
AcDbScale
 70
     0
300
1:1
140
1.0
141
1.0
290
     1
  0
SCALE
  5
49
102
{ACAD_REACTORS
330
47
102
}
330
47
100
AcDbScale
 70
     0
300
1:2
140
1.0
141
2.0
290
     0
  0
SCALE
  5
4A
102
{ACAD_REACTORS
330
47
102
}
330
47
100
AcDbScale
 70
     0
300
1:4
140
1.0
141
4.0
290
     0
  0
SCALE
  5
4B
102
{ACAD_REACTORS
330
47
102
}
330
47
100
AcDbScale
 70
     0
300
1:5
140
1.0
141
5.0
290
     0
  0
SCALE
  5
4C
102
{ACAD_REACTORS
330
47
102
}
330
47
100
AcDbScale
 70
     0
300
1:8
140
1.0
141
8.0
290
     0
  0
SCALE
  5
4D
102
{ACAD_REACTORS
330
47
102
}
330
47
100
AcDbScale
 70
     0
300
1:10
140
1.0
141
10.0
290
     0
  0
SCALE
  5
4E
102
{ACAD_REACTORS
330
47
102
}
330
47
100
AcDbScale
 70
     0
300
1:16
140
1.0
141
16.0
290
     0
  0
SCALE
  5
4F
102
{ACAD_REACTORS
330
47
102
}
330
47
100
AcDbScale
 70
     0
300
1:20
140
1.0
141
20.0
290
     0
  0
SCALE
  5
50
102
{ACAD_REACTORS
330
47
102
}
330
47
100
AcDbScale
 70
     0
300
1:30
140
1.0
141
30.0
290
     0
  0
SCALE
  5
51
102
{ACAD_REACTORS
330
47
102
}
330
47
100
AcDbScale
 70
     0
300
1:40
140
1.0
141
40.0
290
     0
  0
SCALE
  5
52
102
{ACAD_REACTORS
330
47
102
}
330
47
100
AcDbScale
 70
     0
300
1:50
140
1.0
141
50.0
290
     0
  0
SCALE
  5
53
102
{ACAD_REACTORS
330
47
102
}
330
47
100
AcDbScale
 70
     0
300
1:100
140
1.0
141
100.0
290
     0
  0
SCALE
  5
54
102
{ACAD_REACTORS
330
47
102
}
330
47
100
AcDbScale
 70
     0
300
2:1
140
2.0
141
1.0
290
     0
  0
SCALE
  5
55
102
{ACAD_REACTORS
330
47
102
}
330
47
100
AcDbScale
 70
     0
300
4:1
140
4.0
141
1.0
290
     0
  0
SCALE
  5
56
102
{ACAD_REACTORS
330
47
102
}
330
47
100
AcDbScale
 70
     0
300
8:1
140
8.0
141
1.0
290
     0
  0
SCALE
  5
57
102
{ACAD_REACTORS
330
47
102
}
330
47
100
AcDbScale
 70
     0
300
10:1
140
10.0
141
1.0
290
     0
  0
SCALE
  5
58
102
{ACAD_REACTORS
330
47
102
}
330
47
100
AcDbScale
 70
     0
300
100:1
140
100.0
141
1.0
290
     0
  0
SCALE
  5
59
102
{ACAD_REACTORS
330
47
102
}
330
47
100
AcDbScale
 70
     0
300
1/128" = 1'-0"
140
0.0078125
141
12.0
290
     0
  0
SCALE
  5
5A
102
{ACAD_REACTORS
330
47
102
}
330
47
100
AcDbScale
 70
     0
300
1/64" = 1'-0"
140
0.015625
141
12.0
290
     0
  0
SCALE
  5
5B
102
{ACAD_REACTORS
330
47
102
}
330
47
100
AcDbScale
 70
     0
300
1/32" = 1'-0"
140
0.03125
141
12.0
290
     0
  0
SCALE
  5
5C
102
{ACAD_REACTORS
330
47
102
}
330
47
100
AcDbScale
 70
     0
300
1/16" = 1'-0"
140
0.0625
141
12.0
290
     0
  0
SCALE
  5
5D
102
{ACAD_REACTORS
330
47
102
}
330
47
100
AcDbScale
 70
     0
300
3/32" = 1'-0"
140
0.09375
141
12.0
290
     0
  0
SCALE
  5
5E
102
{ACAD_REACTORS
330
47
102
}
330
47
100
AcDbScale
 70
     0
300
1/8" = 1'-0"
140
0.125
141
12.0
290
     0
  0
SCALE
  5
5F
102
{ACAD_REACTORS
330
47
102
}
330
47
100
AcDbScale
 70
     0
300
3/16" = 1'-0"
140
0.1875
141
12.0
290
     0
  0
SCALE
  5
60
102
{ACAD_REACTORS
330
47
102
}
330
47
100
AcDbScale
 70
     0
300
1/4" = 1'-0"
140
0.25
141
12.0
290
     0
  0
SCALE
  5
61
102
{ACAD_REACTORS
330
47
102
}
330
47
100
AcDbScale
 70
     0
300
3/8" = 1'-0"
140
0.375
141
12.0
290
     0
  0
SCALE
  5
62
102
{ACAD_REACTORS
330
47
102
}
330
47
100
AcDbScale
 70
     0
300
1/2" = 1'-0"
140
0.5
141
12.0
290
     0
  0
SCALE
  5
63
102
{ACAD_REACTORS
330
47
102
}
330
47
100
AcDbScale
 70
     0
300
3/4" = 1'-0"
140
0.75
141
12.0
290
     0
  0
SCALE
  5
64
102
{ACAD_REACTORS
330
47
102
}
330
47
100
AcDbScale
 70
     0
300
1" = 1'-0"
140
1.0
141
12.0
290
     0
  0
SCALE
  5
65
102
{ACAD_REACTORS
330
47
102
}
330
47
100
AcDbScale
 70
     0
300
1-1/2" = 1'-0"
140
1.5
141
12.0
290
     0
  0
SCALE
  5
66
102
{ACAD_REACTORS
330
47
102
}
330
47
100
AcDbScale
 70
     0
300
3" = 1'-0"
140
3.0
141
12.0
290
     0
  0
SCALE
  5
67
102
{ACAD_REACTORS
330
47
102
}
330
47
100
AcDbScale
 70
     0
300
6" = 1'-0"
140
6.0
141
12.0
290
     0
  0
SCALE
  5
68
102
{ACAD_REACTORS
330
47
102
}
330
47
100
AcDbScale
 70
     0
300
1'-0" = 1'-0"
140
12.0
141
12.0
290
     0
  0
TABLESTYLE
  5
6A
102
{ACAD_REACTORS
330
69
102
}
102
{ACAD_XDICTIONARY
360
23F
102
}
330
69
100
AcDbTableStyle
  3
Standard
 70
     0
 71
     0
 40
0.06
 41
0.06
280
     0
281
     0
  7
Standard
140
4.5
170
     2
 62
     0
 63
   257
283
     0
 90
        4
 91
        0
  1

274
    -2
284
     1
 64
     0
275
    -2
285
     1
 65
     0
276
    -2
286
     1
 66
     0
277
    -2
287
     1
 67
     0
278
    -2
288
     1
 68
     0
279
    -2
289
     1
 69
     0
  7
Standard
140
6.0
170
     5
 62
     0
 63
   257
283
     0
 90
        4
 91
        0
  1

274
    -2
284
     1
 64
     0
275
    -2
285
     1
 65
     0
276
    -2
286
     1
 66
     0
277
    -2
287
     1
 67
     0
278
    -2
288
     1
 68
     0
279
    -2
289
     1
 69
     0
  7
Standard
140
4.5
170
     5
 62
     0
 63
   257
283
     0
 90
        4
 91
        0
  1

274
    -2
284
     1
 64
     0
275
    -2
285
     1
 65
     0
276
    -2
286
     1
 66
     0
277
    -2
287
     1
 67
     0
278
    -2
288
     1
 68
     0
279
    -2
289
     1
 69
     0
  0
VISUALSTYLE
  5
2F
102
{ACAD_REACTORS
330
2A
102
}
330
2A
100
AcDbVisualStyle
  2
2dWireframe
 70
     4
177
     3
291
     0
 70
    58
 90
        0
176
     1
 90
        2
176
     1
 90
        0
176
     1
 90
        0
176
     1
 40
0.6
176
     1
 40
30.0
176
     1
 62
     7
420
 16777215
176
     1
 90
        1
176
     1
 90
        4
176
     1
 62
     7
176
     1
 62
   257
176
     1
 90
        1
176
     1
 90
        1
176
     1
 40
1.0
176
     1
 90
        0
176
     1
 62
   257
176
     1
 40
1.0
176
     1
 90
        1
176
     1
 90
        6
176
     1
 90
        2
176
     1
 62
     7
176
     1
 90
        5
176
     1
 90
        0
176
     1
 90
        0
176
     1
290
     0
176
     1
 90
        1
176
     1
 40
0.0
176
     1
 90
        0
176
     1
290
     1
176
     1
290
     1
176
     1
290
     0
176
     1
290
     0
176
     1
290
     0
176
     1
290
     0
176
     1
290
     0
176
     1
290
     0
176
     1
290
     0
176
     1
 90
       50
176
     1
 40
0.0
176
     1
 40
1.0
176
     1
 90
        0
176
     1
 62
    18
420
        0
176
     1
 90
       50
176
     1
 90
        3
176
     1
 62
     5
420
      255
176
     1
290
     0
176
     1
 90
       50
176
     1
 90
       50
176
     1
 90
       50
176
     1
290
     0
176
     1
 90
       50
176
     1
 62
   256
176
     0
 40
1.0
176
     0
 90
        2
176
     1
  1
strokes_ogs.tif
176
     1
290
     0
176
     1
 40
1.0
176
     1
 40
1.0
176
     1
  0
VISUALSTYLE
  5
32
102
{ACAD_REACTORS
330
2A
102
}
330
2A
100
AcDbVisualStyle
  2
Basic
 70
     7
177
     3
291
     1
 70
    58
 90
        1
176
     1
 90
        0
176
     1
 90
        1
176
     1
 90
        0
176
     1
 40
0.6
176
     1
 40
30.0
176
     1
 62
     7
420
 16777215
176
     1
 90
        0
176
     1
 90
        4
176
     1
 62
     7
176
     1
 62
   257
176
     1
 90
        1
176
     1
 90
        1
176
     1
 40
1.0
176
     1
 90
        8
176
     1
 62
     7
176
     1
 40
1.0
176
     1
 90
        1
176
     1
 90
        6
176
     1
 90
        2
176
     1
 62
     7
176
     1
 90
        5
176
     1
 90
        0
176
     1
 90
        0
176
     1
290
     0
176
     1
 90
        1
176
     1
 40
0.0
176
     1
 90
        0
176
     1
290
     0
176
     1
290
     1
176
     1
290
     1
176
     1
290
     0
176
     1
290
     0
176
     1
290
     0
176
     1
290
     0
176
     1
290
     0
176
     1
290
     0
176
     1
 90
       50
176
     1
 40
0.0
176
     1
 40
1.0
176
     1
 90
        0
176
     1
 62
    18
420
        0
176
     1
 90
       50
176
     1
 90
        3
176
     1
 62
     5
420
      255
176
     1
290
     0
176
     1
 90
       50
176
     1
 90
       50
176
     1
 90
       50
176
     1
290
     0
176
     1
 90
       50
176
     1
 62
   256
176
     0
 40
1.0
176
     0
 90
        2
176
     1
  1
strokes_ogs.tif
176
     1
290
     0
176
     1
 40
1.0
176
     1
 40
1.0
176
     1
  0
VISUALSTYLE
  5
36
102
{ACAD_REACTORS
330
2A
102
}
330
2A
100
AcDbVisualStyle
  2
Brighten
 70
    12
177
     3
291
     1
 70
    58
 90
        2
176
     1
 90
        2
176
     1
 90
        0
176
     1
 90
        0
176
     1
 40
0.6
176
     1
 40
30.0
176
     1
 62
     7
420
 16777215
176
     1
 90
        1
176
     1
 90
        4
176
     1
 62
     7
176
     1
 62
   257
176
     1
 90
        1
176
     1
 90
        1
176
     1
 40
1.0
176
     1
 90
        8
176
     1
 62
     7
176
     1
 40
1.0
176
     1
 90
        1
176
     1
 90
        6
176
     1
 90
        2
176
     1
 62
     7
176
     1
 90
        5
176
     1
 90
        0
176
     1
 90
        0
176
     1
290
     0
176
     1
 90
        1
176
     1
 40
50.0
176
     1
 90
        0
176
     1
290
     0
176
     1
290
     1
176
     1
290
     1
176
     1
290
     0
176
     1
290
     0
176
     1
290
     0
176
     1
290
     0
176
     1
290
     0
176
     1
290
     0
176
     1
 90
       50
176
     1
 40
0.0
176
     1
 40
1.0
176
     1
 90
        0
176
     1
 62
    18
420
        0
176
     1
 90
       50
176
     1
 90
        3
176
     1
 62
     5
420
      255
176
     1
290
     0
176
     1
 90
       50
176
     1
 90
       50
176
     1
 90
       50
176
     1
290
     0
176
     1
 90
       50
176
     1
 62
   256
176
     0
 40
1.0
176
     0
 90
        2
176
     1
  1
strokes_ogs.tif
176
     1
290
     0
176
     1
 40
1.0
176
     1
 40
1.0
176
     1
  0
VISUALSTYLE
  5
3A
102
{ACAD_REACTORS
330
2A
102
}
330
2A
100
AcDbVisualStyle
  2
ColorChange
 70
    16
177
     3
291
     1
 70
    58
 90
        2
176
     1
 90
        2
176
     1
 90
        3
176
     1
 90
        0
176
     1
 40
0.6
176
     1
 40
30.0
176
     1
 62
     8
420
  8421504
176
     1
 90
        1
176
     1
 90
        4
176
     1
 62
     7
176
     1
 62
   257
176
     1
 90
        1
176
     1
 90
        1
176
     1
 40
1.0
176
     1
 90
        8
176
     1
 62
     8
420
  8421504
176
     1
 40
1.0
176
     1
 90
        1
176
     1
 90
        6
176
     1
 90
        2
176
     1
 62
     7
176
     1
 90
        5
176
     1
 90
        0
176
     1
 90
        0
176
     1
290
     0
176
     1
 90
        1
176
     1
 40
0.0
176
     1
 90
        0
176
     1
290
     0
176
     1
290
     1
176
     1
290
     1
176
     1
290
     0
176
     1
290
     0
176
     1
290
     0
176
     1
290
     0
176
     1
290
     0
176
     1
290
     0
176
     1
 90
       50
176
     1
 40
0.0
176
     1
 40
1.0
176
     1
 90
        0
176
     1
 62
    18
420
        0
176
     1
 90
       50
176
     1
 90
        3
176
     1
 62
     5
420
      255
176
     1
290
     0
176
     1
 90
       50
176
     1
 90
       50
176
     1
 90
       50
176
     1
290
     0
176
     1
 90
       50
176
     1
 62
   256
176
     0
 40
1.0
176
     0
 90
        2
176
     1
  1
strokes_ogs.tif
176
     1
290
     0
176
     1
 40
1.0
176
     1
 40
1.0
176
     1
  0
VISUALSTYLE
  5
34
102
{ACAD_REACTORS
330
2A
102
}
330
2A
100
AcDbVisualStyle
  2
Conceptual
 70
     9
177
     3
291
     0
 70
    58
 90
        3
176
     1
 90
        2
176
     1
 90
        0
176
     1
 90
        0
176
     1
 40
0.6
176
     1
 40
30.0
176
     1
 62
     7
420
 16777215
176
     1
 90
        2
176
     1
 90
        2
176
     1
 62
     7
176
     1
 62
   257
176
     1
 90
        1
176
     1
 90
        1
176
     1
 40
179.0
176
     1
 90
        8
176
     1
 62
     7
176
     1
 40
1.0
176
     1
 90
        1
176
     1
 90
        6
176
     1
 90
        2
176
     1
 62
     7
176
     1
 90
        3
176
     1
 90
        0
176
     1
 90
        0
176
     1
290
     0
176
     1
 90
        1
176
     1
 40
0.0
176
     1
 90
        0
176
     1
290
     0
176
     1
290
     1
176
     1
290
     1
176
     1
290
     0
176
     1
290
     0
176
     1
290
     0
176
     1
290
     0
176
     1
290
     0
176
     1
290
     0
176
     1
 90
       50
176
     1
 40
0.0
176
     1
 40
1.0
176
     1
 90
        0
176
     1
 62
    18
420
        0
176
     1
 90
       50
176
     1
 90
        3
176
     1
 62
     5
420
      255
176
     1
290
     0
176
     1
 90
       50
176
     1
 90
       50
176
     1
 90
       50
176
     1
290
     0
176
     1
 90
       50
176
     1
 62
   256
176
     0
 40
1.0
176
     0
 90
        2
176
     1
  1
strokes_ogs.tif
176
     1
290
     0
176
     1
 40
1.0
176
     1
 40
1.0
176
     1
  0
VISUALSTYLE
  5
35
102
{ACAD_REACTORS
330
2A
102
}
330
2A
100
AcDbVisualStyle
  2
Dim
 70
    11
177
     3
291
     1
 70
    58
 90
        2
176
     1
 90
        2
176
     1
 90
        0
176
     1
 90
        0
176
     1
 40
0.6
176
     1
 40
30.0
176
     1
 62
     7
420
 16777215
176
     1
 90
        1
176
     1
 90
        4
176
     1
 62
     7
176
     1
 62
   257
176
     1
 90
        1
176
     1
 90
        1
176
     1
 40
1.0
176
     1
 90
        8
176
     1
 62
     7
176
     1
 40
1.0
176
     1
 90
        1
176
     1
 90
        6
176
     1
 90
        2
176
     1
 62
     7
176
     1
 90
        5
176
     1
 90
        0
176
     1
 90
        0
176
     1
290
     0
176
     1
 90
        1
176
     1
 40
-50.0
176
     1
 90
        0
176
     1
290
     0
176
     1
290
     1
176
     1
290
     1
176
     1
290
     0
176
     1
290
     0
176
     1
290
     0
176
     1
290
     0
176
     1
290
     0
176
     1
290
     0
176
     1
 90
       50
176
     1
 40
0.0
176
     1
 40
1.0
176
     1
 90
        0
176
     1
 62
    18
420
        0
176
     1
 90
       50
176
     1
 90
        3
176
     1
 62
     5
420
      255
176
     1
290
     0
176
     1
 90
       50
176
     1
 90
       50
176
     1
 90
       50
176
     1
290
     0
176
     1
 90
       50
176
     1
 62
   256
176
     0
 40
1.0
176
     0
 90
        2
176
     1
  1
strokes_ogs.tif
176
     1
290
     0
176
     1
 40
1.0
176
     1
 40
1.0
176
     1
  0
VISUALSTYLE
  5
3D
102
{ACAD_REACTORS
330
2A
102
}
330
2A
100
AcDbVisualStyle
  2
EdgeColorOff
 70
    22
177
     3
291
     1
 70
    58
 90
        2
176
     0
 90
        2
176
     0
 90
        0
176
     0
 90
        0
176
     0
 40
0.6
176
     0
 40
30.0
176
     0
 62
     7
420
 16777215
176
     0
 90
        1
176
     0
 90
        4
176
     0
 62
     7
176
     0
 62
   257
176
     0
 90
        1
176
     0
 90
        1
176
     0
 40
1.0
176
     0
 90
        8
176
     2
 62
     7
176
     0
 40
1.0
176
     0
 90
        1
176
     0
 90
        6
176
     0
 90
        2
176
     0
 62
     7
176
     0
 90
        5
176
     0
 90
        0
176
     0
 90
        0
176
     0
290
     0
176
     0
 90
        1
176
     0
 40
0.0
176
     0
 90
        0
176
     0
290
     0
176
     0
290
     1
176
     0
290
     1
176
     0
290
     0
176
     0
290
     0
176
     0
290
     0
176
     0
290
     0
176
     0
290
     0
176
     0
290
     0
176
     0
 90
       50
176
     0
 40
0.0
176
     0
 40
1.0
176
     0
 90
        0
176
     0
 62
    18
420
        0
176
     0
 90
       50
176
     0
 90
        3
176
     0
 62
     5
420
      255
176
     0
290
     0
176
     0
 90
       50
176
     0
 90
       50
176
     0
 90
       50
176
     0
290
     0
176
     0
 90
       50
176
     0
 62
   256
176
     0
 40
1.0
176
     0
 90
        2
176
     0
  1
strokes_ogs.tif
176
     0
290
     0
176
     0
 40
1.0
176
     0
 40
1.0
176
     0
  0
VISUALSTYLE
  5
39
102
{ACAD_REACTORS
330
2A
102
}
330
2A
100
AcDbVisualStyle
  2
Facepattern
 70
    15
177
     3
291
     1
 70
    58
 90
        2
176
     1
 90
        2
176
     1
 90
        0
176
     1
 90
        0
176
     1
 40
0.6
176
     1
 40
30.0
176
     1
 62
     7
420
 16777215
176
     1
 90
        1
176
     1
 90
        4
176
     1
 62
     7
176
     1
 62
   257
176
     1
 90
        1
176
     1
 90
        1
176
     1
 40
1.0
176
     1
 90
        8
176
     1
 62
     7
176
     1
 40
1.0
176
     1
 90
        1
176
     1
 90
        6
176
     1
 90
        2
176
     1
 62
     7
176
     1
 90
        5
176
     1
 90
        0
176
     1
 90
        0
176
     1
290
     0
176
     1
 90
        1
176
     1
 40
0.0
176
     1
 90
        0
176
     1
290
     0
176
     1
290
     1
176
     1
290
     1
176
     1
290
     0
176
     1
290
     0
176
     1
290
     0
176
     1
290
     0
176
     1
290
     0
176
     1
290
     0
176
     1
 90
       50
176
     1
 40
0.0
176
     1
 40
1.0
176
     1
 90
        0
176
     1
 62
    18
420
        0
176
     1
 90
       50
176
     1
 90
        3
176
     1
 62
     5
420
      255
176
     1
290
     0
176
     1
 90
       50
176
     1
 90
       50
176
     1
 90
       50
176
     1
290
     0
176
     1
 90
       50
176
     1
 62
   256
176
     0
 40
1.0
176
     0
 90
        2
176
     1
  1
strokes_ogs.tif
176
     1
290
     0
176
     1
 40
1.0
176
     1
 40
1.0
176
     1
  0
VISUALSTYLE
  5
2B
102
{ACAD_REACTORS
330
2A
102
}
330
2A
100
AcDbVisualStyle
  2
Flat
 70
     0
177
     3
291
     1
 70
    58
 90
        2
176
     1
 90
        1
176
     1
 90
        1
176
     1
 90
        2
176
     1
 40
0.6
176
     1
 40
30.0
176
     1
 62
     7
420
 16777215
176
     1
 90
        0
176
     1
 90
        0
176
     1
 62
     7
176
     1
 62
   257
176
     1
 90
        1
176
     1
 90
        1
176
     1
 40
1.0
176
     1
 90
        8
176
     1
 62
     7
176
     1
 40
1.0
176
     1
 90
        1
176
     1
 90
        6
176
     1
 90
        2
176
     1
 62
     7
176
     1
 90
        5
176
     1
 90
        0
176
     1
 90
        0
176
     1
290
     0
176
     1
 90
       13
176
     1
 40
0.0
176
     1
 90
        0
176
     1
290
     0
176
     1
290
     1
176
     1
290
     1
176
     1
290
     0
176
     1
290
     0
176
     1
290
     0
176
     1
290
     0
176
     1
290
     0
176
     1
290
     0
176
     1
 90
       50
176
     1
 40
0.0
176
     1
 40
1.0
176
     1
 90
        0
176
     1
 62
    18
420
        0
176
     1
 90
       50
176
     1
 90
        3
176
     1
 62
     5
420
      255
176
     1
290
     0
176
     1
 90
       50
176
     1
 90
       50
176
     1
 90
       50
176
     1
290
     0
176
     1
 90
       50
176
     1
 62
   256
176
     0
 40
1.0
176
     0
 90
        2
176
     1
  1
strokes_ogs.tif
176
     1
290
     0
176
     1
 40
1.0
176
     1
 40
1.0
176
     1
  0
VISUALSTYLE
  5
2C
102
{ACAD_REACTORS
330
2A
102
}
330
2A
100
AcDbVisualStyle
  2
FlatWithEdges
 70
     1
177
     3
291
     1
 70
    58
 90
        2
176
     1
 90
        1
176
     1
 90
        1
176
     1
 90
        2
176
     1
 40
0.6
176
     1
 40
30.0
176
     1
 62
     7
420
 16777215
176
     1
 90
        1
176
     1
 90
        0
176
     1
 62
     7
176
     1
 62
   257
176
     1
 90
        1
176
     1
 90
        1
176
     1
 40
1.0
176
     1
 90
        0
176
     1
 62
   257
176
     1
 40
1.0
176
     1
 90
        1
176
     1
 90
        6
176
     1
 90
        2
176
     1
 62
     7
176
     1
 90
        5
176
     1
 90
        0
176
     1
 90
        0
176
     1
290
     0
176
     1
 90
       13
176
     1
 40
0.0
176
     1
 90
        0
176
     1
290
     0
176
     1
290
     1
176
     1
290
     1
176
     1
290
     0
176
     1
290
     0
176
     1
290
     0
176
     1
290
     0
176
     1
290
     0
176
     1
290
     0
176
     1
 90
       50
176
     1
 40
0.0
176
     1
 40
1.0
176
     1
 90
        0
176
     1
 62
    18
420
        0
176
     1
 90
       50
176
     1
 90
        3
176
     1
 62
     5
420
      255
176
     1
290
     0
176
     1
 90
       50
176
     1
 90
       50
176
     1
 90
       50
176
     1
290
     0
176
     1
 90
       50
176
     1
 62
   256
176
     0
 40
1.0
176
     0
 90
        2
176
     1
  1
strokes_ogs.tif
176
     1
290
     0
176
     1
 40
1.0
176
     1
 40
1.0
176
     1
  0
VISUALSTYLE
  5
2D
102
{ACAD_REACTORS
330
2A
102
}
330
2A
100
AcDbVisualStyle
  2
Gouraud
 70
     2
177
     3
291
     1
 70
    58
 90
        2
176
     1
 90
        2
176
     1
 90
        1
176
     1
 90
        2
176
     1
 40
0.6
176
     1
 40
30.0
176
     1
 62
     7
420
 16777215
176
     1
 90
        0
176
     1
 90
        0
176
     1
 62
     7
176
     1
 62
   257
176
     1
 90
        1
176
     1
 90
        1
176
     1
 40
1.0
176
     1
 90
        0
176
     1
 62
     7
176
     1
 40
1.0
176
     1
 90
        1
176
     1
 90
        6
176
     1
 90
        2
176
     1
 62
     7
176
     1
 90
        5
176
     1
 90
        0
176
     1
 90
        0
176
     1
290
     0
176
     1
 90
       13
176
     1
 40
0.0
176
     1
 90
        0
176
     1
290
     0
176
     1
290
     1
176
     1
290
     1
176
     1
290
     0
176
     1
290
     0
176
     1
290
     0
176
     1
290
     0
176
     1
290
     0
176
     1
290
     0
176
     1
 90
       50
176
     1
 40
0.0
176
     1
 40
1.0
176
     1
 90
        0
176
     1
 62
    18
420
        0
176
     1
 90
       50
176
     1
 90
        3
176
     1
 62
     5
420
      255
176
     1
290
     0
176
     1
 90
       50
176
     1
 90
       50
176
     1
 90
       50
176
     1
290
     0
176
     1
 90
       50
176
     1
 62
   256
176
     0
 40
1.0
176
     0
 90
        2
176
     1
  1
strokes_ogs.tif
176
     1
290
     0
176
     1
 40
1.0
176
     1
 40
1.0
176
     1
  0
VISUALSTYLE
  5
2E
102
{ACAD_REACTORS
330
2A
102
}
330
2A
100
AcDbVisualStyle
  2
GouraudWithEdges
 70
     3
177
     3
291
     1
 70
    58
 90
        2
176
     1
 90
        2
176
     1
 90
        1
176
     1
 90
        2
176
     1
 40
0.6
176
     1
 40
30.0
176
     1
 62
     7
420
 16777215
176
     1
 90
        1
176
     1
 90
        0
176
     1
 62
     7
176
     1
 62
   257
176
     1
 90
        1
176
     1
 90
        1
176
     1
 40
1.0
176
     1
 90
        0
176
     1
 62
   257
176
     1
 40
1.0
176
     1
 90
        1
176
     1
 90
        6
176
     1
 90
        2
176
     1
 62
     7
176
     1
 90
        5
176
     1
 90
        0
176
     1
 90
        0
176
     1
290
     0
176
     1
 90
       13
176
     1
 40
0.0
176
     1
 90
        0
176
     1
290
     0
176
     1
290
     1
176
     1
290
     1
176
     1
290
     0
176
     1
290
     0
176
     1
290
     0
176
     1
290
     0
176
     1
290
     0
176
     1
290
     0
176
     1
 90
       50
176
     1
 40
0.0
176
     1
 40
1.0
176
     1
 90
        0
176
     1
 62
    18
420
        0
176
     1
 90
       50
176
     1
 90
        3
176
     1
 62
     5
420
      255
176
     1
290
     0
176
     1
 90
       50
176
     1
 90
       50
176
     1
 90
       50
176
     1
290
     0
176
     1
 90
       50
176
     1
 62
   256
176
     0
 40
1.0
176
     0
 90
        2
176
     1
  1
strokes_ogs.tif
176
     1
290
     0
176
     1
 40
1.0
176
     1
 40
1.0
176
     1
  0
VISUALSTYLE
  5
31
102
{ACAD_REACTORS
330
2A
102
}
330
2A
100
AcDbVisualStyle
  2
Hidden
 70
     6
177
     3
291
     0
 70
    58
 90
        1
176
     1
 90
        2
176
     1
 90
        2
176
     1
 90
        0
176
     1
 40
0.6
176
     1
 40
30.0
176
     1
 62
     7
420
 16777215
176
     1
 90
        2
176
     1
 90
        2
176
     1
 62
     7
176
     1
 62
   257
176
     1
 90
        2
176
     1
 90
        1
176
     1
 40
40.0
176
     1
 90
        0
176
     1
 62
   257
176
     1
 40
1.0
176
     1
 90
        1
176
     1
 90
        6
176
     1
 90
        2
176
     1
 62
     7
176
     1
 90
        3
176
     1
 90
        0
176
     1
 90
        0
176
     1
290
     0
176
     1
 90
        1
176
     1
 40
0.0
176
     1
 90
        0
176
     1
290
     0
176
     1
290
     1
176
     1
290
     1
176
     1
290
     0
176
     1
290
     0
176
     1
290
     0
176
     1
290
     0
176
     1
290
     0
176
     1
290
     0
176
     1
 90
       50
176
     1
 40
0.0
176
     1
 40
1.0
176
     1
 90
        0
176
     1
 62
    18
420
        0
176
     1
 90
       50
176
     1
 90
        3
176
     1
 62
     5
420
      255
176
     1
290
     0
176
     1
 90
       50
176
     1
 90
       50
176
     1
 90
       50
176
     1
290
     0
176
     1
 90
       50
176
     1
 62
   256
176
     0
 40
1.0
176
     0
 90
        2
176
     1
  1
strokes_ogs.tif
176
     1
290
     0
176
     1
 40
1.0
176
     1
 40
1.0
176
     1
  0
VISUALSTYLE
  5
3B
102
{ACAD_REACTORS
330
2A
102
}
330
2A
100
AcDbVisualStyle
  2
JitterOff
 70
    20
177
     3
291
     1
 70
    58
 90
        2
176
     0
 90
        2
176
     0
 90
        0
176
     0
 90
        0
176
     0
 40
0.6
176
     0
 40
30.0
176
     0
 62
     7
420
 16777215
176
     0
 90
        1
176
     0
 90
        4
176
     0
 62
     7
176
     0
 62
   257
176
     0
 90
        1
176
     0
 90
        1
176
     0
 40
1.0
176
     0
 90
       10
176
     2
 62
     7
176
     0
 40
1.0
176
     0
 90
        1
176
     0
 90
        6
176
     0
 90
        2
176
     0
 62
     7
176
     0
 90
        5
176
     0
 90
        0
176
     0
 90
        0
176
     0
290
     0
176
     0
 90
        1
176
     0
 40
0.0
176
     0
 90
        0
176
     0
290
     0
176
     0
290
     1
176
     0
290
     1
176
     0
290
     0
176
     0
290
     0
176
     0
290
     0
176
     0
290
     0
176
     0
290
     0
176
     0
290
     0
176
     0
 90
       50
176
     0
 40
0.0
176
     0
 40
1.0
176
     0
 90
        0
176
     0
 62
    18
420
        0
176
     0
 90
       50
176
     0
 90
        3
176
     0
 62
     5
420
      255
176
     0
290
     0
176
     0
 90
       50
176
     0
 90
       50
176
     0
 90
       50
176
     0
290
     0
176
     0
 90
       50
176
     0
 62
   256
176
     0
 40
1.0
176
     0
 90
        2
176
     0
  1
strokes_ogs.tif
176
     0
290
     0
176
     0
 40
1.0
176
     0
 40
1.0
176
     0
  0
VISUALSTYLE
  5
38
102
{ACAD_REACTORS
330
2A
102
}
330
2A
100
AcDbVisualStyle
  2
Linepattern
 70
    14
177
     3
291
     1
 70
    58
 90
        2
176
     1
 90
        2
176
     1
 90
        0
176
     1
 90
        0
176
     1
 40
0.6
176
     1
 40
30.0
176
     1
 62
     7
420
 16777215
176
     1
 90
        1
176
     1
 90
        4
176
     1
 62
     7
176
     1
 62
   257
176
     1
 90
        7
176
     1
 90
        7
176
     1
 40
1.0
176
     1
 90
        8
176
     1
 62
     7
176
     1
 40
1.0
176
     1
 90
        1
176
     1
 90
        6
176
     1
 90
        2
176
     1
 62
     7
176
     1
 90
        5
176
     1
 90
        0
176
     1
 90
        0
176
     1
290
     0
176
     1
 90
        1
176
     1
 40
0.0
176
     1
 90
        0
176
     1
290
     0
176
     1
290
     1
176
     1
290
     1
176
     1
290
     0
176
     1
290
     0
176
     1
290
     0
176
     1
290
     0
176
     1
290
     0
176
     1
290
     0
176
     1
 90
       50
176
     1
 40
0.0
176
     1
 40
1.0
176
     1
 90
        0
176
     1
 62
    18
420
        0
176
     1
 90
       50
176
     1
 90
        3
176
     1
 62
     5
420
      255
176
     1
290
     0
176
     1
 90
       50
176
     1
 90
       50
176
     1
 90
       50
176
     1
290
     0
176
     1
 90
       50
176
     1
 62
   256
176
     0
 40
1.0
176
     0
 90
        2
176
     1
  1
strokes_ogs.tif
176
     1
290
     0
176
     1
 40
1.0
176
     1
 40
1.0
176
     1
  0
VISUALSTYLE
  5
3C
102
{ACAD_REACTORS
330
2A
102
}
330
2A
100
AcDbVisualStyle
  2
OverhangOff
 70
    21
177
     3
291
     1
 70
    58
 90
        2
176
     0
 90
        2
176
     0
 90
        0
176
     0
 90
        0
176
     0
 40
0.6
176
     0
 40
30.0
176
     0
 62
     7
420
 16777215
176
     0
 90
        1
176
     0
 90
        4
176
     0
 62
     7
176
     0
 62
   257
176
     0
 90
        1
176
     0
 90
        1
176
     0
 40
1.0
176
     0
 90
        9
176
     2
 62
     7
176
     0
 40
1.0
176
     0
 90
        1
176
     0
 90
        6
176
     0
 90
        2
176
     0
 62
     7
176
     0
 90
        5
176
     0
 90
        0
176
     0
 90
        0
176
     0
290
     0
176
     0
 90
        1
176
     0
 40
0.0
176
     0
 90
        0
176
     0
290
     0
176
     0
290
     1
176
     0
290
     1
176
     0
290
     0
176
     0
290
     0
176
     0
290
     0
176
     0
290
     0
176
     0
290
     0
176
     0
290
     0
176
     0
 90
       50
176
     0
 40
0.0
176
     0
 40
1.0
176
     0
 90
        0
176
     0
 62
    18
420
        0
176
     0
 90
       50
176
     0
 90
        3
176
     0
 62
     5
420
      255
176
     0
290
     0
176
     0
 90
       50
176
     0
 90
       50
176
     0
 90
       50
176
     0
290
     0
176
     0
 90
       50
176
     0
 62
   256
176
     0
 40
1.0
176
     0
 90
        2
176
     0
  1
strokes_ogs.tif
176
     0
290
     0
176
     0
 40
1.0
176
     0
 40
1.0
176
     0
  0
VISUALSTYLE
  5
33
102
{ACAD_REACTORS
330
2A
102
}
330
2A
100
AcDbVisualStyle
  2
Realistic
 70
     8
177
     3
291
     0
 70
    58
 90
        2
176
     1
 90
        3
176
     1
 90
        0
176
     1
 90
        2
176
     1
 40
0.6
176
     1
 40
30.0
176
     1
 62
     7
420
 16777215
176
     1
 90
        0
176
     1
 90
        0
176
     1
 62
     7
176
     1
 62
   257
176
     1
 90
        1
176
     1
 90
        1
176
     1
 40
1.0
176
     1
 90
        8
176
     1
 62
   257
176
     1
 40
1.0
176
     1
 90
        1
176
     1
 90
        6
176
     1
 90
        2
176
     1
 62
     7
176
     1
 90
        3
176
     1
 90
        0
176
     1
 90
        0
176
     1
290
     0
176
     1
 90
       13
176
     1
 40
0.0
176
     1
 90
        0
176
     1
290
     0
176
     1
290
     1
176
     1
290
     1
176
     1
290
     0
176
     1
290
     0
176
     1
290
     0
176
     1
290
     0
176
     1
290
     0
176
     1
290
     0
176
     1
 90
       50
176
     1
 40
0.0
176
     1
 40
1.0
176
     1
 90
        0
176
     1
 62
    18
420
        0
176
     1
 90
       50
176
     1
 90
        3
176
     1
 62
     5
420
      255
176
     1
290
     0
176
     1
 90
       50
176
     1
 90
       50
176
     1
 90
       50
176
     1
290
     0
176
     1
 90
       50
176
     1
 62
   256
176
     0
 40
1.0
176
     0
 90
        2
176
     1
  1
strokes_ogs.tif
176
     1
290
     0
176
     1
 40
1.0
176
     1
 40
1.0
176
     1
  0
VISUALSTYLE
  5
42
102
{ACAD_REACTORS
330
2A
102
}
330
2A
100
AcDbVisualStyle
  2
Shaded
 70
    27
177
     3
291
     0
 70
    58
 90
        2
176
     1
 90
        2
176
     1
 90
        1
176
     1
 90
        2
176
     1
 40
0.6
176
     1
 40
30.0
176
     1
 62
     7
420
 16777215
176
     1
 90
        0
176
     1
 90
        4
176
     1
 62
     7
176
     1
 62
   257
176
     1
 90
        1
176
     1
 90
        1
176
     1
 40
1.0
176
     1
 90
        8
176
     1
 62
   257
176
     1
 40
1.0
176
     1
 90
        1
176
     1
 90
        6
176
     1
 90
        2
176
     1
 62
     8
420
  7895160
176
     1
 90
        3
176
     1
 90
        0
176
     1
 90
        0
176
     1
290
     0
176
     1
 90
        5
176
     1
 40
0.0
176
     1
 90
        0
176
     1
290
     0
176
     1
290
     1
176
     1
290
     1
176
     1
290
     0
176
     1
290
     0
176
     1
290
     0
176
     1
290
     0
176
     1
290
     0
176
     1
290
     0
176
     1
 90
       50
176
     1
 40
0.0
176
     1
 40
1.0
176
     1
 90
        0
176
     1
 62
    18
420
        0
176
     1
 90
       50
176
     1
 90
        3
176
     1
 62
     5
420
      255
176
     1
290
     0
176
     1
 90
       50
176
     1
 90
       50
176
     1
 90
       50
176
     1
290
     0
176
     1
 90
       50
176
     1
 62
   256
176
     0
 40
1.0
176
     0
 90
        2
176
     1
  1
strokes_ogs.tif
176
     1
290
     0
176
     1
 40
1.0
176
     1
 40
1.0
176
     1
  0
VISUALSTYLE
  5
41
102
{ACAD_REACTORS
330
2A
102
}
330
2A
100
AcDbVisualStyle
  2
Shaded with edges
 70
    26
177
     3
291
     0
 70
    58
 90
        2
176
     1
 90
        2
176
     1
 90
        1
176
     1
 90
        2
176
     1
 40
0.6
176
     1
 40
30.0
176
     1
 62
     7
420
 16777215
176
     1
 90
        1
176
     1
 90
       10
176
     1
 62
     7
176
     1
 62
   257
176
     1
 90
        2
176
     1
 90
        1
176
     1
 40
1.0
176
     1
 90
        8
176
     1
 62
   257
176
     1
 40
1.0
176
     1
 90
        1
176
     1
 90
        6
176
     1
 90
        2
176
     1
 62
     7
176
     1
 90
        3
176
     1
 90
        0
176
     1
 90
        0
176
     1
290
     0
176
     1
 90
        5
176
     1
 40
0.0
176
     1
 90
        0
176
     1
290
     0
176
     1
290
     1
176
     1
290
     1
176
     1
290
     0
176
     1
290
     0
176
     1
290
     0
176
     1
290
     0
176
     1
290
     0
176
     1
290
     0
176
     1
 90
       50
176
     1
 40
0.0
176
     1
 40
1.0
176
     1
 90
        0
176
     1
 62
    18
420
        0
176
     1
 90
       50
176
     1
 90
        3
176
     1
 62
     5
420
      255
176
     1
290
     0
176
     1
 90
       50
176
     1
 90
       50
176
     1
 90
       50
176
     1
290
     0
176
     1
 90
       50
176
     1
 62
   256
176
     0
 40
1.0
176
     0
 90
        2
176
     1
  1
strokes_ogs.tif
176
     1
290
     0
176
     1
 40
1.0
176
     1
 40
1.0
176
     1
  0
VISUALSTYLE
  5
3E
102
{ACAD_REACTORS
330
2A
102
}
330
2A
100
AcDbVisualStyle
  2
Shades of Gray
 70
    23
177
     3
291
     0
 70
    58
 90
        2
176
     1
 90
        2
176
     1
 90
        3
176
     1
 90
        0
176
     1
 40
0.6
176
     1
 40
30.0
176
     1
 62
     7
420
 16777215
176
     1
 90
        2
176
     1
 90
        2
176
     1
 62
     7
176
     1
 62
     7
176
     1
 90
        1
176
     1
 90
        1
176
     1
 40
40.0
176
     1
 90
        8
176
     1
 62
     7
176
     1
 40
1.0
176
     1
 90
        1
176
     1
 90
        6
176
     1
 90
        2
176
     1
 62
     7
176
     1
 90
        3
176
     1
 90
        0
176
     1
 90
        0
176
     1
290
     0
176
     1
 90
        1
176
     1
 40
0.0
176
     1
 90
        0
176
     1
290
     0
176
     1
290
     1
176
     1
290
     1
176
     1
290
     0
176
     1
290
     0
176
     1
290
     0
176
     1
290
     0
176
     1
290
     0
176
     1
290
     0
176
     1
 90
       50
176
     1
 40
0.0
176
     1
 40
1.0
176
     1
 90
        0
176
     1
 62
    18
420
        0
176
     1
 90
       50
176
     1
 90
        3
176
     1
 62
     5
420
      255
176
     1
290
     0
176
     1
 90
       50
176
     1
 90
       50
176
     1
 90
       50
176
     1
290
     0
176
     1
 90
       50
176
     1
 62
   256
176
     0
 40
1.0
176
     0
 90
        2
176
     1
  1
strokes_ogs.tif
176
     1
290
     0
176
     1
 40
1.0
176
     1
 40
1.0
176
     1
  0
VISUALSTYLE
  5
3F
102
{ACAD_REACTORS
330
2A
102
}
330
2A
100
AcDbVisualStyle
  2
Sketchy
 70
    24
177
     3
291
     0
 70
    58
 90
        1
176
     1
 90
        2
176
     1
 90
        2
176
     1
 90
        0
176
     1
 40
0.6
176
     1
 40
30.0
176
     1
 62
     7
420
 16777215
176
     1
 90
        2
176
     1
 90
        2
176
     1
 62
     7
176
     1
 62
     7
176
     1
 90
        1
176
     1
 90
        1
176
     1
 40
40.0
176
     1
 90
       11
176
     1
 62
     7
176
     1
 40
1.0
176
     1
 90
        1
176
     1
 90
        6
176
     1
 90
        2
176
     1
 62
     7
176
     1
 90
        6
176
     1
 90
        0
176
     1
 90
        0
176
     1
290
     0
176
     1
 90
        1
176
     1
 40
0.0
176
     1
 90
        0
176
     1
290
     0
176
     1
290
     1
176
     1
290
     1
176
     1
290
     0
176
     1
290
     0
176
     1
290
     0
176
     1
290
     0
176
     1
290
     0
176
     1
290
     0
176
     1
 90
       50
176
     1
 40
0.0
176
     1
 40
1.0
176
     1
 90
        0
176
     1
 62
    18
420
        0
176
     1
 90
       50
176
     1
 90
        3
176
     1
 62
     5
420
      255
176
     1
290
     0
176
     1
 90
       50
176
     1
 90
       50
176
     1
 90
       50
176
     1
290
     0
176
     1
 90
       50
176
     1
 62
   256
176
     0
 40
1.0
176
     0
 90
        2
176
     1
  1
strokes_ogs.tif
176
     1
290
     0
176
     1
 40
1.0
176
     1
 40
1.0
176
     1
  0
VISUALSTYLE
  5
37
102
{ACAD_REACTORS
330
2A
102
}
330
2A
100
AcDbVisualStyle
  2
Thicken
 70
    13
177
     3
291
     1
 70
    58
 90
        2
176
     1
 90
        2
176
     1
 90
        0
176
     1
 90
        0
176
     1
 40
0.6
176
     1
 40
30.0
176
     1
 62
     7
420
 16777215
176
     1
 90
        1
176
     1
 90
        4
176
     1
 62
     7
176
     1
 62
   257
176
     1
 90
        1
176
     1
 90
        1
176
     1
 40
1.0
176
     1
 90
       12
176
     1
 62
     7
176
     1
 40
1.0
176
     1
 90
        1
176
     1
 90
        6
176
     1
 90
        2
176
     1
 62
     7
176
     1
 90
        5
176
     1
 90
        0
176
     1
 90
        0
176
     1
290
     0
176
     1
 90
        1
176
     1
 40
0.0
176
     1
 90
        0
176
     1
290
     0
176
     1
290
     1
176
     1
290
     1
176
     1
290
     0
176
     1
290
     0
176
     1
290
     0
176
     1
290
     0
176
     1
290
     0
176
     1
290
     0
176
     1
 90
       50
176
     1
 40
0.0
176
     1
 40
1.0
176
     1
 90
        0
176
     1
 62
    18
420
        0
176
     1
 90
       50
176
     1
 90
        3
176
     1
 62
     5
420
      255
176
     1
290
     0
176
     1
 90
       50
176
     1
 90
       50
176
     1
 90
       50
176
     1
290
     0
176
     1
 90
       50
176
     1
 62
   256
176
     0
 40
1.0
176
     0
 90
        2
176
     1
  1
strokes_ogs.tif
176
     1
290
     0
176
     1
 40
1.0
176
     1
 40
1.0
176
     1
  0
VISUALSTYLE
  5
30
102
{ACAD_REACTORS
330
2A
102
}
330
2A
100
AcDbVisualStyle
  2
Wireframe
 70
     5
177
     3
291
     0
 70
    58
 90
        0
176
     1
 90
        2
176
     1
 90
        0
176
     1
 90
        0
176
     1
 40
0.6
176
     1
 40
30.0
176
     1
 62
     7
420
 16777215
176
     1
 90
        1
176
     1
 90
        4
176
     1
 62
     7
176
     1
 62
   257
176
     1
 90
        1
176
     1
 90
        1
176
     1
 40
1.0
176
     1
 90
        0
176
     1
 62
   257
176
     1
 40
1.0
176
     1
 90
        1
176
     1
 90
        6
176
     1
 90
        2
176
     1
 62
     7
176
     1
 90
        3
176
     1
 90
        0
176
     1
 90
        0
176
     1
290
     0
176
     1
 90
        1
176
     1
 40
0.0
176
     1
 90
        0
176
     1
290
     0
176
     1
290
     1
176
     1
290
     1
176
     1
290
     0
176
     1
290
     0
176
     1
290
     0
176
     1
290
     0
176
     1
290
     0
176
     1
290
     0
176
     1
 90
       50
176
     1
 40
0.0
176
     1
 40
1.0
176
     1
 90
        0
176
     1
 62
    18
420
        0
176
     1
 90
       50
176
     1
 90
        3
176
     1
 62
     5
420
      255
176
     1
290
     0
176
     1
 90
       50
176
     1
 90
       50
176
     1
 90
       50
176
     1
290
     0
176
     1
 90
       50
176
     1
 62
   256
176
     0
 40
1.0
176
     0
 90
        2
176
     1
  1
strokes_ogs.tif
176
     1
290
     0
176
     1
 40
1.0
176
     1
 40
1.0
176
     1
  0
VISUALSTYLE
  5
40
102
{ACAD_REACTORS
330
2A
102
}
330
2A
100
AcDbVisualStyle
  2
X-Ray
 70
    25
177
     3
291
     0
 70
    58
 90
        2
176
     1
 90
        2
176
     1
 90
        1
176
     1
 90
        1
176
     1
 40
0.5
176
     1
 40
30.0
176
     1
 62
     7
420
 16777215
176
     1
 90
        1
176
     1
 90
        0
176
     1
 62
     7
176
     1
 62
   257
176
     1
 90
        1
176
     1
 90
        1
176
     1
 40
1.0
176
     1
 90
        8
176
     1
 62
     7
176
     1
 40
1.0
176
     1
 90
        1
176
     1
 90
        6
176
     1
 90
        2
176
     1
 62
     7
176
     1
 90
        3
176
     1
 90
        0
176
     1
 90
        0
176
     1
290
     0
176
     1
 90
       13
176
     1
 40
0.0
176
     1
 90
        0
176
     1
290
     0
176
     1
290
     1
176
     1
290
     1
176
     1
290
     0
176
     1
290
     0
176
     1
290
     0
176
     1
290
     0
176
     1
290
     0
176
     1
290
     0
176
     1
 90
       50
176
     1
 40
0.0
176
     1
 40
1.0
176
     1
 90
        0
176
     1
 62
    18
420
        0
176
     1
 90
       50
176
     1
 90
        3
176
     1
 62
     5
420
      255
176
     1
290
     0
176
     1
 90
       50
176
     1
 90
       50
176
     1
 90
       50
176
     1
290
     0
176
     1
 90
       50
176
     1
 62
   256
176
     0
 40
1.0
176
     0
 90
        2
176
     1
  1
strokes_ogs.tif
176
     1
290
     0
176
     1
 40
1.0
176
     1
 40
1.0
176
     1
  0
DICTIONARYVAR
  5
23E
102
{ACAD_REACTORS
330
23D
102
}
330
23D
100
DictionaryVariables
280
     0
  1
1:1
  0
DICTIONARYVAR
  5
243
102
{ACAD_REACTORS
330
23D
102
}
330
23D
100
DictionaryVariables
280
     0
  1
Standard
  0
DICTIONARYVAR
  5
242
102
{ACAD_REACTORS
330
23D
102
}
330
23D
100
DictionaryVariables
280
     0
  1
Standard
  0
DICTIONARY
  5
23F
330
6A
100
AcDbDictionary
280
     1
281
     1
  3
ACAD_ROUNDTRIP_2008_TABLESTYLE_CELLSTYLEMAP
360
240
  0
CELLSTYLEMAP
  5
240
102
{ACAD_REACTORS
330
23F
102
}
330
23F
100
AcDbCellStyleMap
 90
        3
300
CELLSTYLE
  1
TABLEFORMAT_BEGIN
 90
        5
170
     1
 91
        0
 92
    32768
 62
   257
 93
        1
300
CONTENTFORMAT
  1
CONTENTFORMAT_BEGIN
 90
        0
 91
        0
 92
        4
 93
        0
300

 40
0.0
140
1.0
 94
        5
 62
     0
340
11
144
6.0
309
CONTENTFORMAT_END
171
     1
301
MARGIN
  1
CELLMARGIN_BEGIN
 40
1.5
 40
1.5
 40
1.5
 40
1.5
 40
1.5
 40
1.5
309
CELLMARGIN_END
 94
        6
 95
        1
302
GRIDFORMAT
  1
GRIDFORMAT_BEGIN
 90
        0
 91
        1
 62
     0
 92
       -2
340
14
 93
        0
 40
0.045
309
GRIDFORMAT_END
 95
        2
302
GRIDFORMAT
  1
GRIDFORMAT_BEGIN
 90
        0
 91
        1
 62
     0
 92
       -2
340
14
 93
        0
 40
0.045
309
GRIDFORMAT_END
 95
        4
302
GRIDFORMAT
  1
GRIDFORMAT_BEGIN
 90
        0
 91
        1
 62
     0
 92
       -2
340
14
 93
        0
 40
0.045
309
GRIDFORMAT_END
 95
        8
302
GRIDFORMAT
  1
GRIDFORMAT_BEGIN
 90
        0
 91
        1
 62
     0
 92
       -2
340
14
 93
        0
 40
0.045
309
GRIDFORMAT_END
 95
       16
302
GRIDFORMAT
  1
GRIDFORMAT_BEGIN
 90
        0
 91
        1
 62
     0
 92
       -2
340
14
 93
        0
 40
0.045
309
GRIDFORMAT_END
 95
       32
302
GRIDFORMAT
  1
GRIDFORMAT_BEGIN
 90
        0
 91
        1
 62
     0
 92
       -2
340
14
 93
        0
 40
0.045
309
GRIDFORMAT_END
309
TABLEFORMAT_END
  1
CELLSTYLE_BEGIN
 90
        1
 91
        1
300
_TITLE
309
CELLSTYLE_END
300
CELLSTYLE
  1
TABLEFORMAT_BEGIN
 90
        5
170
     1
 91
        0
 92
        0
 62
   257
 93
        1
300
CONTENTFORMAT
  1
CONTENTFORMAT_BEGIN
 90
        0
 91
        0
 92
        4
 93
        0
300

 40
0.0
140
1.0
 94
        5
 62
     0
340
11
144
4.5
309
CONTENTFORMAT_END
171
     1
301
MARGIN
  1
CELLMARGIN_BEGIN
 40
1.5
 40
1.5
 40
1.5
 40
1.5
 40
1.5
 40
1.5
309
CELLMARGIN_END
 94
        6
 95
        1
302
GRIDFORMAT
  1
GRIDFORMAT_BEGIN
 90
        0
 91
        1
 62
     0
 92
       -2
340
14
 93
        0
 40
0.045
309
GRIDFORMAT_END
 95
        2
302
GRIDFORMAT
  1
GRIDFORMAT_BEGIN
 90
        0
 91
        1
 62
     0
 92
       -2
340
14
 93
        0
 40
0.045
309
GRIDFORMAT_END
 95
        4
302
GRIDFORMAT
  1
GRIDFORMAT_BEGIN
 90
        0
 91
        1
 62
     0
 92
       -2
340
14
 93
        0
 40
0.045
309
GRIDFORMAT_END
 95
        8
302
GRIDFORMAT
  1
GRIDFORMAT_BEGIN
 90
        0
 91
        1
 62
     0
 92
       -2
340
14
 93
        0
 40
0.045
309
GRIDFORMAT_END
 95
       16
302
GRIDFORMAT
  1
GRIDFORMAT_BEGIN
 90
        0
 91
        1
 62
     0
 92
       -2
340
14
 93
        0
 40
0.045
309
GRIDFORMAT_END
 95
       32
302
GRIDFORMAT
  1
GRIDFORMAT_BEGIN
 90
        0
 91
        1
 62
     0
 92
       -2
340
14
 93
        0
 40
0.045
309
GRIDFORMAT_END
309
TABLEFORMAT_END
  1
CELLSTYLE_BEGIN
 90
        2
 91
        1
300
_HEADER
309
CELLSTYLE_END
300
CELLSTYLE
  1
TABLEFORMAT_BEGIN
 90
        5
170
     1
 91
        0
 92
        0
 62
   257
 93
        1
300
CONTENTFORMAT
  1
CONTENTFORMAT_BEGIN
 90
        0
 91
        0
 92
        4
 93
        0
300

 40
0.0
140
1.0
 94
        2
 62
     0
340
11
144
4.5
309
CONTENTFORMAT_END
171
     1
301
MARGIN
  1
CELLMARGIN_BEGIN
 40
1.5
 40
1.5
 40
1.5
 40
1.5
 40
1.5
 40
1.5
309
CELLMARGIN_END
 94
        6
 95
        1
302
GRIDFORMAT
  1
GRIDFORMAT_BEGIN
 90
        0
 91
        1
 62
     0
 92
       -2
340
14
 93
        0
 40
0.045
309
GRIDFORMAT_END
 95
        2
302
GRIDFORMAT
  1
GRIDFORMAT_BEGIN
 90
        0
 91
        1
 62
     0
 92
       -2
340
14
 93
        0
 40
0.045
309
GRIDFORMAT_END
 95
        4
302
GRIDFORMAT
  1
GRIDFORMAT_BEGIN
 90
        0
 91
        1
 62
     0
 92
       -2
340
14
 93
        0
 40
0.045
309
GRIDFORMAT_END
 95
        8
302
GRIDFORMAT
  1
GRIDFORMAT_BEGIN
 90
        0
 91
        1
 62
     0
 92
       -2
340
14
 93
        0
 40
0.045
309
GRIDFORMAT_END
 95
       16
302
GRIDFORMAT
  1
GRIDFORMAT_BEGIN
 90
        0
 91
        1
 62
     0
 92
       -2
340
14
 93
        0
 40
0.045
309
GRIDFORMAT_END
 95
       32
302
GRIDFORMAT
  1
GRIDFORMAT_BEGIN
 90
        0
 91
        1
 62
     0
 92
       -2
340
14
 93
        0
 40
0.045
309
GRIDFORMAT_END
309
TABLEFORMAT_END
  1
CELLSTYLE_BEGIN
 90
        3
 91
        2
300
_DATA
309
CELLSTYLE_END
  0
ENDSEC
  0
EOF