0
SECTION
  2
HEADER
  9
$ACADVER
  1
AC1027
  9
$ACADMAINTVER
 70
     8
  9
$DWGCODEPAGE
  3
ANSI_1252
  9
$REQUIREDVERSIONS
160
                 0
  9
$COMMENTS
  1
File was created by Cadenas
  9
$CUSTOMPROPERTYTAG
  1
NN
  9
$CUSTOMPROPERTY
  1
Grip Tight Medium Duty Flange Cartridge Metric Bore
  9
$CUSTOMPROPERTYTAG
  1
NT
  9
$CUSTOMPROPERTY
  1
GT Normal Duty Piloted Flange Bearings
  9
$CUSTOMPROPERTYTAG
  1
NB
  9
$CUSTOMPROPERTY
  1
136295
  9
$CUSTOMPROPERTYTAG
  1
NBSYN
  9
$CUSTOMPROPERTY
  1
$PN.
  9
$CUSTOMPROPERTYTAG
  1
LINA
  9
$CUSTOMPROPERTY
  1
136295
  9
$CUSTOMPROPERTYTAG
  1
SERIES
  9
$CUSTOMPROPERTY
  1
218
  9
$CUSTOMPROPERTYTAG
  1
SS
  9
$CUSTOMPROPERTY
  1
85
  9
$CUSTOMPROPERTYTAG
  1
PN
  9
$CUSTOMPROPERTY
  1
136295
  9
$CUSTOMPROPERTYTAG
  1
DESCRIPTION
  9
$CUSTOMPROPERTY
  1
FC-GTM-85M
  9
$CUSTOMPROPERTYTAG
  1
PNSL
  9
$CUSTOMPROPERTY
  1
129510
  9
$CUSTOMPROPERTYTAG
  1
DESCRIPTIONSL
  9
$CUSTOMPROPERTY
  1
FC-GT-18
  9
$CUSTOMPROPERTYTAG
  1
PNA
  9
$CUSTOMPROPERTY
  1
136571
  9
$CUSTOMPROPERTYTAG
  1
DESCRIPTIONA
  9
$CUSTOMPROPERTY
  1
AN-GTM-18-85M-D
  9
$CUSTOMPROPERTYTAG
  1
W
  9
$CUSTOMPROPERTY
  1
17.8
  9
$CUSTOMPROPERTYTAG
  1
A
  9
$CUSTOMPROPERTY
  1
71.1
  9
$CUSTOMPROPERTYTAG
  1
B
  9
$CUSTOMPROPERTY
  1
260.4
  9
$CUSTOMPROPERTYTAG
  1
C
  9
$CUSTOMPROPERTY
  1
90.7
  9
$CUSTOMPROPERTYTAG
  1
D
  9
$CUSTOMPROPERTY
  1
212.9
  9
$CUSTOMPROPERTYTAG
  1
E
  9
$CUSTOMPROPERTY
  1
28.7
  9
$CUSTOMPROPERTYTAG
  1
F
  9
$CUSTOMPROPERTY
  1
M18
  9
$CUSTOMPROPERTYTAG
  1
G
  9
$CUSTOMPROPERTY
  1
62.0
  9
$CUSTOMPROPERTYTAG
  1
H
  9
$CUSTOMPROPERTY
  1
41.4
  9
$CUSTOMPROPERTYTAG
  1
K
  9
$CUSTOMPROPERTY
  1
187.33/187.27
  9
$CUSTOMPROPERTYTAG
  1
L
  9
$CUSTOMPROPERTY
  1
131.8
  9
$CUSTOMPROPERTYTAG
  1
Z
  9
$CUSTOMPROPERTY
  1
61.5
  9
$CUSTOMPROPERTYTAG
  1
CAPS
  9
$CUSTOMPROPERTY
  1
13940
  9
$CUSTOMPROPERTYTAG
  1
CAPD
  9
$CUSTOMPROPERTY
  1
21451
  9
$CUSTOMPROPERTYTAG
  1
COMPANY
  9
$CUSTOMPROPERTY
  1
baldor
  9
$INSBASE
 10
0.0
 20
0.0
 30
0.0
  9
$EXTMIN
 10
1.000000000000000E+20
 20
1.000000000000000E+20
 30
1.000000000000000E+20
  9
$EXTMAX
 10
-1.000000000000000E+20
 20
-1.000000000000000E+20
 30
-1.000000000000000E+20
  9
$LIMMIN
 10
0.0
 20
0.0
  9
$LIMMAX
 10
420.0
 20
297.0
  9
$ORTHOMODE
 70
     0
  9
$REGENMODE
 70
     1
  9
$FILLMODE
 70
     1
  9
$QTEXTMODE
 70
     0
  9
$MIRRTEXT
 70
     1
  9
$LTSCALE
 40
1.0
  9
$ATTMODE
 70
     1
  9
$TEXTSIZE
 40
2.5
  9
$TRACEWID
 40
1.0
  9
$TEXTSTYLE
  7
Standard
  9
$CLAYER
  8
0
  9
$CELTYPE
  6
ByLayer
  9
$CECOLOR
 62
   256
  9
$CELTSCALE
 40
1.0
  9
$DISPSILH
 70
     0
  9
$DIMSCALE
 40
1.0
  9
$DIMASZ
 40
2.5
  9
$DIMEXO
 40
0.625
  9
$DIMDLI
 40
3.75
  9
$DIMRND
 40
0.0
  9
$DIMDLE
 40
0.0
  9
$DIMEXE
 40
1.25
  9
$DIMTP
 40
0.0
  9
$DIMTM
 40
0.0
  9
$DIMTXT
 40
2.5
  9
$DIMCEN
 40
2.5
  9
$DIMTSZ
 40
0.0
  9
$DIMTOL
 70
     0
  9
$DIMLIM
 70
     0
  9
$DIMTIH
 70
     0
  9
$DIMTOH
 70
     0
  9
$DIMSE1
 70
     0
  9
$DIMSE2
 70
     0
  9
$DIMTAD
 70
     1
  9
$DIMZIN
 70
     8
  9
$DIMBLK
  1

  9
$DIMASO
 70
     1
  9
$DIMSHO
 70
     1
  9
$DIMPOST
  1

  9
$DIMAPOST
  1

  9
$DIMALT
 70
     0
  9
$DIMALTD
 70
     3
  9
$DIMALTF
 40
0.03937007874016
  9
$DIMLFAC
 40
1.0
  9
$DIMTOFL
 70
     1
  9
$DIMTVP
 40
0.0
  9
$DIMTIX
 70
     0
  9
$DIMSOXD
 70
     0
  9
$DIMSAH
 70
     0
  9
$DIMBLK1
  1

  9
$DIMBLK2
  1

  9
$DIMSTYLE
  2
ISO-25
  9
$DIMCLRD
 70
     0
  9
$DIMCLRE
 70
     0
  9
$DIMCLRT
 70
     0
  9
$DIMTFAC
 40
1.0
  9
$DIMGAP
 40
0.625
  9
$DIMJUST
 70
     0
  9
$DIMSD1
 70
     0
  9
$DIMSD2
 70
     0
  9
$DIMTOLJ
 70
     0
  9
$DIMTZIN
 70
     8
  9
$DIMALTZ
 70
     0
  9
$DIMALTTZ
 70
     0
  9
$DIMUPT
 70
     0
  9
$DIMDEC
 70
     2
  9
$DIMTDEC
 70
     2
  9
$DIMALTU
 70
     2
  9
$DIMALTTD
 70
     3
  9
$DIMTXSTY
  7
Standard
  9
$DIMAUNIT
 70
     0
  9
$DIMADEC
 70
     0
  9
$DIMALTRND
 40
0.0
  9
$DIMAZIN
 70
     0
  9
$DIMDSEP
 70
    44
  9
$DIMATFIT
 70
     3
  9
$DIMFRAC
 70
     0
  9
$DIMLDRBLK
  1

  9
$DIMLUNIT
 70
     2
  9
$DIMLWD
 70
    -2
  9
$DIMLWE
 70
    -2
  9
$DIMTMOVE
 70
     0
  9
$DIMFXL
 40
1.0
  9
$DIMFXLON
 70
     0
  9
$DIMJOGANG
 40
0.7853981633974483
  9
$DIMTFILL
 70
     0
  9
$DIMTFILLCLR
 70
     0
  9
$DIMARCSYM
 70
     0
  9
$DIMLTYPE
  6

  9
$DIMLTEX1
  6

  9
$DIMLTEX2
  6

  9
$DIMTXTDIRECTION
 70
     0
  9
$LUNITS
 70
     2
  9
$LUPREC
 70
     4
  9
$SKETCHINC
 40
1.0
  9
$FILLETRAD
 40
10.0
  9
$AUNITS
 70
     0
  9
$AUPREC
 70
     0
  9
$MENU
  1
.
  9
$ELEVATION
 40
0.0
  9
$PELEVATION
 40
0.0
  9
$THICKNESS
 40
0.0
  9
$LIMCHECK
 70
     0
  9
$CHAMFERA
 40
0.0
  9
$CHAMFERB
 40
0.0
  9
$CHAMFERC
 40
0.0
  9
$CHAMFERD
 40
0.0
  9
$SKPOLY
 70
     0
  9
$TDCREATE
 40
2458168.963985776
  9
$TDUCREATE
 40
2458168.922319109
  9
$TDUPDATE
 40
2458168.963985776
  9
$TDUUPDATE
 40
2458168.922319109
  9
$TDINDWG
 40
0.0000000116
  9
$TDUSRTIMER
 40
0.0000000116
  9
$USRTIMER
 70
     1
  9
$ANGBASE
 50
0.0
  9
$ANGDIR
 70
     0
  9
$PDMODE
 70
     0
  9
$PDSIZE
 40
0.0
  9
$PLINEWID
 40
0.0
  9
$SPLFRAME
 70
     0
  9
$SPLINETYPE
 70
     6
  9
$SPLINESEGS
 70
     8
  9
$HANDSEED
  5
1DB
  9
$SURFTAB1
 70
     6
  9
$SURFTAB2
 70
     6
  9
$SURFTYPE
 70
     6
  9
$SURFU
 70
     6
  9
$SURFV
 70
     6
  9
$UCSBASE
  2

  9
$UCSNAME
  2

  9
$UCSORG
 10
0.0
 20
0.0
 30
0.0
  9
$UCSXDIR
 10
1.0
 20
0.0
 30
0.0
  9
$UCSYDIR
 10
0.0
 20
1.0
 30
0.0
  9
$UCSORTHOREF
  2

  9
$UCSORTHOVIEW
 70
     0
  9
$UCSORGTOP
 10
0.0
 20
0.0
 30
0.0
  9
$UCSORGBOTTOM
 10
0.0
 20
0.0
 30
0.0
  9
$UCSORGLEFT
 10
0.0
 20
0.0
 30
0.0
  9
$UCSORGRIGHT
 10
0.0
 20
0.0
 30
0.0
  9
$UCSORGFRONT
 10
0.0
 20
0.0
 30
0.0
  9
$UCSORGBACK
 10
0.0
 20
0.0
 30
0.0
  9
$PUCSBASE
  2

  9
$PUCSNAME
  2

  9
$PUCSORG
 10
0.0
 20
0.0
 30
0.0
  9
$PUCSXDIR
 10
1.0
 20
0.0
 30
0.0
  9
$PUCSYDIR
 10
0.0
 20
1.0
 30
0.0
  9
$PUCSORTHOREF
  2

  9
$PUCSORTHOVIEW
 70
     0
  9
$PUCSORGTOP
 10
0.0
 20
0.0
 30
0.0
  9
$PUCSORGBOTTOM
 10
0.0
 20
0.0
 30
0.0
  9
$PUCSORGLEFT
 10
0.0
 20
0.0
 30
0.0
  9
$PUCSORGRIGHT
 10
0.0
 20
0.0
 30
0.0
  9
$PUCSORGFRONT
 10
0.0
 20
0.0
 30
0.0
  9
$PUCSORGBACK
 10
0.0
 20
0.0
 30
0.0
  9
$USERI1
 70
     0
  9
$USERI2
 70
     0
  9
$USERI3
 70
     0
  9
$USERI4
 70
     0
  9
$USERI5
 70
     0
  9
$USERR1
 40
0.0
  9
$USERR2
 40
0.0
  9
$USERR3
 40
0.0
  9
$USERR4
 40
0.0
  9
$USERR5
 40
0.0
  9
$WORLDVIEW
 70
     1
  9
$SHADEDGE
 70
     3
  9
$SHADEDIF
 70
    70
  9
$TILEMODE
 70
     1
  9
$MAXACTVP
 70
    64
  9
$PINSBASE
 10
0.0
 20
0.0
 30
0.0
  9
$PLIMCHECK
 70
     0
  9
$PEXTMIN
 10
1.000000000000000E+20
 20
1.000000000000000E+20
 30
1.000000000000000E+20
  9
$PEXTMAX
 10
-1.000000000000000E+20
 20
-1.000000000000000E+20
 30
-1.000000000000000E+20
  9
$PLIMMIN
 10
0.0
 20
0.0
  9
$PLIMMAX
 10
420.0
 20
297.0
  9
$UNITMODE
 70
     0
  9
$VISRETAIN
 70
     1
  9
$PLINEGEN
 70
     0
  9
$PSLTSCALE
 70
     1
  9
$TREEDEPTH
 70
  3020
  9
$CMLSTYLE
  2
Standard
  9
$CMLJUST
 70
     0
  9
$CMLSCALE
 40
20.0
  9
$PROXYGRAPHICS
 70
     1
  9
$MEASUREMENT
 70
     1
  9
$CELWEIGHT
370
    -1
  9
$ENDCAPS
280
     0
  9
$JOINSTYLE
280
     0
  9
$LWDISPLAY
290
     0
  9
$INSUNITS
 70
     4
  9
$HYPERLINKBASE
  1

  9
$STYLESHEET
  1

  9
$XEDIT
290
     1
  9
$CEPSNTYPE
380
     0
  9
$PSTYLEMODE
290
     1
  9
$FINGERPRINTGUID
  2
{D31F7AAC-46D6-4929-9514-F273A93E8E5C}
  9
$VERSIONGUID
  2
{FAEB1C32-E019-11D5-929B-00C0DF256EC4}
  9
$EXTNAMES
290
     1
  9
$PSVPSCALE
 40
0.0
  9
$OLESTARTUP
290
     0
  9
$SORTENTS
280
   127
  9
$INDEXCTL
280
     0
  9
$HIDETEXT
280
     1
  9
$XCLIPFRAME
280
     2
  9
$HALOGAP
280
     0
  9
$OBSCOLOR
 70
   257
  9
$OBSLTYPE
280
     0
  9
$INTERSECTIONDISPLAY
280
     0
  9
$INTERSECTIONCOLOR
 70
   257
  9
$DIMASSOC
280
     2
  9
$PROJECTNAME
  1

  9
$CAMERADISPLAY
290
     0
  9
$LENSLENGTH
 40
50.0
  9
$CAMERAHEIGHT
 40
0.0
  9
$STEPSPERSEC
 40
2.0
  9
$STEPSIZE
 40
6.0
  9
$3DDWFPREC
 40
2.0
  9
$PSOLWIDTH
 40
5.0
  9
$PSOLHEIGHT
 40
80.0
  9
$LOFTANG1
 40
1.570796326794897
  9
$LOFTANG2
 40
1.570796326794897
  9
$LOFTMAG1
 40
0.0
  9
$LOFTMAG2
 40
0.0
  9
$LOFTPARAM
 70
     7
  9
$LOFTNORMALS
280
     1
  9
$LATITUDE
 40
37.795
  9
$LONGITUDE
 40
-122.394
  9
$NORTHDIRECTION
 40
0.0
  9
$TIMEZONE
 70
 -8000
  9
$LIGHTGLYPHDISPLAY
280
     1
  9
$TILEMODELIGHTSYNCH
280
     1
  9
$CMATERIAL
347
44
  9
$SOLIDHIST
280
     0
  9
$SHOWHIST
280
     1
  9
$DWFFRAME
280
     2
  9
$DGNFRAME
280
     2
  9
$REALWORLDSCALE
290
     1
  9
$INTERFERECOLOR
 62
   256
  9
$CSHADOW
280
     0
  9
$SHADOWPLANELOCATION
 40
0.0
  0
ENDSEC
  0
SECTION
  2
CLASSES
  0
CLASS
  1
ACDBDICTIONARYWDFLT
  2
AcDbDictionaryWithDefault
  3
ObjectDBX Classes
 90
        0
 91
        4
280
     0
281
     0
  0
CLASS
  1
VISUALSTYLE
  2
AcDbVisualStyle
  3
ObjectDBX Classes
 90
     4095
 91
        4
280
     0
281
     0
  0
CLASS
  1
MATERIAL
  2
AcDbMaterial
  3
ObjectDBX Classes
 90
     1153
 91
        4
280
     0
281
     0
  0
CLASS
  1
SCALE
  2
AcDbScale
  3
ObjectDBX Classes
 90
     1153
 91
        4
280
     0
281
     0
  0
CLASS
  1
TABLESTYLE
  2
AcDbTableStyle
  3
ObjectDBX Classes
 90
     4095
 91
        4
280
     0
281
     0
  0
CLASS
  1
MLEADERSTYLE
  2
AcDbMLeaderStyle
  3
ACDB_MLEADERSTYLE_CLASS
 90
     4095
 91
        4
280
     0
281
     0
  0
CLASS
  1
SUN
  2
AcDbSun
  3
SCENEOE
 90
     1153
 91
        4
280
     0
281
     0
  0
CLASS
  1
DICTIONARYVAR
  2
AcDbDictionaryVar
  3
ObjectDBX Classes
 90
        0
 91
        4
280
     0
281
     0
  0
CLASS
  1
CELLSTYLEMAP
  2
AcDbCellStyleMap
  3
ObjectDBX Classes
 90
     1152
 91
        4
280
     0
281
     0
  0
ENDSEC
  0
SECTION
  2
TABLES
  0
TABLE
  2
VPORT
  5
8
330
0
100
AcDbSymbolTable
 70
     1
  0
VPORT
  5
29
330
8
100
AcDbSymbolTableRecord
100
AcDbViewportTableRecord
  2
*Active
 70
     0
 10
0.0
 20
0.0
 11
1.0
 21
1.0
 12
0.0
 22
-45.72500000000002
 13
0.0
 23
0.0
 14
10.0
 24
10.0
 15
10.0
 25
10.0
 16
0.0
 26
0.0
 36
1.0
 17
0.0
 27
0.0
 37
0.0
 40
100.4292
 41
2.644728823887872
 42
50.0
 43
0.0
 44
0.0
 50
0.0
 51
0.0
 71
     0
 72
   100
 73
     1
 74
     3
 75
     0
 76
     0
 77
     0
 78
     0
281
     0
 65
     1
110
0.0
120
0.0
130
0.0
111
1.0
121
0.0
131
0.0
112
0.0
122
1.0
132
0.0
 79
     0
146
0.0
348
2F
 60
     3
 61
     5
292
     1
282
     1
141
0.0
142
0.0
 63
   250
361
6D
  0
ENDTAB
  0
TABLE
  2
LTYPE
  5
5
330
0
100
AcDbSymbolTable
 70
     3
  0
LTYPE
  5
14
330
5
100
AcDbSymbolTableRecord
100
AcDbLinetypeTableRecord
  2
ByBlock
 70
     0
  3

 72
    65
 73
     0
 40
0.0
  0
LTYPE
  5
15
330
5
100
AcDbSymbolTableRecord
100
AcDbLinetypeTableRecord
  2
ByLayer
 70
     0
  3

 72
    65
 73
     0
 40
0.0
  0
LTYPE
  5
16
330
5
100
AcDbSymbolTableRecord
100
AcDbLinetypeTableRecord
  2
Continuous
 70
     0
  3
Solid line
 72
    65
 73
     0
 40
0.0
  0
LTYPE
  5
A5
330
5
100
AcDbSymbolTableRecord
100
AcDbLinetypeTableRecord
  2
Dashed
 70
     0
  3

 72
    65
 73
     2
 40
2.0
 49
1.0
 74
     0
 49
-1.0
 74
     0
  0
LTYPE
  5
112
330
5
100
AcDbSymbolTableRecord
100
AcDbLinetypeTableRecord
  2
Center
 70
     0
  3

 72
    65
 73
     4
 40
1.5
 49
0.45
 74
     0
 49
-0.5
 74
     0
 49
0.05
 74
     0
 49
-0.5
 74
     0
  0
ENDTAB
  0
TABLE
  2
LAYER
  5
2
330
0
100
AcDbSymbolTable
 70
     7
  0
LAYER
  5
10
330
2
100
AcDbSymbolTableRecord
100
AcDbLayerTableRecord
  2
0
 70
     0
 62
     7
  6
Continuous
370
    -3
390
F
347
46
348
0
  0
LAYER
  5
72
330
2
100
AcDbSymbolTableRecord
100
AcDbLayerTableRecord
  2
AM_6
 70
     0
 62
    -2
  6
Continuous
370
    35
390
F
347
46
348
0
  0
LAYER
  5
A6
330
2
100
AcDbSymbolTableRecord
100
AcDbLayerTableRecord
  2
AM_9
 70
     0
 62
     6
  6
Dashed
370
    25
390
F
347
46
348
0
  0
LAYER
  5
113
330
2
100
AcDbSymbolTableRecord
100
AcDbLayerTableRecord
  2
AM_7
 70
     0
 62
     7
  6
Center
370
    25
390
F
347
46
348
0
  0
LAYER
  5
115
330
2
100
AcDbSymbolTableRecord
100
AcDbLayerTableRecord
  2
AM_4
 70
     0
 62
     7
  6
Continuous
370
    50
390
F
347
46
348
0
  0
LAYER
  5
12D
330
2
100
AcDbSymbolTableRecord
100
AcDbLayerTableRecord
  2
AM_5
 70
     0
 62
     3
  6
Continuous
370
    25
390
F
347
46
348
0
  0
LAYER
  5
1CD
330
2
100
AcDbSymbolTableRecord
100
AcDbLayerTableRecord
  2
ConnectionPoints
 70
     0
 62
     7
  6
Continuous
370
    50
390
F
347
46
348
0
  0
ENDTAB
  0
TABLE
  2
STYLE
  5
3
330
0
100
AcDbSymbolTable
 70
     1
  0
STYLE
  5
11
330
3
100
AcDbSymbolTableRecord
100
AcDbTextStyleTableRecord
  2
Standard
 70
     0
 40
0.0
 41
1.0
 50
0.0
 71
     0
 42
2.5
  3
txt
  4

  0
ENDTAB
  0
TABLE
  2
VIEW
  5
6
330
0
100
AcDbSymbolTable
 70
     0
  0
ENDTAB
  0
TABLE
  2
UCS
  5
7
330
0
100
AcDbSymbolTable
 70
     0
  0
ENDTAB
  0
TABLE
  2
APPID
  5
9
330
0
100
AcDbSymbolTable
 70
     1
  0
APPID
  5
12
330
9
100
AcDbSymbolTableRecord
100
AcDbRegAppTableRecord
  2
ACAD
 70
     0
  0
ENDTAB
  0
TABLE
  2
DIMSTYLE
  5
A
330
0
100
AcDbSymbolTable
 70
     1
100
AcDbDimStyleTable
  0
DIMSTYLE
105
27
330
A
100
AcDbSymbolTableRecord
100
AcDbDimStyleTableRecord
  2
ISO-25
 70
     0
 41
2.5
 42
0.625
 43
3.75
 44
1.25
 73
     0
 74
     0
 77
     1
 78
     8
140
2.5
141
2.5
143
0.03937007874016
147
0.625
171
     3
172
     1
178
     0
271
     2
272
     2
274
     3
278
    44
283
     0
284
     8
340
11
  0
ENDTAB
  0
TABLE
  2
BLOCK_RECORD
  5
1
330
0
100
AcDbSymbolTable
 70
     5
  0
BLOCK_RECORD
  5
1F
330
1
100
AcDbSymbolTableRecord
100
AcDbBlockTableRecord
  2
*Model_Space
340
22
 70
     0
280
     1
281
     0
  0
BLOCK_RECORD
  5
1B
330
1
100
AcDbSymbolTableRecord
100
AcDbBlockTableRecord
  2
*Paper_Space
340
1E
 70
     0
280
     1
281
     0
  0
BLOCK_RECORD
  5
23
330
1
100
AcDbSymbolTableRecord
100
AcDbBlockTableRecord
  2
*Paper_Space0
340
26
 70
     0
280
     1
281
     0
  0
BLOCK_RECORD
  5
6E
330
1
100
AcDbSymbolTableRecord
100
AcDbBlockTableRecord
  2
1_136295_4
340
0
102
{BLKREFS
331
6F
102
}
 70
     0
280
     1
281
     0
  0
BLOCK_RECORD
  5
8F
330
1
100
AcDbSymbolTableRecord
100
AcDbBlockTableRecord
  2
2_129529_0_in_136295_4
340
0
102
{BLKREFS
331
90
102
}
 70
     0
280
     1
281
     0
  0
BLOCK_RECORD
  5
D6
330
1
100
AcDbSymbolTableRecord
100
AcDbBlockTableRecord
  2
3_136571i_0_in_136295_4
340
0
102
{BLKREFS
331
D7
102
}
 70
     0
280
     1
281
     0
  0
BLOCK_RECORD
  5
12F
330
1
100
AcDbSymbolTableRecord
100
AcDbBlockTableRecord
  2
4_136295h_0_in_136295_4
340
0
102
{BLKREFS
331
130
102
}
 70
     0
280
     1
281
     0
  0
ENDTAB
  0
ENDSEC
  0
SECTION
  2
BLOCKS
  0
BLOCK
  5
20
330
1F
100
AcDbEntity
  8
0
100
AcDbBlockBegin
  2
*Model_Space
 70
     0
 10
0.0
 20
0.0
 30
0.0
  3
*Model_Space
  1

  0
ENDBLK
  5
21
330
1F
100
AcDbEntity
  8
0
100
AcDbBlockEnd
  0
BLOCK
  5
1C
330
1B
100
AcDbEntity
 67
     1
  8
0
100
AcDbBlockBegin
  2
*Paper_Space
 70
     0
 10
0.0
 20
0.0
 30
0.0
  3
*Paper_Space
  1

  0
ENDBLK
  5
1D
330
1B
100
AcDbEntity
 67
     1
  8
0
100
AcDbBlockEnd
  0
BLOCK
  5
24
330
23
100
AcDbEntity
  8
0
100
AcDbBlockBegin
  2
*Paper_Space0
 70
     0
 10
0.0
 20
0.0
 30
0.0
  3
*Paper_Space0
  1

  0
ENDBLK
  5
25
330
23
100
AcDbEntity
  8
0
100
AcDbBlockEnd
  0
BLOCK
  5
70
330
6E
100
AcDbEntity
  8
0
100
AcDbBlockBegin
  2
1_136295_4
 70
     2
 10
0.0
 20
0.0
 30
0.0
  3
1_136295_4
  1

  0
ATTDEF
  5
73
330
6E
100
AcDbEntity
  8
AM_6
100
AcDbText
 10
135.2
 20
3.505
 30
0.0
 40
0.5
  1
Grip Tight Medium Duty Flange Cartridge Metric Bore
100
AcDbAttributeDefinition
  3

  2
NN
 70
     8
280
     0
  0
ATTDEF
  5
74
330
6E
100
AcDbEntity
  8
AM_6
100
AcDbText
 10
135.2
 20
3.005
 30
0.0
 40
0.5
  1
GT Normal Duty Piloted Flange Bearings
100
AcDbAttributeDefinition
  3

  2
NT
 70
     8
280
     0
  0
ATTDEF
  5
75
330
6E
100
AcDbEntity
  8
AM_6
100
AcDbText
 10
135.2
 20
2.505
 30
0.0
 40
0.5
  1
136295
100
AcDbAttributeDefinition
  3

  2
NB
 70
     8
280
     0
  0
ATTDEF
  5
76
330
6E
100
AcDbEntity
  8
AM_6
100
AcDbText
 10
135.2
 20
2.005
 30
0.0
 40
0.5
  1
$PN.
100
AcDbAttributeDefinition
  3

  2
NBSYN
 70
     8
280
     0
  0
ATTDEF
  5
77
330
6E
100
AcDbEntity
  8
AM_6
100
AcDbText
 10
135.2
 20
1.505
 30
0.0
 40
0.5
  1
136295
100
AcDbAttributeDefinition
  3

  2
LINA
 70
     8
280
     0
  0
ATTDEF
  5
78
330
6E
100
AcDbEntity
  8
AM_6
100
AcDbText
 10
135.2
 20
1.005
 30
0.0
 40
0.5
  1
218
100
AcDbAttributeDefinition
  3

  2
SERIES
 70
     8
280
     0
  0
ATTDEF
  5
79
330
6E
100
AcDbEntity
  8
AM_6
100
AcDbText
 10
135.2
 20
0.5049999999999999
 30
0.0
 40
0.5
  1
85
100
AcDbAttributeDefinition
  3

  2
SS
 70
     8
280
     0
  0
ATTDEF
  5
7A
330
6E
100
AcDbEntity
  8
AM_6
100
AcDbText
 10
135.2
 20
0.0049999999999999
 30
0.0
 40
0.5
  1
136295
100
AcDbAttributeDefinition
  3

  2
PN
 70
     8
280
     0
  0
ATTDEF
  5
7B
330
6E
100
AcDbEntity
  8
AM_6
100
AcDbText
 10
135.2
 20
-0.4950000000000001
 30
0.0
 40
0.5
  1
FC-GTM-85M
100
AcDbAttributeDefinition
  3

  2
DESCRIPTION
 70
     8
280
     0
  0
ATTDEF
  5
7C
330
6E
100
AcDbEntity
  8
AM_6
100
AcDbText
 10
135.2
 20
-0.9950000000000001
 30
0.0
 40
0.5
  1
129510
100
AcDbAttributeDefinition
  3

  2
PNSL
 70
     8
280
     0
  0
ATTDEF
  5
7D
330
6E
100
AcDbEntity
  8
AM_6
100
AcDbText
 10
135.2
 20
-1.495
 30
0.0
 40
0.5
  1
FC-GT-18
100
AcDbAttributeDefinition
  3

  2
DESCRIPTIONSL
 70
     8
280
     0
  0
ATTDEF
  5
7E
330
6E
100
AcDbEntity
  8
AM_6
100
AcDbText
 10
135.2
 20
-1.995
 30
0.0
 40
0.5
  1
136571
100
AcDbAttributeDefinition
  3

  2
PNA
 70
     8
280
     0
  0
ATTDEF
  5
7F
330
6E
100
AcDbEntity
  8
AM_6
100
AcDbText
 10
135.2
 20
-2.495
 30
0.0
 40
0.5
  1
AN-GTM-18-85M-D
100
AcDbAttributeDefinition
  3

  2
DESCRIPTIONA
 70
     8
280
     0
  0
ATTDEF
  5
80
330
6E
100
AcDbEntity
  8
AM_6
100
AcDbText
 10
135.2
 20
-2.995
 30
0.0
 40
0.5
  1
17.8
100
AcDbAttributeDefinition
  3

  2
W
 70
     8
280
     0
  0
ATTDEF
  5
81
330
6E
100
AcDbEntity
  8
AM_6
100
AcDbText
 10
135.2
 20
-3.495
 30
0.0
 40
0.5
  1
71.1
100
AcDbAttributeDefinition
  3

  2
A
 70
     8
280
     0
  0
ATTDEF
  5
82
330
6E
100
AcDbEntity
  8
AM_6
100
AcDbText
 10
135.2
 20
-3.995
 30
0.0
 40
0.5
  1
260.4
100
AcDbAttributeDefinition
  3

  2
B
 70
     8
280
     0
  0
ATTDEF
  5
83
330
6E
100
AcDbEntity
  8
AM_6
100
AcDbText
 10
135.2
 20
-4.495
 30
0.0
 40
0.5
  1
90.7
100
AcDbAttributeDefinition
  3

  2
C
 70
     8
280
     0
  0
ATTDEF
  5
84
330
6E
100
AcDbEntity
  8
AM_6
100
AcDbText
 10
135.2
 20
-4.995
 30
0.0
 40
0.5
  1
212.9
100
AcDbAttributeDefinition
  3

  2
D
 70
     8
280
     0
  0
ATTDEF
  5
85
330
6E
100
AcDbEntity
  8
AM_6
100
AcDbText
 10
135.2
 20
-5.495
 30
0.0
 40
0.5
  1
28.7
100
AcDbAttributeDefinition
  3

  2
E
 70
     8
280
     0
  0
ATTDEF
  5
86
330
6E
100
AcDbEntity
  8
AM_6
100
AcDbText
 10
135.2
 20
-5.995
 30
0.0
 40
0.5
  1
M18
100
AcDbAttributeDefinition
  3

  2
F
 70
     8
280
     0
  0
ATTDEF
  5
87
330
6E
100
AcDbEntity
  8
AM_6
100
AcDbText
 10
135.2
 20
-6.495
 30
0.0
 40
0.5
  1
62.0
100
AcDbAttributeDefinition
  3

  2
G
 70
     8
280
     0
  0
ATTDEF
  5
88
330
6E
100
AcDbEntity
  8
AM_6
100
AcDbText
 10
135.2
 20
-6.995
 30
0.0
 40
0.5
  1
41.4
100
AcDbAttributeDefinition
  3

  2
H
 70
     8
280
     0
  0
ATTDEF
  5
89
330
6E
100
AcDbEntity
  8
AM_6
100
AcDbText
 10
135.2
 20
-7.495
 30
0.0
 40
0.5
  1
187.33/187.27
100
AcDbAttributeDefinition
  3

  2
K
 70
     8
280
     0
  0
ATTDEF
  5
8A
330
6E
100
AcDbEntity
  8
AM_6
100
AcDbText
 10
135.2
 20
-7.995
 30
0.0
 40
0.5
  1
131.8
100
AcDbAttributeDefinition
  3

  2
L
 70
     8
280
     0
  0
ATTDEF
  5
8B
330
6E
100
AcDbEntity
  8
AM_6
100
AcDbText
 10
135.2
 20
-8.495000000000001
 30
0.0
 40
0.5
  1
61.5
100
AcDbAttributeDefinition
  3

  2
Z
 70
     8
280
     0
  0
ATTDEF
  5
8C
330
6E
100
AcDbEntity
  8
AM_6
100
AcDbText
 10
135.2
 20
-8.995000000000001
 30
0.0
 40
0.5
  1
13940
100
AcDbAttributeDefinition
  3

  2
CAPS
 70
     8
280
     0
  0
ATTDEF
  5
8D
330
6E
100
AcDbEntity
  8
AM_6
100
AcDbText
 10
135.2
 20
-9.495000000000001
 30
0.0
 40
0.5
  1
21451
100
AcDbAttributeDefinition
  3

  2
CAPD
 70
     8
280
     0
  0
ATTDEF
  5
8E
330
6E
100
AcDbEntity
  8
AM_6
100
AcDbText
 10
135.2
 20
-9.995000000000001
 30
0.0
 40
0.5
  1
baldor
100
AcDbAttributeDefinition
  3

  2
COMPANY
 70
     8
280
     0
  0
INSERT
  5
90
330
6E
100
AcDbEntity
  8
0
100
AcDbBlockReference
  2
2_129529_0_in_136295_4
 10
0.0
 20
0.0
 30
0.0
  0
INSERT
  5
D7
330
6E
100
AcDbEntity
  8
0
100
AcDbBlockReference
  2
3_136571i_0_in_136295_4
 10
0.0
 20
0.0
 30
0.0
  0
INSERT
  5
130
330
6E
100
AcDbEntity
  8
0
100
AcDbBlockReference
  2
4_136295h_0_in_136295_4
 10
0.0
 20
0.0
 30
0.0
  0
ENDBLK
  5
71
330
6E
100
AcDbEntity
  8
0
100
AcDbBlockEnd
  0
BLOCK
  5
91
330
8F
100
AcDbEntity
  8
0
100
AcDbBlockBegin
  2
2_129529_0_in_136295_4
 70
     2
 10
0.0
 20
0.0
 30
0.0
  3
2_129529_0_in_136295_4
  1

  0
ATTDEF
  5
93
330
8F
100
AcDbEntity
  8
AM_6
100
AcDbText
 10
84.97141029500045
 20
-22.74000000000001
 30
0.0
 40
0.5
  1
INS-GT-M B
100
AcDbAttributeDefinition
  3

  2
NN
 70
     8
280
     0
  0
ATTDEF
  5
94
330
8F
100
AcDbEntity
  8
AM_6
100
AcDbText
 10
84.97141029500045
 20
-23.24000000000001
 30
0.0
 40
0.5
  1
GT Normal Duty Bearing Inserts
100
AcDbAttributeDefinition
  3

  2
NT
 70
     8
280
     0
  0
ATTDEF
  5
95
330
8F
100
AcDbEntity
  8
AM_6
100
AcDbText
 10
84.97141029500045
 20
-23.74000000000001
 30
0.0
 40
0.5
  1
129529
100
AcDbAttributeDefinition
  3

  2
NB
 70
     8
280
     0
  0
ATTDEF
  5
96
330
8F
100
AcDbEntity
  8
AM_6
100
AcDbText
 10
84.97141029500045
 20
-24.24000000000001
 30
0.0
 40
0.5
  1
$PN.
100
AcDbAttributeDefinition
  3

  2
NBSYN
 70
     8
280
     0
  0
ATTDEF
  5
97
330
8F
100
AcDbEntity
  8
AM_6
100
AcDbText
 10
84.97141029500045
 20
-24.74000000000001
 30
0.0
 40
0.5
  1
129529
100
AcDbAttributeDefinition
  3

  2
LINA
 70
     8
280
     0
  0
ATTDEF
  5
98
330
8F
100
AcDbEntity
  8
AM_6
100
AcDbText
 10
84.97141029500045
 20
-25.24000000000001
 30
0.0
 40
0.5
  1
218
100
AcDbAttributeDefinition
  3

  2
SERIES
 70
     8
280
     0
  0
ATTDEF
  5
99
330
8F
100
AcDbEntity
  8
AM_6
100
AcDbText
 10
84.97141029500045
 20
-25.74000000000001
 30
0.0
 40
0.5
  1
129529
100
AcDbAttributeDefinition
  3

  2
PN
 70
     8
280
     0
  0
ATTDEF
  5
9A
330
8F
100
AcDbEntity
  8
AM_6
100
AcDbText
 10
84.97141029500045
 20
-26.24000000000001
 30
0.0
 40
0.5
  1
INS-GT-18
100
AcDbAttributeDefinition
  3

  2
DESCRIPTION
 70
     8
280
     0
  0
ATTDEF
  5
9B
330
8F
100
AcDbEntity
  8
AM_6
100
AcDbText
 10
84.97141029500045
 20
-26.74000000000001
 30
0.0
 40
0.5
  1
71.1
100
AcDbAttributeDefinition
  3

  2
A
 70
     8
280
     0
  0
ATTDEF
  5
9C
330
8F
100
AcDbEntity
  8
AM_6
100
AcDbText
 10
84.97141029500045
 20
-27.24000000000001
 30
0.0
 40
0.5
  1
34.0
100
AcDbAttributeDefinition
  3

  2
C
 70
     8
280
     0
  0
ATTDEF
  5
9D
330
8F
100
AcDbEntity
  8
AM_6
100
AcDbText
 10
84.97141029500045
 20
-27.74000000000001
 30
0.0
 40
0.5
  1
160.0
100
AcDbAttributeDefinition
  3

  2
D
 70
     8
280
     0
  0
ATTDEF
  5
9E
330
8F
100
AcDbEntity
  8
AM_6
100
AcDbText
 10
84.97141029500045
 20
-28.24000000000001
 30
0.0
 40
0.5
  1
7.6
100
AcDbAttributeDefinition
  3

  2
J
 70
     8
280
     0
  0
ATTDEF
  5
9F
330
8F
100
AcDbEntity
  8
AM_6
100
AcDbText
 10
84.97141029500045
 20
-28.74000000000001
 30
0.0
 40
0.5
  1
131.8
100
AcDbAttributeDefinition
  3

  2
L
 70
     8
280
     0
  0
ATTDEF
  5
A0
330
8F
100
AcDbEntity
  8
AM_6
100
AcDbText
 10
84.97141029500045
 20
-29.24000000000001
 30
0.0
 40
0.5
  1
#10 - 32 x 1/4
100
AcDbAttributeDefinition
  3

  2
N
 70
     8
280
     0
  0
ATTDEF
  5
A1
330
8F
100
AcDbEntity
  8
AM_6
100
AcDbText
 10
84.97141029500045
 20
-29.74000000000001
 30
0.0
 40
0.5
  1
24.4
100
AcDbAttributeDefinition
  3

  2
W
 70
     8
280
     0
  0
ATTDEF
  5
A2
330
8F
100
AcDbEntity
  8
AM_6
100
AcDbText
 10
84.97141029500045
 20
-30.24000000000001
 30
0.0
 40
0.5
  1
46.0
100
AcDbAttributeDefinition
  3

  2
X
 70
     8
280
     0
  0
ATTDEF
  5
A3
330
8F
100
AcDbEntity
  8
AM_6
100
AcDbText
 10
84.97141029500045
 20
-30.74000000000001
 30
0.0
 40
0.5
  1
46.7
100
AcDbAttributeDefinition
  3

  2
Y
 70
     8
280
     0
  0
ATTDEF
  5
A4
330
8F
100
AcDbEntity
  8
AM_6
100
AcDbText
 10
84.97141029500045
 20
-31.24000000000001
 30
0.0
 40
0.5
  1
baldor
100
AcDbAttributeDefinition
  3

  2
COMPANY
 70
     8
280
     0
  0
LINE
  5
A7
330
8F
100
AcDbEntity
  8
AM_9
100
AcDbLine
 10
49.16349206349208
 20
-79.2
 30
0.0
 11
49.16349206349208
 21
-61.95
 31
0.0
  0
LINE
  5
A8
330
8F
100
AcDbEntity
  8
AM_9
100
AcDbLine
 10
-49.16349206349208
 20
-61.95
 30
0.0
 11
-49.16349206349208
 21
-79.2
 31
0.0
  0
LINE
  5
A9
330
8F
100
AcDbEntity
  8
AM_9
100
AcDbLine
 10
49.16349206349208
 20
-61.95
 30
0.0
 11
50.5327354352635
 21
-22.74000000000001
 31
0.0
  0
LINE
  5
AA
330
8F
100
AcDbEntity
  8
AM_9
100
AcDbLine
 10
-50.5327354352635
 20
-22.74000000000001
 30
0.0
 11
-49.16349206349208
 21
-61.95
 31
0.0
  0
LINE
  5
AB
330
8F
100
AcDbEntity
  8
AM_9
100
AcDbLine
 10
-49.16349206349208
 20
-61.95
 30
0.0
 11
49.16349206349208
 21
-61.95
 31
0.0
  0
LINE
  5
AC
330
8F
100
AcDbEntity
  8
AM_9
100
AcDbLine
 10
53.87063492063491
 20
-73.45
 30
0.0
 11
53.87063492063491
 21
-67.70000000000002
 31
0.0
  0
LINE
  5
AD
330
8F
100
AcDbEntity
  8
AM_9
100
AcDbLine
 10
-53.87063492063491
 20
-67.70000000000002
 30
0.0
 11
-53.87063492063491
 21
-73.45
 31
0.0
  0
LINE
  5
AE
330
8F
100
AcDbEntity
  8
AM_9
100
AcDbLine
 10
57.21777777777778
 20
-79.2
 30
0.0
 11
58.57777777777778
 21
-77.84
 31
0.0
  0
LINE
  5
AF
330
8F
100
AcDbEntity
  8
AM_9
100
AcDbLine
 10
-58.57777777777778
 20
-77.84
 30
0.0
 11
-57.21777777777778
 21
-79.2
 31
0.0
  0
LINE
  5
B0
330
8F
100
AcDbEntity
  8
AM_9
100
AcDbLine
 10
58.57777777777778
 20
-27.7
 30
0.0
 11
58.57777777777778
 21
-24.10000000000001
 31
0.0
  0
LINE
  5
B1
330
8F
100
AcDbEntity
  8
AM_9
100
AcDbLine
 10
-58.57777777777778
 20
-24.10000000000001
 30
0.0
 11
-58.57777777777778
 21
-27.7
 31
0.0
  0
LINE
  5
B2
330
8F
100
AcDbEntity
  8
AM_9
100
AcDbLine
 10
58.57777777777778
 20
-67.7
 30
0.0
 11
58.57777777777778
 21
-61.7
 31
0.0
  0
LINE
  5
B3
330
8F
100
AcDbEntity
  8
AM_9
100
AcDbLine
 10
-58.57777777777778
 20
-61.7
 30
0.0
 11
-58.57777777777778
 21
-67.7
 31
0.0
  0
LINE
  5
B4
330
8F
100
AcDbEntity
  8
AM_9
100
AcDbLine
 10
58.57777777777778
 20
-77.84
 30
0.0
 11
58.57777777777778
 21
-73.45
 31
0.0
  0
LINE
  5
B5
330
8F
100
AcDbEntity
  8
AM_9
100
AcDbLine
 10
-58.57777777777778
 20
-73.45
 30
0.0
 11
-58.57777777777778
 21
-77.84
 31
0.0
  0
LINE
  5
B6
330
8F
100
AcDbEntity
  8
AM_9
100
AcDbLine
 10
-58.57777777777778
 20
-77.84
 30
0.0
 11
58.57777777777778
 21
-77.84
 31
0.0
  0
LINE
  5
B7
330
8F
100
AcDbEntity
  8
AM_9
100
AcDbLine
 10
-58.57777777777778
 20
-73.45
 30
0.0
 11
58.57777777777778
 21
-73.45
 31
0.0
  0
LINE
  5
B8
330
8F
100
AcDbEntity
  8
AM_9
100
AcDbLine
 10
-57.21777777777778
 20
-22.74000000000001
 30
0.0
 11
-58.57777777777778
 21
-24.10000000000001
 31
0.0
  0
LINE
  5
B9
330
8F
100
AcDbEntity
  8
AM_9
100
AcDbLine
 10
58.57777777777778
 20
-24.10000000000001
 30
0.0
 11
57.21777777777778
 21
-22.74000000000001
 31
0.0
  0
LINE
  5
BA
330
8F
100
AcDbEntity
  8
AM_9
100
AcDbLine
 10
-58.57777777777778
 20
-24.10000000000001
 30
0.0
 11
58.57777777777778
 21
-24.10000000000001
 31
0.0
  0
LINE
  5
BB
330
8F
100
AcDbEntity
  8
AM_9
100
AcDbLine
 10
-57.21777777777778
 20
-22.74000000000001
 30
0.0
 11
57.21777777777778
 21
-22.74000000000001
 31
0.0
  0
LINE
  5
BC
330
8F
100
AcDbEntity
  8
AM_9
100
AcDbLine
 10
76.6
 20
-53.82000000000001
 30
0.0
 11
76.6
 21
-50.78000000000001
 31
0.0
  0
LINE
  5
BD
330
8F
100
AcDbEntity
  8
AM_9
100
AcDbLine
 10
-76.6
 20
-50.78000000000001
 30
0.0
 11
-76.6
 21
-53.82000000000001
 31
0.0
  0
LINE
  5
BE
330
8F
100
AcDbEntity
  8
AM_9
100
AcDbLine
 10
-75.68302897222897
 20
-27.7
 30
0.0
 11
75.68302897223329
 21
-27.7
 31
0.0
  0
ARC
  5
BF
330
8F
100
AcDbEntity
  8
AM_9
100
AcDbCircle
 10
75.68302897223332
 20
-29.05999999999995
 30
0.0
 40
1.359999999999955
100
AcDbArc
 50
21.41246978328935
 51
90.0
  0
ARC
  5
C0
330
8F
100
AcDbEntity
  8
AM_9
100
AcDbCircle
 10
-75.68302897223329
 20
-29.06000000000001
 30
0.0
 40
1.360000000000003
100
AcDbArc
 50
90.0
 51
158.587530216709
  0
LINE
  5
C1
330
8F
100
AcDbEntity
  8
AM_9
100
AcDbLine
 10
-75.68302897222894
 20
-61.7
 30
0.0
 11
75.68302897223326
 21
-61.7
 31
0.0
  0
ARC
  5
C2
330
8F
100
AcDbEntity
  8
AM_9
100
AcDbCircle
 10
75.68302897223327
 20
-60.34
 30
0.0
 40
1.360000000000007
100
AcDbArc
 50
270.0
 51
338.5875329531161
  0
ARC
  5
C3
330
8F
100
AcDbEntity
  8
AM_9
100
AcDbCircle
 10
-75.68302897223327
 20
-60.34
 30
0.0
 40
1.360000000000009
100
AcDbArc
 50
201.412467046884
 51
270.0
  0
ARC
  5
C4
330
8F
100
AcDbEntity
  8
AM_9
100
AcDbCircle
 10
35.79999999999776
 20
-44.69999999999919
 30
0.0
 40
44.20000000000238
100
AcDbArc
 50
338.5875329531161
 51
347.5442073740942
  0
ARC
  5
C5
330
8F
100
AcDbEntity
  8
AM_9
100
AcDbCircle
 10
-35.79999999999767
 20
-44.69999999999916
 30
0.0
 40
44.20000000000246
100
AcDbArc
 50
192.4557926259057
 51
201.412467046884
  0
LINE
  5
C6
330
8F
100
AcDbEntity
  8
AM_9
100
AcDbLine
 10
-76.9491568761137
 20
-60.83650793650794
 30
0.0
 11
76.9491568761137
 21
-60.83650793650794
 31
0.0
  0
LINE
  5
C7
330
8F
100
AcDbEntity
  8
AM_9
100
AcDbLine
 10
-78.62765461708103
 20
-53.82000000000001
 30
0.0
 11
78.62765461708123
 21
-53.82000000000001
 31
0.0
  0
ARC
  5
C8
330
8F
100
AcDbEntity
  8
AM_9
100
AcDbCircle
 10
78.62765461708122
 20
-54.16000000000001
 30
0.0
 40
0.3400000000000148
100
AcDbArc
 50
347.5442073740957
 51
90.0
  0
ARC
  5
C9
330
8F
100
AcDbEntity
  8
AM_9
100
AcDbCircle
 10
-78.62765461708122
 20
-54.16000000000001
 30
0.0
 40
0.3400000000000034
100
AcDbArc
 50
90.0
 51
192.4557926259043
  0
LINE
  5
CA
330
8F
100
AcDbEntity
  8
AM_9
100
AcDbLine
 10
-78.95965193969427
 20
-54.23333333333334
 30
0.0
 11
78.95965193969427
 21
-54.23333333333334
 31
0.0
  0
LINE
  5
CB
330
8F
100
AcDbEntity
  8
AM_9
100
AcDbLine
 10
2.436302247265582
 20
-50.78
 30
0.0
 11
79.28277820011044
 21
-50.78000000000001
 31
0.0
  0
LINE
  5
CC
330
8F
100
AcDbEntity
  8
AM_9
100
AcDbLine
 10
-2.320279872973194
 20
-50.78
 30
0.0
 11
2.320279872973194
 21
-50.78
 31
0.0
  0
LINE
  5
CD
330
8F
100
AcDbEntity
  8
AM_9
100
AcDbLine
 10
-79.28277820000068
 20
-50.78000000000001
 30
0.0
 11
-2.436302247265582
 21
-50.78
 31
0.0
  0
ARC
  5
CE
330
8F
100
AcDbEntity
  8
AM_9
100
AcDbCircle
 10
79.28277820011046
 20
-50.44000000000004
 30
0.0
 40
0.339999999999975
100
AcDbArc
 50
270.0
 51
352.4800757532494
  0
ARC
  5
CF
330
8F
100
AcDbEntity
  8
AM_9
100
AcDbCircle
 10
-79.28277820011046
 20
-50.44000000000004
 30
0.0
 40
0.3399999999999715
100
AcDbArc
 50
187.5199242467505
 51
270.0
  0
ARC
  5
D0
330
8F
100
AcDbEntity
  8
AM_9
100
AcDbCircle
 10
35.79999999991353
 20
-44.70000000001038
 30
0.0
 40
44.20000000008436
100
AcDbArc
 50
352.4800757532718
 51
21.22251753794566
  0
ARC
  5
D1
330
8F
100
AcDbEntity
  8
AM_9
100
AcDbCircle
 10
-35.80000000000054
 20
-44.69999999999992
 30
0.0
 40
44.19999999999947
100
AcDbArc
 50
158.7774824620261
 51
187.5199242467564
  0
LINE
  5
D2
330
8F
100
AcDbEntity
  8
AM_9
100
AcDbLine
 10
2.58144083739935
 20
-50.484496124031
 30
0.0
 11
79.61985400011129
 21
-50.48449612403101
 31
0.0
  0
LINE
  5
D3
330
8F
100
AcDbEntity
  8
AM_9
100
AcDbLine
 10
-2.472239237186852
 20
-50.484496124031
 30
0.0
 11
2.472239237186852
 21
-50.484496124031
 31
0.0
  0
LINE
  5
D4
330
8F
100
AcDbEntity
  8
AM_9
100
AcDbLine
 10
-79.61985400011129
 20
-50.48449612403101
 30
0.0
 11
-2.58144083739935
 21
-50.484496124031
 31
0.0
  0
LINE
  5
D5
330
8F
100
AcDbEntity
  8
AM_9
100
AcDbLine
 10
-76.94915685240083
 20
-28.56349200302267
 30
0.0
 11
76.94915685240083
 21
-28.56349200302267
 31
0.0
  0
ENDBLK
  5
92
330
8F
100
AcDbEntity
  8
0
100
AcDbBlockEnd
  0
BLOCK
  5
D8
330
D6
100
AcDbEntity
  8
0
100
AcDbBlockBegin
  2
3_136571i_0_in_136295_4
 70
     2
 10
0.0
 20
0.0
 30
0.0
  3
3_136571i_0_in_136295_4
  1

  0
ATTDEF
  5
DA
330
D6
100
AcDbEntity
  8
AM_6
100
AcDbText
 10
70.90000000000005
 20
-20.3
 30
0.0
 40
0.5
  1
Grip Tight Medium Duty Adapter and Nut Metric Bore
100
AcDbAttributeDefinition
  3

  2
NN
 70
     8
280
     0
  0
ATTDEF
  5
DB
330
D6
100
AcDbEntity
  8
AM_6
100
AcDbText
 10
70.90000000000005
 20
-20.8
 30
0.0
 40
0.5
  1
GT and GTM Adapter & Lock Nut Assemblies
100
AcDbAttributeDefinition
  3

  2
NT
 70
     8
280
     0
  0
ATTDEF
  5
DC
330
D6
100
AcDbEntity
  8
AM_6
100
AcDbText
 10
70.90000000000005
 20
-21.3
 30
0.0
 40
0.5
  1
136571i
100
AcDbAttributeDefinition
  3

  2
NB
 70
     8
280
     0
  0
ATTDEF
  5
DD
330
D6
100
AcDbEntity
  8
AM_6
100
AcDbText
 10
70.90000000000005
 20
-21.8
 30
0.0
 40
0.5
  1
$PN.i
100
AcDbAttributeDefinition
  3

  2
NBSYN
 70
     8
280
     0
  0
ATTDEF
  5
DE
330
D6
100
AcDbEntity
  8
AM_6
100
AcDbText
 10
70.90000000000005
 20
-22.3
 30
0.0
 40
0.5
  1
136571
100
AcDbAttributeDefinition
  3

  2
LINA
 70
     8
280
     0
  0
ATTDEF
  5
DF
330
D6
100
AcDbEntity
  8
AM_6
100
AcDbText
 10
70.90000000000005
 20
-22.8
 30
0.0
 40
0.5
  1
218
100
AcDbAttributeDefinition
  3

  2
SERIES
 70
     8
280
     0
  0
ATTDEF
  5
E0
330
D6
100
AcDbEntity
  8
AM_6
100
AcDbText
 10
70.90000000000005
 20
-23.3
 30
0.0
 40
0.5
  1
85
100
AcDbAttributeDefinition
  3

  2
SS
 70
     8
280
     0
  0
ATTDEF
  5
E1
330
D6
100
AcDbEntity
  8
AM_6
100
AcDbText
 10
70.90000000000005
 20
-23.8
 30
0.0
 40
0.5
  1
136571
100
AcDbAttributeDefinition
  3

  2
PN
 70
     8
280
     0
  0
ATTDEF
  5
E2
330
D6
100
AcDbEntity
  8
AM_6
100
AcDbText
 10
70.90000000000005
 20
-24.3
 30
0.0
 40
0.5
  1
AN-GTM-18-85M-D
100
AcDbAttributeDefinition
  3

  2
DESCRIPTION
 70
     8
280
     0
  0
ATTDEF
  5
E3
330
D6
100
AcDbEntity
  8
AM_6
100
AcDbText
 10
70.90000000000005
 20
-24.8
 30
0.0
 40
0.5
  1
71.1
100
AcDbAttributeDefinition
  3

  2
A
 70
     8
280
     0
  0
ATTDEF
  5
E4
330
D6
100
AcDbEntity
  8
AM_6
100
AcDbText
 10
70.90000000000005
 20
-25.3
 30
0.0
 40
0.5
  1
34.0
100
AcDbAttributeDefinition
  3

  2
C
 70
     8
280
     0
  0
ATTDEF
  5
E5
330
D6
100
AcDbEntity
  8
AM_6
100
AcDbText
 10
70.90000000000005
 20
-25.8
 30
0.0
 40
0.5
  1
160
100
AcDbAttributeDefinition
  3

  2
D
 70
     8
280
     0
  0
ATTDEF
  5
E6
330
D6
100
AcDbEntity
  8
AM_6
100
AcDbText
 10
70.90000000000005
 20
-26.3
 30
0.0
 40
0.5
  1
7.6
100
AcDbAttributeDefinition
  3

  2
J
 70
     8
280
     0
  0
ATTDEF
  5
E7
330
D6
100
AcDbEntity
  8
AM_6
100
AcDbText
 10
70.90000000000005
 20
-26.8
 30
0.0
 40
0.5
  1
131.8
100
AcDbAttributeDefinition
  3

  2
L
 70
     8
280
     0
  0
ATTDEF
  5
E8
330
D6
100
AcDbEntity
  8
AM_6
100
AcDbText
 10
70.90000000000005
 20
-27.3
 30
0.0
 40
0.5
  1
10 - 32 x 1/4
100
AcDbAttributeDefinition
  3

  2
N
 70
     8
280
     0
  0
ATTDEF
  5
E9
330
D6
100
AcDbEntity
  8
AM_6
100
AcDbText
 10
70.90000000000005
 20
-27.8
 30
0.0
 40
0.5
  1
24.4
100
AcDbAttributeDefinition
  3

  2
W
 70
     8
280
     0
  0
ATTDEF
  5
EA
330
D6
100
AcDbEntity
  8
AM_6
100
AcDbText
 10
70.90000000000005
 20
-28.3
 30
0.0
 40
0.5
  1
46.0
100
AcDbAttributeDefinition
  3

  2
X
 70
     8
280
     0
  0
ATTDEF
  5
EB
330
D6
100
AcDbEntity
  8
AM_6
100
AcDbText
 10
70.90000000000005
 20
-28.8
 30
0.0
 40
0.5
  1
46.7
100
AcDbAttributeDefinition
  3

  2
Y
 70
     8
280
     0
  0
ATTDEF
  5
EC
330
D6
100
AcDbEntity
  8
AM_6
100
AcDbText
 10
70.90000000000005
 20
-29.3
 30
0.0
 40
0.5
  1
baldor
100
AcDbAttributeDefinition
  3

  2
COMPANY
 70
     8
280
     0
  0
LINE
  5
ED
330
D6
100
AcDbEntity
  8
AM_9
100
AcDbLine
 10
3.8
 20
-67.70000000000002
 30
0.0
 11
3.8
 21
-90.7
 31
0.0
  0
LINE
  5
EE
330
D6
100
AcDbEntity
  8
AM_9
100
AcDbLine
 10
-3.799999999999999
 20
-67.70000000000002
 30
0.0
 11
-3.799999999999999
 21
-90.7
 31
0.0
  0
LINE
  5
EF
330
D6
100
AcDbEntity
  8
AM_9
100
AcDbLine
 10
49.16349206349206
 20
-79.2
 30
0.0
 11
49.16349206349206
 21
-90.7
 31
0.0
  0
LINE
  5
F0
330
D6
100
AcDbEntity
  8
AM_9
100
AcDbLine
 10
-64.54000000000005
 20
-67.70000000000002
 30
0.0
 11
-65.90000000000005
 21
-69.06000000000002
 31
0.0
  0
LINE
  5
F1
330
D6
100
AcDbEntity
  8
AM_9
100
AcDbLine
 10
-55.07611341606236
 20
-89.34
 30
0.0
 11
-58.87611341606236
 21
-89.34
 31
0.0
  0
LINE
  5
F2
330
D6
100
AcDbEntity
  8
AM_9
100
AcDbLine
 10
-65.90000000000002
 20
-69.06000000000002
 30
0.0
 11
-65.90000000000002
 21
-70.1
 31
0.0
  0
LINE
  5
F3
330
D6
100
AcDbEntity
  8
AM_9
100
AcDbLine
 10
-65.90000000000002
 20
-69.06000000000002
 30
0.0
 11
65.90000000000002
 21
-69.06000000000002
 31
0.0
  0
LINE
  5
F4
330
D6
100
AcDbEntity
  8
AM_9
100
AcDbLine
 10
-57.69631439441144
 20
-67.7
 30
0.0
 11
-58.87611341606237
 21
-69.06
 31
0.0
  0
LINE
  5
F5
330
D6
100
AcDbEntity
  8
AM_9
100
AcDbLine
 10
-58.87611341606237
 20
-69.06
 30
0.0
 11
-58.87611341606237
 21
-70.1
 31
0.0
  0
LINE
  5
F6
330
D6
100
AcDbEntity
  8
AM_9
100
AcDbLine
 10
65.90000000000005
 20
-69.06000000000002
 30
0.0
 11
64.54000000000005
 21
-67.70000000000002
 31
0.0
  0
LINE
  5
F7
330
D6
100
AcDbEntity
  8
AM_9
100
AcDbLine
 10
65.90000000000002
 20
-70.1
 30
0.0
 11
65.90000000000002
 21
-69.06000000000002
 31
0.0
  0
LINE
  5
F8
330
D6
100
AcDbEntity
  8
AM_9
100
AcDbLine
 10
58.87611341606236
 20
-70.1
 30
0.0
 11
58.87611341606236
 21
-69.06
 31
0.0
  0
LINE
  5
F9
330
D6
100
AcDbEntity
  8
AM_9
100
AcDbLine
 10
58.87611341606236
 20
-69.06
 30
0.0
 11
57.69631439441141
 21
-67.7
 31
0.0
  0
LINE
  5
FA
330
D6
100
AcDbEntity
  8
AM_9
100
AcDbLine
 10
58.87611341606235
 20
-89.34
 30
0.0
 11
55.07611341606233
 21
-89.34
 31
0.0
  0
LINE
  5
FB
330
D6
100
AcDbEntity
  8
AM_9
100
AcDbLine
 10
-51.36632617138034
 20
-67.7
 30
0.0
 11
-51.36632617138034
 21
-90.7
 31
0.0
  0
LINE
  5
FC
330
D6
100
AcDbEntity
  8
AM_9
100
AcDbLine
 10
-55.16632617138034
 20
-67.70000000000002
 30
0.0
 11
-55.16632617138034
 21
-70.1
 31
0.0
  0
LINE
  5
FD
330
D6
100
AcDbEntity
  8
AM_9
100
AcDbLine
 10
64.54000000000005
 20
-67.70000000000002
 30
0.0
 11
-64.54000000000005
 21
-67.70000000000002
 31
0.0
  0
LINE
  5
FE
330
D6
100
AcDbEntity
  8
AM_9
100
AcDbLine
 10
51.36632617138032
 20
-67.7
 30
0.0
 11
51.36632617138032
 21
-90.7
 31
0.0
  0
LINE
  5
FF
330
D6
100
AcDbEntity
  8
AM_9
100
AcDbLine
 10
55.16632617138032
 20
-67.70000000000002
 30
0.0
 11
55.16632617138032
 21
-70.1
 31
0.0
  0
LINE
  5
100
330
D6
100
AcDbEntity
  8
AM_9
100
AcDbLine
 10
42.48102046796899
 20
-20.3
 30
0.0
 11
42.48102046796899
 21
-91.4
 31
0.0
  0
LINE
  5
101
330
D6
100
AcDbEntity
  8
AM_9
100
AcDbLine
 10
-42.5
 20
-20.3
 30
0.0
 11
-42.5
 21
-91.4
 31
0.0
  0
LINE
  5
102
330
D6
100
AcDbEntity
  8
AM_9
100
AcDbLine
 10
49.14708608239771
 20
-79.2
 30
0.0
 11
49.14708608239771
 21
-61.95
 31
0.0
  0
LINE
  5
103
330
D6
100
AcDbEntity
  8
AM_9
100
AcDbLine
 10
-49.16349225177775
 20
-61.95
 30
0.0
 11
-49.16349225177775
 21
-79.2
 31
0.0
  0
LINE
  5
104
330
D6
100
AcDbEntity
  8
AM_9
100
AcDbLine
 10
49.14708608239771
 20
-61.95
 30
0.0
 11
50.60200769533169
 21
-20.3
 31
0.0
  0
LINE
  5
105
330
D6
100
AcDbEntity
  8
AM_9
100
AcDbLine
 10
-50.61794230110907
 20
-20.3
 30
0.0
 11
-49.16349225177778
 21
-61.95
 31
0.0
  0
LINE
  5
106
330
D6
100
AcDbEntity
  8
AM_9
100
AcDbLine
 10
-49.16349225177778
 20
-61.95
 30
0.0
 11
49.14708608239771
 21
-61.95
 31
0.0
  0
LINE
  5
107
330
D6
100
AcDbEntity
  8
AM_9
100
AcDbLine
 10
-50.61794230110907
 20
-20.3
 30
0.0
 11
50.60200769533169
 21
-20.3
 31
0.0
  0
LINE
  5
108
330
D6
100
AcDbEntity
  8
AM_9
100
AcDbLine
 10
53.87063492063493
 20
-73.45000000000002
 30
0.0
 11
53.87063492063493
 21
-67.70000000000002
 31
0.0
  0
LINE
  5
109
330
D6
100
AcDbEntity
  8
AM_9
100
AcDbLine
 10
-53.87063492063493
 20
-67.70000000000002
 30
0.0
 11
-53.87063492063493
 21
-73.45000000000002
 31
0.0
  0
LINE
  5
10A
330
D6
100
AcDbEntity
  8
AM_9
100
AcDbLine
 10
58.57777777777778
 20
-79.2
 30
0.0
 11
58.57777777777778
 21
-73.45000000000002
 31
0.0
  0
LINE
  5
10B
330
D6
100
AcDbEntity
  8
AM_9
100
AcDbLine
 10
-58.57777777777778
 20
-73.45000000000002
 30
0.0
 11
-58.57777777777778
 21
-79.2
 31
0.0
  0
LINE
  5
10C
330
D6
100
AcDbEntity
  8
AM_9
100
AcDbLine
 10
-58.57777777777778
 20
-73.45000000000002
 30
0.0
 11
58.57777777777778
 21
-73.45000000000002
 31
0.0
  0
LINE
  5
10D
330
D6
100
AcDbEntity
  8
AM_9
100
AcDbLine
 10
-58.57777777777778
 20
-79.2
 30
0.0
 11
58.57777777777778
 21
-79.2
 31
0.0
  0
LINE
  5
10E
330
D6
100
AcDbEntity
  8
AM_9
100
AcDbLine
 10
-55.07611341606238
 20
-70.1
 30
0.0
 11
-55.07611341606238
 21
-69.06
 31
0.0
  0
LINE
  5
10F
330
D6
100
AcDbEntity
  8
AM_9
100
AcDbLine
 10
55.07611341606234
 20
-69.06
 30
0.0
 11
55.07611341606234
 21
-70.1
 31
0.0
  0
LINE
  5
110
330
D6
100
AcDbEntity
  8
AM_9
100
AcDbLine
 10
-55.07611341606238
 20
-69.06
 30
0.0
 11
-53.89631439441143
 21
-67.7
 31
0.0
  0
LINE
  5
111
330
D6
100
AcDbEntity
  8
AM_9
100
AcDbLine
 10
53.89631439441142
 20
-67.70000000000002
 30
0.0
 11
55.07611341606234
 21
-69.06
 31
0.0
  0
LINE
  5
114
330
D6
100
AcDbEntity
  8
AM_7
100
AcDbLine
 10
-1.932241499999998
 20
-86.1083405300144
 30
0.0
 11
1.932241499999998
 21
-86.1083405300144
 31
0.0
  0
LINE
  5
116
330
D6
100
AcDbEntity
  8
AM_4
100
AcDbLine
 10
-65.9
 20
-89.34
 30
0.0
 11
-64.54000000000002
 21
-90.7
 31
0.0
  0
LINE
  5
117
330
D6
100
AcDbEntity
  8
AM_4
100
AcDbLine
 10
-65.90000000000002
 20
-70.1
 30
0.0
 11
-65.90000000000002
 21
-89.34
 31
0.0
  0
LINE
  5
118
330
D6
100
AcDbEntity
  8
AM_4
100
AcDbLine
 10
-65.90000000000002
 20
-89.34
 30
0.0
 11
-58.87611341606236
 21
-89.34
 31
0.0
  0
LINE
  5
119
330
D6
100
AcDbEntity
  8
AM_4
100
AcDbLine
 10
-58.87611341606237
 20
-70.1
 30
0.0
 11
-58.87611341606236
 21
-89.34
 31
0.0
  0
LINE
  5
11A
330
D6
100
AcDbEntity
  8
AM_4
100
AcDbLine
 10
-58.87611341606236
 20
-89.34
 30
0.0
 11
-57.69631439441141
 21
-90.7
 31
0.0
  0
LINE
  5
11B
330
D6
100
AcDbEntity
  8
AM_4
100
AcDbLine
 10
65.90000000000002
 20
-89.34
 30
0.0
 11
65.90000000000002
 21
-70.1
 31
0.0
  0
LINE
  5
11C
330
D6
100
AcDbEntity
  8
AM_4
100
AcDbLine
 10
58.87611341606235
 20
-89.34
 30
0.0
 11
58.87611341606236
 21
-70.1
 31
0.0
  0
LINE
  5
11D
330
D6
100
AcDbEntity
  8
AM_4
100
AcDbLine
 10
-64.54000000000002
 20
-90.7
 30
0.0
 11
64.54000000000002
 21
-90.7
 31
0.0
  0
LINE
  5
11E
330
D6
100
AcDbEntity
  8
AM_4
100
AcDbLine
 10
58.87611341606235
 20
-89.34
 30
0.0
 11
65.9
 21
-89.34
 31
0.0
  0
LINE
  5
11F
330
D6
100
AcDbEntity
  8
AM_4
100
AcDbLine
 10
57.69631439441139
 20
-90.7
 30
0.0
 11
58.87611341606235
 21
-89.34
 31
0.0
  0
LINE
  5
120
330
D6
100
AcDbEntity
  8
AM_4
100
AcDbLine
 10
64.54000000000002
 20
-90.7
 30
0.0
 11
65.9
 21
-89.34
 31
0.0
  0
LINE
  5
121
330
D6
100
AcDbEntity
  8
AM_4
100
AcDbLine
 10
-55.16632617138034
 20
-70.1
 30
0.0
 11
-55.16632617138034
 21
-90.7
 31
0.0
  0
LINE
  5
122
330
D6
100
AcDbEntity
  8
AM_4
100
AcDbLine
 10
55.16632617138032
 20
-70.1
 30
0.0
 11
55.16632617138032
 21
-90.7
 31
0.0
  0
LINE
  5
123
330
D6
100
AcDbEntity
  8
AM_4
100
AcDbLine
 10
49.14708608239776
 20
-91.4
 30
0.0
 11
49.14708608239776
 21
-90.7
 31
0.0
  0
LINE
  5
124
330
D6
100
AcDbEntity
  8
AM_4
100
AcDbLine
 10
-49.1634922517778
 20
-90.7
 30
0.0
 11
-49.1634922517778
 21
-91.4
 31
0.0
  0
LINE
  5
125
330
D6
100
AcDbEntity
  8
AM_4
100
AcDbLine
 10
-49.1634922517778
 20
-91.4
 30
0.0
 11
49.14708608239776
 21
-91.4
 31
0.0
  0
LINE
  5
126
330
D6
100
AcDbEntity
  8
AM_4
100
AcDbLine
 10
-53.89631439441141
 20
-90.7
 30
0.0
 11
-55.07611341606236
 21
-89.34
 31
0.0
  0
LINE
  5
127
330
D6
100
AcDbEntity
  8
AM_4
100
AcDbLine
 10
55.07611341606233
 20
-89.33999999999999
 30
0.0
 11
53.8963143944114
 21
-90.7
 31
0.0
  0
CIRCLE
  5
128
330
D6
100
AcDbEntity
  8
AM_4
100
AcDbCircle
 10
0.0
 20
-86.1083405300144
 30
0.0
 40
1.840229999999998
  0
LINE
  5
129
330
D6
100
AcDbEntity
  8
AM_4
100
AcDbLine
 10
-55.07611341606236
 20
-89.34
 30
0.0
 11
-55.07611341606238
 21
-70.1
 31
0.0
  0
LINE
  5
12A
330
D6
100
AcDbEntity
  8
AM_4
100
AcDbLine
 10
-55.07611341606236
 20
-89.34
 30
0.0
 11
55.07611341606233
 21
-89.33999999999999
 31
0.0
  0
LINE
  5
12B
330
D6
100
AcDbEntity
  8
AM_4
100
AcDbLine
 10
55.07611341606234
 20
-70.1
 30
0.0
 11
55.07611341606233
 21
-89.33999999999999
 31
0.0
  0
LWPOLYLINE
  5
12C
330
D6
100
AcDbEntity
  8
AM_4
100
AcDbPolyline
 90
       20
 70
     0
 43
0.0
 10
1.692189776198397
 20
-87.79791659039815
 10
1.130483861567417
 20
-88.22915893397864
 10
0.3765052701075143
 20
-88.49069720740127
 10
-0.4099763579223828
 20
-88.48496323854275
 10
-1.145382953517499
 20
-88.2208569522163
 10
-1.757410798261705
 20
-87.72745046144752
 10
-2.181795666571368
 20
-87.05136384228612
 10
-2.365639641995871
 20
-86.26046961193377
 10
-2.278600439174685
 20
-85.44355974726584
 10
-1.924775043193006
 20
-84.70017939905138
 10
-1.347165914588728
 20
-84.123033808332
 10
-0.6206712745386195
 20
-83.7795557221069
 10
0.165323790752004
 20
-83.7012185355103
 10
0.9249570177250676
 20
-83.88668858010598
 10
1.582923831787846
 20
-84.31236658470232
 10
2.072508533430553
 20
-84.9374330586519
 10
2.336332080600267
 20
-85.70102267392416
 10
2.335548525803263
 20
-86.52028753178645
 10
2.062511748884342
 20
-87.2973969607786
 10
1.692189776465188
 20
-87.79791659055977
  0
ARC
  5
12E
330
D6
100
AcDbEntity
  8
AM_5
100
AcDbCircle
 10
0.0000000000000008
 20
-86.1083405300144
 30
0.0
 40
2.413000000000018
100
AcDbArc
 50
75.00000000000034
 51
15.00000000000024
  0
ENDBLK
  5
D9
330
D6
100
AcDbEntity
  8
0
100
AcDbBlockEnd
  0
BLOCK
  5
131
330
12F
100
AcDbEntity
  8
0
100
AcDbBlockBegin
  2
4_136295h_0_in_136295_4
 70
     2
 10
0.0
 20
0.0
 30
0.0
  3
4_136295h_0_in_136295_4
  1

  0
ATTDEF
  5
133
330
12F
100
AcDbEntity
  8
AM_6
100
AcDbText
 10
135.2
 20
3.505
 30
0.0
 40
0.5
  1
FC-GTM - Metric - Housing
100
AcDbAttributeDefinition
  3

  2
NN
 70
     8
280
     0
  0
ATTDEF
  5
134
330
12F
100
AcDbEntity
  8
AM_6
100
AcDbText
 10
135.2
 20
3.005
 30
0.0
 40
0.5
  1
GT Normal Duty Piloted Flange Bearings
100
AcDbAttributeDefinition
  3

  2
NT
 70
     8
280
     0
  0
ATTDEF
  5
135
330
12F
100
AcDbEntity
  8
AM_6
100
AcDbText
 10
135.2
 20
2.505
 30
0.0
 40
0.5
  1
136295h
100
AcDbAttributeDefinition
  3

  2
NB
 70
     8
280
     0
  0
ATTDEF
  5
136
330
12F
100
AcDbEntity
  8
AM_6
100
AcDbText
 10
135.2
 20
2.005
 30
0.0
 40
0.5
  1
$PN.h
100
AcDbAttributeDefinition
  3

  2
NBSYN
 70
     8
280
     0
  0
ATTDEF
  5
137
330
12F
100
AcDbEntity
  8
AM_6
100
AcDbText
 10
135.2
 20
1.505
 30
0.0
 40
0.5
  1
136295
100
AcDbAttributeDefinition
  3

  2
LINA
 70
     8
280
     0
  0
ATTDEF
  5
138
330
12F
100
AcDbEntity
  8
AM_6
100
AcDbText
 10
135.2
 20
1.005
 30
0.0
 40
0.5
  1
218
100
AcDbAttributeDefinition
  3

  2
SERIES
 70
     8
280
     0
  0
ATTDEF
  5
139
330
12F
100
AcDbEntity
  8
AM_6
100
AcDbText
 10
135.2
 20
0.5049999999999999
 30
0.0
 40
0.5
  1
85
100
AcDbAttributeDefinition
  3

  2
SS
 70
     8
280
     0
  0
ATTDEF
  5
13A
330
12F
100
AcDbEntity
  8
AM_6
100
AcDbText
 10
135.2
 20
0.0049999999999999
 30
0.0
 40
0.5
  1
136295
100
AcDbAttributeDefinition
  3

  2
PN
 70
     8
280
     0
  0
ATTDEF
  5
13B
330
12F
100
AcDbEntity
  8
AM_6
100
AcDbText
 10
135.2
 20
-0.4950000000000001
 30
0.0
 40
0.5
  1
FC-GTM-85M
100
AcDbAttributeDefinition
  3

  2
DESCRIPTION
 70
     8
280
     0
  0
ATTDEF
  5
13C
330
12F
100
AcDbEntity
  8
AM_6
100
AcDbText
 10
135.2
 20
-0.9950000000000001
 30
0.0
 40
0.5
  1
129510
100
AcDbAttributeDefinition
  3

  2
PNSL
 70
     8
280
     0
  0
ATTDEF
  5
13D
330
12F
100
AcDbEntity
  8
AM_6
100
AcDbText
 10
135.2
 20
-1.495
 30
0.0
 40
0.5
  1
FC-GT-18
100
AcDbAttributeDefinition
  3

  2
DESCRIPTIONSL
 70
     8
280
     0
  0
ATTDEF
  5
13E
330
12F
100
AcDbEntity
  8
AM_6
100
AcDbText
 10
135.2
 20
-1.995
 30
0.0
 40
0.5
  1
136571
100
AcDbAttributeDefinition
  3

  2
PNA
 70
     8
280
     0
  0
ATTDEF
  5
13F
330
12F
100
AcDbEntity
  8
AM_6
100
AcDbText
 10
135.2
 20
-2.495
 30
0.0
 40
0.5
  1
AN-GTM-18-85M-D
100
AcDbAttributeDefinition
  3

  2
DESCRIPTIONA
 70
     8
280
     0
  0
ATTDEF
  5
140
330
12F
100
AcDbEntity
  8
AM_6
100
AcDbText
 10
135.2
 20
-2.995
 30
0.0
 40
0.5
  1
17.8
100
AcDbAttributeDefinition
  3

  2
W
 70
     8
280
     0
  0
ATTDEF
  5
141
330
12F
100
AcDbEntity
  8
AM_6
100
AcDbText
 10
135.2
 20
-3.495
 30
0.0
 40
0.5
  1
71.1
100
AcDbAttributeDefinition
  3

  2
A
 70
     8
280
     0
  0
ATTDEF
  5
142
330
12F
100
AcDbEntity
  8
AM_6
100
AcDbText
 10
135.2
 20
-3.995
 30
0.0
 40
0.5
  1
260.4
100
AcDbAttributeDefinition
  3

  2
B
 70
     8
280
     0
  0
ATTDEF
  5
143
330
12F
100
AcDbEntity
  8
AM_6
100
AcDbText
 10
135.2
 20
-4.495
 30
0.0
 40
0.5
  1
90.7
100
AcDbAttributeDefinition
  3

  2
C
 70
     8
280
     0
  0
ATTDEF
  5
144
330
12F
100
AcDbEntity
  8
AM_6
100
AcDbText
 10
135.2
 20
-4.995
 30
0.0
 40
0.5
  1
212.9
100
AcDbAttributeDefinition
  3

  2
D
 70
     8
280
     0
  0
ATTDEF
  5
145
330
12F
100
AcDbEntity
  8
AM_6
100
AcDbText
 10
135.2
 20
-5.495
 30
0.0
 40
0.5
  1
28.7
100
AcDbAttributeDefinition
  3

  2
E
 70
     8
280
     0
  0
ATTDEF
  5
146
330
12F
100
AcDbEntity
  8
AM_6
100
AcDbText
 10
135.2
 20
-5.995
 30
0.0
 40
0.5
  1
M18
100
AcDbAttributeDefinition
  3

  2
F
 70
     8
280
     0
  0
ATTDEF
  5
147
330
12F
100
AcDbEntity
  8
AM_6
100
AcDbText
 10
135.2
 20
-6.495
 30
0.0
 40
0.5
  1
62.0
100
AcDbAttributeDefinition
  3

  2
G
 70
     8
280
     0
  0
ATTDEF
  5
148
330
12F
100
AcDbEntity
  8
AM_6
100
AcDbText
 10
135.2
 20
-6.995
 30
0.0
 40
0.5
  1
41.4
100
AcDbAttributeDefinition
  3

  2
H
 70
     8
280
     0
  0
ATTDEF
  5
149
330
12F
100
AcDbEntity
  8
AM_6
100
AcDbText
 10
135.2
 20
-7.495
 30
0.0
 40
0.5
  1
187.33/187.27
100
AcDbAttributeDefinition
  3

  2
K
 70
     8
280
     0
  0
ATTDEF
  5
14A
330
12F
100
AcDbEntity
  8
AM_6
100
AcDbText
 10
135.2
 20
-7.995
 30
0.0
 40
0.5
  1
131.8
100
AcDbAttributeDefinition
  3

  2
L
 70
     8
280
     0
  0
ATTDEF
  5
14B
330
12F
100
AcDbEntity
  8
AM_6
100
AcDbText
 10
135.2
 20
-8.495000000000001
 30
0.0
 40
0.5
  1
61.5
100
AcDbAttributeDefinition
  3

  2
Z
 70
     8
280
     0
  0
ATTDEF
  5
14C
330
12F
100
AcDbEntity
  8
AM_6
100
AcDbText
 10
135.2
 20
-8.995000000000001
 30
0.0
 40
0.5
  1
Infotex
100
AcDbAttributeDefinition
  3

  2
INFO
 70
     8
280
     0
  0
ATTDEF
  5
14D
330
12F
100
AcDbEntity
  8
AM_6
100
AcDbText
 10
135.2
 20
-9.495000000000001
 30
0.0
 40
0.5
  1
13940
100
AcDbAttributeDefinition
  3

  2
CAPS
 70
     8
280
     0
  0
ATTDEF
  5
14E
330
12F
100
AcDbEntity
  8
AM_6
100
AcDbText
 10
135.2
 20
-9.995000000000001
 30
0.0
 40
0.5
  1
21451
100
AcDbAttributeDefinition
  3

  2
CAPD
 70
     8
280
     0
  0
ATTDEF
  5
14F
330
12F
100
AcDbEntity
  8
AM_6
100
AcDbText
 10
135.2
 20
-10.495
 30
0.0
 40
0.5
  1
baldor
100
AcDbAttributeDefinition
  3

  2
COMPANY
 70
     8
280
     0
  0
LINE
  5
150
330
12F
100
AcDbEntity
  8
AM_9
100
AcDbLine
 10
4.2371772
 20
-49.40000000000001
 30
0.0
 11
4.2371772
 21
-48.900001
 31
0.0
  0
LINE
  5
151
330
12F
100
AcDbEntity
  8
AM_9
100
AcDbLine
 10
8.5132164
 20
-49.40000000000001
 30
0.0
 11
8.5132164
 21
-48.900001
 31
0.0
  0
LINE
  5
152
330
12F
100
AcDbEntity
  8
AM_9
100
AcDbLine
 10
-5.71435306
 20
-49.40000000000001
 30
0.0
 11
-5.71435306
 21
-48.900001
 31
0.0
  0
LINE
  5
153
330
12F
100
AcDbEntity
  8
AM_9
100
AcDbLine
 10
-5.09238275
 20
-49.40000000000001
 30
0.0
 11
-5.09238275
 21
-48.900001
 31
0.0
  0
LINE
  5
154
330
12F
100
AcDbEntity
  8
AM_9
100
AcDbLine
 10
2.37126018
 20
-49.40000000000001
 30
0.0
 11
2.37126018
 21
-48.900001
 31
0.0
  0
LINE
  5
155
330
12F
100
AcDbEntity
  8
AM_9
100
AcDbLine
 10
-1.98253096
 20
-49.40000000000001
 30
0.0
 11
-1.98253096
 21
-48.900001
 31
0.0
  0
LINE
  5
156
330
12F
100
AcDbEntity
  8
AM_9
100
AcDbLine
 10
1.74929038
 20
-49.40000000000001
 30
0.0
 11
1.74929038
 21
-48.900001
 31
0.0
  0
LINE
  5
157
330
12F
100
AcDbEntity
  8
AM_9
100
AcDbLine
 10
-2.44901136
 20
-49.40000000000001
 30
0.0
 11
-2.44901136
 21
-48.900001
 31
0.0
  0
LINE
  5
158
330
12F
100
AcDbEntity
  8
AM_9
100
AcDbLine
 10
1.28280922
 20
-49.40000000000001
 30
0.0
 11
1.28280922
 21
-48.900001
 31
0.0
  0
LINE
  5
159
330
12F
100
AcDbEntity
  8
AM_9
100
AcDbLine
 10
-6.18083346
 20
-49.40000000000001
 30
0.0
 11
-6.18083346
 21
-48.900001
 31
0.0
  0
LINE
  5
15A
330
12F
100
AcDbEntity
  8
AM_9
100
AcDbLine
 10
2.8377388
 20
-49.40000000000001
 30
0.0
 11
2.8377388
 21
-48.900001
 31
0.0
  0
LINE
  5
15B
330
12F
100
AcDbEntity
  8
AM_9
100
AcDbLine
 10
5.4033674
 20
-49.40000000000001
 30
0.0
 11
5.4033674
 21
-48.900001
 31
0.0
  0
LINE
  5
15C
330
12F
100
AcDbEntity
  8
AM_9
100
AcDbLine
 10
-4.62590261
 20
-49.40000000000001
 30
0.0
 11
-4.62590261
 21
-48.900001
 31
0.0
  0
LINE
  5
15D
330
12F
100
AcDbEntity
  8
AM_9
100
AcDbLine
 10
-2.06028112
 20
-49.40000000000001
 30
0.0
 11
-2.06028112
 21
-48.900001
 31
0.0
  0
LINE
  5
15E
330
12F
100
AcDbEntity
  8
AM_9
100
AcDbLine
 10
1.67155114
 20
-49.40000000000001
 30
0.0
 11
1.67155114
 21
-48.900001
 31
0.0
  0
LINE
  5
15F
330
12F
100
AcDbEntity
  8
AM_9
100
AcDbLine
 10
2.44900958
 20
-49.40000000000001
 30
0.0
 11
2.44900958
 21
-48.900001
 31
0.0
  0
LINE
  5
160
330
12F
100
AcDbEntity
  8
AM_9
100
AcDbLine
 10
-5.79210322
 20
-49.40000000000001
 30
0.0
 11
-5.79210322
 21
-48.900001
 31
0.0
  0
LINE
  5
161
330
12F
100
AcDbEntity
  8
AM_9
100
AcDbLine
 10
-5.01464275
 20
-49.40000000000001
 30
0.0
 11
-5.01464275
 21
-48.900001
 31
0.0
  0
LINE
  5
162
330
12F
100
AcDbEntity
  8
AM_9
100
AcDbLine
 10
4.936896400000001
 20
-49.40000000000001
 30
0.0
 11
4.936896400000001
 21
-48.900001
 31
0.0
  0
LINE
  5
163
330
12F
100
AcDbEntity
  8
AM_9
100
AcDbLine
 10
-4.859142679999998
 20
-49.40000000000001
 30
0.0
 11
-4.859142680000001
 21
-48.900001
 31
0.0
  0
LINE
  5
164
330
12F
100
AcDbEntity
  8
AM_9
100
AcDbLine
 10
5.325618
 20
-49.40000000000001
 30
0.0
 11
5.325618
 21
-48.900001
 31
0.0
  0
LINE
  5
165
330
12F
100
AcDbEntity
  8
AM_9
100
AcDbLine
 10
4.859147
 20
-49.40000000000001
 30
0.0
 11
4.859147
 21
-48.900001
 31
0.0
  0
LINE
  5
166
330
12F
100
AcDbEntity
  8
AM_9
100
AcDbLine
 10
3.070987
 20
-49.40000000000001
 30
0.0
 11
3.070987
 21
-48.900001
 31
0.0
  0
LINE
  5
167
330
12F
100
AcDbEntity
  8
AM_9
100
AcDbLine
 10
2.604490599999995
 20
-49.40000000000001
 30
0.0
 11
2.6044906
 21
-48.900001
 31
0.0
  0
LINE
  5
168
330
12F
100
AcDbEntity
  8
AM_9
100
AcDbLine
 10
-5.94759313
 20
-49.40000000000001
 30
0.0
 11
-5.94759313
 21
-48.900001
 31
0.0
  0
LINE
  5
169
330
12F
100
AcDbEntity
  8
AM_9
100
AcDbLine
 10
-4.39266228
 20
-49.40000000000001
 30
0.0
 11
-4.39266228
 21
-48.900001
 31
0.0
  0
LINE
  5
16A
330
12F
100
AcDbEntity
  8
AM_9
100
AcDbLine
 10
-6.41407353
 20
-49.40000000000001
 30
0.0
 11
-6.41407353
 21
-48.900001
 31
0.0
  0
LINE
  5
16B
330
12F
100
AcDbEntity
  8
AM_9
100
AcDbLine
 10
-2.21577129
 20
-49.40000000000001
 30
0.0
 11
-2.21577129
 21
-48.900001
 31
0.0
  0
LINE
  5
16C
330
12F
100
AcDbEntity
  8
AM_9
100
AcDbLine
 10
1.04957118
 20
-49.40000000000001
 30
0.0
 11
1.04957118
 21
-48.900001
 31
0.0
  0
LINE
  5
16D
330
12F
100
AcDbEntity
  8
AM_9
100
AcDbLine
 10
-2.68225143
 20
-49.40000000000001
 30
0.0
 11
-2.68225143
 21
-48.900001
 31
0.0
  0
LINE
  5
16E
330
12F
100
AcDbEntity
  8
AM_9
100
AcDbLine
 10
1.5160498
 20
-49.40000000000001
 30
0.0
 11
1.5160498
 21
-48.900001
 31
0.0
  0
LINE
  5
16F
330
12F
100
AcDbEntity
  8
AM_9
100
AcDbLine
 10
3.3042098
 20
-49.40000000000001
 30
0.0
 11
3.3042098
 21
-48.900001
 31
0.0
  0
LINE
  5
170
330
12F
100
AcDbEntity
  8
AM_9
100
AcDbLine
 10
0.81633568
 20
-49.40000000000001
 30
0.0
 11
0.81633568
 21
-48.900001
 31
0.0
  0
LINE
  5
171
330
12F
100
AcDbEntity
  8
AM_9
100
AcDbLine
 10
-2.9154915
 20
-49.40000000000001
 30
0.0
 11
-2.9154915
 21
-48.900001
 31
0.0
  0
LINE
  5
172
330
12F
100
AcDbEntity
  8
AM_9
100
AcDbLine
 10
4.6258988
 20
-49.40000000000001
 30
0.0
 11
4.6258988
 21
-48.900001
 31
0.0
  0
LINE
  5
173
330
12F
100
AcDbEntity
  8
AM_9
100
AcDbLine
 10
-0.8940825399999999
 20
-49.40000000000001
 30
0.0
 11
-0.8940825399999999
 21
-48.900001
 31
0.0
  0
LINE
  5
174
330
12F
100
AcDbEntity
  8
AM_9
100
AcDbLine
 10
-6.6473136
 20
-49.40000000000001
 30
0.0
 11
-6.6473136
 21
-48.900001
 31
0.0
  0
LINE
  5
175
330
12F
100
AcDbEntity
  8
AM_9
100
AcDbLine
 10
-8.357734620000002
 20
-49.40000000000001
 30
0.0
 11
-8.357734620000002
 21
-48.900001
 31
0.0
  0
LINE
  5
176
330
12F
100
AcDbEntity
  8
AM_9
100
AcDbLine
 10
6.491808200000001
 20
-49.40000000000001
 30
0.0
 11
6.491808200000001
 21
-48.900001
 31
0.0
  0
LINE
  5
177
330
12F
100
AcDbEntity
  8
AM_9
100
AcDbLine
 10
-4.15943237
 20
-49.40000000000001
 30
0.0
 11
-4.15943237
 21
-48.900001
 31
0.0
  0
LINE
  5
178
330
12F
100
AcDbEntity
  8
AM_9
100
AcDbLine
 10
-6.25858337
 20
-49.40000000000001
 30
0.0
 11
-6.25858337
 21
-48.900001
 31
0.0
  0
LINE
  5
179
330
12F
100
AcDbEntity
  8
AM_9
100
AcDbLine
 10
1.20506998
 20
-49.40000000000001
 30
0.0
 11
1.20506998
 21
-48.900001
 31
0.0
  0
LINE
  5
17A
330
12F
100
AcDbEntity
  8
AM_9
100
AcDbLine
 10
2.9154882
 20
-49.40000000000001
 30
0.0
 11
2.9154882
 21
-48.900001
 31
0.0
  0
LINE
  5
17B
330
12F
100
AcDbEntity
  8
AM_9
100
AcDbLine
 10
5.0146458
 20
-49.40000000000001
 30
0.0
 11
5.0146458
 21
-48.900001
 31
0.0
  0
LINE
  5
17C
330
12F
100
AcDbEntity
  8
AM_9
100
AcDbLine
 10
-2.52675136
 20
-49.40000000000001
 30
0.0
 11
-2.52675136
 21
-48.900001
 31
0.0
  0
LINE
  5
17D
330
12F
100
AcDbEntity
  8
AM_9
100
AcDbLine
 10
-4.54816235
 20
-49.40000000000001
 30
0.0
 11
-4.54816235
 21
-48.900001
 31
0.0
  0
LINE
  5
17E
330
12F
100
AcDbEntity
  8
AM_9
100
AcDbLine
 10
4.703648200000001
 20
-49.40000000000001
 30
0.0
 11
4.703648200000001
 21
-48.900001
 31
0.0
  0
LINE
  5
17F
330
12F
100
AcDbEntity
  8
AM_9
100
AcDbLine
 10
-6.569563439999999
 20
-49.40000000000001
 30
0.0
 11
-6.56956344
 21
-48.900001
 31
0.0
  0
LINE
  5
180
330
12F
100
AcDbEntity
  8
AM_9
100
AcDbLine
 10
-4.23717237
 20
-49.40000000000001
 30
0.0
 11
-4.23717237
 21
-48.900001
 31
0.0
  0
LINE
  5
181
330
12F
100
AcDbEntity
  8
AM_9
100
AcDbLine
 10
0.8940825400000001
 20
-49.40000000000001
 30
0.0
 11
0.8940825400000001
 21
-48.900001
 31
0.0
  0
LINE
  5
182
330
12F
100
AcDbEntity
  8
AM_9
100
AcDbLine
 10
-2.83774159
 20
-49.40000000000001
 30
0.0
 11
-2.83774159
 21
-48.900001
 31
0.0
  0
LINE
  5
183
330
12F
100
AcDbEntity
  8
AM_9
100
AcDbLine
 10
3.2264604
 20
-49.40000000000001
 30
0.0
 11
3.2264604
 21
-48.900001
 31
0.0
  0
LINE
  5
184
330
12F
100
AcDbEntity
  8
AM_9
100
AcDbLine
 10
1.74929038
 20
-48.900001
 30
0.0
 11
-1.36056065
 21
-48.900001
 31
0.0
  0
LINE
  5
185
330
12F
100
AcDbEntity
  8
AM_9
100
AcDbLine
 10
-6.95829368
 20
-49.40000000000001
 30
0.0
 11
-6.95829368
 21
-48.900001
 31
0.0
  0
LINE
  5
186
330
12F
100
AcDbEntity
  8
AM_9
100
AcDbLine
 10
0.50535078
 20
-49.40000000000001
 30
0.0
 11
0.50535078
 21
-48.900001
 31
0.0
  0
LINE
  5
187
330
12F
100
AcDbEntity
  8
AM_9
100
AcDbLine
 10
4.3149266
 20
-49.40000000000001
 30
0.0
 11
4.3149266
 21
-48.900001
 31
0.0
  0
LINE
  5
188
330
12F
100
AcDbEntity
  8
AM_9
100
AcDbLine
 10
-5.71435306
 20
-48.900001
 30
0.0
 11
-8.82420486
 21
-48.900001
 31
0.0
  0
LINE
  5
189
330
12F
100
AcDbEntity
  8
AM_9
100
AcDbLine
 10
-1.36056065
 20
-49.40000000000001
 30
0.0
 11
-1.36056065
 21
-48.900001
 31
0.0
  0
LINE
  5
18A
330
12F
100
AcDbEntity
  8
AM_9
100
AcDbLine
 10
-1.98253096
 20
-48.900001
 30
0.0
 11
-5.09238275
 21
-48.900001
 31
0.0
  0
LINE
  5
18B
330
12F
100
AcDbEntity
  8
AM_9
100
AcDbLine
 10
8.8241886
 20
-48.900001
 30
0.0
 11
6.0253372
 21
-48.900001
 31
0.0
  0
LINE
  5
18C
330
12F
100
AcDbEntity
  8
AM_9
100
AcDbLine
 10
6.0253372
 20
-49.40000000000001
 30
0.0
 11
6.0253372
 21
-48.900001
 31
0.0
  0
LINE
  5
18D
330
12F
100
AcDbEntity
  8
AM_9
100
AcDbLine
 10
8.8241886
 20
-49.40000000000001
 30
0.0
 11
8.8241886
 21
-48.900001
 31
0.0
  0
LINE
  5
18E
330
12F
100
AcDbEntity
  8
AM_9
100
AcDbLine
 10
5.4033674
 20
-48.900001
 30
0.0
 11
2.37126018
 21
-48.900001
 31
0.0
  0
LINE
  5
18F
330
12F
100
AcDbEntity
  8
AM_9
100
AcDbLine
 10
-3.84844214
 20
-49.40000000000001
 30
0.0
 11
-3.84844214
 21
-48.900001
 31
0.0
  0
LINE
  5
190
330
12F
100
AcDbEntity
  8
AM_9
100
AcDbLine
 10
-3.22647183
 20
-49.40000000000001
 30
0.0
 11
-3.22647183
 21
-48.900001
 31
0.0
  0
LINE
  5
191
330
12F
100
AcDbEntity
  8
AM_9
100
AcDbLine
 10
-8.82420486
 20
-49.40000000000001
 30
0.0
 11
-8.82420486
 21
-48.900001
 31
0.0
  0
LINE
  5
192
330
12F
100
AcDbEntity
  8
AM_9
100
AcDbLine
 10
3.6152074
 20
-49.40000000000001
 30
0.0
 11
3.6152074
 21
-48.900001
 31
0.0
  0
LINE
  5
193
330
12F
100
AcDbEntity
  8
AM_9
100
AcDbLine
 10
-28.52319153429301
 20
-49.39999999999999
 30
0.0
 11
28.52319153429301
 21
-49.39999999999999
 31
0.0
  0
LINE
  5
194
330
12F
100
AcDbEntity
  8
AM_9
100
AcDbLine
 10
-85.40188307709374
 20
-70.1
 30
0.0
 11
-85.40188307709374
 21
-49.39999999999999
 31
0.0
  0
LINE
  5
195
330
12F
100
AcDbEntity
  8
AM_9
100
AcDbLine
 10
-97.45
 20
-49.39999999999999
 30
0.0
 11
-97.45
 21
-70.1
 31
0.0
  0
LINE
  5
196
330
12F
100
AcDbEntity
  8
AM_9
100
AcDbLine
 10
85.40188307709371
 20
-70.1
 30
0.0
 11
85.40188307709371
 21
-49.39999999999999
 31
0.0
  0
LINE
  5
197
330
12F
100
AcDbEntity
  8
AM_9
100
AcDbLine
 10
97.45
 20
-70.1
 30
0.0
 11
97.45
 21
-49.39999999999999
 31
0.0
  0
LINE
  5
198
330
12F
100
AcDbEntity
  8
AM_9
100
AcDbLine
 10
80.0
 20
-70.1
 30
0.0
 11
80.0
 21
-5.739999999999995
 31
0.0
  0
LINE
  5
199
330
12F
100
AcDbEntity
  8
AM_9
100
AcDbLine
 10
-80.0
 20
-5.739999999999995
 30
0.0
 11
-80.0
 21
-70.1
 31
0.0
  0
LINE
  5
19A
330
12F
100
AcDbEntity
  8
AM_9
100
AcDbLine
 10
-81.13
 20
-5.74
 30
0.0
 11
81.1299999999196
 21
-5.74
 31
0.0
  0
ARC
  5
19B
330
12F
100
AcDbEntity
  8
AM_9
100
AcDbCircle
 10
81.12999999999998
 20
-2.869999999999983
 30
0.0
 40
2.870000000000017
100
AcDbArc
 50
270.0
 51
0.0
  0
ARC
  5
19C
330
12F
100
AcDbEntity
  8
AM_9
100
AcDbCircle
 10
-81.12999999999998
 20
-2.869999999999983
 30
0.0
 40
2.870000000000019
100
AcDbArc
 50
180.0
 51
270.0
  0
LINE
  5
19D
330
12F
100
AcDbEntity
  8
AM_9
100
AcDbLine
 10
-84.0
 20
-2.869999999999973
 30
0.0
 11
84.0
 21
-2.869999999999973
 31
0.0
  0
LINE
  5
19E
330
12F
100
AcDbEntity
  8
AM_9
100
AcDbLine
 10
84.0
 20
-2.869999999999973
 30
0.0
 11
84.0
 21
0.0
 31
0.0
  0
LINE
  5
19F
330
12F
100
AcDbEntity
  8
AM_9
100
AcDbLine
 10
-84.0
 20
0.0
 30
0.0
 11
-84.0
 21
-2.869999999999973
 31
0.0
  0
LINE
  5
1A0
330
12F
100
AcDbEntity
  8
AM_9
100
AcDbLine
 10
66.27151685730797
 20
-28.69999999999999
 30
0.0
 11
66.27151685730797
 21
-70.1
 31
0.0
  0
LINE
  5
1A1
330
12F
100
AcDbEntity
  8
AM_9
100
AcDbLine
 10
84.27151685730797
 20
-70.1
 30
0.0
 11
84.27151685730797
 21
-28.69999999999999
 31
0.0
  0
LINE
  5
1A2
330
12F
100
AcDbEntity
  8
AM_9
100
AcDbLine
 10
-84.27151685730797
 20
-28.69999999999999
 30
0.0
 11
-84.27151685730797
 21
-70.1
 31
0.0
  0
LINE
  5
1A3
330
12F
100
AcDbEntity
  8
AM_9
100
AcDbLine
 10
-66.27151685730797
 20
-70.1
 30
0.0
 11
-66.27151685730797
 21
-28.69999999999999
 31
0.0
  0
LINE
  5
1A4
330
12F
100
AcDbEntity
  8
AM_9
100
AcDbLine
 10
-92.06530291048855
 20
-70.1
 30
0.0
 11
-92.06530291048855
 21
-49.39999999999998
 31
0.0
  0
LINE
  5
1A5
330
12F
100
AcDbEntity
  8
AM_9
100
AcDbLine
 10
92.06530291048848
 20
-70.1
 30
0.0
 11
92.06530291048848
 21
-49.39999999999998
 31
0.0
  0
CIRCLE
  5
1A6
330
12F
100
AcDbEntity
  8
AM_9
100
AcDbCircle
 10
0.0
 20
-49.39999999999998
 30
0.0
 40
2.000001079998206
  0
CIRCLE
  5
1A7
330
12F
100
AcDbEntity
  8
AM_9
100
AcDbCircle
 10
0.0
 20
-49.39999999999998
 30
0.0
 40
2.547962995667636
  0
LINE
  5
1A8
330
12F
100
AcDbEntity
  8
AM_7
100
AcDbLine
 10
-4.1999916
 20
-49.39999999999998
 30
0.0
 11
4.1999916
 21
-49.39999999999998
 31
0.0
  0
LINE
  5
1A9
330
12F
100
AcDbEntity
  8
AM_7
100
AcDbLine
 10
0.0
 20
3.505
 30
0.0
 11
0.0
 21
-94.95500000000001
 31
0.0
  0
LINE
  5
1AA
330
12F
100
AcDbEntity
  8
AM_7
100
AcDbLine
 10
-75.27151685730797
 20
-72.16999999999999
 30
0.0
 11
-75.27151685730797
 21
-26.63
 31
0.0
  0
LINE
  5
1AB
330
12F
100
AcDbEntity
  8
AM_7
100
AcDbLine
 10
75.27151685730797
 20
-72.16999999999999
 30
0.0
 11
75.27151685730797
 21
-26.63
 31
0.0
  0
LINE
  5
1AC
330
12F
100
AcDbEntity
  8
AM_4
100
AcDbLine
 10
-46.93634910052567
 20
-70.1
 30
0.0
 11
-46.93634910052567
 21
-49.39999999999998
 31
0.0
  0
LINE
  5
1AD
330
12F
100
AcDbEntity
  8
AM_4
100
AcDbLine
 10
46.9363491005256
 20
-70.1
 30
0.0
 11
46.9363491005256
 21
-49.39999999999998
 31
0.0
  0
LINE
  5
1AE
330
12F
100
AcDbEntity
  8
AM_4
100
AcDbLine
 10
93.665
 20
0.0
 30
0.0
 11
-93.665
 21
0.0
 31
0.0
  0
LINE
  5
1AF
330
12F
100
AcDbEntity
  8
AM_4
100
AcDbLine
 10
93.665
 20
-28.7
 30
0.0
 11
93.665
 21
0.0
 31
0.0
  0
LINE
  5
1B0
330
12F
100
AcDbEntity
  8
AM_4
100
AcDbLine
 10
-93.665
 20
0.0
 30
0.0
 11
-93.665
 21
-28.7
 31
0.0
  0
LINE
  5
1B1
330
12F
100
AcDbEntity
  8
AM_4
100
AcDbLine
 10
99.02151685730797
 20
-70.1
 30
0.0
 11
-99.02151685730797
 21
-70.1
 31
0.0
  0
LINE
  5
1B2
330
12F
100
AcDbEntity
  8
AM_4
100
AcDbLine
 10
-58.47773080412744
 20
-70.1
 30
0.0
 11
-58.47773080412744
 21
-49.39999999999998
 31
0.0
  0
LINE
  5
1B3
330
12F
100
AcDbEntity
  8
AM_4
100
AcDbLine
 10
-99.02151685730797
 20
-49.39999999999998
 30
0.0
 11
-99.02151685730797
 21
-70.1
 31
0.0
  0
LINE
  5
1B4
330
12F
100
AcDbEntity
  8
AM_4
100
AcDbLine
 10
58.4777308041275
 20
-70.1
 30
0.0
 11
58.4777308041275
 21
-49.39999999999998
 31
0.0
  0
LINE
  5
1B5
330
12F
100
AcDbEntity
  8
AM_4
100
AcDbLine
 10
99.02151685730797
 20
-70.1
 30
0.0
 11
99.02151685730797
 21
-49.39999999999998
 31
0.0
  0
LINE
  5
1B6
330
12F
100
AcDbEntity
  8
AM_4
100
AcDbLine
 10
32.42230954603966
 20
-70.1
 30
0.0
 11
32.42230954603966
 21
-49.39999999999998
 31
0.0
  0
LINE
  5
1B7
330
12F
100
AcDbEntity
  8
AM_4
100
AcDbLine
 10
28.52319153429301
 20
-70.1
 30
0.0
 11
28.52319153429301
 21
-28.69999999999999
 31
0.0
  0
LINE
  5
1B8
330
12F
100
AcDbEntity
  8
AM_4
100
AcDbLine
 10
-32.42230954603966
 20
-70.1
 30
0.0
 11
-32.42230954603966
 21
-49.39999999999998
 31
0.0
  0
LINE
  5
1B9
330
12F
100
AcDbEntity
  8
AM_4
100
AcDbLine
 10
-28.52319153429303
 20
-70.1
 30
0.0
 11
-28.52319153429301
 21
-28.69999999999999
 31
0.0
  0
LINE
  5
1BA
330
12F
100
AcDbEntity
  8
AM_4
100
AcDbLine
 10
4.0000047
 20
-47.09059620969522
 30
0.0
 11
4.0000047
 21
-51.70940379030475
 31
0.0
  0
LINE
  5
1BB
330
12F
100
AcDbEntity
  8
AM_4
100
AcDbLine
 10
0.0
 20
-44.78119241939045
 30
0.0
 11
4.0000047
 21
-47.09059620969522
 31
0.0
  0
LINE
  5
1BC
330
12F
100
AcDbEntity
  8
AM_4
100
AcDbLine
 10
-4.0000047
 20
-47.09059620969522
 30
0.0
 11
0.0
 21
-44.78119241939045
 31
0.0
  0
LINE
  5
1BD
330
12F
100
AcDbEntity
  8
AM_4
100
AcDbLine
 10
-4.0000047
 20
-51.70940379030475
 30
0.0
 11
-4.0000047
 21
-47.09059620969522
 31
0.0
  0
LINE
  5
1BE
330
12F
100
AcDbEntity
  8
AM_4
100
AcDbLine
 10
0.0
 20
-54.01880758060952
 30
0.0
 11
-4.0000047
 21
-51.70940379030475
 31
0.0
  0
LINE
  5
1BF
330
12F
100
AcDbEntity
  8
AM_4
100
AcDbLine
 10
4.0000047
 20
-51.70940379030475
 30
0.0
 11
0.0
 21
-54.01880758060952
 31
0.0
  0
CIRCLE
  5
1C0
330
12F
100
AcDbEntity
  8
AM_4
100
AcDbCircle
 10
0.0
 20
-49.39999999999998
 30
0.0
 40
3.999992
  0
CIRCLE
  5
1C1
330
12F
100
AcDbEntity
  8
AM_4
100
AcDbCircle
 10
0.0
 20
-49.39999999999998
 30
0.0
 40
2.7999944
  0
CIRCLE
  5
1C2
330
12F
100
AcDbEntity
  8
AM_4
100
AcDbCircle
 10
0.0
 20
-49.39999999999998
 30
0.0
 40
2.699647882395876
  0
CIRCLE
  5
1C3
330
12F
100
AcDbEntity
  8
AM_4
100
AcDbCircle
 10
0.0
 20
-49.39999999999998
 30
0.0
 40
2.663886868611148
  0
CIRCLE
  5
1C4
330
12F
100
AcDbEntity
  8
AM_4
100
AcDbCircle
 10
0.0
 20
-49.39999999999998
 30
0.0
 40
2.125722144867715
  0
CIRCLE
  5
1C5
330
12F
100
AcDbEntity
  8
AM_4
100
AcDbCircle
 10
0.0
 20
-49.39999999999998
 30
0.0
 40
1.661484158652415
  0
LINE
  5
1C6
330
12F
100
AcDbEntity
  8
AM_4
100
AcDbLine
 10
130.2
 20
-49.4
 30
0.0
 11
28.52319153429301
 21
-49.39999999999999
 31
0.0
  0
LINE
  5
1C7
330
12F
100
AcDbEntity
  8
AM_4
100
AcDbLine
 10
130.2
 20
-28.7
 30
0.0
 11
-130.2
 21
-28.7
 31
0.0
  0
LINE
  5
1C8
330
12F
100
AcDbEntity
  8
AM_4
100
AcDbLine
 10
33.69823967234827
 20
-49.39999999999999
 30
0.0
 11
33.69823967234827
 21
-28.69999999999999
 31
0.0
  0
LINE
  5
1C9
330
12F
100
AcDbEntity
  8
AM_4
100
AcDbLine
 10
130.2
 20
-49.4
 30
0.0
 11
130.2
 21
-28.7
 31
0.0
  0
LINE
  5
1CA
330
12F
100
AcDbEntity
  8
AM_4
100
AcDbLine
 10
-130.2
 20
-28.7
 30
0.0
 11
-130.2
 21
-49.4
 31
0.0
  0
LINE
  5
1CB
330
12F
100
AcDbEntity
  8
AM_4
100
AcDbLine
 10
-33.69823967234822
 20
-49.39999999999999
 30
0.0
 11
-33.69823967234822
 21
-28.69999999999999
 31
0.0
  0
LINE
  5
1CC
330
12F
100
AcDbEntity
  8
AM_4
100
AcDbLine
 10
-28.52319153429301
 20
-49.39999999999999
 30
0.0
 11
-130.2
 21
-49.4
 31
0.0
  0
ENDBLK
  5
132
330
12F
100
AcDbEntity
  8
0
100
AcDbBlockEnd
  0
ENDSEC
  0
SECTION
  2
ENTITIES
  0
INSERT
  5
6F
330
1F
100
AcDbEntity
  8
0
100
AcDbBlockReference
  2
1_136295_4
 10
0.0
 20
0.0
 30
0.0
  0
POINT
  5
1CE
330
1F
100
AcDbEntity
  8
ConnectionPoints
100
AcDbPoint
 10
0.0
 20
-44.7
 30
0.0000000000000084
  0
POINT
  5
1CF
330
1F
100
AcDbEntity
  8
ConnectionPoints
100
AcDbPoint
 10
0.0
 20
-90.7
 30
0.0000000000000112
  0
POINT
  5
1D0
330
1F
100
AcDbEntity
  8
ConnectionPoints
100
AcDbPoint
 10
0.0
 20
-90.7
 30
0.0000000000000056
  0
POINT
  5
1D1
330
1F
100
AcDbEntity
  8
ConnectionPoints
100
AcDbPoint
 10
0.0
 20
-90.7
 30
0.0000000000000056
  0
ENDSEC
  0
SECTION
  2
OBJECTS
  0
DICTIONARY
  5
C
330
0
100
AcDbDictionary
281
     1
  3
ACAD_DETAILVIEWSTYLE
350
1D9
  3
ACAD_GROUP
350
D
  3
ACAD_LAYOUT
350
1A
  3
ACAD_MATERIAL
350
43
  3
ACAD_MLEADERSTYLE
350
6B
  3
ACAD_MLINESTYLE
350
17
  3
ACAD_PLOTSETTINGS
350
19
  3
ACAD_PLOTSTYLENAME
350
E
  3
ACAD_SCALELIST
350
47
  3
ACAD_SECTIONVIEWSTYLE
350
1DA
  3
ACAD_TABLESTYLE
350
69
  3
ACAD_VISUALSTYLE
350
2A
  3
ACDB_RECOMPOSE_DATA
350
1D6
  3
AcDbVariableDictionary
350
1D2
  0
SUN
  5
6D
330
29
100
AcDbSun
 90
        1
290
     0
 63
     7
421
 16777215
 40
1.0
291
     1
 91
  2455826
 92
 54000000
292
     0
 70
     2
 71
   256
280
     1
  0
DICTIONARY
  5
1D9
102
{ACAD_REACTORS
330
C
102
}
330
C
100
AcDbDictionary
281
     1
  0
DICTIONARY
  5
D
102
{ACAD_REACTORS
330
C
102
}
330
C
100
AcDbDictionary
281
     1
  0
DICTIONARY
  5
1A
102
{ACAD_REACTORS
330
C
102
}
330
C
100
AcDbDictionary
281
     1
  3
Layout1
350
1E
  3
Layout2
350
26
  3
Model
350
22
  0
DICTIONARY
  5
43
102
{ACAD_REACTORS
330
C
102
}
330
C
100
AcDbDictionary
281
     1
  3
ByBlock
350
45
  3
ByLayer
350
44
  3
Global
350
46
  0
DICTIONARY
  5
6B
102
{ACAD_REACTORS
330
C
102
}
330
C
100
AcDbDictionary
281
     1
  3
Standard
350
6C
  0
DICTIONARY
  5
17
102
{ACAD_REACTORS
330
C
102
}
330
C
100
AcDbDictionary
281
     1
  3
Standard
350
18
  0
DICTIONARY
  5
19
102
{ACAD_REACTORS
330
C
102
}
330
C
100
AcDbDictionary
281
     1
  0
ACDBDICTIONARYWDFLT
  5
E
102
{ACAD_REACTORS
330
C
102
}
330
C
100
AcDbDictionary
281
     1
  3
Normal
350
F
100
AcDbDictionaryWithDefault
340
F
  0
DICTIONARY
  5
47
102
{ACAD_REACTORS
330
C
102
}
330
C
100
AcDbDictionary
281
     1
  3
A0
350
48
  3
A1
350
49
  3
A2
350
4A
  3
A3
350
4B
  3
A4
350
4C
  3
A5
350
4D
  3
A6
350
4E
  3
A7
350
4F
  3
A8
350
50
  3
A9
350
51
  3
B0
350
52
  3
B1
350
53
  3
B2
350
54
  3
B3
350
55
  3
B4
350
56
  3
B5
350
57
  3
B6
350
58
  3
B7
350
59
  3
B8
350
5A
  3
B9
350
5B
  3
C0
350
5C
  3
C1
350
5D
  3
C2
350
5E
  3
C3
350
5F
  3
C4
350
60
  3
C5
350
61
  3
C6
350
62
  3
C7
350
63
  3
C8
350
64
  3
C9
350
65
  3
D0
350
66
  3
D1
350
67
  3
D2
350
68
  0
DICTIONARY
  5
1DA
102
{ACAD_REACTORS
330
C
102
}
330
C
100
AcDbDictionary
281
     1
  0
DICTIONARY
  5
69
102
{ACAD_REACTORS
330
C
102
}
330
C
100
AcDbDictionary
281
     1
  3
Standard
350
6A
  0
DICTIONARY
  5
2A
102
{ACAD_REACTORS
330
C
102
}
330
C
100
AcDbDictionary
281
     1
  3
2dWireframe
350
2F
  3
Basic
350
32
  3
Brighten
350
36
  3
ColorChange
350
3A
  3
Conceptual
350
34
  3
Dim
350
35
  3
EdgeColorOff
350
3D
  3
Facepattern
350
39
  3
Flat
350
2B
  3
FlatWithEdges
350
2C
  3
Gouraud
350
2D
  3
GouraudWithEdges
350
2E
  3
Hidden
350
31
  3
JitterOff
350
3B
  3
Linepattern
350
38
  3
OverhangOff
350
3C
  3
Realistic
350
33
  3
Shaded
350
42
  3
Shaded with edges
350
41
  3
Shades of Gray
350
3E
  3
Sketchy
350
3F
  3
Thicken
350
37
  3
Wireframe
350
30
  3
X-Ray
350
40
  0
XRECORD
  5
1D6
102
{ACAD_REACTORS
330
C
102
}
330
C
100
AcDbXrecord
280
     1
 90
        1
330
6A
  0
DICTIONARY
  5
1D2
102
{ACAD_REACTORS
330
C
102
}
330
C
100
AcDbDictionary
281
     1
  3
CANNOSCALE
350
1D3
  3
CMLEADERSTYLE
350
1D8
  3
CTABLESTYLE
350
1D7
  0
LAYOUT
  5
1E
102
{ACAD_REACTORS
330
1A
102
}
330
1A
100
AcDbPlotSettings
  1

  2
none_device
  4

  6

 40
0.0
 41
0.0
 42
0.0
 43
0.0
 44
0.0
 45
0.0
 46
0.0
 47
0.0
 48
0.0
 49
0.0
140
0.0
141
0.0
142
1.0
143
1.0
 70
   688
 72
     1
 73
     0
 74
     5
  7

 75
    16
 76
     0
 77
     2
 78
   300
147
1.0
148
0.0
149
0.0
100
AcDbLayout
  1
Layout1
 70
     1
 71
     1
 10
0.0
 20
0.0
 11
420.0
 21
297.0
 12
0.0
 22
0.0
 32
0.0
 14
1.000000000000000E+20
 24
1.000000000000000E+20
 34
1.000000000000000E+20
 15
-1.000000000000000E+20
 25
-1.000000000000000E+20
 35
-1.000000000000000E+20
146
0.0
 13
0.0
 23
0.0
 33
0.0
 16
1.0
 26
0.0
 36
0.0
 17
0.0
 27
1.0
 37
0.0
 76
     0
330
1B
  0
LAYOUT
  5
26
102
{ACAD_REACTORS
330
1A
102
}
330
1A
100
AcDbPlotSettings
  1

  2
none_device
  4

  6

 40
0.0
 41
0.0
 42
0.0
 43
0.0
 44
0.0
 45
0.0
 46
0.0
 47
0.0
 48
0.0
 49
0.0
140
0.0
141
0.0
142
1.0
143
1.0
 70
   688
 72
     1
 73
     0
 74
     5
  7

 75
    16
 76
     0
 77
     2
 78
   300
147
1.0
148
0.0
149
0.0
100
AcDbLayout
  1
Layout2
 70
     1
 71
     2
 10
0.0
 20
0.0
 11
0.0
 21
0.0
 12
0.0
 22
0.0
 32
0.0
 14
0.0
 24
0.0
 34
0.0
 15
0.0
 25
0.0
 35
0.0
146
0.0
 13
0.0
 23
0.0
 33
0.0
 16
1.0
 26
0.0
 36
0.0
 17
0.0
 27
1.0
 37
0.0
 76
     0
330
23
  0
LAYOUT
  5
22
102
{ACAD_REACTORS
330
1A
102
}
330
1A
100
AcDbPlotSettings
  1

  2
none_device
  4
Letter_(8.50_x_11.00_Inches)
  6

 40
6.35
 41
6.35
 42
6.35000508
 43
6.35000508
 44
215.9
 45
279.4
 46
0.0
 47
0.0
 48
0.0
 49
0.0
140
0.0
141
0.0
142
1.0
143
1.0
 70
  1712
 72
     1
 73
     0
 74
     0
  7

 75
     0
 76
     0
 77
     2
 78
   300
147
1.0
148
0.0
149
0.0
100
AcDbLayout
  1
Model
 70
     1
 71
     0
 10
0.0
 20
0.0
 11
420.0
 21
297.0
 12
0.0
 22
0.0
 32
0.0
 14
1.000000000000000E+20
 24
1.000000000000000E+20
 34
1.000000000000000E+20
 15
-1.000000000000000E+20
 25
-1.000000000000000E+20
 35
-1.000000000000000E+20
146
0.0
 13
0.0
 23
0.0
 33
0.0
 16
1.0
 26
0.0
 36
0.0
 17
0.0
 27
1.0
 37
0.0
 76
     0
330
1F
331
29
  0
MATERIAL
  5
45
102
{ACAD_REACTORS
330
43
102
}
330
43
100
AcDbMaterial
  1
ByBlock
 72
     1
 94
      127
  0
MATERIAL
  5
44
102
{ACAD_REACTORS
330
43
102
}
330
43
100
AcDbMaterial
  1
ByLayer
 72
     1
 94
      127
  0
MATERIAL
  5
46
102
{ACAD_REACTORS
330
43
102
}
330
43
100
AcDbMaterial
  1
Global
 72
     1
 94
      127
  0
MLEADERSTYLE
  5
6C
102
{ACAD_REACTORS
330
6B
102
}
330
6B
100
AcDbMLeaderStyle
179
     2
170
     2
171
     1
172
     0
 90
        2
 40
0.0
 41
0.0
173
     1
 91
-1056964608
340
14
 92
       -2
290
     1
 42
2.0
291
     1
 43
8.0
  3
Standard
341
0
 44
4.0
300

342
11
174
     1
178
     6
175
     1
176
     0
 93
-1056964608
 45
4.0
292
     0
297
     0
 46
4.0
343
0
 94
-1056964608
 47
1.0
 49
1.0
140
1.0
293
     1
141
0.0
294
     1
177
     0
142
1.0
295
     0
296
     0
143
3.75
271
     0
272
     9
273
     9
298
     0
  0
MLINESTYLE
  5
18
102
{ACAD_REACTORS
330
17
102
}
330
17
100
AcDbMlineStyle
  2
Standard
 70
     0
  3

 62
   256
 51
90.0
 52
90.0
 71
     2
 49
0.5
 62
   256
  6
BYLAYER
 49
-0.5
 62
   256
  6
BYLAYER
  0
ACDBPLACEHOLDER
  5
F
102
{ACAD_REACTORS
330
E
102
}
330
E
  0
SCALE
  5
48
102
{ACAD_REACTORS
330
47
102
}
330
47
100
AcDbScale
 70
     0
300
1:1
140
1.0
141
1.0
290
     1
  0
SCALE
  5
49
102
{ACAD_REACTORS
330
47
102
}
330
47
100
AcDbScale
 70
     0
300
1:2
140
1.0
141
2.0
290
     0
  0
SCALE
  5
4A
102
{ACAD_REACTORS
330
47
102
}
330
47
100
AcDbScale
 70
     0
300
1:4
140
1.0
141
4.0
290
     0
  0
SCALE
  5
4B
102
{ACAD_REACTORS
330
47
102
}
330
47
100
AcDbScale
 70
     0
300
1:5
140
1.0
141
5.0
290
     0
  0
SCALE
  5
4C
102
{ACAD_REACTORS
330
47
102
}
330
47
100
AcDbScale
 70
     0
300
1:8
140
1.0
141
8.0
290
     0
  0
SCALE
  5
4D
102
{ACAD_REACTORS
330
47
102
}
330
47
100
AcDbScale
 70
     0
300
1:10
140
1.0
141
10.0
290
     0
  0
SCALE
  5
4E
102
{ACAD_REACTORS
330
47
102
}
330
47
100
AcDbScale
 70
     0
300
1:16
140
1.0
141
16.0
290
     0
  0
SCALE
  5
4F
102
{ACAD_REACTORS
330
47
102
}
330
47
100
AcDbScale
 70
     0
300
1:20
140
1.0
141
20.0
290
     0
  0
SCALE
  5
50
102
{ACAD_REACTORS
330
47
102
}
330
47
100
AcDbScale
 70
     0
300
1:30
140
1.0
141
30.0
290
     0
  0
SCALE
  5
51
102
{ACAD_REACTORS
330
47
102
}
330
47
100
AcDbScale
 70
     0
300
1:40
140
1.0
141
40.0
290
     0
  0
SCALE
  5
52
102
{ACAD_REACTORS
330
47
102
}
330
47
100
AcDbScale
 70
     0
300
1:50
140
1.0
141
50.0
290
     0
  0
SCALE
  5
53
102
{ACAD_REACTORS
330
47
102
}
330
47
100
AcDbScale
 70
     0
300
1:100
140
1.0
141
100.0
290
     0
  0
SCALE
  5
54
102
{ACAD_REACTORS
330
47
102
}
330
47
100
AcDbScale
 70
     0
300
2:1
140
2.0
141
1.0
290
     0
  0
SCALE
  5
55
102
{ACAD_REACTORS
330
47
102
}
330
47
100
AcDbScale
 70
     0
300
4:1
140
4.0
141
1.0
290
     0
  0
SCALE
  5
56
102
{ACAD_REACTORS
330
47
102
}
330
47
100
AcDbScale
 70
     0
300
8:1
140
8.0
141
1.0
290
     0
  0
SCALE
  5
57
102
{ACAD_REACTORS
330
47
102
}
330
47
100
AcDbScale
 70
     0
300
10:1
140
10.0
141
1.0
290
     0
  0
SCALE
  5
58
102
{ACAD_REACTORS
330
47
102
}
330
47
100
AcDbScale
 70
     0
300
100:1
140
100.0
141
1.0
290
     0
  0
SCALE
  5
59
102
{ACAD_REACTORS
330
47
102
}
330
47
100
AcDbScale
 70
     0
300
1/128" = 1'-0"
140
0.0078125
141
12.0
290
     0
  0
SCALE
  5
5A
102
{ACAD_REACTORS
330
47
102
}
330
47
100
AcDbScale
 70
     0
300
1/64" = 1'-0"
140
0.015625
141
12.0
290
     0
  0
SCALE
  5
5B
102
{ACAD_REACTORS
330
47
102
}
330
47
100
AcDbScale
 70
     0
300
1/32" = 1'-0"
140
0.03125
141
12.0
290
     0
  0
SCALE
  5
5C
102
{ACAD_REACTORS
330
47
102
}
330
47
100
AcDbScale
 70
     0
300
1/16" = 1'-0"
140
0.0625
141
12.0
290
     0
  0
SCALE
  5
5D
102
{ACAD_REACTORS
330
47
102
}
330
47
100
AcDbScale
 70
     0
300
3/32" = 1'-0"
140
0.09375
141
12.0
290
     0
  0
SCALE
  5
5E
102
{ACAD_REACTORS
330
47
102
}
330
47
100
AcDbScale
 70
     0
300
1/8" = 1'-0"
140
0.125
141
12.0
290
     0
  0
SCALE
  5
5F
102
{ACAD_REACTORS
330
47
102
}
330
47
100
AcDbScale
 70
     0
300
3/16" = 1'-0"
140
0.1875
141
12.0
290
     0
  0
SCALE
  5
60
102
{ACAD_REACTORS
330
47
102
}
330
47
100
AcDbScale
 70
     0
300
1/4" = 1'-0"
140
0.25
141
12.0
290
     0
  0
SCALE
  5
61
102
{ACAD_REACTORS
330
47
102
}
330
47
100
AcDbScale
 70
     0
300
3/8" = 1'-0"
140
0.375
141
12.0
290
     0
  0
SCALE
  5
62
102
{ACAD_REACTORS
330
47
102
}
330
47
100
AcDbScale
 70
     0
300
1/2" = 1'-0"
140
0.5
141
12.0
290
     0
  0
SCALE
  5
63
102
{ACAD_REACTORS
330
47
102
}
330
47
100
AcDbScale
 70
     0
300
3/4" = 1'-0"
140
0.75
141
12.0
290
     0
  0
SCALE
  5
64
102
{ACAD_REACTORS
330
47
102
}
330
47
100
AcDbScale
 70
     0
300
1" = 1'-0"
140
1.0
141
12.0
290
     0
  0
SCALE
  5
65
102
{ACAD_REACTORS
330
47
102
}
330
47
100
AcDbScale
 70
     0
300
1-1/2" = 1'-0"
140
1.5
141
12.0
290
     0
  0
SCALE
  5
66
102
{ACAD_REACTORS
330
47
102
}
330
47
100
AcDbScale
 70
     0
300
3" = 1'-0"
140
3.0
141
12.0
290
     0
  0
SCALE
  5
67
102
{ACAD_REACTORS
330
47
102
}
330
47
100
AcDbScale
 70
     0
300
6" = 1'-0"
140
6.0
141
12.0
290
     0
  0
SCALE
  5
68
102
{ACAD_REACTORS
330
47
102
}
330
47
100
AcDbScale
 70
     0
300
1'-0" = 1'-0"
140
12.0
141
12.0
290
     0
  0
TABLESTYLE
  5
6A
102
{ACAD_REACTORS
330
69
102
}
102
{ACAD_XDICTIONARY
360
1D4
102
}
330
69
100
AcDbTableStyle
  3
Standard
 70
     0
 71
     0
 40
0.06
 41
0.06
280
     0
281
     0
  7
Standard
140
4.5
170
     2
 62
     0
 63
   257
283
     0
 90
        4
 91
        0
  1

274
    -2
284
     1
 64
     0
275
    -2
285
     1
 65
     0
276
    -2
286
     1
 66
     0
277
    -2
287
     1
 67
     0
278
    -2
288
     1
 68
     0
279
    -2
289
     1
 69
     0
  7
Standard
140
6.0
170
     5
 62
     0
 63
   257
283
     0
 90
        4
 91
        0
  1

274
    -2
284
     1
 64
     0
275
    -2
285
     1
 65
     0
276
    -2
286
     1
 66
     0
277
    -2
287
     1
 67
     0
278
    -2
288
     1
 68
     0
279
    -2
289
     1
 69
     0
  7
Standard
140
4.5
170
     5
 62
     0
 63
   257
283
     0
 90
        4
 91
        0
  1

274
    -2
284
     1
 64
     0
275
    -2
285
     1
 65
     0
276
    -2
286
     1
 66
     0
277
    -2
287
     1
 67
     0
278
    -2
288
     1
 68
     0
279
    -2
289
     1
 69
     0
  0
VISUALSTYLE
  5
2F
102
{ACAD_REACTORS
330
2A
102
}
330
2A
100
AcDbVisualStyle
  2
2dWireframe
 70
     4
177
     3
291
     0
 70
    58
 90
        0
176
     1
 90
        2
176
     1
 90
        0
176
     1
 90
        0
176
     1
 40
0.6
176
     1
 40
30.0
176
     1
 62
     7
420
 16777215
176
     1
 90
        1
176
     1
 90
        4
176
     1
 62
     7
176
     1
 62
   257
176
     1
 90
        1
176
     1
 90
        1
176
     1
 40
1.0
176
     1
 90
        0
176
     1
 62
   257
176
     1
 40
1.0
176
     1
 90
        1
176
     1
 90
        6
176
     1
 90
        2
176
     1
 62
     7
176
     1
 90
        5
176
     1
 90
        0
176
     1
 90
        0
176
     1
290
     0
176
     1
 90
        1
176
     1
 40
0.0
176
     1
 90
        0
176
     1
290
     1
176
     1
290
     1
176
     1
290
     0
176
     1
290
     0
176
     1
290
     0
176
     1
290
     0
176
     1
290
     0
176
     1
290
     0
176
     1
290
     0
176
     1
 90
       50
176
     1
 40
0.0
176
     1
 40
1.0
176
     1
 90
        0
176
     1
 62
    18
420
        0
176
     1
 90
       50
176
     1
 90
        3
176
     1
 62
     5
420
      255
176
     1
290
     0
176
     1
 90
       50
176
     1
 90
       50
176
     1
 90
       50
176
     1
290
     0
176
     1
 90
       50
176
     1
 62
   256
176
     0
 40
1.0
176
     0
 90
        2
176
     1
  1
strokes_ogs.tif
176
     1
290
     0
176
     1
 40
1.0
176
     1
 40
1.0
176
     1
  0
VISUALSTYLE
  5
32
102
{ACAD_REACTORS
330
2A
102
}
330
2A
100
AcDbVisualStyle
  2
Basic
 70
     7
177
     3
291
     1
 70
    58
 90
        1
176
     1
 90
        0
176
     1
 90
        1
176
     1
 90
        0
176
     1
 40
0.6
176
     1
 40
30.0
176
     1
 62
     7
420
 16777215
176
     1
 90
        0
176
     1
 90
        4
176
     1
 62
     7
176
     1
 62
   257
176
     1
 90
        1
176
     1
 90
        1
176
     1
 40
1.0
176
     1
 90
        8
176
     1
 62
     7
176
     1
 40
1.0
176
     1
 90
        1
176
     1
 90
        6
176
     1
 90
        2
176
     1
 62
     7
176
     1
 90
        5
176
     1
 90
        0
176
     1
 90
        0
176
     1
290
     0
176
     1
 90
        1
176
     1
 40
0.0
176
     1
 90
        0
176
     1
290
     0
176
     1
290
     1
176
     1
290
     1
176
     1
290
     0
176
     1
290
     0
176
     1
290
     0
176
     1
290
     0
176
     1
290
     0
176
     1
290
     0
176
     1
 90
       50
176
     1
 40
0.0
176
     1
 40
1.0
176
     1
 90
        0
176
     1
 62
    18
420
        0
176
     1
 90
       50
176
     1
 90
        3
176
     1
 62
     5
420
      255
176
     1
290
     0
176
     1
 90
       50
176
     1
 90
       50
176
     1
 90
       50
176
     1
290
     0
176
     1
 90
       50
176
     1
 62
   256
176
     0
 40
1.0
176
     0
 90
        2
176
     1
  1
strokes_ogs.tif
176
     1
290
     0
176
     1
 40
1.0
176
     1
 40
1.0
176
     1
  0
VISUALSTYLE
  5
36
102
{ACAD_REACTORS
330
2A
102
}
330
2A
100
AcDbVisualStyle
  2
Brighten
 70
    12
177
     3
291
     1
 70
    58
 90
        2
176
     1
 90
        2
176
     1
 90
        0
176
     1
 90
        0
176
     1
 40
0.6
176
     1
 40
30.0
176
     1
 62
     7
420
 16777215
176
     1
 90
        1
176
     1
 90
        4
176
     1
 62
     7
176
     1
 62
   257
176
     1
 90
        1
176
     1
 90
        1
176
     1
 40
1.0
176
     1
 90
        8
176
     1
 62
     7
176
     1
 40
1.0
176
     1
 90
        1
176
     1
 90
        6
176
     1
 90
        2
176
     1
 62
     7
176
     1
 90
        5
176
     1
 90
        0
176
     1
 90
        0
176
     1
290
     0
176
     1
 90
        1
176
     1
 40
50.0
176
     1
 90
        0
176
     1
290
     0
176
     1
290
     1
176
     1
290
     1
176
     1
290
     0
176
     1
290
     0
176
     1
290
     0
176
     1
290
     0
176
     1
290
     0
176
     1
290
     0
176
     1
 90
       50
176
     1
 40
0.0
176
     1
 40
1.0
176
     1
 90
        0
176
     1
 62
    18
420
        0
176
     1
 90
       50
176
     1
 90
        3
176
     1
 62
     5
420
      255
176
     1
290
     0
176
     1
 90
       50
176
     1
 90
       50
176
     1
 90
       50
176
     1
290
     0
176
     1
 90
       50
176
     1
 62
   256
176
     0
 40
1.0
176
     0
 90
        2
176
     1
  1
strokes_ogs.tif
176
     1
290
     0
176
     1
 40
1.0
176
     1
 40
1.0
176
     1
  0
VISUALSTYLE
  5
3A
102
{ACAD_REACTORS
330
2A
102
}
330
2A
100
AcDbVisualStyle
  2
ColorChange
 70
    16
177
     3
291
     1
 70
    58
 90
        2
176
     1
 90
        2
176
     1
 90
        3
176
     1
 90
        0
176
     1
 40
0.6
176
     1
 40
30.0
176
     1
 62
     8
420
  8421504
176
     1
 90
        1
176
     1
 90
        4
176
     1
 62
     7
176
     1
 62
   257
176
     1
 90
        1
176
     1
 90
        1
176
     1
 40
1.0
176
     1
 90
        8
176
     1
 62
     8
420
  8421504
176
     1
 40
1.0
176
     1
 90
        1
176
     1
 90
        6
176
     1
 90
        2
176
     1
 62
     7
176
     1
 90
        5
176
     1
 90
        0
176
     1
 90
        0
176
     1
290
     0
176
     1
 90
        1
176
     1
 40
0.0
176
     1
 90
        0
176
     1
290
     0
176
     1
290
     1
176
     1
290
     1
176
     1
290
     0
176
     1
290
     0
176
     1
290
     0
176
     1
290
     0
176
     1
290
     0
176
     1
290
     0
176
     1
 90
       50
176
     1
 40
0.0
176
     1
 40
1.0
176
     1
 90
        0
176
     1
 62
    18
420
        0
176
     1
 90
       50
176
     1
 90
        3
176
     1
 62
     5
420
      255
176
     1
290
     0
176
     1
 90
       50
176
     1
 90
       50
176
     1
 90
       50
176
     1
290
     0
176
     1
 90
       50
176
     1
 62
   256
176
     0
 40
1.0
176
     0
 90
        2
176
     1
  1
strokes_ogs.tif
176
     1
290
     0
176
     1
 40
1.0
176
     1
 40
1.0
176
     1
  0
VISUALSTYLE
  5
34
102
{ACAD_REACTORS
330
2A
102
}
330
2A
100
AcDbVisualStyle
  2
Conceptual
 70
     9
177
     3
291
     0
 70
    58
 90
        3
176
     1
 90
        2
176
     1
 90
        0
176
     1
 90
        0
176
     1
 40
0.6
176
     1
 40
30.0
176
     1
 62
     7
420
 16777215
176
     1
 90
        2
176
     1
 90
        2
176
     1
 62
     7
176
     1
 62
   257
176
     1
 90
        1
176
     1
 90
        1
176
     1
 40
179.0
176
     1
 90
        8
176
     1
 62
     7
176
     1
 40
1.0
176
     1
 90
        1
176
     1
 90
        6
176
     1
 90
        2
176
     1
 62
     7
176
     1
 90
        3
176
     1
 90
        0
176
     1
 90
        0
176
     1
290
     0
176
     1
 90
        1
176
     1
 40
0.0
176
     1
 90
        0
176
     1
290
     0
176
     1
290
     1
176
     1
290
     1
176
     1
290
     0
176
     1
290
     0
176
     1
290
     0
176
     1
290
     0
176
     1
290
     0
176
     1
290
     0
176
     1
 90
       50
176
     1
 40
0.0
176
     1
 40
1.0
176
     1
 90
        0
176
     1
 62
    18
420
        0
176
     1
 90
       50
176
     1
 90
        3
176
     1
 62
     5
420
      255
176
     1
290
     0
176
     1
 90
       50
176
     1
 90
       50
176
     1
 90
       50
176
     1
290
     0
176
     1
 90
       50
176
     1
 62
   256
176
     0
 40
1.0
176
     0
 90
        2
176
     1
  1
strokes_ogs.tif
176
     1
290
     0
176
     1
 40
1.0
176
     1
 40
1.0
176
     1
  0
VISUALSTYLE
  5
35
102
{ACAD_REACTORS
330
2A
102
}
330
2A
100
AcDbVisualStyle
  2
Dim
 70
    11
177
     3
291
     1
 70
    58
 90
        2
176
     1
 90
        2
176
     1
 90
        0
176
     1
 90
        0
176
     1
 40
0.6
176
     1
 40
30.0
176
     1
 62
     7
420
 16777215
176
     1
 90
        1
176
     1
 90
        4
176
     1
 62
     7
176
     1
 62
   257
176
     1
 90
        1
176
     1
 90
        1
176
     1
 40
1.0
176
     1
 90
        8
176
     1
 62
     7
176
     1
 40
1.0
176
     1
 90
        1
176
     1
 90
        6
176
     1
 90
        2
176
     1
 62
     7
176
     1
 90
        5
176
     1
 90
        0
176
     1
 90
        0
176
     1
290
     0
176
     1
 90
        1
176
     1
 40
-50.0
176
     1
 90
        0
176
     1
290
     0
176
     1
290
     1
176
     1
290
     1
176
     1
290
     0
176
     1
290
     0
176
     1
290
     0
176
     1
290
     0
176
     1
290
     0
176
     1
290
     0
176
     1
 90
       50
176
     1
 40
0.0
176
     1
 40
1.0
176
     1
 90
        0
176
     1
 62
    18
420
        0
176
     1
 90
       50
176
     1
 90
        3
176
     1
 62
     5
420
      255
176
     1
290
     0
176
     1
 90
       50
176
     1
 90
       50
176
     1
 90
       50
176
     1
290
     0
176
     1
 90
       50
176
     1
 62
   256
176
     0
 40
1.0
176
     0
 90
        2
176
     1
  1
strokes_ogs.tif
176
     1
290
     0
176
     1
 40
1.0
176
     1
 40
1.0
176
     1
  0
VISUALSTYLE
  5
3D
102
{ACAD_REACTORS
330
2A
102
}
330
2A
100
AcDbVisualStyle
  2
EdgeColorOff
 70
    22
177
     3
291
     1
 70
    58
 90
        2
176
     0
 90
        2
176
     0
 90
        0
176
     0
 90
        0
176
     0
 40
0.6
176
     0
 40
30.0
176
     0
 62
     7
420
 16777215
176
     0
 90
        1
176
     0
 90
        4
176
     0
 62
     7
176
     0
 62
   257
176
     0
 90
        1
176
     0
 90
        1
176
     0
 40
1.0
176
     0
 90
        8
176
     2
 62
     7
176
     0
 40
1.0
176
     0
 90
        1
176
     0
 90
        6
176
     0
 90
        2
176
     0
 62
     7
176
     0
 90
        5
176
     0
 90
        0
176
     0
 90
        0
176
     0
290
     0
176
     0
 90
        1
176
     0
 40
0.0
176
     0
 90
        0
176
     0
290
     0
176
     0
290
     1
176
     0
290
     1
176
     0
290
     0
176
     0
290
     0
176
     0
290
     0
176
     0
290
     0
176
     0
290
     0
176
     0
290
     0
176
     0
 90
       50
176
     0
 40
0.0
176
     0
 40
1.0
176
     0
 90
        0
176
     0
 62
    18
420
        0
176
     0
 90
       50
176
     0
 90
        3
176
     0
 62
     5
420
      255
176
     0
290
     0
176
     0
 90
       50
176
     0
 90
       50
176
     0
 90
       50
176
     0
290
     0
176
     0
 90
       50
176
     0
 62
   256
176
     0
 40
1.0
176
     0
 90
        2
176
     0
  1
strokes_ogs.tif
176
     0
290
     0
176
     0
 40
1.0
176
     0
 40
1.0
176
     0
  0
VISUALSTYLE
  5
39
102
{ACAD_REACTORS
330
2A
102
}
330
2A
100
AcDbVisualStyle
  2
Facepattern
 70
    15
177
     3
291
     1
 70
    58
 90
        2
176
     1
 90
        2
176
     1
 90
        0
176
     1
 90
        0
176
     1
 40
0.6
176
     1
 40
30.0
176
     1
 62
     7
420
 16777215
176
     1
 90
        1
176
     1
 90
        4
176
     1
 62
     7
176
     1
 62
   257
176
     1
 90
        1
176
     1
 90
        1
176
     1
 40
1.0
176
     1
 90
        8
176
     1
 62
     7
176
     1
 40
1.0
176
     1
 90
        1
176
     1
 90
        6
176
     1
 90
        2
176
     1
 62
     7
176
     1
 90
        5
176
     1
 90
        0
176
     1
 90
        0
176
     1
290
     0
176
     1
 90
        1
176
     1
 40
0.0
176
     1
 90
        0
176
     1
290
     0
176
     1
290
     1
176
     1
290
     1
176
     1
290
     0
176
     1
290
     0
176
     1
290
     0
176
     1
290
     0
176
     1
290
     0
176
     1
290
     0
176
     1
 90
       50
176
     1
 40
0.0
176
     1
 40
1.0
176
     1
 90
        0
176
     1
 62
    18
420
        0
176
     1
 90
       50
176
     1
 90
        3
176
     1
 62
     5
420
      255
176
     1
290
     0
176
     1
 90
       50
176
     1
 90
       50
176
     1
 90
       50
176
     1
290
     0
176
     1
 90
       50
176
     1
 62
   256
176
     0
 40
1.0
176
     0
 90
        2
176
     1
  1
strokes_ogs.tif
176
     1
290
     0
176
     1
 40
1.0
176
     1
 40
1.0
176
     1
  0
VISUALSTYLE
  5
2B
102
{ACAD_REACTORS
330
2A
102
}
330
2A
100
AcDbVisualStyle
  2
Flat
 70
     0
177
     3
291
     1
 70
    58
 90
        2
176
     1
 90
        1
176
     1
 90
        1
176
     1
 90
        2
176
     1
 40
0.6
176
     1
 40
30.0
176
     1
 62
     7
420
 16777215
176
     1
 90
        0
176
     1
 90
        0
176
     1
 62
     7
176
     1
 62
   257
176
     1
 90
        1
176
     1
 90
        1
176
     1
 40
1.0
176
     1
 90
        8
176
     1
 62
     7
176
     1
 40
1.0
176
     1
 90
        1
176
     1
 90
        6
176
     1
 90
        2
176
     1
 62
     7
176
     1
 90
        5
176
     1
 90
        0
176
     1
 90
        0
176
     1
290
     0
176
     1
 90
       13
176
     1
 40
0.0
176
     1
 90
        0
176
     1
290
     0
176
     1
290
     1
176
     1
290
     1
176
     1
290
     0
176
     1
290
     0
176
     1
290
     0
176
     1
290
     0
176
     1
290
     0
176
     1
290
     0
176
     1
 90
       50
176
     1
 40
0.0
176
     1
 40
1.0
176
     1
 90
        0
176
     1
 62
    18
420
        0
176
     1
 90
       50
176
     1
 90
        3
176
     1
 62
     5
420
      255
176
     1
290
     0
176
     1
 90
       50
176
     1
 90
       50
176
     1
 90
       50
176
     1
290
     0
176
     1
 90
       50
176
     1
 62
   256
176
     0
 40
1.0
176
     0
 90
        2
176
     1
  1
strokes_ogs.tif
176
     1
290
     0
176
     1
 40
1.0
176
     1
 40
1.0
176
     1
  0
VISUALSTYLE
  5
2C
102
{ACAD_REACTORS
330
2A
102
}
330
2A
100
AcDbVisualStyle
  2
FlatWithEdges
 70
     1
177
     3
291
     1
 70
    58
 90
        2
176
     1
 90
        1
176
     1
 90
        1
176
     1
 90
        2
176
     1
 40
0.6
176
     1
 40
30.0
176
     1
 62
     7
420
 16777215
176
     1
 90
        1
176
     1
 90
        0
176
     1
 62
     7
176
     1
 62
   257
176
     1
 90
        1
176
     1
 90
        1
176
     1
 40
1.0
176
     1
 90
        0
176
     1
 62
   257
176
     1
 40
1.0
176
     1
 90
        1
176
     1
 90
        6
176
     1
 90
        2
176
     1
 62
     7
176
     1
 90
        5
176
     1
 90
        0
176
     1
 90
        0
176
     1
290
     0
176
     1
 90
       13
176
     1
 40
0.0
176
     1
 90
        0
176
     1
290
     0
176
     1
290
     1
176
     1
290
     1
176
     1
290
     0
176
     1
290
     0
176
     1
290
     0
176
     1
290
     0
176
     1
290
     0
176
     1
290
     0
176
     1
 90
       50
176
     1
 40
0.0
176
     1
 40
1.0
176
     1
 90
        0
176
     1
 62
    18
420
        0
176
     1
 90
       50
176
     1
 90
        3
176
     1
 62
     5
420
      255
176
     1
290
     0
176
     1
 90
       50
176
     1
 90
       50
176
     1
 90
       50
176
     1
290
     0
176
     1
 90
       50
176
     1
 62
   256
176
     0
 40
1.0
176
     0
 90
        2
176
     1
  1
strokes_ogs.tif
176
     1
290
     0
176
     1
 40
1.0
176
     1
 40
1.0
176
     1
  0
VISUALSTYLE
  5
2D
102
{ACAD_REACTORS
330
2A
102
}
330
2A
100
AcDbVisualStyle
  2
Gouraud
 70
     2
177
     3
291
     1
 70
    58
 90
        2
176
     1
 90
        2
176
     1
 90
        1
176
     1
 90
        2
176
     1
 40
0.6
176
     1
 40
30.0
176
     1
 62
     7
420
 16777215
176
     1
 90
        0
176
     1
 90
        0
176
     1
 62
     7
176
     1
 62
   257
176
     1
 90
        1
176
     1
 90
        1
176
     1
 40
1.0
176
     1
 90
        0
176
     1
 62
     7
176
     1
 40
1.0
176
     1
 90
        1
176
     1
 90
        6
176
     1
 90
        2
176
     1
 62
     7
176
     1
 90
        5
176
     1
 90
        0
176
     1
 90
        0
176
     1
290
     0
176
     1
 90
       13
176
     1
 40
0.0
176
     1
 90
        0
176
     1
290
     0
176
     1
290
     1
176
     1
290
     1
176
     1
290
     0
176
     1
290
     0
176
     1
290
     0
176
     1
290
     0
176
     1
290
     0
176
     1
290
     0
176
     1
 90
       50
176
     1
 40
0.0
176
     1
 40
1.0
176
     1
 90
        0
176
     1
 62
    18
420
        0
176
     1
 90
       50
176
     1
 90
        3
176
     1
 62
     5
420
      255
176
     1
290
     0
176
     1
 90
       50
176
     1
 90
       50
176
     1
 90
       50
176
     1
290
     0
176
     1
 90
       50
176
     1
 62
   256
176
     0
 40
1.0
176
     0
 90
        2
176
     1
  1
strokes_ogs.tif
176
     1
290
     0
176
     1
 40
1.0
176
     1
 40
1.0
176
     1
  0
VISUALSTYLE
  5
2E
102
{ACAD_REACTORS
330
2A
102
}
330
2A
100
AcDbVisualStyle
  2
GouraudWithEdges
 70
     3
177
     3
291
     1
 70
    58
 90
        2
176
     1
 90
        2
176
     1
 90
        1
176
     1
 90
        2
176
     1
 40
0.6
176
     1
 40
30.0
176
     1
 62
     7
420
 16777215
176
     1
 90
        1
176
     1
 90
        0
176
     1
 62
     7
176
     1
 62
   257
176
     1
 90
        1
176
     1
 90
        1
176
     1
 40
1.0
176
     1
 90
        0
176
     1
 62
   257
176
     1
 40
1.0
176
     1
 90
        1
176
     1
 90
        6
176
     1
 90
        2
176
     1
 62
     7
176
     1
 90
        5
176
     1
 90
        0
176
     1
 90
        0
176
     1
290
     0
176
     1
 90
       13
176
     1
 40
0.0
176
     1
 90
        0
176
     1
290
     0
176
     1
290
     1
176
     1
290
     1
176
     1
290
     0
176
     1
290
     0
176
     1
290
     0
176
     1
290
     0
176
     1
290
     0
176
     1
290
     0
176
     1
 90
       50
176
     1
 40
0.0
176
     1
 40
1.0
176
     1
 90
        0
176
     1
 62
    18
420
        0
176
     1
 90
       50
176
     1
 90
        3
176
     1
 62
     5
420
      255
176
     1
290
     0
176
     1
 90
       50
176
     1
 90
       50
176
     1
 90
       50
176
     1
290
     0
176
     1
 90
       50
176
     1
 62
   256
176
     0
 40
1.0
176
     0
 90
        2
176
     1
  1
strokes_ogs.tif
176
     1
290
     0
176
     1
 40
1.0
176
     1
 40
1.0
176
     1
  0
VISUALSTYLE
  5
31
102
{ACAD_REACTORS
330
2A
102
}
330
2A
100
AcDbVisualStyle
  2
Hidden
 70
     6
177
     3
291
     0
 70
    58
 90
        1
176
     1
 90
        2
176
     1
 90
        2
176
     1
 90
        0
176
     1
 40
0.6
176
     1
 40
30.0
176
     1
 62
     7
420
 16777215
176
     1
 90
        2
176
     1
 90
        2
176
     1
 62
     7
176
     1
 62
   257
176
     1
 90
        2
176
     1
 90
        1
176
     1
 40
40.0
176
     1
 90
        0
176
     1
 62
   257
176
     1
 40
1.0
176
     1
 90
        1
176
     1
 90
        6
176
     1
 90
        2
176
     1
 62
     7
176
     1
 90
        3
176
     1
 90
        0
176
     1
 90
        0
176
     1
290
     0
176
     1
 90
        1
176
     1
 40
0.0
176
     1
 90
        0
176
     1
290
     0
176
     1
290
     1
176
     1
290
     1
176
     1
290
     0
176
     1
290
     0
176
     1
290
     0
176
     1
290
     0
176
     1
290
     0
176
     1
290
     0
176
     1
 90
       50
176
     1
 40
0.0
176
     1
 40
1.0
176
     1
 90
        0
176
     1
 62
    18
420
        0
176
     1
 90
       50
176
     1
 90
        3
176
     1
 62
     5
420
      255
176
     1
290
     0
176
     1
 90
       50
176
     1
 90
       50
176
     1
 90
       50
176
     1
290
     0
176
     1
 90
       50
176
     1
 62
   256
176
     0
 40
1.0
176
     0
 90
        2
176
     1
  1
strokes_ogs.tif
176
     1
290
     0
176
     1
 40
1.0
176
     1
 40
1.0
176
     1
  0
VISUALSTYLE
  5
3B
102
{ACAD_REACTORS
330
2A
102
}
330
2A
100
AcDbVisualStyle
  2
JitterOff
 70
    20
177
     3
291
     1
 70
    58
 90
        2
176
     0
 90
        2
176
     0
 90
        0
176
     0
 90
        0
176
     0
 40
0.6
176
     0
 40
30.0
176
     0
 62
     7
420
 16777215
176
     0
 90
        1
176
     0
 90
        4
176
     0
 62
     7
176
     0
 62
   257
176
     0
 90
        1
176
     0
 90
        1
176
     0
 40
1.0
176
     0
 90
       10
176
     2
 62
     7
176
     0
 40
1.0
176
     0
 90
        1
176
     0
 90
        6
176
     0
 90
        2
176
     0
 62
     7
176
     0
 90
        5
176
     0
 90
        0
176
     0
 90
        0
176
     0
290
     0
176
     0
 90
        1
176
     0
 40
0.0
176
     0
 90
        0
176
     0
290
     0
176
     0
290
     1
176
     0
290
     1
176
     0
290
     0
176
     0
290
     0
176
     0
290
     0
176
     0
290
     0
176
     0
290
     0
176
     0
290
     0
176
     0
 90
       50
176
     0
 40
0.0
176
     0
 40
1.0
176
     0
 90
        0
176
     0
 62
    18
420
        0
176
     0
 90
       50
176
     0
 90
        3
176
     0
 62
     5
420
      255
176
     0
290
     0
176
     0
 90
       50
176
     0
 90
       50
176
     0
 90
       50
176
     0
290
     0
176
     0
 90
       50
176
     0
 62
   256
176
     0
 40
1.0
176
     0
 90
        2
176
     0
  1
strokes_ogs.tif
176
     0
290
     0
176
     0
 40
1.0
176
     0
 40
1.0
176
     0
  0
VISUALSTYLE
  5
38
102
{ACAD_REACTORS
330
2A
102
}
330
2A
100
AcDbVisualStyle
  2
Linepattern
 70
    14
177
     3
291
     1
 70
    58
 90
        2
176
     1
 90
        2
176
     1
 90
        0
176
     1
 90
        0
176
     1
 40
0.6
176
     1
 40
30.0
176
     1
 62
     7
420
 16777215
176
     1
 90
        1
176
     1
 90
        4
176
     1
 62
     7
176
     1
 62
   257
176
     1
 90
        7
176
     1
 90
        7
176
     1
 40
1.0
176
     1
 90
        8
176
     1
 62
     7
176
     1
 40
1.0
176
     1
 90
        1
176
     1
 90
        6
176
     1
 90
        2
176
     1
 62
     7
176
     1
 90
        5
176
     1
 90
        0
176
     1
 90
        0
176
     1
290
     0
176
     1
 90
        1
176
     1
 40
0.0
176
     1
 90
        0
176
     1
290
     0
176
     1
290
     1
176
     1
290
     1
176
     1
290
     0
176
     1
290
     0
176
     1
290
     0
176
     1
290
     0
176
     1
290
     0
176
     1
290
     0
176
     1
 90
       50
176
     1
 40
0.0
176
     1
 40
1.0
176
     1
 90
        0
176
     1
 62
    18
420
        0
176
     1
 90
       50
176
     1
 90
        3
176
     1
 62
     5
420
      255
176
     1
290
     0
176
     1
 90
       50
176
     1
 90
       50
176
     1
 90
       50
176
     1
290
     0
176
     1
 90
       50
176
     1
 62
   256
176
     0
 40
1.0
176
     0
 90
        2
176
     1
  1
strokes_ogs.tif
176
     1
290
     0
176
     1
 40
1.0
176
     1
 40
1.0
176
     1
  0
VISUALSTYLE
  5
3C
102
{ACAD_REACTORS
330
2A
102
}
330
2A
100
AcDbVisualStyle
  2
OverhangOff
 70
    21
177
     3
291
     1
 70
    58
 90
        2
176
     0
 90
        2
176
     0
 90
        0
176
     0
 90
        0
176
     0
 40
0.6
176
     0
 40
30.0
176
     0
 62
     7
420
 16777215
176
     0
 90
        1
176
     0
 90
        4
176
     0
 62
     7
176
     0
 62
   257
176
     0
 90
        1
176
     0
 90
        1
176
     0
 40
1.0
176
     0
 90
        9
176
     2
 62
     7
176
     0
 40
1.0
176
     0
 90
        1
176
     0
 90
        6
176
     0
 90
        2
176
     0
 62
     7
176
     0
 90
        5
176
     0
 90
        0
176
     0
 90
        0
176
     0
290
     0
176
     0
 90
        1
176
     0
 40
0.0
176
     0
 90
        0
176
     0
290
     0
176
     0
290
     1
176
     0
290
     1
176
     0
290
     0
176
     0
290
     0
176
     0
290
     0
176
     0
290
     0
176
     0
290
     0
176
     0
290
     0
176
     0
 90
       50
176
     0
 40
0.0
176
     0
 40
1.0
176
     0
 90
        0
176
     0
 62
    18
420
        0
176
     0
 90
       50
176
     0
 90
        3
176
     0
 62
     5
420
      255
176
     0
290
     0
176
     0
 90
       50
176
     0
 90
       50
176
     0
 90
       50
176
     0
290
     0
176
     0
 90
       50
176
     0
 62
   256
176
     0
 40
1.0
176
     0
 90
        2
176
     0
  1
strokes_ogs.tif
176
     0
290
     0
176
     0
 40
1.0
176
     0
 40
1.0
176
     0
  0
VISUALSTYLE
  5
33
102
{ACAD_REACTORS
330
2A
102
}
330
2A
100
AcDbVisualStyle
  2
Realistic
 70
     8
177
     3
291
     0
 70
    58
 90
        2
176
     1
 90
        3
176
     1
 90
        0
176
     1
 90
        2
176
     1
 40
0.6
176
     1
 40
30.0
176
     1
 62
     7
420
 16777215
176
     1
 90
        0
176
     1
 90
        0
176
     1
 62
     7
176
     1
 62
   257
176
     1
 90
        1
176
     1
 90
        1
176
     1
 40
1.0
176
     1
 90
        8
176
     1
 62
   257
176
     1
 40
1.0
176
     1
 90
        1
176
     1
 90
        6
176
     1
 90
        2
176
     1
 62
     7
176
     1
 90
        3
176
     1
 90
        0
176
     1
 90
        0
176
     1
290
     0
176
     1
 90
       13
176
     1
 40
0.0
176
     1
 90
        0
176
     1
290
     0
176
     1
290
     1
176
     1
290
     1
176
     1
290
     0
176
     1
290
     0
176
     1
290
     0
176
     1
290
     0
176
     1
290
     0
176
     1
290
     0
176
     1
 90
       50
176
     1
 40
0.0
176
     1
 40
1.0
176
     1
 90
        0
176
     1
 62
    18
420
        0
176
     1
 90
       50
176
     1
 90
        3
176
     1
 62
     5
420
      255
176
     1
290
     0
176
     1
 90
       50
176
     1
 90
       50
176
     1
 90
       50
176
     1
290
     0
176
     1
 90
       50
176
     1
 62
   256
176
     0
 40
1.0
176
     0
 90
        2
176
     1
  1
strokes_ogs.tif
176
     1
290
     0
176
     1
 40
1.0
176
     1
 40
1.0
176
     1
  0
VISUALSTYLE
  5
42
102
{ACAD_REACTORS
330
2A
102
}
330
2A
100
AcDbVisualStyle
  2
Shaded
 70
    27
177
     3
291
     0
 70
    58
 90
        2
176
     1
 90
        2
176
     1
 90
        1
176
     1
 90
        2
176
     1
 40
0.6
176
     1
 40
30.0
176
     1
 62
     7
420
 16777215
176
     1
 90
        0
176
     1
 90
        4
176
     1
 62
     7
176
     1
 62
   257
176
     1
 90
        1
176
     1
 90
        1
176
     1
 40
1.0
176
     1
 90
        8
176
     1
 62
   257
176
     1
 40
1.0
176
     1
 90
        1
176
     1
 90
        6
176
     1
 90
        2
176
     1
 62
     8
420
  7895160
176
     1
 90
        3
176
     1
 90
        0
176
     1
 90
        0
176
     1
290
     0
176
     1
 90
        5
176
     1
 40
0.0
176
     1
 90
        0
176
     1
290
     0
176
     1
290
     1
176
     1
290
     1
176
     1
290
     0
176
     1
290
     0
176
     1
290
     0
176
     1
290
     0
176
     1
290
     0
176
     1
290
     0
176
     1
 90
       50
176
     1
 40
0.0
176
     1
 40
1.0
176
     1
 90
        0
176
     1
 62
    18
420
        0
176
     1
 90
       50
176
     1
 90
        3
176
     1
 62
     5
420
      255
176
     1
290
     0
176
     1
 90
       50
176
     1
 90
       50
176
     1
 90
       50
176
     1
290
     0
176
     1
 90
       50
176
     1
 62
   256
176
     0
 40
1.0
176
     0
 90
        2
176
     1
  1
strokes_ogs.tif
176
     1
290
     0
176
     1
 40
1.0
176
     1
 40
1.0
176
     1
  0
VISUALSTYLE
  5
41
102
{ACAD_REACTORS
330
2A
102
}
330
2A
100
AcDbVisualStyle
  2
Shaded with edges
 70
    26
177
     3
291
     0
 70
    58
 90
        2
176
     1
 90
        2
176
     1
 90
        1
176
     1
 90
        2
176
     1
 40
0.6
176
     1
 40
30.0
176
     1
 62
     7
420
 16777215
176
     1
 90
        1
176
     1
 90
       10
176
     1
 62
     7
176
     1
 62
   257
176
     1
 90
        2
176
     1
 90
        1
176
     1
 40
1.0
176
     1
 90
        8
176
     1
 62
   257
176
     1
 40
1.0
176
     1
 90
        1
176
     1
 90
        6
176
     1
 90
        2
176
     1
 62
     7
176
     1
 90
        3
176
     1
 90
        0
176
     1
 90
        0
176
     1
290
     0
176
     1
 90
        5
176
     1
 40
0.0
176
     1
 90
        0
176
     1
290
     0
176
     1
290
     1
176
     1
290
     1
176
     1
290
     0
176
     1
290
     0
176
     1
290
     0
176
     1
290
     0
176
     1
290
     0
176
     1
290
     0
176
     1
 90
       50
176
     1
 40
0.0
176
     1
 40
1.0
176
     1
 90
        0
176
     1
 62
    18
420
        0
176
     1
 90
       50
176
     1
 90
        3
176
     1
 62
     5
420
      255
176
     1
290
     0
176
     1
 90
       50
176
     1
 90
       50
176
     1
 90
       50
176
     1
290
     0
176
     1
 90
       50
176
     1
 62
   256
176
     0
 40
1.0
176
     0
 90
        2
176
     1
  1
strokes_ogs.tif
176
     1
290
     0
176
     1
 40
1.0
176
     1
 40
1.0
176
     1
  0
VISUALSTYLE
  5
3E
102
{ACAD_REACTORS
330
2A
102
}
330
2A
100
AcDbVisualStyle
  2
Shades of Gray
 70
    23
177
     3
291
     0
 70
    58
 90
        2
176
     1
 90
        2
176
     1
 90
        3
176
     1
 90
        0
176
     1
 40
0.6
176
     1
 40
30.0
176
     1
 62
     7
420
 16777215
176
     1
 90
        2
176
     1
 90
        2
176
     1
 62
     7
176
     1
 62
     7
176
     1
 90
        1
176
     1
 90
        1
176
     1
 40
40.0
176
     1
 90
        8
176
     1
 62
     7
176
     1
 40
1.0
176
     1
 90
        1
176
     1
 90
        6
176
     1
 90
        2
176
     1
 62
     7
176
     1
 90
        3
176
     1
 90
        0
176
     1
 90
        0
176
     1
290
     0
176
     1
 90
        1
176
     1
 40
0.0
176
     1
 90
        0
176
     1
290
     0
176
     1
290
     1
176
     1
290
     1
176
     1
290
     0
176
     1
290
     0
176
     1
290
     0
176
     1
290
     0
176
     1
290
     0
176
     1
290
     0
176
     1
 90
       50
176
     1
 40
0.0
176
     1
 40
1.0
176
     1
 90
        0
176
     1
 62
    18
420
        0
176
     1
 90
       50
176
     1
 90
        3
176
     1
 62
     5
420
      255
176
     1
290
     0
176
     1
 90
       50
176
     1
 90
       50
176
     1
 90
       50
176
     1
290
     0
176
     1
 90
       50
176
     1
 62
   256
176
     0
 40
1.0
176
     0
 90
        2
176
     1
  1
strokes_ogs.tif
176
     1
290
     0
176
     1
 40
1.0
176
     1
 40
1.0
176
     1
  0
VISUALSTYLE
  5
3F
102
{ACAD_REACTORS
330
2A
102
}
330
2A
100
AcDbVisualStyle
  2
Sketchy
 70
    24
177
     3
291
     0
 70
    58
 90
        1
176
     1
 90
        2
176
     1
 90
        2
176
     1
 90
        0
176
     1
 40
0.6
176
     1
 40
30.0
176
     1
 62
     7
420
 16777215
176
     1
 90
        2
176
     1
 90
        2
176
     1
 62
     7
176
     1
 62
     7
176
     1
 90
        1
176
     1
 90
        1
176
     1
 40
40.0
176
     1
 90
       11
176
     1
 62
     7
176
     1
 40
1.0
176
     1
 90
        1
176
     1
 90
        6
176
     1
 90
        2
176
     1
 62
     7
176
     1
 90
        6
176
     1
 90
        0
176
     1
 90
        0
176
     1
290
     0
176
     1
 90
        1
176
     1
 40
0.0
176
     1
 90
        0
176
     1
290
     0
176
     1
290
     1
176
     1
290
     1
176
     1
290
     0
176
     1
290
     0
176
     1
290
     0
176
     1
290
     0
176
     1
290
     0
176
     1
290
     0
176
     1
 90
       50
176
     1
 40
0.0
176
     1
 40
1.0
176
     1
 90
        0
176
     1
 62
    18
420
        0
176
     1
 90
       50
176
     1
 90
        3
176
     1
 62
     5
420
      255
176
     1
290
     0
176
     1
 90
       50
176
     1
 90
       50
176
     1
 90
       50
176
     1
290
     0
176
     1
 90
       50
176
     1
 62
   256
176
     0
 40
1.0
176
     0
 90
        2
176
     1
  1
strokes_ogs.tif
176
     1
290
     0
176
     1
 40
1.0
176
     1
 40
1.0
176
     1
  0
VISUALSTYLE
  5
37
102
{ACAD_REACTORS
330
2A
102
}
330
2A
100
AcDbVisualStyle
  2
Thicken
 70
    13
177
     3
291
     1
 70
    58
 90
        2
176
     1
 90
        2
176
     1
 90
        0
176
     1
 90
        0
176
     1
 40
0.6
176
     1
 40
30.0
176
     1
 62
     7
420
 16777215
176
     1
 90
        1
176
     1
 90
        4
176
     1
 62
     7
176
     1
 62
   257
176
     1
 90
        1
176
     1
 90
        1
176
     1
 40
1.0
176
     1
 90
       12
176
     1
 62
     7
176
     1
 40
1.0
176
     1
 90
        1
176
     1
 90
        6
176
     1
 90
        2
176
     1
 62
     7
176
     1
 90
        5
176
     1
 90
        0
176
     1
 90
        0
176
     1
290
     0
176
     1
 90
        1
176
     1
 40
0.0
176
     1
 90
        0
176
     1
290
     0
176
     1
290
     1
176
     1
290
     1
176
     1
290
     0
176
     1
290
     0
176
     1
290
     0
176
     1
290
     0
176
     1
290
     0
176
     1
290
     0
176
     1
 90
       50
176
     1
 40
0.0
176
     1
 40
1.0
176
     1
 90
        0
176
     1
 62
    18
420
        0
176
     1
 90
       50
176
     1
 90
        3
176
     1
 62
     5
420
      255
176
     1
290
     0
176
     1
 90
       50
176
     1
 90
       50
176
     1
 90
       50
176
     1
290
     0
176
     1
 90
       50
176
     1
 62
   256
176
     0
 40
1.0
176
     0
 90
        2
176
     1
  1
strokes_ogs.tif
176
     1
290
     0
176
     1
 40
1.0
176
     1
 40
1.0
176
     1
  0
VISUALSTYLE
  5
30
102
{ACAD_REACTORS
330
2A
102
}
330
2A
100
AcDbVisualStyle
  2
Wireframe
 70
     5
177
     3
291
     0
 70
    58
 90
        0
176
     1
 90
        2
176
     1
 90
        0
176
     1
 90
        0
176
     1
 40
0.6
176
     1
 40
30.0
176
     1
 62
     7
420
 16777215
176
     1
 90
        1
176
     1
 90
        4
176
     1
 62
     7
176
     1
 62
   257
176
     1
 90
        1
176
     1
 90
        1
176
     1
 40
1.0
176
     1
 90
        0
176
     1
 62
   257
176
     1
 40
1.0
176
     1
 90
        1
176
     1
 90
        6
176
     1
 90
        2
176
     1
 62
     7
176
     1
 90
        3
176
     1
 90
        0
176
     1
 90
        0
176
     1
290
     0
176
     1
 90
        1
176
     1
 40
0.0
176
     1
 90
        0
176
     1
290
     0
176
     1
290
     1
176
     1
290
     1
176
     1
290
     0
176
     1
290
     0
176
     1
290
     0
176
     1
290
     0
176
     1
290
     0
176
     1
290
     0
176
     1
 90
       50
176
     1
 40
0.0
176
     1
 40
1.0
176
     1
 90
        0
176
     1
 62
    18
420
        0
176
     1
 90
       50
176
     1
 90
        3
176
     1
 62
     5
420
      255
176
     1
290
     0
176
     1
 90
       50
176
     1
 90
       50
176
     1
 90
       50
176
     1
290
     0
176
     1
 90
       50
176
     1
 62
   256
176
     0
 40
1.0
176
     0
 90
        2
176
     1
  1
strokes_ogs.tif
176
     1
290
     0
176
     1
 40
1.0
176
     1
 40
1.0
176
     1
  0
VISUALSTYLE
  5
40
102
{ACAD_REACTORS
330
2A
102
}
330
2A
100
AcDbVisualStyle
  2
X-Ray
 70
    25
177
     3
291
     0
 70
    58
 90
        2
176
     1
 90
        2
176
     1
 90
        1
176
     1
 90
        1
176
     1
 40
0.5
176
     1
 40
30.0
176
     1
 62
     7
420
 16777215
176
     1
 90
        1
176
     1
 90
        0
176
     1
 62
     7
176
     1
 62
   257
176
     1
 90
        1
176
     1
 90
        1
176
     1
 40
1.0
176
     1
 90
        8
176
     1
 62
     7
176
     1
 40
1.0
176
     1
 90
        1
176
     1
 90
        6
176
     1
 90
        2
176
     1
 62
     7
176
     1
 90
        3
176
     1
 90
        0
176
     1
 90
        0
176
     1
290
     0
176
     1
 90
       13
176
     1
 40
0.0
176
     1
 90
        0
176
     1
290
     0
176
     1
290
     1
176
     1
290
     1
176
     1
290
     0
176
     1
290
     0
176
     1
290
     0
176
     1
290
     0
176
     1
290
     0
176
     1
290
     0
176
     1
 90
       50
176
     1
 40
0.0
176
     1
 40
1.0
176
     1
 90
        0
176
     1
 62
    18
420
        0
176
     1
 90
       50
176
     1
 90
        3
176
     1
 62
     5
420
      255
176
     1
290
     0
176
     1
 90
       50
176
     1
 90
       50
176
     1
 90
       50
176
     1
290
     0
176
     1
 90
       50
176
     1
 62
   256
176
     0
 40
1.0
176
     0
 90
        2
176
     1
  1
strokes_ogs.tif
176
     1
290
     0
176
     1
 40
1.0
176
     1
 40
1.0
176
     1
  0
DICTIONARYVAR
  5
1D3
102
{ACAD_REACTORS
330
1D2
102
}
330
1D2
100
DictionaryVariables
280
     0
  1
1:1
  0
DICTIONARYVAR
  5
1D8
102
{ACAD_REACTORS
330
1D2
102
}
330
1D2
100
DictionaryVariables
280
     0
  1
Standard
  0
DICTIONARYVAR
  5
1D7
102
{ACAD_REACTORS
330
1D2
102
}
330
1D2
100
DictionaryVariables
280
     0
  1
Standard
  0
DICTIONARY
  5
1D4
330
6A
100
AcDbDictionary
280
     1
281
     1
  3
ACAD_ROUNDTRIP_2008_TABLESTYLE_CELLSTYLEMAP
360
1D5
  0
CELLSTYLEMAP
  5
1D5
102
{ACAD_REACTORS
330
1D4
102
}
330
1D4
100
AcDbCellStyleMap
 90
        3
300
CELLSTYLE
  1
TABLEFORMAT_BEGIN
 90
        5
170
     1
 91
        0
 92
    32768
 62
   257
 93
        1
300
CONTENTFORMAT
  1
CONTENTFORMAT_BEGIN
 90
        0
 91
        0
 92
        4
 93
        0
300

 40
0.0
140
1.0
 94
        5
 62
     0
340
11
144
6.0
309
CONTENTFORMAT_END
171
     1
301
MARGIN
  1
CELLMARGIN_BEGIN
 40
1.5
 40
1.5
 40
1.5
 40
1.5
 40
1.5
 40
1.5
309
CELLMARGIN_END
 94
        6
 95
        1
302
GRIDFORMAT
  1
GRIDFORMAT_BEGIN
 90
        0
 91
        1
 62
     0
 92
       -2
340
14
 93
        0
 40
0.045
309
GRIDFORMAT_END
 95
        2
302
GRIDFORMAT
  1
GRIDFORMAT_BEGIN
 90
        0
 91
        1
 62
     0
 92
       -2
340
14
 93
        0
 40
0.045
309
GRIDFORMAT_END
 95
        4
302
GRIDFORMAT
  1
GRIDFORMAT_BEGIN
 90
        0
 91
        1
 62
     0
 92
       -2
340
14
 93
        0
 40
0.045
309
GRIDFORMAT_END
 95
        8
302
GRIDFORMAT
  1
GRIDFORMAT_BEGIN
 90
        0
 91
        1
 62
     0
 92
       -2
340
14
 93
        0
 40
0.045
309
GRIDFORMAT_END
 95
       16
302
GRIDFORMAT
  1
GRIDFORMAT_BEGIN
 90
        0
 91
        1
 62
     0
 92
       -2
340
14
 93
        0
 40
0.045
309
GRIDFORMAT_END
 95
       32
302
GRIDFORMAT
  1
GRIDFORMAT_BEGIN
 90
        0
 91
        1
 62
     0
 92
       -2
340
14
 93
        0
 40
0.045
309
GRIDFORMAT_END
309
TABLEFORMAT_END
  1
CELLSTYLE_BEGIN
 90
        1
 91
        1
300
_TITLE
309
CELLSTYLE_END
300
CELLSTYLE
  1
TABLEFORMAT_BEGIN
 90
        5
170
     1
 91
        0
 92
        0
 62
   257
 93
        1
300
CONTENTFORMAT
  1
CONTENTFORMAT_BEGIN
 90
        0
 91
        0
 92
        4
 93
        0
300

 40
0.0
140
1.0
 94
        5
 62
     0
340
11
144
4.5
309
CONTENTFORMAT_END
171
     1
301
MARGIN
  1
CELLMARGIN_BEGIN
 40
1.5
 40
1.5
 40
1.5
 40
1.5
 40
1.5
 40
1.5
309
CELLMARGIN_END
 94
        6
 95
        1
302
GRIDFORMAT
  1
GRIDFORMAT_BEGIN
 90
        0
 91
        1
 62
     0
 92
       -2
340
14
 93
        0
 40
0.045
309
GRIDFORMAT_END
 95
        2
302
GRIDFORMAT
  1
GRIDFORMAT_BEGIN
 90
        0
 91
        1
 62
     0
 92
       -2
340
14
 93
        0
 40
0.045
309
GRIDFORMAT_END
 95
        4
302
GRIDFORMAT
  1
GRIDFORMAT_BEGIN
 90
        0
 91
        1
 62
     0
 92
       -2
340
14
 93
        0
 40
0.045
309
GRIDFORMAT_END
 95
        8
302
GRIDFORMAT
  1
GRIDFORMAT_BEGIN
 90
        0
 91
        1
 62
     0
 92
       -2
340
14
 93
        0
 40
0.045
309
GRIDFORMAT_END
 95
       16
302
GRIDFORMAT
  1
GRIDFORMAT_BEGIN
 90
        0
 91
        1
 62
     0
 92
       -2
340
14
 93
        0
 40
0.045
309
GRIDFORMAT_END
 95
       32
302
GRIDFORMAT
  1
GRIDFORMAT_BEGIN
 90
        0
 91
        1
 62
     0
 92
       -2
340
14
 93
        0
 40
0.045
309
GRIDFORMAT_END
309
TABLEFORMAT_END
  1
CELLSTYLE_BEGIN
 90
        2
 91
        1
300
_HEADER
309
CELLSTYLE_END
300
CELLSTYLE
  1
TABLEFORMAT_BEGIN
 90
        5
170
     1
 91
        0
 92
        0
 62
   257
 93
        1
300
CONTENTFORMAT
  1
CONTENTFORMAT_BEGIN
 90
        0
 91
        0
 92
        4
 93
        0
300

 40
0.0
140
1.0
 94
        2
 62
     0
340
11
144
4.5
309
CONTENTFORMAT_END
171
     1
301
MARGIN
  1
CELLMARGIN_BEGIN
 40
1.5
 40
1.5
 40
1.5
 40
1.5
 40
1.5
 40
1.5
309
CELLMARGIN_END
 94
        6
 95
        1
302
GRIDFORMAT
  1
GRIDFORMAT_BEGIN
 90
        0
 91
        1
 62
     0
 92
       -2
340
14
 93
        0
 40
0.045
309
GRIDFORMAT_END
 95
        2
302
GRIDFORMAT
  1
GRIDFORMAT_BEGIN
 90
        0
 91
        1
 62
     0
 92
       -2
340
14
 93
        0
 40
0.045
309
GRIDFORMAT_END
 95
        4
302
GRIDFORMAT
  1
GRIDFORMAT_BEGIN
 90
        0
 91
        1
 62
     0
 92
       -2
340
14
 93
        0
 40
0.045
309
GRIDFORMAT_END
 95
        8
302
GRIDFORMAT
  1
GRIDFORMAT_BEGIN
 90
        0
 91
        1
 62
     0
 92
       -2
340
14
 93
        0
 40
0.045
309
GRIDFORMAT_END
 95
       16
302
GRIDFORMAT
  1
GRIDFORMAT_BEGIN
 90
        0
 91
        1
 62
     0
 92
       -2
340
14
 93
        0
 40
0.045
309
GRIDFORMAT_END
 95
       32
302
GRIDFORMAT
  1
GRIDFORMAT_BEGIN
 90
        0
 91
        1
 62
     0
 92
       -2
340
14
 93
        0
 40
0.045
309
GRIDFORMAT_END
309
TABLEFORMAT_END
  1
CELLSTYLE_BEGIN
 90
        3
 91
        2
300
_DATA
309
CELLSTYLE_END
  0
ENDSEC
  0
EOF