0
SECTION
  2
HEADER
  9
$ACADVER
  1
AC1027
  9
$ACADMAINTVER
 70
     8
  9
$DWGCODEPAGE
  3
ANSI_1252
  9
$REQUIREDVERSIONS
160
                 0
  9
$COMMENTS
  1
File was created by Cadenas
  9
$CUSTOMPROPERTYTAG
  1
NN
  9
$CUSTOMPROPERTY
  1
Grip Tight Medium Duty Four-Bolt Flange Metric Bore
  9
$CUSTOMPROPERTYTAG
  1
NT
  9
$CUSTOMPROPERTY
  1
GTM Medium Duty 4 Bolt Flange Bearings
  9
$CUSTOMPROPERTYTAG
  1
NB
  9
$CUSTOMPROPERTY
  1
136279
  9
$CUSTOMPROPERTYTAG
  1
NBSYN
  9
$CUSTOMPROPERTY
  1
$PN.$LUBE.
  9
$CUSTOMPROPERTYTAG
  1
LINA
  9
$CUSTOMPROPERTY
  1
136279
  9
$CUSTOMPROPERTYTAG
  1
SERIES
  9
$CUSTOMPROPERTY
  1
210
  9
$CUSTOMPROPERTYTAG
  1
SS
  9
$CUSTOMPROPERTY
  1
45
  9
$CUSTOMPROPERTYTAG
  1
PN
  9
$CUSTOMPROPERTY
  1
136279
  9
$CUSTOMPROPERTYTAG
  1
DESCRIPTION
  9
$CUSTOMPROPERTY
  1
F4B-GTM-45M
  9
$CUSTOMPROPERTYTAG
  1
A
  9
$CUSTOMPROPERTY
  1
47.2
  9
$CUSTOMPROPERTYTAG
  1
B
  9
$CUSTOMPROPERTY
  1
142.9
  9
$CUSTOMPROPERTYTAG
  1
C
  9
$CUSTOMPROPERTY
  1
52.0
  9
$CUSTOMPROPERTYTAG
  1
D
  9
$CUSTOMPROPERTY
  1
111.0
  9
$CUSTOMPROPERTYTAG
  1
F
  9
$CUSTOMPROPERTY
  1
M16
  9
$CUSTOMPROPERTYTAG
  1
H
  9
$CUSTOMPROPERTY
  1
15.9
  9
$CUSTOMPROPERTYTAG
  1
J
  9
$CUSTOMPROPERTY
  1
13.5
  9
$CUSTOMPROPERTYTAG
  1
L
  9
$CUSTOMPROPERTY
  1
74.6
  9
$CUSTOMPROPERTYTAG
  1
N
  9
$CUSTOMPROPERTY
  1
73.0
  9
$CUSTOMPROPERTYTAG
  1
Z
  9
$CUSTOMPROPERTY
  1
50.8
  9
$CUSTOMPROPERTYTAG
  1
COMPANY
  9
$CUSTOMPROPERTY
  1
baldor
  9
$INSBASE
 10
0.0
 20
0.0
 30
0.0
  9
$EXTMIN
 10
1.000000000000000E+20
 20
1.000000000000000E+20
 30
1.000000000000000E+20
  9
$EXTMAX
 10
-1.000000000000000E+20
 20
-1.000000000000000E+20
 30
-1.000000000000000E+20
  9
$LIMMIN
 10
0.0
 20
0.0
  9
$LIMMAX
 10
420.0
 20
297.0
  9
$ORTHOMODE
 70
     0
  9
$REGENMODE
 70
     1
  9
$FILLMODE
 70
     1
  9
$QTEXTMODE
 70
     0
  9
$MIRRTEXT
 70
     1
  9
$LTSCALE
 40
1.0
  9
$ATTMODE
 70
     1
  9
$TEXTSIZE
 40
2.5
  9
$TRACEWID
 40
1.0
  9
$TEXTSTYLE
  7
Standard
  9
$CLAYER
  8
0
  9
$CELTYPE
  6
ByLayer
  9
$CECOLOR
 62
   256
  9
$CELTSCALE
 40
1.0
  9
$DISPSILH
 70
     0
  9
$DIMSCALE
 40
1.0
  9
$DIMASZ
 40
2.5
  9
$DIMEXO
 40
0.625
  9
$DIMDLI
 40
3.75
  9
$DIMRND
 40
0.0
  9
$DIMDLE
 40
0.0
  9
$DIMEXE
 40
1.25
  9
$DIMTP
 40
0.0
  9
$DIMTM
 40
0.0
  9
$DIMTXT
 40
2.5
  9
$DIMCEN
 40
2.5
  9
$DIMTSZ
 40
0.0
  9
$DIMTOL
 70
     0
  9
$DIMLIM
 70
     0
  9
$DIMTIH
 70
     0
  9
$DIMTOH
 70
     0
  9
$DIMSE1
 70
     0
  9
$DIMSE2
 70
     0
  9
$DIMTAD
 70
     1
  9
$DIMZIN
 70
     8
  9
$DIMBLK
  1

  9
$DIMASO
 70
     1
  9
$DIMSHO
 70
     1
  9
$DIMPOST
  1

  9
$DIMAPOST
  1

  9
$DIMALT
 70
     0
  9
$DIMALTD
 70
     3
  9
$DIMALTF
 40
0.03937007874016
  9
$DIMLFAC
 40
1.0
  9
$DIMTOFL
 70
     1
  9
$DIMTVP
 40
0.0
  9
$DIMTIX
 70
     0
  9
$DIMSOXD
 70
     0
  9
$DIMSAH
 70
     0
  9
$DIMBLK1
  1

  9
$DIMBLK2
  1

  9
$DIMSTYLE
  2
ISO-25
  9
$DIMCLRD
 70
     0
  9
$DIMCLRE
 70
     0
  9
$DIMCLRT
 70
     0
  9
$DIMTFAC
 40
1.0
  9
$DIMGAP
 40
0.625
  9
$DIMJUST
 70
     0
  9
$DIMSD1
 70
     0
  9
$DIMSD2
 70
     0
  9
$DIMTOLJ
 70
     0
  9
$DIMTZIN
 70
     8
  9
$DIMALTZ
 70
     0
  9
$DIMALTTZ
 70
     0
  9
$DIMUPT
 70
     0
  9
$DIMDEC
 70
     2
  9
$DIMTDEC
 70
     2
  9
$DIMALTU
 70
     2
  9
$DIMALTTD
 70
     3
  9
$DIMTXSTY
  7
Standard
  9
$DIMAUNIT
 70
     0
  9
$DIMADEC
 70
     0
  9
$DIMALTRND
 40
0.0
  9
$DIMAZIN
 70
     0
  9
$DIMDSEP
 70
    44
  9
$DIMATFIT
 70
     3
  9
$DIMFRAC
 70
     0
  9
$DIMLDRBLK
  1

  9
$DIMLUNIT
 70
     2
  9
$DIMLWD
 70
    -2
  9
$DIMLWE
 70
    -2
  9
$DIMTMOVE
 70
     0
  9
$DIMFXL
 40
1.0
  9
$DIMFXLON
 70
     0
  9
$DIMJOGANG
 40
0.7853981633974483
  9
$DIMTFILL
 70
     0
  9
$DIMTFILLCLR
 70
     0
  9
$DIMARCSYM
 70
     0
  9
$DIMLTYPE
  6

  9
$DIMLTEX1
  6

  9
$DIMLTEX2
  6

  9
$DIMTXTDIRECTION
 70
     0
  9
$LUNITS
 70
     2
  9
$LUPREC
 70
     4
  9
$SKETCHINC
 40
1.0
  9
$FILLETRAD
 40
10.0
  9
$AUNITS
 70
     0
  9
$AUPREC
 70
     0
  9
$MENU
  1
.
  9
$ELEVATION
 40
0.0
  9
$PELEVATION
 40
0.0
  9
$THICKNESS
 40
0.0
  9
$LIMCHECK
 70
     0
  9
$CHAMFERA
 40
0.0
  9
$CHAMFERB
 40
0.0
  9
$CHAMFERC
 40
0.0
  9
$CHAMFERD
 40
0.0
  9
$SKPOLY
 70
     0
  9
$TDCREATE
 40
2458168.993249768
  9
$TDUCREATE
 40
2458168.951583102
  9
$TDUPDATE
 40
2458168.993249768
  9
$TDUUPDATE
 40
2458168.951583102
  9
$TDINDWG
 40
0.0000000116
  9
$TDUSRTIMER
 40
0.0000000116
  9
$USRTIMER
 70
     1
  9
$ANGBASE
 50
0.0
  9
$ANGDIR
 70
     0
  9
$PDMODE
 70
     0
  9
$PDSIZE
 40
0.0
  9
$PLINEWID
 40
0.0
  9
$SPLFRAME
 70
     0
  9
$SPLINETYPE
 70
     6
  9
$SPLINESEGS
 70
     8
  9
$HANDSEED
  5
1F4
  9
$SURFTAB1
 70
     6
  9
$SURFTAB2
 70
     6
  9
$SURFTYPE
 70
     6
  9
$SURFU
 70
     6
  9
$SURFV
 70
     6
  9
$UCSBASE
  2

  9
$UCSNAME
  2

  9
$UCSORG
 10
0.0
 20
0.0
 30
0.0
  9
$UCSXDIR
 10
1.0
 20
0.0
 30
0.0
  9
$UCSYDIR
 10
0.0
 20
1.0
 30
0.0
  9
$UCSORTHOREF
  2

  9
$UCSORTHOVIEW
 70
     0
  9
$UCSORGTOP
 10
0.0
 20
0.0
 30
0.0
  9
$UCSORGBOTTOM
 10
0.0
 20
0.0
 30
0.0
  9
$UCSORGLEFT
 10
0.0
 20
0.0
 30
0.0
  9
$UCSORGRIGHT
 10
0.0
 20
0.0
 30
0.0
  9
$UCSORGFRONT
 10
0.0
 20
0.0
 30
0.0
  9
$UCSORGBACK
 10
0.0
 20
0.0
 30
0.0
  9
$PUCSBASE
  2

  9
$PUCSNAME
  2

  9
$PUCSORG
 10
0.0
 20
0.0
 30
0.0
  9
$PUCSXDIR
 10
1.0
 20
0.0
 30
0.0
  9
$PUCSYDIR
 10
0.0
 20
1.0
 30
0.0
  9
$PUCSORTHOREF
  2

  9
$PUCSORTHOVIEW
 70
     0
  9
$PUCSORGTOP
 10
0.0
 20
0.0
 30
0.0
  9
$PUCSORGBOTTOM
 10
0.0
 20
0.0
 30
0.0
  9
$PUCSORGLEFT
 10
0.0
 20
0.0
 30
0.0
  9
$PUCSORGRIGHT
 10
0.0
 20
0.0
 30
0.0
  9
$PUCSORGFRONT
 10
0.0
 20
0.0
 30
0.0
  9
$PUCSORGBACK
 10
0.0
 20
0.0
 30
0.0
  9
$USERI1
 70
     0
  9
$USERI2
 70
     0
  9
$USERI3
 70
     0
  9
$USERI4
 70
     0
  9
$USERI5
 70
     0
  9
$USERR1
 40
0.0
  9
$USERR2
 40
0.0
  9
$USERR3
 40
0.0
  9
$USERR4
 40
0.0
  9
$USERR5
 40
0.0
  9
$WORLDVIEW
 70
     1
  9
$SHADEDGE
 70
     3
  9
$SHADEDIF
 70
    70
  9
$TILEMODE
 70
     1
  9
$MAXACTVP
 70
    64
  9
$PINSBASE
 10
0.0
 20
0.0
 30
0.0
  9
$PLIMCHECK
 70
     0
  9
$PEXTMIN
 10
1.000000000000000E+20
 20
1.000000000000000E+20
 30
1.000000000000000E+20
  9
$PEXTMAX
 10
-1.000000000000000E+20
 20
-1.000000000000000E+20
 30
-1.000000000000000E+20
  9
$PLIMMIN
 10
0.0
 20
0.0
  9
$PLIMMAX
 10
420.0
 20
297.0
  9
$UNITMODE
 70
     0
  9
$VISRETAIN
 70
     1
  9
$PLINEGEN
 70
     0
  9
$PSLTSCALE
 70
     1
  9
$TREEDEPTH
 70
  3020
  9
$CMLSTYLE
  2
Standard
  9
$CMLJUST
 70
     0
  9
$CMLSCALE
 40
20.0
  9
$PROXYGRAPHICS
 70
     1
  9
$MEASUREMENT
 70
     1
  9
$CELWEIGHT
370
    -1
  9
$ENDCAPS
280
     0
  9
$JOINSTYLE
280
     0
  9
$LWDISPLAY
290
     0
  9
$INSUNITS
 70
     4
  9
$HYPERLINKBASE
  1

  9
$STYLESHEET
  1

  9
$XEDIT
290
     1
  9
$CEPSNTYPE
380
     0
  9
$PSTYLEMODE
290
     1
  9
$FINGERPRINTGUID
  2
{7268576E-1191-411E-9987-3AE0107047B7}
  9
$VERSIONGUID
  2
{FAEB1C32-E019-11D5-929B-00C0DF256EC4}
  9
$EXTNAMES
290
     1
  9
$PSVPSCALE
 40
0.0
  9
$OLESTARTUP
290
     0
  9
$SORTENTS
280
   127
  9
$INDEXCTL
280
     0
  9
$HIDETEXT
280
     1
  9
$XCLIPFRAME
280
     2
  9
$HALOGAP
280
     0
  9
$OBSCOLOR
 70
   257
  9
$OBSLTYPE
280
     0
  9
$INTERSECTIONDISPLAY
280
     0
  9
$INTERSECTIONCOLOR
 70
   257
  9
$DIMASSOC
280
     2
  9
$PROJECTNAME
  1

  9
$CAMERADISPLAY
290
     0
  9
$LENSLENGTH
 40
50.0
  9
$CAMERAHEIGHT
 40
0.0
  9
$STEPSPERSEC
 40
2.0
  9
$STEPSIZE
 40
6.0
  9
$3DDWFPREC
 40
2.0
  9
$PSOLWIDTH
 40
5.0
  9
$PSOLHEIGHT
 40
80.0
  9
$LOFTANG1
 40
1.570796326794897
  9
$LOFTANG2
 40
1.570796326794897
  9
$LOFTMAG1
 40
0.0
  9
$LOFTMAG2
 40
0.0
  9
$LOFTPARAM
 70
     7
  9
$LOFTNORMALS
280
     1
  9
$LATITUDE
 40
37.795
  9
$LONGITUDE
 40
-122.394
  9
$NORTHDIRECTION
 40
0.0
  9
$TIMEZONE
 70
 -8000
  9
$LIGHTGLYPHDISPLAY
280
     1
  9
$TILEMODELIGHTSYNCH
280
     1
  9
$CMATERIAL
347
44
  9
$SOLIDHIST
280
     0
  9
$SHOWHIST
280
     1
  9
$DWFFRAME
280
     2
  9
$DGNFRAME
280
     2
  9
$REALWORLDSCALE
290
     1
  9
$INTERFERECOLOR
 62
   256
  9
$CSHADOW
280
     0
  9
$SHADOWPLANELOCATION
 40
0.0
  0
ENDSEC
  0
SECTION
  2
CLASSES
  0
CLASS
  1
ACDBDICTIONARYWDFLT
  2
AcDbDictionaryWithDefault
  3
ObjectDBX Classes
 90
        0
 91
        4
280
     0
281
     0
  0
CLASS
  1
VISUALSTYLE
  2
AcDbVisualStyle
  3
ObjectDBX Classes
 90
     4095
 91
        4
280
     0
281
     0
  0
CLASS
  1
MATERIAL
  2
AcDbMaterial
  3
ObjectDBX Classes
 90
     1153
 91
        4
280
     0
281
     0
  0
CLASS
  1
SCALE
  2
AcDbScale
  3
ObjectDBX Classes
 90
     1153
 91
        4
280
     0
281
     0
  0
CLASS
  1
TABLESTYLE
  2
AcDbTableStyle
  3
ObjectDBX Classes
 90
     4095
 91
        4
280
     0
281
     0
  0
CLASS
  1
MLEADERSTYLE
  2
AcDbMLeaderStyle
  3
ACDB_MLEADERSTYLE_CLASS
 90
     4095
 91
        4
280
     0
281
     0
  0
CLASS
  1
SUN
  2
AcDbSun
  3
SCENEOE
 90
     1153
 91
        4
280
     0
281
     0
  0
CLASS
  1
DICTIONARYVAR
  2
AcDbDictionaryVar
  3
ObjectDBX Classes
 90
        0
 91
        4
280
     0
281
     0
  0
CLASS
  1
CELLSTYLEMAP
  2
AcDbCellStyleMap
  3
ObjectDBX Classes
 90
     1152
 91
        4
280
     0
281
     0
  0
ENDSEC
  0
SECTION
  2
TABLES
  0
TABLE
  2
VPORT
  5
8
330
0
100
AcDbSymbolTable
 70
     1
  0
VPORT
  5
29
330
8
100
AcDbSymbolTableRecord
100
AcDbViewportTableRecord
  2
*Active
 70
     0
 10
0.0
 20
0.0
 11
1.0
 21
1.0
 12
0.0
 22
11.05249999999998
 13
0.0
 23
0.0
 14
10.0
 24
10.0
 15
10.0
 25
10.0
 16
0.0
 26
0.0
 36
1.0
 17
0.0
 27
0.0
 37
0.0
 40
57.34949999999996
 41
2.541574032903514
 42
50.0
 43
0.0
 44
0.0
 50
0.0
 51
0.0
 71
     0
 72
   100
 73
     1
 74
     3
 75
     0
 76
     0
 77
     0
 78
     0
281
     0
 65
     1
110
0.0
120
0.0
130
0.0
111
1.0
121
0.0
131
0.0
112
0.0
122
1.0
132
0.0
 79
     0
146
0.0
348
2F
 60
     3
 61
     5
292
     1
282
     1
141
0.0
142
0.0
 63
   250
361
6D
  0
ENDTAB
  0
TABLE
  2
LTYPE
  5
5
330
0
100
AcDbSymbolTable
 70
     3
  0
LTYPE
  5
14
330
5
100
AcDbSymbolTableRecord
100
AcDbLinetypeTableRecord
  2
ByBlock
 70
     0
  3

 72
    65
 73
     0
 40
0.0
  0
LTYPE
  5
15
330
5
100
AcDbSymbolTableRecord
100
AcDbLinetypeTableRecord
  2
ByLayer
 70
     0
  3

 72
    65
 73
     0
 40
0.0
  0
LTYPE
  5
16
330
5
100
AcDbSymbolTableRecord
100
AcDbLinetypeTableRecord
  2
Continuous
 70
     0
  3
Solid line
 72
    65
 73
     0
 40
0.0
  0
LTYPE
  5
9D
330
5
100
AcDbSymbolTableRecord
100
AcDbLinetypeTableRecord
  2
Dashed
 70
     0
  3

 72
    65
 73
     2
 40
2.0
 49
1.0
 74
     0
 49
-1.0
 74
     0
  0
LTYPE
  5
11D
330
5
100
AcDbSymbolTableRecord
100
AcDbLinetypeTableRecord
  2
Center
 70
     0
  3

 72
    65
 73
     4
 40
1.5
 49
0.45
 74
     0
 49
-0.5
 74
     0
 49
0.05
 74
     0
 49
-0.5
 74
     0
  0
ENDTAB
  0
TABLE
  2
LAYER
  5
2
330
0
100
AcDbSymbolTable
 70
     7
  0
LAYER
  5
10
330
2
100
AcDbSymbolTableRecord
100
AcDbLayerTableRecord
  2
0
 70
     0
 62
     7
  6
Continuous
370
    -3
390
F
347
46
348
0
  0
LAYER
  5
72
330
2
100
AcDbSymbolTableRecord
100
AcDbLayerTableRecord
  2
AM_6
 70
     0
 62
    -2
  6
Continuous
370
    35
390
F
347
46
348
0
  0
LAYER
  5
9E
330
2
100
AcDbSymbolTableRecord
100
AcDbLayerTableRecord
  2
AM_9
 70
     0
 62
     6
  6
Dashed
370
    25
390
F
347
46
348
0
  0
LAYER
  5
D7
330
2
100
AcDbSymbolTableRecord
100
AcDbLayerTableRecord
  2
AM_4
 70
     0
 62
     7
  6
Continuous
370
    50
390
F
347
46
348
0
  0
LAYER
  5
11A
330
2
100
AcDbSymbolTableRecord
100
AcDbLayerTableRecord
  2
AM_5
 70
     0
 62
     3
  6
Continuous
370
    25
390
F
347
46
348
0
  0
LAYER
  5
11E
330
2
100
AcDbSymbolTableRecord
100
AcDbLayerTableRecord
  2
AM_7
 70
     0
 62
     7
  6
Center
370
    25
390
F
347
46
348
0
  0
LAYER
  5
1E7
330
2
100
AcDbSymbolTableRecord
100
AcDbLayerTableRecord
  2
ConnectionPoints
 70
     0
 62
     7
  6
Continuous
370
    50
390
F
347
46
348
0
  0
ENDTAB
  0
TABLE
  2
STYLE
  5
3
330
0
100
AcDbSymbolTable
 70
     1
  0
STYLE
  5
11
330
3
100
AcDbSymbolTableRecord
100
AcDbTextStyleTableRecord
  2
Standard
 70
     0
 40
0.0
 41
1.0
 50
0.0
 71
     0
 42
2.5
  3
txt
  4

  0
ENDTAB
  0
TABLE
  2
VIEW
  5
6
330
0
100
AcDbSymbolTable
 70
     0
  0
ENDTAB
  0
TABLE
  2
UCS
  5
7
330
0
100
AcDbSymbolTable
 70
     0
  0
ENDTAB
  0
TABLE
  2
APPID
  5
9
330
0
100
AcDbSymbolTable
 70
     1
  0
APPID
  5
12
330
9
100
AcDbSymbolTableRecord
100
AcDbRegAppTableRecord
  2
ACAD
 70
     0
  0
ENDTAB
  0
TABLE
  2
DIMSTYLE
  5
A
330
0
100
AcDbSymbolTable
 70
     1
100
AcDbDimStyleTable
  0
DIMSTYLE
105
27
330
A
100
AcDbSymbolTableRecord
100
AcDbDimStyleTableRecord
  2
ISO-25
 70
     0
 41
2.5
 42
0.625
 43
3.75
 44
1.25
 73
     0
 74
     0
 77
     1
 78
     8
140
2.5
141
2.5
143
0.03937007874016
147
0.625
171
     3
172
     1
178
     0
271
     2
272
     2
274
     3
278
    44
283
     0
284
     8
340
11
  0
ENDTAB
  0
TABLE
  2
BLOCK_RECORD
  5
1
330
0
100
AcDbSymbolTable
 70
     5
  0
BLOCK_RECORD
  5
1F
330
1
100
AcDbSymbolTableRecord
100
AcDbBlockTableRecord
  2
*Model_Space
340
22
 70
     0
280
     1
281
     0
  0
BLOCK_RECORD
  5
1B
330
1
100
AcDbSymbolTableRecord
100
AcDbBlockTableRecord
  2
*Paper_Space
340
1E
 70
     0
280
     1
281
     0
  0
BLOCK_RECORD
  5
23
330
1
100
AcDbSymbolTableRecord
100
AcDbBlockTableRecord
  2
*Paper_Space0
340
26
 70
     0
280
     1
281
     0
  0
BLOCK_RECORD
  5
6E
330
1
100
AcDbSymbolTableRecord
100
AcDbBlockTableRecord
  2
1_136279_4
340
0
102
{BLKREFS
331
6F
102
}
 70
     0
280
     1
281
     0
  0
BLOCK_RECORD
  5
87
330
1
100
AcDbSymbolTableRecord
100
AcDbBlockTableRecord
  2
2_129523_0_in_136279_4
340
0
102
{BLKREFS
331
88
102
}
 70
     0
280
     1
281
     0
  0
BLOCK_RECORD
  5
DB
330
1
100
AcDbSymbolTableRecord
100
AcDbBlockTableRecord
  2
3_129960_0_in_136279_4
340
0
102
{BLKREFS
331
DC
102
}
 70
     0
280
     1
281
     0
  0
BLOCK_RECORD
  5
134
330
1
100
AcDbSymbolTableRecord
100
AcDbBlockTableRecord
  2
4_129471_0_in_136279_4
340
0
102
{BLKREFS
331
135
102
}
 70
     0
280
     1
281
     0
  0
ENDTAB
  0
ENDSEC
  0
SECTION
  2
BLOCKS
  0
BLOCK
  5
20
330
1F
100
AcDbEntity
  8
0
100
AcDbBlockBegin
  2
*Model_Space
 70
     0
 10
0.0
 20
0.0
 30
0.0
  3
*Model_Space
  1

  0
ENDBLK
  5
21
330
1F
100
AcDbEntity
  8
0
100
AcDbBlockEnd
  0
BLOCK
  5
1C
330
1B
100
AcDbEntity
 67
     1
  8
0
100
AcDbBlockBegin
  2
*Paper_Space
 70
     0
 10
0.0
 20
0.0
 30
0.0
  3
*Paper_Space
  1

  0
ENDBLK
  5
1D
330
1B
100
AcDbEntity
 67
     1
  8
0
100
AcDbBlockEnd
  0
BLOCK
  5
24
330
23
100
AcDbEntity
  8
0
100
AcDbBlockBegin
  2
*Paper_Space0
 70
     0
 10
0.0
 20
0.0
 30
0.0
  3
*Paper_Space0
  1

  0
ENDBLK
  5
25
330
23
100
AcDbEntity
  8
0
100
AcDbBlockEnd
  0
BLOCK
  5
70
330
6E
100
AcDbEntity
  8
0
100
AcDbBlockBegin
  2
1_136279_4
 70
     2
 10
0.0
 20
0.0
 30
0.0
  3
1_136279_4
  1

  0
ATTDEF
  5
73
330
6E
100
AcDbEntity
  8
AM_6
100
AcDbText
 10
76.45
 20
39.165
 30
0.0
 40
0.5
  1
Grip Tight Medium Duty Four-Bolt Flange Metric Bore
100
AcDbAttributeDefinition
  3

  2
NN
 70
     8
280
     0
  0
ATTDEF
  5
74
330
6E
100
AcDbEntity
  8
AM_6
100
AcDbText
 10
76.45
 20
38.665
 30
0.0
 40
0.5
  1
GTM Medium Duty 4 Bolt Flange Bearings
100
AcDbAttributeDefinition
  3

  2
NT
 70
     8
280
     0
  0
ATTDEF
  5
75
330
6E
100
AcDbEntity
  8
AM_6
100
AcDbText
 10
76.45
 20
38.165
 30
0.0
 40
0.5
  1
136279
100
AcDbAttributeDefinition
  3

  2
NB
 70
     8
280
     0
  0
ATTDEF
  5
76
330
6E
100
AcDbEntity
  8
AM_6
100
AcDbText
 10
76.45
 20
37.665
 30
0.0
 40
0.5
  1
$PN.$LUBE.
100
AcDbAttributeDefinition
  3

  2
NBSYN
 70
     8
280
     0
  0
ATTDEF
  5
77
330
6E
100
AcDbEntity
  8
AM_6
100
AcDbText
 10
76.45
 20
37.165
 30
0.0
 40
0.5
  1
136279
100
AcDbAttributeDefinition
  3

  2
LINA
 70
     8
280
     0
  0
ATTDEF
  5
78
330
6E
100
AcDbEntity
  8
AM_6
100
AcDbText
 10
76.45
 20
36.665
 30
0.0
 40
0.5
  1
210
100
AcDbAttributeDefinition
  3

  2
SERIES
 70
     8
280
     0
  0
ATTDEF
  5
79
330
6E
100
AcDbEntity
  8
AM_6
100
AcDbText
 10
76.45
 20
36.165
 30
0.0
 40
0.5
  1
45
100
AcDbAttributeDefinition
  3

  2
SS
 70
     8
280
     0
  0
ATTDEF
  5
7A
330
6E
100
AcDbEntity
  8
AM_6
100
AcDbText
 10
76.45
 20
35.665
 30
0.0
 40
0.5
  1
136279
100
AcDbAttributeDefinition
  3

  2
PN
 70
     8
280
     0
  0
ATTDEF
  5
7B
330
6E
100
AcDbEntity
  8
AM_6
100
AcDbText
 10
76.45
 20
35.165
 30
0.0
 40
0.5
  1
F4B-GTM-45M
100
AcDbAttributeDefinition
  3

  2
DESCRIPTION
 70
     8
280
     0
  0
ATTDEF
  5
7C
330
6E
100
AcDbEntity
  8
AM_6
100
AcDbText
 10
76.45
 20
34.665
 30
0.0
 40
0.5
  1
47.2
100
AcDbAttributeDefinition
  3

  2
A
 70
     8
280
     0
  0
ATTDEF
  5
7D
330
6E
100
AcDbEntity
  8
AM_6
100
AcDbText
 10
76.45
 20
34.165
 30
0.0
 40
0.5
  1
142.9
100
AcDbAttributeDefinition
  3

  2
B
 70
     8
280
     0
  0
ATTDEF
  5
7E
330
6E
100
AcDbEntity
  8
AM_6
100
AcDbText
 10
76.45
 20
33.665
 30
0.0
 40
0.5
  1
52.0
100
AcDbAttributeDefinition
  3

  2
C
 70
     8
280
     0
  0
ATTDEF
  5
7F
330
6E
100
AcDbEntity
  8
AM_6
100
AcDbText
 10
76.45
 20
33.165
 30
0.0
 40
0.5
  1
111.0
100
AcDbAttributeDefinition
  3

  2
D
 70
     8
280
     0
  0
ATTDEF
  5
80
330
6E
100
AcDbEntity
  8
AM_6
100
AcDbText
 10
76.45
 20
32.665
 30
0.0
 40
0.5
  1
M16
100
AcDbAttributeDefinition
  3

  2
F
 70
     8
280
     0
  0
ATTDEF
  5
81
330
6E
100
AcDbEntity
  8
AM_6
100
AcDbText
 10
76.45
 20
32.165
 30
0.0
 40
0.5
  1
15.9
100
AcDbAttributeDefinition
  3

  2
H
 70
     8
280
     0
  0
ATTDEF
  5
82
330
6E
100
AcDbEntity
  8
AM_6
100
AcDbText
 10
76.45
 20
31.665
 30
0.0
 40
0.5
  1
13.5
100
AcDbAttributeDefinition
  3

  2
J
 70
     8
280
     0
  0
ATTDEF
  5
83
330
6E
100
AcDbEntity
  8
AM_6
100
AcDbText
 10
76.45
 20
31.165
 30
0.0
 40
0.5
  1
74.6
100
AcDbAttributeDefinition
  3

  2
L
 70
     8
280
     0
  0
ATTDEF
  5
84
330
6E
100
AcDbEntity
  8
AM_6
100
AcDbText
 10
76.45
 20
30.665
 30
0.0
 40
0.5
  1
73.0
100
AcDbAttributeDefinition
  3

  2
N
 70
     8
280
     0
  0
ATTDEF
  5
85
330
6E
100
AcDbEntity
  8
AM_6
100
AcDbText
 10
76.45
 20
30.165
 30
0.0
 40
0.5
  1
50.8
100
AcDbAttributeDefinition
  3

  2
Z
 70
     8
280
     0
  0
ATTDEF
  5
86
330
6E
100
AcDbEntity
  8
AM_6
100
AcDbText
 10
76.45
 20
29.665
 30
0.0
 40
0.5
  1
baldor
100
AcDbAttributeDefinition
  3

  2
COMPANY
 70
     8
280
     0
  0
INSERT
  5
88
330
6E
100
AcDbEntity
  8
0
100
AcDbBlockReference
  2
2_129523_0_in_136279_4
 10
0.0
 20
0.0
 30
0.0
  0
INSERT
  5
DC
330
6E
100
AcDbEntity
  8
0
100
AcDbBlockReference
  2
3_129960_0_in_136279_4
 10
0.0
 20
0.0
 30
0.0
  0
INSERT
  5
135
330
6E
100
AcDbEntity
  8
0
100
AcDbBlockReference
  2
4_129471_0_in_136279_4
 10
0.0
 20
0.0
 30
0.0
  0
ENDBLK
  5
71
330
6E
100
AcDbEntity
  8
0
100
AcDbBlockEnd
  0
BLOCK
  5
89
330
87
100
AcDbEntity
  8
0
100
AcDbBlockBegin
  2
2_129523_0_in_136279_4
 70
     2
 10
0.0
 20
0.0
 30
0.0
  3
2_129523_0_in_136279_4
  1

  0
ATTDEF
  5
8B
330
87
100
AcDbEntity
  8
AM_6
100
AcDbText
 10
49.99605173974522
 20
30.2
 30
0.0
 40
0.5
  1
INS-GT-M B
100
AcDbAttributeDefinition
  3

  2
NN
 70
     8
280
     0
  0
ATTDEF
  5
8C
330
87
100
AcDbEntity
  8
AM_6
100
AcDbText
 10
49.99605173974522
 20
29.7
 30
0.0
 40
0.5
  1
GT Normal Duty Bearing Inserts
100
AcDbAttributeDefinition
  3

  2
NT
 70
     8
280
     0
  0
ATTDEF
  5
8D
330
87
100
AcDbEntity
  8
AM_6
100
AcDbText
 10
49.99605173974522
 20
29.2
 30
0.0
 40
0.5
  1
129523
100
AcDbAttributeDefinition
  3

  2
NB
 70
     8
280
     0
  0
ATTDEF
  5
8E
330
87
100
AcDbEntity
  8
AM_6
100
AcDbText
 10
49.99605173974522
 20
28.7
 30
0.0
 40
0.5
  1
$PN.
100
AcDbAttributeDefinition
  3

  2
NBSYN
 70
     8
280
     0
  0
ATTDEF
  5
8F
330
87
100
AcDbEntity
  8
AM_6
100
AcDbText
 10
49.99605173974522
 20
28.2
 30
0.0
 40
0.5
  1
129523
100
AcDbAttributeDefinition
  3

  2
LINA
 70
     8
280
     0
  0
ATTDEF
  5
90
330
87
100
AcDbEntity
  8
AM_6
100
AcDbText
 10
49.99605173974522
 20
27.7
 30
0.0
 40
0.5
  1
210
100
AcDbAttributeDefinition
  3

  2
SERIES
 70
     8
280
     0
  0
ATTDEF
  5
91
330
87
100
AcDbEntity
  8
AM_6
100
AcDbText
 10
49.99605173974522
 20
27.2
 30
0.0
 40
0.5
  1
129523
100
AcDbAttributeDefinition
  3

  2
PN
 70
     8
280
     0
  0
ATTDEF
  5
92
330
87
100
AcDbEntity
  8
AM_6
100
AcDbText
 10
49.99605173974522
 20
26.7
 30
0.0
 40
0.5
  1
INS-GT-10
100
AcDbAttributeDefinition
  3

  2
DESCRIPTION
 70
     8
280
     0
  0
ATTDEF
  5
93
330
87
100
AcDbEntity
  8
AM_6
100
AcDbText
 10
49.99605173974522
 20
26.2
 30
0.0
 40
0.5
  1
47.2
100
AcDbAttributeDefinition
  3

  2
A
 70
     8
280
     0
  0
ATTDEF
  5
94
330
87
100
AcDbEntity
  8
AM_6
100
AcDbText
 10
49.99605173974522
 20
25.7
 30
0.0
 40
0.5
  1
22.1
100
AcDbAttributeDefinition
  3

  2
C
 70
     8
280
     0
  0
ATTDEF
  5
95
330
87
100
AcDbEntity
  8
AM_6
100
AcDbText
 10
49.99605173974522
 20
25.2
 30
0.0
 40
0.5
  1
90.0
100
AcDbAttributeDefinition
  3

  2
D
 70
     8
280
     0
  0
ATTDEF
  5
96
330
87
100
AcDbEntity
  8
AM_6
100
AcDbText
 10
49.99605173974522
 20
24.7
 30
0.0
 40
0.5
  1
6.4
100
AcDbAttributeDefinition
  3

  2
J
 70
     8
280
     0
  0
ATTDEF
  5
97
330
87
100
AcDbEntity
  8
AM_6
100
AcDbText
 10
49.99605173974522
 20
24.2
 30
0.0
 40
0.5
  1
79.5
100
AcDbAttributeDefinition
  3

  2
L
 70
     8
280
     0
  0
ATTDEF
  5
98
330
87
100
AcDbEntity
  8
AM_6
100
AcDbText
 10
49.99605173974522
 20
23.7
 30
0.0
 40
0.5
  1
#10 - 32 x 1/4
100
AcDbAttributeDefinition
  3

  2
N
 70
     8
280
     0
  0
ATTDEF
  5
99
330
87
100
AcDbEntity
  8
AM_6
100
AcDbText
 10
49.99605173974522
 20
23.2
 30
0.0
 40
0.5
  1
16.0
100
AcDbAttributeDefinition
  3

  2
W
 70
     8
280
     0
  0
ATTDEF
  5
9A
330
87
100
AcDbEntity
  8
AM_6
100
AcDbText
 10
49.99605173974522
 20
22.7
 30
0.0
 40
0.5
  1
32.0
100
AcDbAttributeDefinition
  3

  2
X
 70
     8
280
     0
  0
ATTDEF
  5
9B
330
87
100
AcDbEntity
  8
AM_6
100
AcDbText
 10
49.99605173974522
 20
22.2
 30
0.0
 40
0.5
  1
31.2
100
AcDbAttributeDefinition
  3

  2
Y
 70
     8
280
     0
  0
ATTDEF
  5
9C
330
87
100
AcDbEntity
  8
AM_6
100
AcDbText
 10
49.99605173974522
 20
21.7
 30
0.0
 40
0.5
  1
baldor
100
AcDbAttributeDefinition
  3

  2
COMPANY
 70
     8
280
     0
  0
LINE
  5
9F
330
87
100
AcDbEntity
  8
AM_9
100
AcDbLine
 10
29.65476190476191
 20
-8.2
 30
0.0
 11
29.65476190476191
 21
3.799999999999927
 31
0.0
  0
LINE
  5
A0
330
87
100
AcDbEntity
  8
AM_9
100
AcDbLine
 10
-29.6547619047619
 20
3.799999999999927
 30
0.0
 11
-29.6547619047619
 21
-8.2
 31
0.0
  0
LINE
  5
A1
330
87
100
AcDbEntity
  8
AM_9
100
AcDbLine
 10
-29.6547619047619
 20
3.799999999999927
 30
0.0
 11
29.65476190476191
 21
3.799999999999927
 31
0.0
  0
LINE
  5
A2
330
87
100
AcDbEntity
  8
AM_9
100
AcDbLine
 10
29.65476190476191
 20
3.799999999999927
 30
0.0
 11
30.57667021934405
 21
30.2
 31
0.0
  0
LINE
  5
A3
330
87
100
AcDbEntity
  8
AM_9
100
AcDbLine
 10
-30.57667021934404
 20
30.2
 30
0.0
 11
-29.6547619047619
 21
3.799999999999927
 31
0.0
  0
LINE
  5
A4
330
87
100
AcDbEntity
  8
AM_9
100
AcDbLine
 10
32.49404761904762
 20
-4.199999999999996
 30
0.0
 11
32.49404761904762
 21
-0.1999999999999988
 31
0.0
  0
LINE
  5
A5
330
87
100
AcDbEntity
  8
AM_9
100
AcDbLine
 10
-32.49404761904762
 20
-0.1999999999999988
 30
0.0
 11
-32.49404761904762
 21
-4.199999999999996
 31
0.0
  0
LINE
  5
A6
330
87
100
AcDbEntity
  8
AM_9
100
AcDbLine
 10
-15.85539628595162
 20
-0.1999999999999899
 30
0.0
 11
35.33333333333333
 21
-0.1999999999999919
 31
0.0
  0
LINE
  5
A7
330
87
100
AcDbEntity
  8
AM_9
100
AcDbLine
 10
35.33333333333333
 20
-0.1999999999999919
 30
0.0
 11
35.33333333333333
 21
4.750000000000003
 31
0.0
  0
LINE
  5
A8
330
87
100
AcDbEntity
  8
AM_9
100
AcDbLine
 10
-35.33333333333333
 20
4.750000000000003
 30
0.0
 11
-35.33333333333333
 21
-0.1999999999999919
 31
0.0
  0
LINE
  5
A9
330
87
100
AcDbEntity
  8
AM_9
100
AcDbLine
 10
-35.33333333333333
 20
-0.1999999999999919
 30
0.0
 11
-20.3243002654012
 21
-0.1999999999999884
 31
0.0
  0
LINE
  5
AA
330
87
100
AcDbEntity
  8
AM_9
100
AcDbLine
 10
-34.44933333333334
 20
30.2
 30
0.0
 11
34.44933333333334
 21
30.2
 31
0.0
  0
LINE
  5
AB
330
87
100
AcDbEntity
  8
AM_9
100
AcDbLine
 10
-34.44933333333334
 20
30.2
 30
0.0
 11
-35.33333333333334
 21
29.316
 31
0.0
  0
LINE
  5
AC
330
87
100
AcDbEntity
  8
AM_9
100
AcDbLine
 10
35.33333333333334
 20
29.316
 30
0.0
 11
34.44933333333334
 21
30.2
 31
0.0
  0
LINE
  5
AD
330
87
100
AcDbEntity
  8
AM_9
100
AcDbLine
 10
-15.85539628595159
 20
-4.199999999999994
 30
0.0
 11
35.33333333333334
 21
-4.199999999999996
 31
0.0
  0
LINE
  5
AE
330
87
100
AcDbEntity
  8
AM_9
100
AcDbLine
 10
35.33333333333334
 20
-7.315999999999996
 30
0.0
 11
35.33333333333334
 21
-4.199999999999996
 31
0.0
  0
LINE
  5
AF
330
87
100
AcDbEntity
  8
AM_9
100
AcDbLine
 10
-35.33333333333334
 20
-4.199999999999996
 30
0.0
 11
-35.33333333333334
 21
-7.315999999999996
 31
0.0
  0
LINE
  5
B0
330
87
100
AcDbEntity
  8
AM_9
100
AcDbLine
 10
-35.33333333333334
 20
-4.199999999999996
 30
0.0
 11
-20.3243002654012
 21
-4.199999999999992
 31
0.0
  0
LINE
  5
B1
330
87
100
AcDbEntity
  8
AM_9
100
AcDbLine
 10
-15.85539628595162
 20
-7.315999999999995
 30
0.0
 11
35.33333333333334
 21
-7.315999999999996
 31
0.0
  0
LINE
  5
B2
330
87
100
AcDbEntity
  8
AM_9
100
AcDbLine
 10
34.44933333333334
 20
-8.2
 30
0.0
 11
35.33333333333334
 21
-7.315999999999996
 31
0.0
  0
LINE
  5
B3
330
87
100
AcDbEntity
  8
AM_9
100
AcDbLine
 10
-35.33333333333334
 20
-7.315999999999996
 30
0.0
 11
-34.44933333333334
 21
-8.2
 31
0.0
  0
LINE
  5
B4
330
87
100
AcDbEntity
  8
AM_9
100
AcDbLine
 10
-34.44933333333334
 20
-8.2
 30
0.0
 11
34.44933333333334
 21
-8.2
 31
0.0
  0
LINE
  5
B5
330
87
100
AcDbEntity
  8
AM_9
100
AcDbLine
 10
-35.33333333333334
 20
-7.315999999999996
 30
0.0
 11
-20.3243002654012
 21
-7.315999999999993
 31
0.0
  0
LINE
  5
B6
330
87
100
AcDbEntity
  8
AM_9
100
AcDbLine
 10
-35.33333333333334
 20
29.316
 30
0.0
 11
35.33333333333334
 21
29.316
 31
0.0
  0
LINE
  5
B7
330
87
100
AcDbEntity
  8
AM_9
100
AcDbLine
 10
35.33333333333334
 20
26.85
 30
0.0
 11
35.33333333333334
 21
29.316
 31
0.0
  0
LINE
  5
B8
330
87
100
AcDbEntity
  8
AM_9
100
AcDbLine
 10
-35.33333333333334
 20
29.316
 30
0.0
 11
-35.33333333333334
 21
26.85
 31
0.0
  0
LINE
  5
B9
330
87
100
AcDbEntity
  8
AM_9
100
AcDbLine
 10
42.79
 20
8.120000000000001
 30
0.0
 11
42.79
 21
10.68
 31
0.0
  0
LINE
  5
BA
330
87
100
AcDbEntity
  8
AM_9
100
AcDbLine
 10
-42.79
 20
10.68
 30
0.0
 11
-42.79
 21
8.120000000000001
 31
0.0
  0
LINE
  5
BB
330
87
100
AcDbEntity
  8
AM_9
100
AcDbLine
 10
-42.19396883195162
 20
26.85
 30
0.0
 11
42.19396883195162
 21
26.85
 31
0.0
  0
ARC
  5
BC
330
87
100
AcDbEntity
  8
AM_9
100
AcDbCircle
 10
42.19396883195163
 20
25.96600000000001
 30
0.0
 40
0.8839999999999978
100
AcDbArc
 50
21.41246704688417
 51
90.0
  0
ARC
  5
BD
330
87
100
AcDbEntity
  8
AM_9
100
AcDbCircle
 10
-42.19396883195163
 20
25.96600000000001
 30
0.0
 40
0.8839999999999932
100
AcDbArc
 50
90.0
 51
158.5875329531158
  0
LINE
  5
BE
330
87
100
AcDbEntity
  8
AM_9
100
AcDbLine
 10
1.666583331249901
 20
4.749999999999998
 30
0.0
 11
42.19396883195162
 21
4.749999999999996
 31
0.0
  0
LINE
  5
BF
330
87
100
AcDbEntity
  8
AM_9
100
AcDbLine
 10
-1.491851361303526
 20
4.749999999999998
 30
0.0
 11
1.491851361303526
 21
4.749999999999998
 31
0.0
  0
LINE
  5
C0
330
87
100
AcDbEntity
  8
AM_9
100
AcDbLine
 10
-42.19396883195162
 20
4.749999999999996
 30
0.0
 11
-1.666583331249901
 21
4.749999999999998
 31
0.0
  0
ARC
  5
C1
330
87
100
AcDbEntity
  8
AM_9
100
AcDbCircle
 10
42.19396883195162
 20
5.634000000000018
 30
0.0
 40
0.8840000000000225
100
AcDbArc
 50
270.0
 51
338.587532953115
  0
ARC
  5
C2
330
87
100
AcDbEntity
  8
AM_9
100
AcDbCircle
 10
-42.19396883195162
 20
5.634000000000018
 30
0.0
 40
0.8840000000000254
100
AcDbArc
 50
201.412467046885
 51
270.0
  0
LINE
  5
C3
330
87
100
AcDbEntity
  8
AM_9
100
AcDbLine
 10
2.233425720948703
 20
5.31126984126984
 30
0.0
 11
43.01695196947391
 21
5.311269841269837
 31
0.0
  0
LINE
  5
C4
330
87
100
AcDbEntity
  8
AM_9
100
AcDbLine
 10
-2.106255192330313
 20
5.31126984126984
 30
0.0
 11
2.106255192330313
 21
5.31126984126984
 31
0.0
  0
ARC
  5
C5
330
87
100
AcDbEntity
  8
AM_9
100
AcDbCircle
 10
16.27000000000911
 20
15.79999999999687
 30
0.0
 40
28.72999999999037
100
AcDbArc
 50
338.5875329531151
 51
343.9103822016722
  0
ARC
  5
C6
330
87
100
AcDbEntity
  8
AM_9
100
AcDbCircle
 10
-16.26999999999225
 20
15.80000000000257
 30
0.0
 40
28.73000000000815
100
AcDbArc
 50
196.0896177983293
 51
201.4124670468832
  0
LINE
  5
C7
330
87
100
AcDbEntity
  8
AM_9
100
AcDbLine
 10
-43.01695196947391
 20
5.311269841269837
 30
0.0
 11
-2.233425720948703
 21
5.31126984126984
 31
0.0
  0
LINE
  5
C8
330
87
100
AcDbEntity
  8
AM_9
100
AcDbLine
 10
2.671735707438753
 20
7.837751937984502
 30
0.0
 11
43.87462834017024
 21
7.837751937984498
 31
0.0
  0
LINE
  5
C9
330
87
100
AcDbEntity
  8
AM_9
100
AcDbLine
 10
-2.566377247137766
 20
7.837751937984502
 30
0.0
 11
2.566377247137766
 21
7.837751937984502
 31
0.0
  0
LINE
  5
CA
330
87
100
AcDbEntity
  8
AM_9
100
AcDbLine
 10
2.566242389175277
 20
8.120000000000005
 30
0.0
 11
43.66228504524585
 21
8.120000000000001
 31
0.0
  0
LINE
  5
CB
330
87
100
AcDbEntity
  8
AM_9
100
AcDbLine
 10
-2.456363263897098
 20
8.120000000000005
 30
0.0
 11
2.456363263897098
 21
8.120000000000005
 31
0.0
  0
LINE
  5
CC
330
87
100
AcDbEntity
  8
AM_9
100
AcDbLine
 10
-43.66228504524585
 20
8.120000000000001
 30
0.0
 11
-2.566242389175277
 21
8.120000000000005
 31
0.0
  0
ARC
  5
CD
330
87
100
AcDbEntity
  8
AM_9
100
AcDbCircle
 10
43.66228504524587
 20
7.899000000000014
 30
0.0
 40
0.220999999999991
100
AcDbArc
 50
343.9103822016673
 51
90.0
  0
ARC
  5
CE
330
87
100
AcDbEntity
  8
AM_9
100
AcDbCircle
 10
-43.66228504524587
 20
7.899000000000014
 30
0.0
 40
0.2209999999999868
100
AcDbArc
 50
90.0
 51
196.0896177983327
  0
LINE
  5
CF
330
87
100
AcDbEntity
  8
AM_9
100
AcDbLine
 10
-43.87462834017024
 20
7.837751937984498
 30
0.0
 11
-2.671735707438753
 21
7.837751937984502
 31
0.0
  0
LINE
  5
D0
330
87
100
AcDbEntity
  8
AM_9
100
AcDbLine
 10
-44.35492264543433
 20
10.68000000000001
 30
0.0
 11
44.35492264543433
 21
10.68000000000001
 31
0.0
  0
ARC
  5
D1
330
87
100
AcDbEntity
  8
AM_9
100
AcDbCircle
 10
44.35492264543433
 20
10.901
 30
0.0
 40
0.2209999999999894
100
AcDbArc
 50
270.0
 51
350.1050311539027
  0
ARC
  5
D2
330
87
100
AcDbEntity
  8
AM_9
100
AcDbCircle
 10
-44.35492264543433
 20
10.901
 30
0.0
 40
0.2209999999999879
100
AcDbArc
 50
189.8949688460973
 51
270.0
  0
LINE
  5
D3
330
87
100
AcDbEntity
  8
AM_9
100
AcDbLine
 10
-43.0169519694739
 20
26.28873015873017
 30
0.0
 11
43.0169519694739
 21
26.28873015873017
 31
0.0
  0
ARC
  5
D4
330
87
100
AcDbEntity
  8
AM_9
100
AcDbCircle
 10
16.27000000000024
 20
15.80000000000001
 30
0.0
 40
28.72999999999977
100
AcDbArc
 50
350.1051538263076
 51
21.41246704688427
  0
ARC
  5
D5
330
87
100
AcDbEntity
  8
AM_9
100
AcDbCircle
 10
-16.2699999999994
 20
15.79999999999992
 30
0.0
 40
28.73000000000058
100
AcDbArc
 50
158.5875329531162
 51
189.8948461736919
  0
LINE
  5
D6
330
87
100
AcDbEntity
  8
AM_9
100
AcDbLine
 10
-44.57263514214065
 20
10.86302278606986
 30
0.0
 11
44.57263514214065
 21
10.86302278606986
 31
0.0
  0
LINE
  5
D8
330
87
100
AcDbEntity
  8
AM_4
100
AcDbLine
 10
-20.3243002654012
 20
-0.1999999999999884
 30
0.0
 11
-15.85539628595162
 21
-0.1999999999999899
 31
0.0
  0
LINE
  5
D9
330
87
100
AcDbEntity
  8
AM_4
100
AcDbLine
 10
-20.3243002654012
 20
-4.199999999999992
 30
0.0
 11
-15.85539628595159
 21
-4.199999999999994
 31
0.0
  0
LINE
  5
DA
330
87
100
AcDbEntity
  8
AM_4
100
AcDbLine
 10
-20.3243002654012
 20
-7.315999999999993
 30
0.0
 11
-15.85539628595162
 21
-7.315999999999995
 31
0.0
  0
ENDBLK
  5
8A
330
87
100
AcDbEntity
  8
0
100
AcDbBlockEnd
  0
BLOCK
  5
DD
330
DB
100
AcDbEntity
  8
0
100
AcDbBlockBegin
  2
3_129960_0_in_136279_4
 70
     2
 10
0.0
 20
0.0
 30
0.0
  3
3_129960_0_in_136279_4
  1

  0
ATTDEF
  5
DF
330
DB
100
AcDbEntity
  8
AM_6
100
AcDbText
 10
42.16675261574516
 20
32.5
 30
0.0
 40
0.5
  1
Grip Tight Normal Duty Adapter and Nut Metric Bore
100
AcDbAttributeDefinition
  3

  2
NN
 70
     8
280
     0
  0
ATTDEF
  5
E0
330
DB
100
AcDbEntity
  8
AM_6
100
AcDbText
 10
42.16675261574516
 20
32.0
 30
0.0
 40
0.5
  1
GT and GTM Adapter & Lock Nut Assemblies
100
AcDbAttributeDefinition
  3

  2
NT
 70
     8
280
     0
  0
ATTDEF
  5
E1
330
DB
100
AcDbEntity
  8
AM_6
100
AcDbText
 10
42.16675261574516
 20
31.5
 30
0.0
 40
0.5
  1
129960
100
AcDbAttributeDefinition
  3

  2
NB
 70
     8
280
     0
  0
ATTDEF
  5
E2
330
DB
100
AcDbEntity
  8
AM_6
100
AcDbText
 10
42.16675261574516
 20
31.0
 30
0.0
 40
0.5
  1
$PN.
100
AcDbAttributeDefinition
  3

  2
NBSYN
 70
     8
280
     0
  0
ATTDEF
  5
E3
330
DB
100
AcDbEntity
  8
AM_6
100
AcDbText
 10
42.16675261574516
 20
30.5
 30
0.0
 40
0.5
  1
129960
100
AcDbAttributeDefinition
  3

  2
LINA
 70
     8
280
     0
  0
ATTDEF
  5
E4
330
DB
100
AcDbEntity
  8
AM_6
100
AcDbText
 10
42.16675261574516
 20
30.0
 30
0.0
 40
0.5
  1
210
100
AcDbAttributeDefinition
  3

  2
SERIES
 70
     8
280
     0
  0
ATTDEF
  5
E5
330
DB
100
AcDbEntity
  8
AM_6
100
AcDbText
 10
42.16675261574516
 20
29.5
 30
0.0
 40
0.5
  1
45
100
AcDbAttributeDefinition
  3

  2
SS
 70
     8
280
     0
  0
ATTDEF
  5
E6
330
DB
100
AcDbEntity
  8
AM_6
100
AcDbText
 10
42.16675261574516
 20
29.0
 30
0.0
 40
0.5
  1
129960
100
AcDbAttributeDefinition
  3

  2
PN
 70
     8
280
     0
  0
ATTDEF
  5
E7
330
DB
100
AcDbEntity
  8
AM_6
100
AcDbText
 10
42.16675261574516
 20
28.5
 30
0.0
 40
0.5
  1
AN-GTM-10-45M
100
AcDbAttributeDefinition
  3

  2
DESCRIPTION
 70
     8
280
     0
  0
ATTDEF
  5
E8
330
DB
100
AcDbEntity
  8
AM_6
100
AcDbText
 10
42.16675261574516
 20
28.0
 30
0.0
 40
0.5
  1
47.2
100
AcDbAttributeDefinition
  3

  2
A
 70
     8
280
     0
  0
ATTDEF
  5
E9
330
DB
100
AcDbEntity
  8
AM_6
100
AcDbText
 10
42.16675261574516
 20
27.5
 30
0.0
 40
0.5
  1
22.0
100
AcDbAttributeDefinition
  3

  2
C
 70
     8
280
     0
  0
ATTDEF
  5
EA
330
DB
100
AcDbEntity
  8
AM_6
100
AcDbText
 10
42.16675261574516
 20
27.0
 30
0.0
 40
0.5
  1
90.0
100
AcDbAttributeDefinition
  3

  2
D
 70
     8
280
     0
  0
ATTDEF
  5
EB
330
DB
100
AcDbEntity
  8
AM_6
100
AcDbText
 10
42.16675261574516
 20
26.5
 30
0.0
 40
0.5
  1
6.3
100
AcDbAttributeDefinition
  3

  2
J
 70
     8
280
     0
  0
ATTDEF
  5
EC
330
DB
100
AcDbEntity
  8
AM_6
100
AcDbText
 10
42.16675261574516
 20
26.0
 30
0.0
 40
0.5
  1
74.6
100
AcDbAttributeDefinition
  3

  2
L
 70
     8
280
     0
  0
ATTDEF
  5
ED
330
DB
100
AcDbEntity
  8
AM_6
100
AcDbText
 10
42.16675261574516
 20
25.5
 30
0.0
 40
0.5
  1
10 - 32 x 1/4
100
AcDbAttributeDefinition
  3

  2
N
 70
     8
280
     0
  0
ATTDEF
  5
EE
330
DB
100
AcDbEntity
  8
AM_6
100
AcDbText
 10
42.16675261574516
 20
25.0
 30
0.0
 40
0.5
  1
16.7
100
AcDbAttributeDefinition
  3

  2
W
 70
     8
280
     0
  0
ATTDEF
  5
EF
330
DB
100
AcDbEntity
  8
AM_6
100
AcDbText
 10
42.16675261574516
 20
24.5
 30
0.0
 40
0.5
  1
29.4
100
AcDbAttributeDefinition
  3

  2
X
 70
     8
280
     0
  0
ATTDEF
  5
F0
330
DB
100
AcDbEntity
  8
AM_6
100
AcDbText
 10
42.16675261574516
 20
24.0
 30
0.0
 40
0.5
  1
30.6
100
AcDbAttributeDefinition
  3

  2
Y
 70
     8
280
     0
  0
ATTDEF
  5
F1
330
DB
100
AcDbEntity
  8
AM_6
100
AcDbText
 10
42.16675261574516
 20
23.5
 30
0.0
 40
0.5
  1
baldor
100
AcDbAttributeDefinition
  3

  2
COMPANY
 70
     8
280
     0
  0
LINE
  5
F2
330
DB
100
AcDbEntity
  8
AM_9
100
AcDbLine
 10
-36.8682
 20
-12.51453333333333
 30
0.0
 11
-28.40679999999999
 21
-12.51453333333333
 31
0.0
  0
LINE
  5
F3
330
DB
100
AcDbEntity
  8
AM_9
100
AcDbLine
 10
-28.40679999999999
 20
-8.552133333333334
 30
0.0
 11
-36.8682
 21
-8.552133333333334
 31
0.0
  0
LINE
  5
F4
330
DB
100
AcDbEntity
  8
AM_9
100
AcDbLine
 10
-28.40679999999999
 20
-12.51453333333333
 30
0.0
 11
-27.975
 21
-12.94633333333333
 31
0.0
  0
LINE
  5
F5
330
DB
100
AcDbEntity
  8
AM_9
100
AcDbLine
 10
-27.975
 20
-8.120333333333333
 30
0.0
 11
-28.40679999999999
 21
-8.552133333333334
 31
0.0
  0
LINE
  5
F6
330
DB
100
AcDbEntity
  8
AM_9
100
AcDbLine
 10
-27.975
 20
-8.120333333333333
 30
0.0
 11
-27.975
 21
-12.94633333333333
 31
0.0
  0
LINE
  5
F7
330
DB
100
AcDbEntity
  8
AM_9
100
AcDbLine
 10
-28.40679999999999
 20
-8.552133333333334
 30
0.0
 11
-28.40679999999999
 21
-12.51453333333333
 31
0.0
  0
LINE
  5
F8
330
DB
100
AcDbEntity
  8
AM_9
100
AcDbLine
 10
-36.8682
 20
-8.552133333333334
 30
0.0
 11
-37.29838870375714
 21
-8.121944629576197
 31
0.0
  0
LINE
  5
F9
330
DB
100
AcDbEntity
  8
AM_9
100
AcDbLine
 10
-37.18638935446099
 20
-12.83272268779431
 30
0.0
 11
-36.8682
 21
-12.51453333333333
 31
0.0
  0
LINE
  5
FA
330
DB
100
AcDbEntity
  8
AM_9
100
AcDbLine
 10
-36.8682
 20
-8.552133333333334
 30
0.0
 11
-36.8682
 21
-12.51453333333333
 31
0.0
  0
LINE
  5
FB
330
DB
100
AcDbEntity
  8
AM_9
100
AcDbLine
 10
34.81332504441681
 20
1.100000000000002
 30
0.0
 11
34.81332504441681
 21
-13.59999999999999
 31
0.0
  0
LINE
  5
FC
330
DB
100
AcDbEntity
  8
AM_9
100
AcDbLine
 10
22.5
 20
-14.7
 30
0.0
 11
22.5
 21
32.5
 31
0.0
  0
LINE
  5
FD
330
DB
100
AcDbEntity
  8
AM_9
100
AcDbLine
 10
-22.5
 20
32.5
 30
0.0
 11
-22.5
 21
-14.7
 31
0.0
  0
LINE
  5
FE
330
DB
100
AcDbEntity
  8
AM_9
100
AcDbLine
 10
27.82698412698412
 20
-6.249999999999992
 30
0.0
 11
27.82698412698412
 21
4.774999999999807
 31
0.0
  0
LINE
  5
FF
330
DB
100
AcDbEntity
  8
AM_9
100
AcDbLine
 10
-27.82698412698411
 20
4.774999999999807
 30
0.0
 11
-27.82698412698411
 21
-6.249999999999992
 31
0.0
  0
LINE
  5
100
330
DB
100
AcDbEntity
  8
AM_9
100
AcDbLine
 10
1.250000000000002
 20
32.5
 30
0.0
 11
1.250000000000002
 21
-13.59999999999999
 31
0.0
  0
LINE
  5
101
330
DB
100
AcDbEntity
  8
AM_9
100
AcDbLine
 10
-1.249999999999998
 20
32.5
 30
0.0
 11
-1.249999999999999
 21
-13.6
 31
0.0
  0
LINE
  5
102
330
DB
100
AcDbEntity
  8
AM_9
100
AcDbLine
 10
27.82698412698412
 20
4.774999999999807
 30
0.0
 11
28.79516246114283
 21
32.5
 31
0.0
  0
LINE
  5
103
330
DB
100
AcDbEntity
  8
AM_9
100
AcDbLine
 10
-28.79516246114283
 20
32.5
 30
0.0
 11
-27.82698412698411
 21
4.774999999999807
 31
0.0
  0
LINE
  5
104
330
DB
100
AcDbEntity
  8
AM_9
100
AcDbLine
 10
-27.82698412698411
 20
4.774999999999807
 30
0.0
 11
27.82698412698412
 21
4.774999999999807
 31
0.0
  0
LINE
  5
105
330
DB
100
AcDbEntity
  8
AM_9
100
AcDbLine
 10
-28.79516246114283
 20
32.5
 30
0.0
 11
28.79516246114283
 21
32.5
 31
0.0
  0
LINE
  5
106
330
DB
100
AcDbEntity
  8
AM_9
100
AcDbLine
 10
30.49126984126984
 20
-2.574999999999994
 30
0.0
 11
30.49126984126984
 21
1.100000000000004
 31
0.0
  0
LINE
  5
107
330
DB
100
AcDbEntity
  8
AM_9
100
AcDbLine
 10
-30.49126984126983
 20
1.100000000000004
 30
0.0
 11
-30.49126984126983
 21
-2.574999999999994
 31
0.0
  0
LINE
  5
108
330
DB
100
AcDbEntity
  8
AM_9
100
AcDbLine
 10
-36.41999999999999
 20
1.100000000000004
 30
0.0
 11
-37.3
 21
0.219999999999998
 31
0.0
  0
LINE
  5
109
330
DB
100
AcDbEntity
  8
AM_9
100
AcDbLine
 10
-37.3
 20
0.219999999999998
 30
0.0
 11
-37.3
 21
0.0
 31
0.0
  0
LINE
  5
10A
330
DB
100
AcDbEntity
  8
AM_9
100
AcDbLine
 10
-37.3
 20
0.219999999999998
 30
0.0
 11
-21.31135632979357
 21
0.2199999999999997
 31
0.0
  0
LINE
  5
10B
330
DB
100
AcDbEntity
  8
AM_9
100
AcDbLine
 10
-20.86974054839691
 20
1.100000000000002
 30
0.0
 11
-21.31135632979357
 21
0.2199999999999997
 31
0.0
  0
LINE
  5
10C
330
DB
100
AcDbEntity
  8
AM_9
100
AcDbLine
 10
-21.31135632979357
 20
0.2199999999999997
 30
0.0
 11
-21.31135632979357
 21
0.0
 31
0.0
  0
LINE
  5
10D
330
DB
100
AcDbEntity
  8
AM_9
100
AcDbLine
 10
-14.67868250028744
 20
1.100000000000004
 30
0.0
 11
-14.67868250028744
 21
-13.59999999999999
 31
0.0
  0
LINE
  5
10E
330
DB
100
AcDbEntity
  8
AM_9
100
AcDbLine
 10
-20.13464254412939
 20
-4.199999999999991
 30
0.0
 11
-20.13464254412939
 21
-7.693788699495656
 31
0.0
  0
LINE
  5
10F
330
DB
100
AcDbEntity
  8
AM_9
100
AcDbLine
 10
-20.13464254412939
 20
1.100000000000004
 30
0.0
 11
-20.13464254412939
 21
-0.1999999999999897
 31
0.0
  0
LINE
  5
110
330
DB
100
AcDbEntity
  8
AM_9
100
AcDbLine
 10
-33.52855555555555
 20
-2.574999999999994
 30
0.0
 11
33.52855555555555
 21
-2.574999999999994
 31
0.0
  0
LINE
  5
111
330
DB
100
AcDbEntity
  8
AM_9
100
AcDbLine
 10
-33.52855555555555
 20
-6.249999999999992
 30
0.0
 11
33.52855555555555
 21
-6.249999999999992
 31
0.0
  0
LINE
  5
112
330
DB
100
AcDbEntity
  8
AM_9
100
AcDbLine
 10
33.52855555555555
 20
-6.249999999999992
 30
0.0
 11
33.52855555555555
 21
-2.574999999999994
 31
0.0
  0
LINE
  5
113
330
DB
100
AcDbEntity
  8
AM_9
100
AcDbLine
 10
-33.52855555555555
 20
-2.574999999999994
 30
0.0
 11
-33.52855555555555
 21
-6.249999999999992
 31
0.0
  0
LINE
  5
114
330
DB
100
AcDbEntity
  8
AM_9
100
AcDbLine
 10
36.28352105295184
 20
1.100000000000005
 30
0.0
 11
37.16675261574515
 21
0.219999999999998
 31
0.0
  0
LINE
  5
115
330
DB
100
AcDbEntity
  8
AM_9
100
AcDbLine
 10
-36.41999999999999
 20
1.100000000000004
 30
0.0
 11
36.28352105295184
 21
1.100000000000005
 31
0.0
  0
LINE
  5
116
330
DB
100
AcDbEntity
  8
AM_9
100
AcDbLine
 10
-15.85539628595161
 20
0.2199999999999997
 30
0.0
 11
-15.41378050455495
 21
1.100000000000002
 31
0.0
  0
LINE
  5
117
330
DB
100
AcDbEntity
  8
AM_9
100
AcDbLine
 10
37.16675261574515
 20
0.219999999999998
 30
0.0
 11
37.16675261574515
 21
0.0
 31
0.0
  0
LINE
  5
118
330
DB
100
AcDbEntity
  8
AM_9
100
AcDbLine
 10
-15.85539628595161
 20
0.2199999999999997
 30
0.0
 11
37.16675261574515
 21
0.219999999999998
 31
0.0
  0
LINE
  5
119
330
DB
100
AcDbEntity
  8
AM_9
100
AcDbLine
 10
-15.85539628595161
 20
0.0
 30
0.0
 11
-15.85539628595161
 21
0.2199999999999997
 31
0.0
  0
LINE
  5
11B
330
DB
100
AcDbEntity
  8
AM_5
100
AcDbLine
 10
-37.07366666666667
 20
-12.94633333333333
 30
0.0
 11
-27.975
 21
-12.94633333333333
 31
0.0
  0
LINE
  5
11C
330
DB
100
AcDbEntity
  8
AM_5
100
AcDbLine
 10
-34.52900000000001
 20
-8.12033333333333
 30
0.0
 11
-29.6547619047619
 21
-8.12033333333333
 31
0.0
  0
LINE
  5
11F
330
DB
100
AcDbEntity
  8
AM_7
100
AcDbLine
 10
-27.50875
 20
-10.53333333333333
 30
0.0
 11
-37.76625
 21
-10.53333333333333
 31
0.0
  0
LINE
  5
120
330
DB
100
AcDbEntity
  8
AM_4
100
AcDbLine
 10
1.250000000000002
 20
-14.7
 30
0.0
 11
1.250000000000003
 21
-13.6
 31
0.0
  0
LINE
  5
121
330
DB
100
AcDbEntity
  8
AM_4
100
AcDbLine
 10
-1.249999999999998
 20
-14.7
 30
0.0
 11
-1.249999999999999
 21
-13.6
 31
0.0
  0
LINE
  5
122
330
DB
100
AcDbEntity
  8
AM_4
100
AcDbLine
 10
27.82698412698412
 20
-14.7
 30
0.0
 11
27.82698412698412
 21
-13.6
 31
0.0
  0
LINE
  5
123
330
DB
100
AcDbEntity
  8
AM_4
100
AcDbLine
 10
-27.82698412698411
 20
-13.6
 30
0.0
 11
-27.82698412698411
 21
-14.7
 31
0.0
  0
LINE
  5
124
330
DB
100
AcDbEntity
  8
AM_4
100
AcDbLine
 10
-27.82698412698411
 20
-14.7
 30
0.0
 11
27.82698412698412
 21
-14.7
 31
0.0
  0
LINE
  5
125
330
DB
100
AcDbEntity
  8
AM_4
100
AcDbLine
 10
-37.3
 20
0.0
 30
0.0
 11
-37.3
 21
-8.123377966248707
 31
0.0
  0
LWPOLYLINE
  5
126
330
DB
100
AcDbEntity
  8
AM_4
100
AcDbPolyline
 90
       18
 70
     0
 43
0.0
 10
-37.29999999999999
 20
-8.120333333333452
 10
-37.29997795483644
 20
-8.120696178307469
 10
-37.29752370334221
 20
-8.161435585590294
 10
-37.29159298060657
 20
-8.262876455608685
 10
-37.2825206423691
 20
-8.42742151260242
 10
-37.2716188839174
 20
-8.643893879547317
 10
-37.25959078932583
 20
-8.91583747812737
 10
-37.24800942555997
 20
-9.230040705337984
 10
-37.23785587679725
 20
-9.587588307126174
 10
-37.2305518775618
 20
-9.970991346065983
 10
-37.22685104417898
 20
-10.3805538372135
 10
-37.22739311472779
 20
-10.79070087197606
 10
-37.23225986023372
 20
-11.20520989342026
 10
-37.24067682829436
 20
-11.59059642334974
 10
-37.25212939656929
 20
-11.95635182979006
 10
-37.26154905552973
 20
-12.19812197900746
 10
-37.27128698098988
 20
-12.41579380743133
 10
-37.28688840282968
 20
-12.72000000000002
  0
LINE
  5
127
330
DB
100
AcDbEntity
  8
AM_4
100
AcDbLine
 10
-37.28688840282967
 20
-12.72000000000001
 30
0.0
 11
-21.31135632979358
 21
-12.71999999999999
 31
0.0
  0
LINE
  5
128
330
DB
100
AcDbEntity
  8
AM_4
100
AcDbLine
 10
-37.28688840282967
 20
-12.72000000000001
 30
0.0
 11
-37.18683333333362
 21
-12.83316666666634
 31
0.0
  0
LINE
  5
129
330
DB
100
AcDbEntity
  8
AM_4
100
AcDbLine
 10
-37.19403152180094
 20
-12.82596847819905
 30
0.0
 11
-36.41999999999999
 21
-13.6
 31
0.0
  0
LINE
  5
12A
330
DB
100
AcDbEntity
  8
AM_4
100
AcDbLine
 10
-21.31135632979357
 20
0.0
 30
0.0
 11
-21.31135632979358
 21
-12.71999999999999
 31
0.0
  0
LINE
  5
12B
330
DB
100
AcDbEntity
  8
AM_4
100
AcDbLine
 10
-21.31135632979358
 20
-12.71999999999999
 30
0.0
 11
-20.86974054839692
 21
-13.6
 31
0.0
  0
LINE
  5
12C
330
DB
100
AcDbEntity
  8
AM_4
100
AcDbLine
 10
-20.13464254412939
 20
-7.693788699495656
 30
0.0
 11
-20.13464254412939
 21
-13.59999999999999
 31
0.0
  0
LINE
  5
12D
330
DB
100
AcDbEntity
  8
AM_4
100
AcDbLine
 10
-20.13464254412939
 20
-0.1999999999999897
 30
0.0
 11
-20.13464254412939
 21
-4.199999999999991
 31
0.0
  0
LINE
  5
12E
330
DB
100
AcDbEntity
  8
AM_4
100
AcDbLine
 10
37.16675261574515
 20
0.0
 30
0.0
 11
37.16675261574516
 21
-12.72
 31
0.0
  0
LINE
  5
12F
330
DB
100
AcDbEntity
  8
AM_4
100
AcDbLine
 10
-15.85539628595161
 20
-12.71999999999999
 30
0.0
 11
-15.85539628595161
 21
0.0
 31
0.0
  0
LINE
  5
130
330
DB
100
AcDbEntity
  8
AM_4
100
AcDbLine
 10
37.16675261574516
 20
-12.72
 30
0.0
 11
36.28352105295184
 21
-13.6
 31
0.0
  0
LINE
  5
131
330
DB
100
AcDbEntity
  8
AM_4
100
AcDbLine
 10
-15.85539628595161
 20
-12.71999999999999
 30
0.0
 11
37.16675261574516
 21
-12.72
 31
0.0
  0
LINE
  5
132
330
DB
100
AcDbEntity
  8
AM_4
100
AcDbLine
 10
-15.41378050455496
 20
-13.6
 30
0.0
 11
-15.85539628595161
 21
-12.71999999999999
 31
0.0
  0
LINE
  5
133
330
DB
100
AcDbEntity
  8
AM_4
100
AcDbLine
 10
-36.41999999999999
 20
-13.6
 30
0.0
 11
36.28352105295184
 21
-13.6
 31
0.0
  0
ENDBLK
  5
DE
330
DB
100
AcDbEntity
  8
0
100
AcDbBlockEnd
  0
BLOCK
  5
136
330
134
100
AcDbEntity
  8
0
100
AcDbBlockBegin
  2
4_129471_0_in_136279_4
 70
     2
 10
0.0
 20
0.0
 30
0.0
  3
4_129471_0_in_136279_4
  1

  0
ATTDEF
  5
138
330
134
100
AcDbEntity
  8
AM_6
100
AcDbText
 10
76.45
 20
39.165
 30
0.0
 40
0.5
  1
BODY
100
AcDbAttributeDefinition
  3

  2
NN
 70
     8
280
     0
  0
ATTDEF
  5
139
330
134
100
AcDbEntity
  8
AM_6
100
AcDbText
 10
76.45
 20
38.665
 30
0.0
 40
0.5
  1
Grip Tight Adapter Ball Berarings
100
AcDbAttributeDefinition
  3

  2
NT
 70
     8
280
     0
  0
ATTDEF
  5
13A
330
134
100
AcDbEntity
  8
AM_6
100
AcDbText
 10
76.45
 20
38.165
 30
0.0
 40
0.5
  1
129471
100
AcDbAttributeDefinition
  3

  2
NB
 70
     8
280
     0
  0
ATTDEF
  5
13B
330
134
100
AcDbEntity
  8
AM_6
100
AcDbText
 10
76.45
 20
37.665
 30
0.0
 40
0.5
  1
$PN.$LUBE.
100
AcDbAttributeDefinition
  3

  2
NBSYN
 70
     8
280
     0
  0
ATTDEF
  5
13C
330
134
100
AcDbEntity
  8
AM_6
100
AcDbText
 10
76.45
 20
37.165
 30
0.0
 40
0.5
  1
129471
100
AcDbAttributeDefinition
  3

  2
LINA
 70
     8
280
     0
  0
ATTDEF
  5
13D
330
134
100
AcDbEntity
  8
AM_6
100
AcDbText
 10
76.45
 20
36.665
 30
0.0
 40
0.5
  1
210
100
AcDbAttributeDefinition
  3

  2
SERIES
 70
     8
280
     0
  0
ATTDEF
  5
13E
330
134
100
AcDbEntity
  8
AM_6
100
AcDbText
 10
76.45
 20
36.165
 30
0.0
 40
0.5
  1
129471
100
AcDbAttributeDefinition
  3

  2
PN
 70
     8
280
     0
  0
ATTDEF
  5
13F
330
134
100
AcDbEntity
  8
AM_6
100
AcDbText
 10
76.45
 20
35.665
 30
0.0
 40
0.5
  1
F4B-GT-10
100
AcDbAttributeDefinition
  3

  2
DESCRIPTION
 70
     8
280
     0
  0
ATTDEF
  5
140
330
134
100
AcDbEntity
  8
AM_6
100
AcDbText
 10
76.45
 20
35.165
 30
0.0
 40
0.5
  1
With Lube
100
AcDbAttributeDefinition
  3

  2
LUBE
 70
     8
280
     0
  0
ATTDEF
  5
141
330
134
100
AcDbEntity
  8
AM_6
100
AcDbText
 10
76.45
 20
34.665
 30
0.0
 40
0.5
  1
3.1
100
AcDbAttributeDefinition
  3

  2
WEIGHT
 70
     8
280
     0
  0
ATTDEF
  5
142
330
134
100
AcDbEntity
  8
AM_6
100
AcDbText
 10
76.45
 20
34.165
 30
0.0
 40
0.5
  1
47.2
100
AcDbAttributeDefinition
  3

  2
A
 70
     8
280
     0
  0
ATTDEF
  5
143
330
134
100
AcDbEntity
  8
AM_6
100
AcDbText
 10
76.45
 20
33.665
 30
0.0
 40
0.5
  1
142.9
100
AcDbAttributeDefinition
  3

  2
B
 70
     8
280
     0
  0
ATTDEF
  5
144
330
134
100
AcDbEntity
  8
AM_6
100
AcDbText
 10
76.45
 20
33.165
 30
0.0
 40
0.5
  1
52.0
100
AcDbAttributeDefinition
  3

  2
C
 70
     8
280
     0
  0
ATTDEF
  5
145
330
134
100
AcDbEntity
  8
AM_6
100
AcDbText
 10
76.45
 20
32.665
 30
0.0
 40
0.5
  1
M16
100
AcDbAttributeDefinition
  3

  2
F
 70
     8
280
     0
  0
ATTDEF
  5
146
330
134
100
AcDbEntity
  8
AM_6
100
AcDbText
 10
76.45
 20
32.165
 30
0.0
 40
0.5
  1
15.9
100
AcDbAttributeDefinition
  3

  2
H
 70
     8
280
     0
  0
ATTDEF
  5
147
330
134
100
AcDbEntity
  8
AM_6
100
AcDbText
 10
76.45
 20
31.665
 30
0.0
 40
0.5
  1
13.5
100
AcDbAttributeDefinition
  3

  2
J
 70
     8
280
     0
  0
ATTDEF
  5
148
330
134
100
AcDbEntity
  8
AM_6
100
AcDbText
 10
76.45
 20
31.165
 30
0.0
 40
0.5
  1
74.6
100
AcDbAttributeDefinition
  3

  2
L
 70
     8
280
     0
  0
ATTDEF
  5
149
330
134
100
AcDbEntity
  8
AM_6
100
AcDbText
 10
76.45
 20
30.665
 30
0.0
 40
0.5
  1
73.0
100
AcDbAttributeDefinition
  3

  2
N
 70
     8
280
     0
  0
ATTDEF
  5
14A
330
134
100
AcDbEntity
  8
AM_6
100
AcDbText
 10
76.45
 20
30.165
 30
0.0
 40
0.5
  1
50.8
100
AcDbAttributeDefinition
  3

  2
Z
 70
     8
280
     0
  0
ATTDEF
  5
14B
330
134
100
AcDbEntity
  8
AM_6
100
AcDbText
 10
76.45
 20
29.665
 30
0.0
 40
0.5
  1
Infotext
100
AcDbAttributeDefinition
  3

  2
INFO
 70
     8
280
     0
  0
ATTDEF
  5
14C
330
134
100
AcDbEntity
  8
AM_6
100
AcDbText
 10
76.45
 20
29.165
 30
0.0
 40
0.5
  1
baldor
100
AcDbAttributeDefinition
  3

  2
COMPANY
 70
     8
280
     0
  0
LINE
  5
14D
330
134
100
AcDbEntity
  8
AM_9
100
AcDbLine
 10
52.02754834011329
 20
21.39999999999998
 30
0.0
 11
52.02754834011329
 21
23.3875
 31
0.0
  0
LINE
  5
14E
330
134
100
AcDbEntity
  8
AM_9
100
AcDbLine
 10
4.23717262799869
 20
23.3875
 30
0.0
 11
4.23717262799869
 21
23.8875
 31
0.0
  0
LINE
  5
14F
330
134
100
AcDbEntity
  8
AM_9
100
AcDbLine
 10
8.51321837612022
 20
23.3875
 30
0.0
 11
8.51321837612022
 21
23.8875
 31
0.0
  0
LINE
  5
150
330
134
100
AcDbEntity
  8
AM_9
100
AcDbLine
 10
-5.09238155766042
 20
23.3875
 30
0.0
 11
-5.09238155766042
 21
23.8875
 31
0.0
  0
LINE
  5
151
330
134
100
AcDbEntity
  8
AM_9
100
AcDbLine
 10
1.74929152807863
 20
23.3875
 30
0.0
 11
1.74929152807863
 21
23.8875
 31
0.0
  0
LINE
  5
152
330
134
100
AcDbEntity
  8
AM_9
100
AcDbLine
 10
-1.9825302538809
 20
23.3875
 30
0.0
 11
-1.9825302538809
 21
23.8875
 31
0.0
  0
LINE
  5
153
330
134
100
AcDbEntity
  8
AM_9
100
AcDbLine
 10
2.37126187163949
 20
23.3875
 30
0.0
 11
2.37126187163949
 21
23.8875
 31
0.0
  0
LINE
  5
154
330
134
100
AcDbEntity
  8
AM_9
100
AcDbLine
 10
-5.71435203838155
 20
23.3875
 30
0.0
 11
-5.71435203838155
 21
23.8875
 31
0.0
  0
LINE
  5
155
330
134
100
AcDbEntity
  8
AM_9
100
AcDbLine
 10
-4.62590410860145
 20
23.3875
 30
0.0
 11
-4.62590410860145
 21
23.8875
 31
0.0
  0
LINE
  5
156
330
134
100
AcDbEntity
  8
AM_9
100
AcDbLine
 10
-6.18082948744046
 20
23.3875
 30
0.0
 11
-6.18082948744046
 21
23.8875
 31
0.0
  0
LINE
  5
157
330
134
100
AcDbEntity
  8
AM_9
100
AcDbLine
 10
1.28281380723882
 20
23.3875
 30
0.0
 11
1.28281380723882
 21
23.8875
 31
0.0
  0
LINE
  5
158
330
134
100
AcDbEntity
  8
AM_9
100
AcDbLine
 10
5.40336707233928
 20
23.3875
 30
0.0
 11
5.40336707233928
 21
23.8875
 31
0.0
  0
LINE
  5
159
330
134
100
AcDbEntity
  8
AM_9
100
AcDbLine
 10
-2.44900797726041
 20
23.3875
 30
0.0
 11
-2.44900797726041
 21
23.8875
 31
0.0
  0
LINE
  5
15A
330
134
100
AcDbEntity
  8
AM_9
100
AcDbLine
 10
2.83773945785873
 20
23.3875
 30
0.0
 11
2.83773945785873
 21
23.8875
 31
0.0
  0
LINE
  5
15B
330
134
100
AcDbEntity
  8
AM_9
100
AcDbLine
 10
-5.79209828115978
 20
23.3875
 30
0.0
 11
-5.79209828115978
 21
23.8875
 31
0.0
  0
LINE
  5
15C
330
134
100
AcDbEntity
  8
AM_9
100
AcDbLine
 10
1.67154528783862
 20
23.3875
 30
0.0
 11
1.67154528783862
 21
23.8875
 31
0.0
  0
LINE
  5
15D
330
134
100
AcDbEntity
  8
AM_9
100
AcDbLine
 10
-2.06027649666055
 20
23.3875
 30
0.0
 11
-2.06027649666055
 21
23.8875
 31
0.0
  0
LINE
  5
15E
330
134
100
AcDbEntity
  8
AM_9
100
AcDbLine
 10
2.44900811441914
 20
23.3875
 30
0.0
 11
2.44900811441914
 21
23.8875
 31
0.0
  0
LINE
  5
15F
330
134
100
AcDbEntity
  8
AM_9
100
AcDbLine
 10
-5.01463531742041
 20
23.3875
 30
0.0
 11
-5.01463531742041
 21
23.8875
 31
0.0
  0
LINE
  5
160
330
134
100
AcDbEntity
  8
AM_9
100
AcDbLine
 10
4.93688907463922
 20
23.3875
 30
0.0
 11
4.93688907463922
 21
23.8875
 31
0.0
  0
LINE
  5
161
330
134
100
AcDbEntity
  8
AM_9
100
AcDbLine
 10
-4.3926648367007
 20
23.3875
 30
0.0
 11
-4.3926648367007
 21
23.8875
 31
0.0
  0
LINE
  5
162
330
134
100
AcDbEntity
  8
AM_9
100
AcDbLine
 10
-5.94759076418086
 20
23.3875
 30
0.0
 11
-5.94759076418086
 21
23.8875
 31
0.0
  0
LINE
  5
163
330
134
100
AcDbEntity
  8
AM_9
100
AcDbLine
 10
1.51605266766018
 20
23.3875
 30
0.0
 11
1.51605266766018
 21
23.8875
 31
0.0
  0
LINE
  5
164
330
134
100
AcDbEntity
  8
AM_9
100
AcDbLine
 10
5.32562082955962
 20
23.3875
 30
0.0
 11
5.32562082955962
 21
23.8875
 31
0.0
  0
LINE
  5
165
330
134
100
AcDbEntity
  8
AM_9
100
AcDbLine
 10
2.604500734599068
 20
23.3875
 30
0.0
 11
2.60450073459907
 21
23.8875
 31
0.0
  0
LINE
  5
166
330
134
100
AcDbEntity
  8
AM_9
100
AcDbLine
 10
-6.414068213241251
 20
23.3875
 30
0.0
 11
-6.414068213241251
 21
23.8875
 31
0.0
  0
LINE
  5
167
330
134
100
AcDbEntity
  8
AM_9
100
AcDbLine
 10
-2.21576897968021
 20
23.3875
 30
0.0
 11
-2.21576897968021
 21
23.8875
 31
0.0
  0
LINE
  5
168
330
134
100
AcDbEntity
  8
AM_9
100
AcDbLine
 10
1.04957494427924
 20
23.3875
 30
0.0
 11
1.04957494427924
 21
23.8875
 31
0.0
  0
LINE
  5
169
330
134
100
AcDbEntity
  8
AM_9
100
AcDbLine
 10
-2.68224670306114
 20
23.3875
 30
0.0
 11
-2.68224670306114
 21
23.8875
 31
0.0
  0
LINE
  5
16A
330
134
100
AcDbEntity
  8
AM_9
100
AcDbLine
 10
-4.859142834400764
 20
23.3875
 30
0.0
 11
-4.85914283440076
 21
23.8875
 31
0.0
  0
LINE
  5
16B
330
134
100
AcDbEntity
  8
AM_9
100
AcDbLine
 10
4.85914283439928
 20
23.3875
 30
0.0
 11
4.85914283439928
 21
23.8875
 31
0.0
  0
LINE
  5
16C
330
134
100
AcDbEntity
  8
AM_9
100
AcDbLine
 10
3.07097845544035
 20
23.3875
 30
0.0
 11
3.07097845544035
 21
23.8875
 31
0.0
  0
LINE
  5
16D
330
134
100
AcDbEntity
  8
AM_9
100
AcDbLine
 10
0.81633611687954
 20
23.3875
 30
0.0
 11
0.81633611687954
 21
23.8875
 31
0.0
  0
LINE
  5
16E
330
134
100
AcDbEntity
  8
AM_9
100
AcDbLine
 10
-4.1594261134411
 20
23.3875
 30
0.0
 11
-4.1594261134411
 21
23.8875
 31
0.0
  0
LINE
  5
16F
330
134
100
AcDbEntity
  8
AM_9
100
AcDbLine
 10
6.49181499957973
 20
23.3875
 30
0.0
 11
6.49181499957973
 21
23.8875
 31
0.0
  0
LINE
  5
170
330
134
100
AcDbEntity
  8
AM_9
100
AcDbLine
 10
-0.894082189481651
 20
23.3875
 30
0.0
 11
-0.894082189481651
 21
23.8875
 31
0.0
  0
LINE
  5
171
330
134
100
AcDbEntity
  8
AM_9
100
AcDbLine
 10
-2.915485700639921
 20
23.3875
 30
0.0
 11
-2.915485700639921
 21
23.8875
 31
0.0
  0
LINE
  5
172
330
134
100
AcDbEntity
  8
AM_9
100
AcDbLine
 10
3.30421718123966
 20
23.3875
 30
0.0
 11
3.30421718123966
 21
23.8875
 31
0.0
  0
LINE
  5
173
330
134
100
AcDbEntity
  8
AM_9
100
AcDbLine
 10
-8.35772534700066
 20
23.3875
 30
0.0
 11
-8.35772534700066
 21
23.8875
 31
0.0
  0
LINE
  5
174
330
134
100
AcDbEntity
  8
AM_9
100
AcDbLine
 10
-6.64730748514057
 20
23.3875
 30
0.0
 11
-6.64730748514057
 21
23.8875
 31
0.0
  0
LINE
  5
175
330
134
100
AcDbEntity
  8
AM_9
100
AcDbLine
 10
4.62590410859849
 20
23.3875
 30
0.0
 11
4.62590410859849
 21
23.8875
 31
0.0
  0
LINE
  5
176
330
134
100
AcDbEntity
  8
AM_9
100
AcDbLine
 10
-6.25857573022017
 20
23.3875
 30
0.0
 11
-6.25857573022017
 21
23.8875
 31
0.0
  0
LINE
  5
177
330
134
100
AcDbEntity
  8
AM_9
100
AcDbLine
 10
-2.52675422004006
 20
23.3875
 30
0.0
 11
-2.52675422004006
 21
23.8875
 31
0.0
  0
LINE
  5
178
330
134
100
AcDbEntity
  8
AM_9
100
AcDbLine
 10
2.91548570063981
 20
23.3875
 30
0.0
 11
2.91548570063981
 21
23.8875
 31
0.0
  0
LINE
  5
179
330
134
100
AcDbEntity
  8
AM_9
100
AcDbLine
 10
5.01463531741888
 20
23.3875
 30
0.0
 11
5.01463531741888
 21
23.8875
 31
0.0
  0
LINE
  5
17A
330
134
100
AcDbEntity
  8
AM_9
100
AcDbLine
 10
1.20506756445917
 20
23.3875
 30
0.0
 11
1.20506756445917
 21
23.8875
 31
0.0
  0
LINE
  5
17B
330
134
100
AcDbEntity
  8
AM_9
100
AcDbLine
 10
-4.5481578683615
 20
23.3875
 30
0.0
 11
-4.5481578683615
 21
23.8875
 31
0.0
  0
LINE
  5
17C
330
134
100
AcDbEntity
  8
AM_9
100
AcDbLine
 10
-6.56956124236086
 20
23.3875
 30
0.0
 11
-6.56956124236086
 21
23.8875
 31
0.0
  0
LINE
  5
17D
330
134
100
AcDbEntity
  8
AM_9
100
AcDbLine
 10
0.894082392679422
 20
23.3875
 30
0.0
 11
0.894082392679422
 21
23.8875
 31
0.0
  0
LINE
  5
17E
330
134
100
AcDbEntity
  8
AM_9
100
AcDbLine
 10
4.70365035137962
 20
23.3875
 30
0.0
 11
4.70365035137962
 21
23.8875
 31
0.0
  0
LINE
  5
17F
330
134
100
AcDbEntity
  8
AM_9
100
AcDbLine
 10
3.22647094099966
 20
23.3875
 30
0.0
 11
3.22647094099966
 21
23.8875
 31
0.0
  0
LINE
  5
180
330
134
100
AcDbEntity
  8
AM_9
100
AcDbLine
 10
-4.23717235368105
 20
23.3875
 30
0.0
 11
-4.23717235368105
 21
23.8875
 31
0.0
  0
LINE
  5
181
330
134
100
AcDbEntity
  8
AM_9
100
AcDbLine
 10
-2.8377391860808
 20
23.3875
 30
0.0
 11
-2.8377391860808
 21
23.8875
 31
0.0
  0
LINE
  5
182
330
134
100
AcDbEntity
  8
AM_9
100
AcDbLine
 10
5.40336707233928
 20
23.8875
 30
0.0
 11
2.37126187163949
 21
23.8875
 31
0.0
  0
LINE
  5
183
330
134
100
AcDbEntity
  8
AM_9
100
AcDbLine
 10
0.5053509628790491
 20
23.3875
 30
0.0
 11
0.5053509628790491
 21
23.8875
 31
0.0
  0
LINE
  5
184
330
134
100
AcDbEntity
  8
AM_9
100
AcDbLine
 10
1.74929152807863
 20
23.8875
 30
0.0
 11
-1.36055991285969
 21
23.8875
 31
0.0
  0
LINE
  5
185
330
134
100
AcDbEntity
  8
AM_9
100
AcDbLine
 10
-1.36055991285969
 20
23.3875
 30
0.0
 11
-1.36055991285969
 21
23.8875
 31
0.0
  0
LINE
  5
186
330
134
100
AcDbEntity
  8
AM_9
100
AcDbLine
 10
-6.95829245117983
 20
23.3875
 30
0.0
 11
-6.95829245117983
 21
23.8875
 31
0.0
  0
LINE
  5
187
330
134
100
AcDbEntity
  8
AM_9
100
AcDbLine
 10
-3.84844114740037
 20
23.3875
 30
0.0
 11
-3.84844114740037
 21
23.8875
 31
0.0
  0
LINE
  5
188
330
134
100
AcDbEntity
  8
AM_9
100
AcDbLine
 10
-3.22647066668065
 20
23.3875
 30
0.0
 11
-3.22647066668065
 21
23.8875
 31
0.0
  0
LINE
  5
189
330
134
100
AcDbEntity
  8
AM_9
100
AcDbLine
 10
3.61520242159952
 20
23.3875
 30
0.0
 11
3.61520242159952
 21
23.8875
 31
0.0
  0
LINE
  5
18A
330
134
100
AcDbEntity
  8
AM_9
100
AcDbLine
 10
4.31491886823864
 20
23.3875
 30
0.0
 11
4.31491886823864
 21
23.8875
 31
0.0
  0
LINE
  5
18B
330
134
100
AcDbEntity
  8
AM_9
100
AcDbLine
 10
-1.9825302538809
 20
23.8875
 30
0.0
 11
-5.09238155766042
 21
23.8875
 31
0.0
  0
LINE
  5
18C
330
134
100
AcDbEntity
  8
AM_9
100
AcDbLine
 10
6.025337004419321
 20
23.3875
 30
0.0
 11
6.025337004419321
 21
23.8875
 31
0.0
  0
LINE
  5
18D
330
134
100
AcDbEntity
  8
AM_9
100
AcDbLine
 10
-8.82420334215959
 20
23.3875
 30
0.0
 11
-8.82420334215959
 21
23.8875
 31
0.0
  0
LINE
  5
18E
330
134
100
AcDbEntity
  8
AM_9
100
AcDbLine
 10
-5.71435203838155
 20
23.8875
 30
0.0
 11
-8.82420334215959
 21
23.8875
 31
0.0
  0
LINE
  5
18F
330
134
100
AcDbEntity
  8
AM_9
100
AcDbLine
 10
8.82420334215954
 20
23.3875
 30
0.0
 11
8.82420334215954
 21
23.8875
 31
0.0
  0
LINE
  5
190
330
134
100
AcDbEntity
  8
AM_9
100
AcDbLine
 10
8.82420334215954
 20
23.8875
 30
0.0
 11
6.025337004419321
 21
23.8875
 31
0.0
  0
LINE
  5
191
330
134
100
AcDbEntity
  8
AM_9
100
AcDbLine
 10
-41.96279459322076
 20
21.39999999999998
 30
0.0
 11
-41.96279459322076
 21
23.3875
 31
0.0
  0
LINE
  5
192
330
134
100
AcDbEntity
  8
AM_9
100
AcDbLine
 10
64.12244569566357
 20
21.39999999999998
 30
0.0
 11
64.12244569566357
 21
23.3875
 31
0.0
  0
LINE
  5
193
330
134
100
AcDbEntity
  8
AM_9
100
AcDbLine
 10
-71.16986213946218
 20
21.39999999999998
 30
0.0
 11
-71.16986213946218
 21
23.3875
 31
0.0
  0
LINE
  5
194
330
134
100
AcDbEntity
  8
AM_9
100
AcDbLine
 10
52.5831220157713
 20
23.3875
 30
0.0
 11
52.58312201577129
 21
21.38541523678843
 31
0.0
  0
LINE
  5
195
330
134
100
AcDbEntity
  8
AM_9
100
AcDbLine
 10
-57.72
 20
23.3875
 30
0.0
 11
-57.72
 21
21.39999999999998
 31
0.0
  0
LINE
  5
196
330
134
100
AcDbEntity
  8
AM_9
100
AcDbLine
 10
57.72
 20
21.39999999999998
 30
0.0
 11
57.72
 21
23.3875
 31
0.0
  0
LINE
  5
197
330
134
100
AcDbEntity
  8
AM_9
100
AcDbLine
 10
53.15821851493231
 20
21.39999999999998
 30
0.0
 11
53.15821851493231
 21
23.3875
 31
0.0
  0
LINE
  5
198
330
134
100
AcDbEntity
  8
AM_9
100
AcDbLine
 10
52.85135308292806
 20
21.39999999999997
 30
0.0
 11
52.85135308292806
 21
23.3875
 31
0.0
  0
LINE
  5
199
330
134
100
AcDbEntity
  8
AM_9
100
AcDbLine
 10
-53.15821851493231
 20
21.39999999999998
 30
0.0
 11
-53.15821851493231
 21
23.3875
 31
0.0
  0
LINE
  5
19A
330
134
100
AcDbEntity
  8
AM_9
100
AcDbLine
 10
-52.85135308292806
 20
21.39999999999997
 30
0.0
 11
-52.85135308292806
 21
23.3875
 31
0.0
  0
LINE
  5
19B
330
134
100
AcDbEntity
  8
AM_9
100
AcDbLine
 10
-52.58312201577128
 20
21.38541523678843
 30
0.0
 11
-52.58312201577128
 21
23.3875
 31
0.0
  0
LINE
  5
19C
330
134
100
AcDbEntity
  8
AM_9
100
AcDbLine
 10
-64.12244569566357
 20
21.39999999999998
 30
0.0
 11
-64.12244569566357
 21
23.3875
 31
0.0
  0
LINE
  5
19D
330
134
100
AcDbEntity
  8
AM_9
100
AcDbLine
 10
-71.45
 20
23.3875
 30
0.0
 11
-53.71114561800019
 21
23.3875
 31
0.0
  0
LINE
  5
19E
330
134
100
AcDbEntity
  8
AM_9
100
AcDbLine
 10
45.0
 20
0.0
 30
0.0
 11
45.0
 21
37.3
 31
0.0
  0
LINE
  5
19F
330
134
100
AcDbEntity
  8
AM_9
100
AcDbLine
 10
-45.0
 20
37.3
 30
0.0
 11
-45.0
 21
0.0
 31
0.0
  0
LINE
  5
1A0
330
134
100
AcDbEntity
  8
AM_9
100
AcDbLine
 10
71.16986213946218
 20
21.39999999999998
 30
0.0
 11
71.16986213946218
 21
23.3875
 31
0.0
  0
LINE
  5
1A1
330
134
100
AcDbEntity
  8
AM_9
100
AcDbLine
 10
53.71114561800056
 20
23.3875
 30
0.0
 11
71.45
 21
23.3875
 31
0.0
  0
LINE
  5
1A2
330
134
100
AcDbEntity
  8
AM_9
100
AcDbLine
 10
7.999390827019818
 20
0.9651005032974904
 30
0.0
 11
-7.999390827019096
 21
0.9651005032974904
 31
0.0
  0
LINE
  5
1A3
330
134
100
AcDbEntity
  8
AM_9
100
AcDbLine
 10
-7.999999999999998
 20
21.31177559204406
 30
0.0
 11
8.000000000000002
 21
21.31177559204406
 31
0.0
  0
LINE
  5
1A4
330
134
100
AcDbEntity
  8
AM_9
100
AcDbLine
 10
7.999999999999998
 20
20.4348994967025
 30
0.0
 11
-8.000000000000002
 21
20.4348994967025
 31
0.0
  0
LINE
  5
1A5
330
134
100
AcDbEntity
  8
AM_9
100
AcDbLine
 10
-47.25
 20
21.4
 30
0.0
 11
-47.25
 21
37.3
 31
0.0
  0
LINE
  5
1A6
330
134
100
AcDbEntity
  8
AM_9
100
AcDbLine
 10
-63.75
 20
37.3
 30
0.0
 11
-63.75
 21
21.4
 31
0.0
  0
LINE
  5
1A7
330
134
100
AcDbEntity
  8
AM_9
100
AcDbLine
 10
63.75
 20
21.4
 30
0.0
 11
63.75
 21
37.3
 31
0.0
  0
LINE
  5
1A8
330
134
100
AcDbEntity
  8
AM_9
100
AcDbLine
 10
47.25
 20
37.3
 30
0.0
 11
47.25
 21
21.4
 31
0.0
  0
CIRCLE
  5
1A9
330
134
100
AcDbEntity
  8
AM_9
100
AcDbCircle
 10
0.0
 20
7.000000000000004
 30
0.0
 40
2.0
  0
CIRCLE
  5
1AA
330
134
100
AcDbEntity
  8
AM_9
100
AcDbCircle
 10
0.0
 20
7.000000000000004
 30
0.0
 40
2.547965932284982
  0
LINE
  5
1AB
330
134
100
AcDbEntity
  8
AM_7
100
AcDbLine
 10
0.000000000000002
 20
-17.06
 30
0.0
 11
0.0
 21
39.165
 31
0.0
  0
LINE
  5
1AC
330
134
100
AcDbEntity
  8
AM_7
100
AcDbLine
 10
-55.5
 20
38.17449999999999
 30
0.0
 11
-55.5
 21
18.93549999999999
 31
0.0
  0
LINE
  5
1AD
330
134
100
AcDbEntity
  8
AM_7
100
AcDbLine
 10
55.5
 20
38.17449999999999
 30
0.0
 11
55.5
 21
18.93549999999999
 31
0.0
  0
LINE
  5
1AE
330
134
100
AcDbEntity
  8
AM_7
100
AcDbLine
 10
-4.199999999999996
 20
7.000000000000007
 30
0.0
 11
4.199999999999998
 21
7.000000000000007
 31
0.0
  0
LINE
  5
1AF
330
134
100
AcDbEntity
  8
AM_4
100
AcDbLine
 10
-57.72
 20
21.39999999999998
 30
0.0
 11
-57.72
 21
21.31177559204416
 31
0.0
  0
LINE
  5
1B0
330
134
100
AcDbEntity
  8
AM_4
100
AcDbLine
 10
57.72
 20
21.31177559204393
 30
0.0
 11
57.72
 21
21.39999999999998
 31
0.0
  0
LINE
  5
1B1
330
134
100
AcDbEntity
  8
AM_4
100
AcDbLine
 10
52.85135308292806
 20
21.31177559204404
 30
0.0
 11
52.85135308292806
 21
21.39999999999997
 31
0.0
  0
LWPOLYLINE
  5
1B2
330
134
100
AcDbEntity
  8
AM_4
100
AcDbPolyline
 90
        3
 70
     0
 43
0.0
 10
52.58878561655929
 20
21.37917039233575
 10
52.65290733001302
 20
21.33995395589407
 10
52.85135308292801
 20
21.31177559204411
  0
LINE
  5
1B3
330
134
100
AcDbEntity
  8
AM_4
100
AcDbLine
 10
-52.85135308292806
 20
21.31177559204411
 30
0.0
 11
-52.85135308292806
 21
21.39999999999997
 31
0.0
  0
LINE
  5
1B4
330
134
100
AcDbEntity
  8
AM_4
100
AcDbLine
 10
-52.58312202437084
 20
21.39171352064574
 30
0.0
 11
-52.59132971366965
 21
21.39970699938109
 31
0.0
  0
LINE
  5
1B5
330
134
100
AcDbEntity
  8
AM_4
100
AcDbLine
 10
-55.45200675806953
 20
0.0
 30
0.0
 11
55.45200675806953
 21
0.0
 31
0.0
  0
ARC
  5
1B6
330
134
100
AcDbEntity
  8
AM_4
100
AcDbCircle
 10
55.45200675806953
 20
1.000000000000005
 30
0.0
 40
1.000000000000004
100
AcDbArc
 50
270.0
 51
357.9999999999991
  0
ARC
  5
1B7
330
134
100
AcDbEntity
  8
AM_4
100
AcDbCircle
 10
-55.45200675806953
 20
1.000000000000005
 30
0.0
 40
1.000000000000003
100
AcDbArc
 50
182.0000000000008
 51
270.0
  0
LINE
  5
1B8
330
134
100
AcDbEntity
  8
AM_4
100
AcDbLine
 10
7.999390827019818
 20
0.9651005033181879
 30
0.0
 11
56.45139758508863
 21
0.9651005032974904
 31
0.0
  0
LINE
  5
1B9
330
134
100
AcDbEntity
  8
AM_4
100
AcDbLine
 10
56.45139758508863
 20
0.9651005032974904
 30
0.0
 11
57.13129794778798
 21
20.4348994967025
 31
0.0
  0
LINE
  5
1BA
330
134
100
AcDbEntity
  8
AM_4
100
AcDbLine
 10
-57.13129794778798
 20
20.4348994967025
 30
0.0
 11
-56.45139758508863
 21
0.9651005032974904
 31
0.0
  0
LINE
  5
1BB
330
134
100
AcDbEntity
  8
AM_4
100
AcDbLine
 10
-56.45139758508863
 20
0.9651005032974904
 30
0.0
 11
-7.999390827019096
 21
0.9651005032974995
 31
0.0
  0
LINE
  5
1BC
330
134
100
AcDbEntity
  8
AM_4
100
AcDbLine
 10
23.20200157968425
 20
21.31177559204412
 30
0.0
 11
23.20200157968425
 21
23.3875
 31
0.0
  0
LINE
  5
1BD
330
134
100
AcDbEntity
  8
AM_4
100
AcDbLine
 10
-23.20200157968425
 20
21.31177559204403
 30
0.0
 11
-23.20200157968425
 21
23.3875
 31
0.0
  0
LINE
  5
1BE
330
134
100
AcDbEntity
  8
AM_4
100
AcDbLine
 10
7.999999999999998
 20
20.43489949670267
 30
0.0
 11
57.13129794778798
 21
20.4348994967025
 31
0.0
  0
LINE
  5
1BF
330
134
100
AcDbEntity
  8
AM_4
100
AcDbLine
 10
-7.999999999999998
 20
21.31177559204403
 30
0.0
 11
-23.20200157968425
 21
21.31177559204403
 31
0.0
  0
LWPOLYLINE
  5
1C0
330
134
100
AcDbEntity
  8
AM_4
100
AcDbPolyline
 90
        4
 70
     0
 43
0.0
 10
-24.75724670155167
 20
21.4
 10
-24.29057617859557
 20
21.37917039233576
 10
-23.81773828931328
 20
21.33995395589407
 10
-23.20200157968425
 20
21.31177559204403
  0
LWPOLYLINE
  5
1C1
330
134
100
AcDbEntity
  8
AM_4
100
AcDbPolyline
 90
        3
 70
     0
 43
0.0
 10
-52.85135308292806
 20
21.31177559204414
 10
-52.69012488745321
 20
21.3285368283495
 10
-52.59992709599693
 20
21.36820951457985
  0
LINE
  5
1C2
330
134
100
AcDbEntity
  8
AM_4
100
AcDbLine
 10
-52.85135308292806
 20
21.31177559204411
 30
0.0
 11
-57.72000000000003
 21
21.31177559204416
 31
0.0
  0
LWPOLYLINE
  5
1C3
330
134
100
AcDbEntity
  8
AM_4
100
AcDbPolyline
 90
        4
 70
     0
 43
0.0
 10
23.20200157968425
 20
21.31177559204412
 10
23.66230394025821
 20
21.3285368283495
 10
24.15378899437
 20
21.36820951457985
 10
24.75724670155169
 20
21.4
  0
LINE
  5
1C4
330
134
100
AcDbEntity
  8
AM_4
100
AcDbLine
 10
23.20200157968425
 20
21.31177559204412
 30
0.0
 11
8.000000000000002
 21
21.31177559204404
 31
0.0
  0
ARC
  5
1C5
330
134
100
AcDbEntity
  8
AM_4
100
AcDbCircle
 10
58.13068877480709
 20
20.39999999999998
 30
0.0
 40
1.000000000000014
100
AcDbArc
 50
114.248109903188
 51
177.9999999999991
  0
ARC
  5
1C6
330
134
100
AcDbEntity
  8
AM_4
100
AcDbCircle
 10
-58.13068877480707
 20
20.4
 30
0.0
 40
0.9999999999999886
100
AcDbArc
 50
1.999999999999765
 51
65.75189009684482
  0
LINE
  5
1C7
330
134
100
AcDbEntity
  8
AM_4
100
AcDbLine
 10
-57.13129794778798
 20
20.4348994967025
 30
0.0
 11
-8.000000000000002
 21
20.43489949670169
 31
0.0
  0
LINE
  5
1C8
330
134
100
AcDbEntity
  8
AM_4
100
AcDbLine
 10
57.71999999999952
 20
21.31177559204393
 30
0.0
 11
52.85135308292806
 21
21.31177559204404
 31
0.0
  0
LINE
  5
1C9
330
134
100
AcDbEntity
  8
AM_4
100
AcDbLine
 10
8.0
 20
1.000000000000006
 30
0.0
 11
7.999999999999998
 21
23.3875
 31
0.0
  0
LINE
  5
1CA
330
134
100
AcDbEntity
  8
AM_4
100
AcDbLine
 10
-8.000000000000002
 20
23.3875
 30
0.0
 11
-8.0
 21
1.000000000000005
 31
0.0
  0
ARC
  5
1CB
330
134
100
AcDbEntity
  8
AM_4
100
AcDbCircle
 10
-7.000000000000002
 20
1.000000000000003
 30
0.0
 40
0.9999999999999982
100
AcDbArc
 50
180.0
 51
270.0
  0
ARC
  5
1CC
330
134
100
AcDbEntity
  8
AM_4
100
AcDbCircle
 10
6.999999999999999
 20
1.000000000000005
 30
0.0
 40
1.000000000000001
100
AcDbArc
 50
270.0
 51
0.0
  0
LINE
  5
1CD
330
134
100
AcDbEntity
  8
AM_4
100
AcDbLine
 10
26.30425539959166
 20
21.39999999999998
 30
0.0
 11
26.30425539959166
 21
23.3875
 31
0.0
  0
LINE
  5
1CE
330
134
100
AcDbEntity
  8
AM_4
100
AcDbLine
 10
-2.309401076758504
 20
3.000000000000004
 30
0.0
 11
-4.618802153517007
 21
7.000000000000005
 31
0.0
  0
LINE
  5
1CF
330
134
100
AcDbEntity
  8
AM_4
100
AcDbLine
 10
-4.618802153517007
 20
7.000000000000005
 30
0.0
 11
-2.309401076758504
 21
11.0
 31
0.0
  0
LINE
  5
1D0
330
134
100
AcDbEntity
  8
AM_4
100
AcDbLine
 10
-2.309401076758504
 20
11.0
 30
0.0
 11
2.309401076758504
 21
11.0
 31
0.0
  0
LINE
  5
1D1
330
134
100
AcDbEntity
  8
AM_4
100
AcDbLine
 10
2.309401076758504
 20
11.0
 30
0.0
 11
4.618802153517007
 21
7.000000000000004
 31
0.0
  0
LINE
  5
1D2
330
134
100
AcDbEntity
  8
AM_4
100
AcDbLine
 10
2.309401076758504
 20
3.000000000000004
 30
0.0
 11
-2.309401076758504
 21
3.000000000000004
 31
0.0
  0
LINE
  5
1D3
330
134
100
AcDbEntity
  8
AM_4
100
AcDbLine
 10
4.618802153517007
 20
7.000000000000004
 30
0.0
 11
2.309401076758504
 21
3.000000000000004
 31
0.0
  0
CIRCLE
  5
1D4
330
134
100
AcDbEntity
  8
AM_4
100
AcDbCircle
 10
0.0
 20
7.000000000000004
 30
0.0
 40
2.800000000000006
  0
LINE
  5
1D5
330
134
100
AcDbEntity
  8
AM_4
100
AcDbLine
 10
-26.30425539959165
 20
21.39999999999998
 30
0.0
 11
-26.30425539959165
 21
23.3875
 31
0.0
  0
CIRCLE
  5
1D6
330
134
100
AcDbEntity
  8
AM_4
100
AcDbCircle
 10
0.0
 20
7.000000000000004
 30
0.0
 40
2.699651919085719
  0
LINE
  5
1D7
330
134
100
AcDbEntity
  8
AM_4
100
AcDbLine
 10
53.71114561800056
 20
23.3875
 30
0.0
 11
-53.71114561800019
 21
23.3875
 31
0.0
  0
LINE
  5
1D8
330
134
100
AcDbEntity
  8
AM_4
100
AcDbLine
 10
-71.45
 20
21.40000000000001
 30
0.0
 11
-24.75724670155167
 21
21.4
 31
0.0
  0
LINE
  5
1D9
330
134
100
AcDbEntity
  8
AM_4
100
AcDbLine
 10
-52.02754834011332
 20
21.39999999999998
 30
0.0
 11
-52.02754834011332
 21
23.3875
 31
0.0
  0
LINE
  5
1DA
330
134
100
AcDbEntity
  8
AM_4
100
AcDbLine
 10
-53.71114561800019
 20
21.4
 30
0.0
 11
-53.71114561800019
 21
23.3875
 31
0.0
  0
LINE
  5
1DB
330
134
100
AcDbEntity
  8
AM_4
100
AcDbLine
 10
55.50000000000003
 20
21.40000000000001
 30
0.0
 11
55.50000000000003
 21
37.3
 31
0.0
  0
LINE
  5
1DC
330
134
100
AcDbEntity
  8
AM_4
100
AcDbLine
 10
24.75724670155169
 20
21.4
 30
0.0
 11
71.45
 21
21.40000000000001
 31
0.0
  0
LINE
  5
1DD
330
134
100
AcDbEntity
  8
AM_4
100
AcDbLine
 10
71.45
 20
21.40000000000001
 30
0.0
 11
71.45
 21
37.3
 31
0.0
  0
LINE
  5
1DE
330
134
100
AcDbEntity
  8
AM_4
100
AcDbLine
 10
53.71114561800056
 20
23.3875
 30
0.0
 11
53.71114561800056
 21
21.4
 31
0.0
  0
LINE
  5
1DF
330
134
100
AcDbEntity
  8
AM_4
100
AcDbLine
 10
41.9627945932208
 20
21.39999999999998
 30
0.0
 11
41.9627945932208
 21
23.3875
 31
0.0
  0
LINE
  5
1E0
330
134
100
AcDbEntity
  8
AM_4
100
AcDbLine
 10
71.45
 20
37.3
 30
0.0
 11
-71.45
 21
37.3
 31
0.0
  0
LINE
  5
1E1
330
134
100
AcDbEntity
  8
AM_4
100
AcDbLine
 10
-71.45
 20
21.40000000000001
 30
0.0
 11
-71.45
 21
37.3
 31
0.0
  0
LINE
  5
1E2
330
134
100
AcDbEntity
  8
AM_4
100
AcDbLine
 10
-55.5
 20
21.40000000000001
 30
0.0
 11
-55.5
 21
37.3
 31
0.0
  0
CIRCLE
  5
1E3
330
134
100
AcDbEntity
  8
AM_4
100
AcDbCircle
 10
0.0
 20
7.000000000000004
 30
0.0
 40
2.663890264528355
  0
CIRCLE
  5
1E4
330
134
100
AcDbEntity
  8
AM_4
100
AcDbCircle
 10
0.0
 20
7.000000000000004
 30
0.0
 40
1.661483519286549
  0
CIRCLE
  5
1E5
330
134
100
AcDbEntity
  8
AM_4
100
AcDbCircle
 10
0.0
 20
7.000000000000004
 30
0.0
 40
2.125721864729177
  0
CIRCLE
  5
1E6
330
134
100
AcDbEntity
  8
AM_4
100
AcDbCircle
 10
0.0
 20
7.000000000000004
 30
0.0
 40
3.999999999999999
  0
ENDBLK
  5
137
330
134
100
AcDbEntity
  8
0
100
AcDbBlockEnd
  0
ENDSEC
  0
SECTION
  2
ENTITIES
  0
INSERT
  5
6F
330
1F
100
AcDbEntity
  8
0
100
AcDbBlockReference
  2
1_136279_4
 10
0.0
 20
0.0
 30
0.0
  0
POINT
  5
1E8
330
1F
100
AcDbEntity
  8
ConnectionPoints
100
AcDbPoint
 10
0.000000000000002
 20
15.8
 30
-0.000000000000001
  0
POINT
  5
1E9
330
1F
100
AcDbEntity
  8
ConnectionPoints
100
AcDbPoint
 10
0.000000000000002
 20
32.5
 30
-0.000000000000002
  0
POINT
  5
1EA
330
1F
100
AcDbEntity
  8
ConnectionPoints
100
AcDbPoint
 10
0.0
 20
32.5
 30
-0.000000000000002
  0
ENDSEC
  0
SECTION
  2
OBJECTS
  0
DICTIONARY
  5
C
330
0
100
AcDbDictionary
281
     1
  3
ACAD_DETAILVIEWSTYLE
350
1F2
  3
ACAD_GROUP
350
D
  3
ACAD_LAYOUT
350
1A
  3
ACAD_MATERIAL
350
43
  3
ACAD_MLEADERSTYLE
350
6B
  3
ACAD_MLINESTYLE
350
17
  3
ACAD_PLOTSETTINGS
350
19
  3
ACAD_PLOTSTYLENAME
350
E
  3
ACAD_SCALELIST
350
47
  3
ACAD_SECTIONVIEWSTYLE
350
1F3
  3
ACAD_TABLESTYLE
350
69
  3
ACAD_VISUALSTYLE
350
2A
  3
ACDB_RECOMPOSE_DATA
350
1EF
  3
AcDbVariableDictionary
350
1EB
  0
SUN
  5
6D
330
29
100
AcDbSun
 90
        1
290
     0
 63
     7
421
 16777215
 40
1.0
291
     1
 91
  2455826
 92
 54000000
292
     0
 70
     2
 71
   256
280
     1
  0
DICTIONARY
  5
1F2
102
{ACAD_REACTORS
330
C
102
}
330
C
100
AcDbDictionary
281
     1
  0
DICTIONARY
  5
D
102
{ACAD_REACTORS
330
C
102
}
330
C
100
AcDbDictionary
281
     1
  0
DICTIONARY
  5
1A
102
{ACAD_REACTORS
330
C
102
}
330
C
100
AcDbDictionary
281
     1
  3
Layout1
350
1E
  3
Layout2
350
26
  3
Model
350
22
  0
DICTIONARY
  5
43
102
{ACAD_REACTORS
330
C
102
}
330
C
100
AcDbDictionary
281
     1
  3
ByBlock
350
45
  3
ByLayer
350
44
  3
Global
350
46
  0
DICTIONARY
  5
6B
102
{ACAD_REACTORS
330
C
102
}
330
C
100
AcDbDictionary
281
     1
  3
Standard
350
6C
  0
DICTIONARY
  5
17
102
{ACAD_REACTORS
330
C
102
}
330
C
100
AcDbDictionary
281
     1
  3
Standard
350
18
  0
DICTIONARY
  5
19
102
{ACAD_REACTORS
330
C
102
}
330
C
100
AcDbDictionary
281
     1
  0
ACDBDICTIONARYWDFLT
  5
E
102
{ACAD_REACTORS
330
C
102
}
330
C
100
AcDbDictionary
281
     1
  3
Normal
350
F
100
AcDbDictionaryWithDefault
340
F
  0
DICTIONARY
  5
47
102
{ACAD_REACTORS
330
C
102
}
330
C
100
AcDbDictionary
281
     1
  3
A0
350
48
  3
A1
350
49
  3
A2
350
4A
  3
A3
350
4B
  3
A4
350
4C
  3
A5
350
4D
  3
A6
350
4E
  3
A7
350
4F
  3
A8
350
50
  3
A9
350
51
  3
B0
350
52
  3
B1
350
53
  3
B2
350
54
  3
B3
350
55
  3
B4
350
56
  3
B5
350
57
  3
B6
350
58
  3
B7
350
59
  3
B8
350
5A
  3
B9
350
5B
  3
C0
350
5C
  3
C1
350
5D
  3
C2
350
5E
  3
C3
350
5F
  3
C4
350
60
  3
C5
350
61
  3
C6
350
62
  3
C7
350
63
  3
C8
350
64
  3
C9
350
65
  3
D0
350
66
  3
D1
350
67
  3
D2
350
68
  0
DICTIONARY
  5
1F3
102
{ACAD_REACTORS
330
C
102
}
330
C
100
AcDbDictionary
281
     1
  0
DICTIONARY
  5
69
102
{ACAD_REACTORS
330
C
102
}
330
C
100
AcDbDictionary
281
     1
  3
Standard
350
6A
  0
DICTIONARY
  5
2A
102
{ACAD_REACTORS
330
C
102
}
330
C
100
AcDbDictionary
281
     1
  3
2dWireframe
350
2F
  3
Basic
350
32
  3
Brighten
350
36
  3
ColorChange
350
3A
  3
Conceptual
350
34
  3
Dim
350
35
  3
EdgeColorOff
350
3D
  3
Facepattern
350
39
  3
Flat
350
2B
  3
FlatWithEdges
350
2C
  3
Gouraud
350
2D
  3
GouraudWithEdges
350
2E
  3
Hidden
350
31
  3
JitterOff
350
3B
  3
Linepattern
350
38
  3
OverhangOff
350
3C
  3
Realistic
350
33
  3
Shaded
350
42
  3
Shaded with edges
350
41
  3
Shades of Gray
350
3E
  3
Sketchy
350
3F
  3
Thicken
350
37
  3
Wireframe
350
30
  3
X-Ray
350
40
  0
XRECORD
  5
1EF
102
{ACAD_REACTORS
330
C
102
}
330
C
100
AcDbXrecord
280
     1
 90
        1
330
6A
  0
DICTIONARY
  5
1EB
102
{ACAD_REACTORS
330
C
102
}
330
C
100
AcDbDictionary
281
     1
  3
CANNOSCALE
350
1EC
  3
CMLEADERSTYLE
350
1F1
  3
CTABLESTYLE
350
1F0
  0
LAYOUT
  5
1E
102
{ACAD_REACTORS
330
1A
102
}
330
1A
100
AcDbPlotSettings
  1

  2
none_device
  4

  6

 40
0.0
 41
0.0
 42
0.0
 43
0.0
 44
0.0
 45
0.0
 46
0.0
 47
0.0
 48
0.0
 49
0.0
140
0.0
141
0.0
142
1.0
143
1.0
 70
   688
 72
     1
 73
     0
 74
     5
  7

 75
    16
 76
     0
 77
     2
 78
   300
147
1.0
148
0.0
149
0.0
100
AcDbLayout
  1
Layout1
 70
     1
 71
     1
 10
0.0
 20
0.0
 11
420.0
 21
297.0
 12
0.0
 22
0.0
 32
0.0
 14
1.000000000000000E+20
 24
1.000000000000000E+20
 34
1.000000000000000E+20
 15
-1.000000000000000E+20
 25
-1.000000000000000E+20
 35
-1.000000000000000E+20
146
0.0
 13
0.0
 23
0.0
 33
0.0
 16
1.0
 26
0.0
 36
0.0
 17
0.0
 27
1.0
 37
0.0
 76
     0
330
1B
  0
LAYOUT
  5
26
102
{ACAD_REACTORS
330
1A
102
}
330
1A
100
AcDbPlotSettings
  1

  2
none_device
  4

  6

 40
0.0
 41
0.0
 42
0.0
 43
0.0
 44
0.0
 45
0.0
 46
0.0
 47
0.0
 48
0.0
 49
0.0
140
0.0
141
0.0
142
1.0
143
1.0
 70
   688
 72
     1
 73
     0
 74
     5
  7

 75
    16
 76
     0
 77
     2
 78
   300
147
1.0
148
0.0
149
0.0
100
AcDbLayout
  1
Layout2
 70
     1
 71
     2
 10
0.0
 20
0.0
 11
0.0
 21
0.0
 12
0.0
 22
0.0
 32
0.0
 14
0.0
 24
0.0
 34
0.0
 15
0.0
 25
0.0
 35
0.0
146
0.0
 13
0.0
 23
0.0
 33
0.0
 16
1.0
 26
0.0
 36
0.0
 17
0.0
 27
1.0
 37
0.0
 76
     0
330
23
  0
LAYOUT
  5
22
102
{ACAD_REACTORS
330
1A
102
}
330
1A
100
AcDbPlotSettings
  1

  2
none_device
  4
Letter_(8.50_x_11.00_Inches)
  6

 40
6.35
 41
6.35
 42
6.35000508
 43
6.35000508
 44
215.9
 45
279.4
 46
0.0
 47
0.0
 48
0.0
 49
0.0
140
0.0
141
0.0
142
1.0
143
1.0
 70
  1712
 72
     1
 73
     0
 74
     0
  7

 75
     0
 76
     0
 77
     2
 78
   300
147
1.0
148
0.0
149
0.0
100
AcDbLayout
  1
Model
 70
     1
 71
     0
 10
0.0
 20
0.0
 11
420.0
 21
297.0
 12
0.0
 22
0.0
 32
0.0
 14
1.000000000000000E+20
 24
1.000000000000000E+20
 34
1.000000000000000E+20
 15
-1.000000000000000E+20
 25
-1.000000000000000E+20
 35
-1.000000000000000E+20
146
0.0
 13
0.0
 23
0.0
 33
0.0
 16
1.0
 26
0.0
 36
0.0
 17
0.0
 27
1.0
 37
0.0
 76
     0
330
1F
331
29
  0
MATERIAL
  5
45
102
{ACAD_REACTORS
330
43
102
}
330
43
100
AcDbMaterial
  1
ByBlock
 72
     1
 94
      127
  0
MATERIAL
  5
44
102
{ACAD_REACTORS
330
43
102
}
330
43
100
AcDbMaterial
  1
ByLayer
 72
     1
 94
      127
  0
MATERIAL
  5
46
102
{ACAD_REACTORS
330
43
102
}
330
43
100
AcDbMaterial
  1
Global
 72
     1
 94
      127
  0
MLEADERSTYLE
  5
6C
102
{ACAD_REACTORS
330
6B
102
}
330
6B
100
AcDbMLeaderStyle
179
     2
170
     2
171
     1
172
     0
 90
        2
 40
0.0
 41
0.0
173
     1
 91
-1056964608
340
14
 92
       -2
290
     1
 42
2.0
291
     1
 43
8.0
  3
Standard
341
0
 44
4.0
300

342
11
174
     1
178
     6
175
     1
176
     0
 93
-1056964608
 45
4.0
292
     0
297
     0
 46
4.0
343
0
 94
-1056964608
 47
1.0
 49
1.0
140
1.0
293
     1
141
0.0
294
     1
177
     0
142
1.0
295
     0
296
     0
143
3.75
271
     0
272
     9
273
     9
298
     0
  0
MLINESTYLE
  5
18
102
{ACAD_REACTORS
330
17
102
}
330
17
100
AcDbMlineStyle
  2
Standard
 70
     0
  3

 62
   256
 51
90.0
 52
90.0
 71
     2
 49
0.5
 62
   256
  6
BYLAYER
 49
-0.5
 62
   256
  6
BYLAYER
  0
ACDBPLACEHOLDER
  5
F
102
{ACAD_REACTORS
330
E
102
}
330
E
  0
SCALE
  5
48
102
{ACAD_REACTORS
330
47
102
}
330
47
100
AcDbScale
 70
     0
300
1:1
140
1.0
141
1.0
290
     1
  0
SCALE
  5
49
102
{ACAD_REACTORS
330
47
102
}
330
47
100
AcDbScale
 70
     0
300
1:2
140
1.0
141
2.0
290
     0
  0
SCALE
  5
4A
102
{ACAD_REACTORS
330
47
102
}
330
47
100
AcDbScale
 70
     0
300
1:4
140
1.0
141
4.0
290
     0
  0
SCALE
  5
4B
102
{ACAD_REACTORS
330
47
102
}
330
47
100
AcDbScale
 70
     0
300
1:5
140
1.0
141
5.0
290
     0
  0
SCALE
  5
4C
102
{ACAD_REACTORS
330
47
102
}
330
47
100
AcDbScale
 70
     0
300
1:8
140
1.0
141
8.0
290
     0
  0
SCALE
  5
4D
102
{ACAD_REACTORS
330
47
102
}
330
47
100
AcDbScale
 70
     0
300
1:10
140
1.0
141
10.0
290
     0
  0
SCALE
  5
4E
102
{ACAD_REACTORS
330
47
102
}
330
47
100
AcDbScale
 70
     0
300
1:16
140
1.0
141
16.0
290
     0
  0
SCALE
  5
4F
102
{ACAD_REACTORS
330
47
102
}
330
47
100
AcDbScale
 70
     0
300
1:20
140
1.0
141
20.0
290
     0
  0
SCALE
  5
50
102
{ACAD_REACTORS
330
47
102
}
330
47
100
AcDbScale
 70
     0
300
1:30
140
1.0
141
30.0
290
     0
  0
SCALE
  5
51
102
{ACAD_REACTORS
330
47
102
}
330
47
100
AcDbScale
 70
     0
300
1:40
140
1.0
141
40.0
290
     0
  0
SCALE
  5
52
102
{ACAD_REACTORS
330
47
102
}
330
47
100
AcDbScale
 70
     0
300
1:50
140
1.0
141
50.0
290
     0
  0
SCALE
  5
53
102
{ACAD_REACTORS
330
47
102
}
330
47
100
AcDbScale
 70
     0
300
1:100
140
1.0
141
100.0
290
     0
  0
SCALE
  5
54
102
{ACAD_REACTORS
330
47
102
}
330
47
100
AcDbScale
 70
     0
300
2:1
140
2.0
141
1.0
290
     0
  0
SCALE
  5
55
102
{ACAD_REACTORS
330
47
102
}
330
47
100
AcDbScale
 70
     0
300
4:1
140
4.0
141
1.0
290
     0
  0
SCALE
  5
56
102
{ACAD_REACTORS
330
47
102
}
330
47
100
AcDbScale
 70
     0
300
8:1
140
8.0
141
1.0
290
     0
  0
SCALE
  5
57
102
{ACAD_REACTORS
330
47
102
}
330
47
100
AcDbScale
 70
     0
300
10:1
140
10.0
141
1.0
290
     0
  0
SCALE
  5
58
102
{ACAD_REACTORS
330
47
102
}
330
47
100
AcDbScale
 70
     0
300
100:1
140
100.0
141
1.0
290
     0
  0
SCALE
  5
59
102
{ACAD_REACTORS
330
47
102
}
330
47
100
AcDbScale
 70
     0
300
1/128" = 1'-0"
140
0.0078125
141
12.0
290
     0
  0
SCALE
  5
5A
102
{ACAD_REACTORS
330
47
102
}
330
47
100
AcDbScale
 70
     0
300
1/64" = 1'-0"
140
0.015625
141
12.0
290
     0
  0
SCALE
  5
5B
102
{ACAD_REACTORS
330
47
102
}
330
47
100
AcDbScale
 70
     0
300
1/32" = 1'-0"
140
0.03125
141
12.0
290
     0
  0
SCALE
  5
5C
102
{ACAD_REACTORS
330
47
102
}
330
47
100
AcDbScale
 70
     0
300
1/16" = 1'-0"
140
0.0625
141
12.0
290
     0
  0
SCALE
  5
5D
102
{ACAD_REACTORS
330
47
102
}
330
47
100
AcDbScale
 70
     0
300
3/32" = 1'-0"
140
0.09375
141
12.0
290
     0
  0
SCALE
  5
5E
102
{ACAD_REACTORS
330
47
102
}
330
47
100
AcDbScale
 70
     0
300
1/8" = 1'-0"
140
0.125
141
12.0
290
     0
  0
SCALE
  5
5F
102
{ACAD_REACTORS
330
47
102
}
330
47
100
AcDbScale
 70
     0
300
3/16" = 1'-0"
140
0.1875
141
12.0
290
     0
  0
SCALE
  5
60
102
{ACAD_REACTORS
330
47
102
}
330
47
100
AcDbScale
 70
     0
300
1/4" = 1'-0"
140
0.25
141
12.0
290
     0
  0
SCALE
  5
61
102
{ACAD_REACTORS
330
47
102
}
330
47
100
AcDbScale
 70
     0
300
3/8" = 1'-0"
140
0.375
141
12.0
290
     0
  0
SCALE
  5
62
102
{ACAD_REACTORS
330
47
102
}
330
47
100
AcDbScale
 70
     0
300
1/2" = 1'-0"
140
0.5
141
12.0
290
     0
  0
SCALE
  5
63
102
{ACAD_REACTORS
330
47
102
}
330
47
100
AcDbScale
 70
     0
300
3/4" = 1'-0"
140
0.75
141
12.0
290
     0
  0
SCALE
  5
64
102
{ACAD_REACTORS
330
47
102
}
330
47
100
AcDbScale
 70
     0
300
1" = 1'-0"
140
1.0
141
12.0
290
     0
  0
SCALE
  5
65
102
{ACAD_REACTORS
330
47
102
}
330
47
100
AcDbScale
 70
     0
300
1-1/2" = 1'-0"
140
1.5
141
12.0
290
     0
  0
SCALE
  5
66
102
{ACAD_REACTORS
330
47
102
}
330
47
100
AcDbScale
 70
     0
300
3" = 1'-0"
140
3.0
141
12.0
290
     0
  0
SCALE
  5
67
102
{ACAD_REACTORS
330
47
102
}
330
47
100
AcDbScale
 70
     0
300
6" = 1'-0"
140
6.0
141
12.0
290
     0
  0
SCALE
  5
68
102
{ACAD_REACTORS
330
47
102
}
330
47
100
AcDbScale
 70
     0
300
1'-0" = 1'-0"
140
12.0
141
12.0
290
     0
  0
TABLESTYLE
  5
6A
102
{ACAD_REACTORS
330
69
102
}
102
{ACAD_XDICTIONARY
360
1ED
102
}
330
69
100
AcDbTableStyle
  3
Standard
 70
     0
 71
     0
 40
0.06
 41
0.06
280
     0
281
     0
  7
Standard
140
4.5
170
     2
 62
     0
 63
   257
283
     0
 90
        4
 91
        0
  1

274
    -2
284
     1
 64
     0
275
    -2
285
     1
 65
     0
276
    -2
286
     1
 66
     0
277
    -2
287
     1
 67
     0
278
    -2
288
     1
 68
     0
279
    -2
289
     1
 69
     0
  7
Standard
140
6.0
170
     5
 62
     0
 63
   257
283
     0
 90
        4
 91
        0
  1

274
    -2
284
     1
 64
     0
275
    -2
285
     1
 65
     0
276
    -2
286
     1
 66
     0
277
    -2
287
     1
 67
     0
278
    -2
288
     1
 68
     0
279
    -2
289
     1
 69
     0
  7
Standard
140
4.5
170
     5
 62
     0
 63
   257
283
     0
 90
        4
 91
        0
  1

274
    -2
284
     1
 64
     0
275
    -2
285
     1
 65
     0
276
    -2
286
     1
 66
     0
277
    -2
287
     1
 67
     0
278
    -2
288
     1
 68
     0
279
    -2
289
     1
 69
     0
  0
VISUALSTYLE
  5
2F
102
{ACAD_REACTORS
330
2A
102
}
330
2A
100
AcDbVisualStyle
  2
2dWireframe
 70
     4
177
     3
291
     0
 70
    58
 90
        0
176
     1
 90
        2
176
     1
 90
        0
176
     1
 90
        0
176
     1
 40
0.6
176
     1
 40
30.0
176
     1
 62
     7
420
 16777215
176
     1
 90
        1
176
     1
 90
        4
176
     1
 62
     7
176
     1
 62
   257
176
     1
 90
        1
176
     1
 90
        1
176
     1
 40
1.0
176
     1
 90
        0
176
     1
 62
   257
176
     1
 40
1.0
176
     1
 90
        1
176
     1
 90
        6
176
     1
 90
        2
176
     1
 62
     7
176
     1
 90
        5
176
     1
 90
        0
176
     1
 90
        0
176
     1
290
     0
176
     1
 90
        1
176
     1
 40
0.0
176
     1
 90
        0
176
     1
290
     1
176
     1
290
     1
176
     1
290
     0
176
     1
290
     0
176
     1
290
     0
176
     1
290
     0
176
     1
290
     0
176
     1
290
     0
176
     1
290
     0
176
     1
 90
       50
176
     1
 40
0.0
176
     1
 40
1.0
176
     1
 90
        0
176
     1
 62
    18
420
        0
176
     1
 90
       50
176
     1
 90
        3
176
     1
 62
     5
420
      255
176
     1
290
     0
176
     1
 90
       50
176
     1
 90
       50
176
     1
 90
       50
176
     1
290
     0
176
     1
 90
       50
176
     1
 62
   256
176
     0
 40
1.0
176
     0
 90
        2
176
     1
  1
strokes_ogs.tif
176
     1
290
     0
176
     1
 40
1.0
176
     1
 40
1.0
176
     1
  0
VISUALSTYLE
  5
32
102
{ACAD_REACTORS
330
2A
102
}
330
2A
100
AcDbVisualStyle
  2
Basic
 70
     7
177
     3
291
     1
 70
    58
 90
        1
176
     1
 90
        0
176
     1
 90
        1
176
     1
 90
        0
176
     1
 40
0.6
176
     1
 40
30.0
176
     1
 62
     7
420
 16777215
176
     1
 90
        0
176
     1
 90
        4
176
     1
 62
     7
176
     1
 62
   257
176
     1
 90
        1
176
     1
 90
        1
176
     1
 40
1.0
176
     1
 90
        8
176
     1
 62
     7
176
     1
 40
1.0
176
     1
 90
        1
176
     1
 90
        6
176
     1
 90
        2
176
     1
 62
     7
176
     1
 90
        5
176
     1
 90
        0
176
     1
 90
        0
176
     1
290
     0
176
     1
 90
        1
176
     1
 40
0.0
176
     1
 90
        0
176
     1
290
     0
176
     1
290
     1
176
     1
290
     1
176
     1
290
     0
176
     1
290
     0
176
     1
290
     0
176
     1
290
     0
176
     1
290
     0
176
     1
290
     0
176
     1
 90
       50
176
     1
 40
0.0
176
     1
 40
1.0
176
     1
 90
        0
176
     1
 62
    18
420
        0
176
     1
 90
       50
176
     1
 90
        3
176
     1
 62
     5
420
      255
176
     1
290
     0
176
     1
 90
       50
176
     1
 90
       50
176
     1
 90
       50
176
     1
290
     0
176
     1
 90
       50
176
     1
 62
   256
176
     0
 40
1.0
176
     0
 90
        2
176
     1
  1
strokes_ogs.tif
176
     1
290
     0
176
     1
 40
1.0
176
     1
 40
1.0
176
     1
  0
VISUALSTYLE
  5
36
102
{ACAD_REACTORS
330
2A
102
}
330
2A
100
AcDbVisualStyle
  2
Brighten
 70
    12
177
     3
291
     1
 70
    58
 90
        2
176
     1
 90
        2
176
     1
 90
        0
176
     1
 90
        0
176
     1
 40
0.6
176
     1
 40
30.0
176
     1
 62
     7
420
 16777215
176
     1
 90
        1
176
     1
 90
        4
176
     1
 62
     7
176
     1
 62
   257
176
     1
 90
        1
176
     1
 90
        1
176
     1
 40
1.0
176
     1
 90
        8
176
     1
 62
     7
176
     1
 40
1.0
176
     1
 90
        1
176
     1
 90
        6
176
     1
 90
        2
176
     1
 62
     7
176
     1
 90
        5
176
     1
 90
        0
176
     1
 90
        0
176
     1
290
     0
176
     1
 90
        1
176
     1
 40
50.0
176
     1
 90
        0
176
     1
290
     0
176
     1
290
     1
176
     1
290
     1
176
     1
290
     0
176
     1
290
     0
176
     1
290
     0
176
     1
290
     0
176
     1
290
     0
176
     1
290
     0
176
     1
 90
       50
176
     1
 40
0.0
176
     1
 40
1.0
176
     1
 90
        0
176
     1
 62
    18
420
        0
176
     1
 90
       50
176
     1
 90
        3
176
     1
 62
     5
420
      255
176
     1
290
     0
176
     1
 90
       50
176
     1
 90
       50
176
     1
 90
       50
176
     1
290
     0
176
     1
 90
       50
176
     1
 62
   256
176
     0
 40
1.0
176
     0
 90
        2
176
     1
  1
strokes_ogs.tif
176
     1
290
     0
176
     1
 40
1.0
176
     1
 40
1.0
176
     1
  0
VISUALSTYLE
  5
3A
102
{ACAD_REACTORS
330
2A
102
}
330
2A
100
AcDbVisualStyle
  2
ColorChange
 70
    16
177
     3
291
     1
 70
    58
 90
        2
176
     1
 90
        2
176
     1
 90
        3
176
     1
 90
        0
176
     1
 40
0.6
176
     1
 40
30.0
176
     1
 62
     8
420
  8421504
176
     1
 90
        1
176
     1
 90
        4
176
     1
 62
     7
176
     1
 62
   257
176
     1
 90
        1
176
     1
 90
        1
176
     1
 40
1.0
176
     1
 90
        8
176
     1
 62
     8
420
  8421504
176
     1
 40
1.0
176
     1
 90
        1
176
     1
 90
        6
176
     1
 90
        2
176
     1
 62
     7
176
     1
 90
        5
176
     1
 90
        0
176
     1
 90
        0
176
     1
290
     0
176
     1
 90
        1
176
     1
 40
0.0
176
     1
 90
        0
176
     1
290
     0
176
     1
290
     1
176
     1
290
     1
176
     1
290
     0
176
     1
290
     0
176
     1
290
     0
176
     1
290
     0
176
     1
290
     0
176
     1
290
     0
176
     1
 90
       50
176
     1
 40
0.0
176
     1
 40
1.0
176
     1
 90
        0
176
     1
 62
    18
420
        0
176
     1
 90
       50
176
     1
 90
        3
176
     1
 62
     5
420
      255
176
     1
290
     0
176
     1
 90
       50
176
     1
 90
       50
176
     1
 90
       50
176
     1
290
     0
176
     1
 90
       50
176
     1
 62
   256
176
     0
 40
1.0
176
     0
 90
        2
176
     1
  1
strokes_ogs.tif
176
     1
290
     0
176
     1
 40
1.0
176
     1
 40
1.0
176
     1
  0
VISUALSTYLE
  5
34
102
{ACAD_REACTORS
330
2A
102
}
330
2A
100
AcDbVisualStyle
  2
Conceptual
 70
     9
177
     3
291
     0
 70
    58
 90
        3
176
     1
 90
        2
176
     1
 90
        0
176
     1
 90
        0
176
     1
 40
0.6
176
     1
 40
30.0
176
     1
 62
     7
420
 16777215
176
     1
 90
        2
176
     1
 90
        2
176
     1
 62
     7
176
     1
 62
   257
176
     1
 90
        1
176
     1
 90
        1
176
     1
 40
179.0
176
     1
 90
        8
176
     1
 62
     7
176
     1
 40
1.0
176
     1
 90
        1
176
     1
 90
        6
176
     1
 90
        2
176
     1
 62
     7
176
     1
 90
        3
176
     1
 90
        0
176
     1
 90
        0
176
     1
290
     0
176
     1
 90
        1
176
     1
 40
0.0
176
     1
 90
        0
176
     1
290
     0
176
     1
290
     1
176
     1
290
     1
176
     1
290
     0
176
     1
290
     0
176
     1
290
     0
176
     1
290
     0
176
     1
290
     0
176
     1
290
     0
176
     1
 90
       50
176
     1
 40
0.0
176
     1
 40
1.0
176
     1
 90
        0
176
     1
 62
    18
420
        0
176
     1
 90
       50
176
     1
 90
        3
176
     1
 62
     5
420
      255
176
     1
290
     0
176
     1
 90
       50
176
     1
 90
       50
176
     1
 90
       50
176
     1
290
     0
176
     1
 90
       50
176
     1
 62
   256
176
     0
 40
1.0
176
     0
 90
        2
176
     1
  1
strokes_ogs.tif
176
     1
290
     0
176
     1
 40
1.0
176
     1
 40
1.0
176
     1
  0
VISUALSTYLE
  5
35
102
{ACAD_REACTORS
330
2A
102
}
330
2A
100
AcDbVisualStyle
  2
Dim
 70
    11
177
     3
291
     1
 70
    58
 90
        2
176
     1
 90
        2
176
     1
 90
        0
176
     1
 90
        0
176
     1
 40
0.6
176
     1
 40
30.0
176
     1
 62
     7
420
 16777215
176
     1
 90
        1
176
     1
 90
        4
176
     1
 62
     7
176
     1
 62
   257
176
     1
 90
        1
176
     1
 90
        1
176
     1
 40
1.0
176
     1
 90
        8
176
     1
 62
     7
176
     1
 40
1.0
176
     1
 90
        1
176
     1
 90
        6
176
     1
 90
        2
176
     1
 62
     7
176
     1
 90
        5
176
     1
 90
        0
176
     1
 90
        0
176
     1
290
     0
176
     1
 90
        1
176
     1
 40
-50.0
176
     1
 90
        0
176
     1
290
     0
176
     1
290
     1
176
     1
290
     1
176
     1
290
     0
176
     1
290
     0
176
     1
290
     0
176
     1
290
     0
176
     1
290
     0
176
     1
290
     0
176
     1
 90
       50
176
     1
 40
0.0
176
     1
 40
1.0
176
     1
 90
        0
176
     1
 62
    18
420
        0
176
     1
 90
       50
176
     1
 90
        3
176
     1
 62
     5
420
      255
176
     1
290
     0
176
     1
 90
       50
176
     1
 90
       50
176
     1
 90
       50
176
     1
290
     0
176
     1
 90
       50
176
     1
 62
   256
176
     0
 40
1.0
176
     0
 90
        2
176
     1
  1
strokes_ogs.tif
176
     1
290
     0
176
     1
 40
1.0
176
     1
 40
1.0
176
     1
  0
VISUALSTYLE
  5
3D
102
{ACAD_REACTORS
330
2A
102
}
330
2A
100
AcDbVisualStyle
  2
EdgeColorOff
 70
    22
177
     3
291
     1
 70
    58
 90
        2
176
     0
 90
        2
176
     0
 90
        0
176
     0
 90
        0
176
     0
 40
0.6
176
     0
 40
30.0
176
     0
 62
     7
420
 16777215
176
     0
 90
        1
176
     0
 90
        4
176
     0
 62
     7
176
     0
 62
   257
176
     0
 90
        1
176
     0
 90
        1
176
     0
 40
1.0
176
     0
 90
        8
176
     2
 62
     7
176
     0
 40
1.0
176
     0
 90
        1
176
     0
 90
        6
176
     0
 90
        2
176
     0
 62
     7
176
     0
 90
        5
176
     0
 90
        0
176
     0
 90
        0
176
     0
290
     0
176
     0
 90
        1
176
     0
 40
0.0
176
     0
 90
        0
176
     0
290
     0
176
     0
290
     1
176
     0
290
     1
176
     0
290
     0
176
     0
290
     0
176
     0
290
     0
176
     0
290
     0
176
     0
290
     0
176
     0
290
     0
176
     0
 90
       50
176
     0
 40
0.0
176
     0
 40
1.0
176
     0
 90
        0
176
     0
 62
    18
420
        0
176
     0
 90
       50
176
     0
 90
        3
176
     0
 62
     5
420
      255
176
     0
290
     0
176
     0
 90
       50
176
     0
 90
       50
176
     0
 90
       50
176
     0
290
     0
176
     0
 90
       50
176
     0
 62
   256
176
     0
 40
1.0
176
     0
 90
        2
176
     0
  1
strokes_ogs.tif
176
     0
290
     0
176
     0
 40
1.0
176
     0
 40
1.0
176
     0
  0
VISUALSTYLE
  5
39
102
{ACAD_REACTORS
330
2A
102
}
330
2A
100
AcDbVisualStyle
  2
Facepattern
 70
    15
177
     3
291
     1
 70
    58
 90
        2
176
     1
 90
        2
176
     1
 90
        0
176
     1
 90
        0
176
     1
 40
0.6
176
     1
 40
30.0
176
     1
 62
     7
420
 16777215
176
     1
 90
        1
176
     1
 90
        4
176
     1
 62
     7
176
     1
 62
   257
176
     1
 90
        1
176
     1
 90
        1
176
     1
 40
1.0
176
     1
 90
        8
176
     1
 62
     7
176
     1
 40
1.0
176
     1
 90
        1
176
     1
 90
        6
176
     1
 90
        2
176
     1
 62
     7
176
     1
 90
        5
176
     1
 90
        0
176
     1
 90
        0
176
     1
290
     0
176
     1
 90
        1
176
     1
 40
0.0
176
     1
 90
        0
176
     1
290
     0
176
     1
290
     1
176
     1
290
     1
176
     1
290
     0
176
     1
290
     0
176
     1
290
     0
176
     1
290
     0
176
     1
290
     0
176
     1
290
     0
176
     1
 90
       50
176
     1
 40
0.0
176
     1
 40
1.0
176
     1
 90
        0
176
     1
 62
    18
420
        0
176
     1
 90
       50
176
     1
 90
        3
176
     1
 62
     5
420
      255
176
     1
290
     0
176
     1
 90
       50
176
     1
 90
       50
176
     1
 90
       50
176
     1
290
     0
176
     1
 90
       50
176
     1
 62
   256
176
     0
 40
1.0
176
     0
 90
        2
176
     1
  1
strokes_ogs.tif
176
     1
290
     0
176
     1
 40
1.0
176
     1
 40
1.0
176
     1
  0
VISUALSTYLE
  5
2B
102
{ACAD_REACTORS
330
2A
102
}
330
2A
100
AcDbVisualStyle
  2
Flat
 70
     0
177
     3
291
     1
 70
    58
 90
        2
176
     1
 90
        1
176
     1
 90
        1
176
     1
 90
        2
176
     1
 40
0.6
176
     1
 40
30.0
176
     1
 62
     7
420
 16777215
176
     1
 90
        0
176
     1
 90
        0
176
     1
 62
     7
176
     1
 62
   257
176
     1
 90
        1
176
     1
 90
        1
176
     1
 40
1.0
176
     1
 90
        8
176
     1
 62
     7
176
     1
 40
1.0
176
     1
 90
        1
176
     1
 90
        6
176
     1
 90
        2
176
     1
 62
     7
176
     1
 90
        5
176
     1
 90
        0
176
     1
 90
        0
176
     1
290
     0
176
     1
 90
       13
176
     1
 40
0.0
176
     1
 90
        0
176
     1
290
     0
176
     1
290
     1
176
     1
290
     1
176
     1
290
     0
176
     1
290
     0
176
     1
290
     0
176
     1
290
     0
176
     1
290
     0
176
     1
290
     0
176
     1
 90
       50
176
     1
 40
0.0
176
     1
 40
1.0
176
     1
 90
        0
176
     1
 62
    18
420
        0
176
     1
 90
       50
176
     1
 90
        3
176
     1
 62
     5
420
      255
176
     1
290
     0
176
     1
 90
       50
176
     1
 90
       50
176
     1
 90
       50
176
     1
290
     0
176
     1
 90
       50
176
     1
 62
   256
176
     0
 40
1.0
176
     0
 90
        2
176
     1
  1
strokes_ogs.tif
176
     1
290
     0
176
     1
 40
1.0
176
     1
 40
1.0
176
     1
  0
VISUALSTYLE
  5
2C
102
{ACAD_REACTORS
330
2A
102
}
330
2A
100
AcDbVisualStyle
  2
FlatWithEdges
 70
     1
177
     3
291
     1
 70
    58
 90
        2
176
     1
 90
        1
176
     1
 90
        1
176
     1
 90
        2
176
     1
 40
0.6
176
     1
 40
30.0
176
     1
 62
     7
420
 16777215
176
     1
 90
        1
176
     1
 90
        0
176
     1
 62
     7
176
     1
 62
   257
176
     1
 90
        1
176
     1
 90
        1
176
     1
 40
1.0
176
     1
 90
        0
176
     1
 62
   257
176
     1
 40
1.0
176
     1
 90
        1
176
     1
 90
        6
176
     1
 90
        2
176
     1
 62
     7
176
     1
 90
        5
176
     1
 90
        0
176
     1
 90
        0
176
     1
290
     0
176
     1
 90
       13
176
     1
 40
0.0
176
     1
 90
        0
176
     1
290
     0
176
     1
290
     1
176
     1
290
     1
176
     1
290
     0
176
     1
290
     0
176
     1
290
     0
176
     1
290
     0
176
     1
290
     0
176
     1
290
     0
176
     1
 90
       50
176
     1
 40
0.0
176
     1
 40
1.0
176
     1
 90
        0
176
     1
 62
    18
420
        0
176
     1
 90
       50
176
     1
 90
        3
176
     1
 62
     5
420
      255
176
     1
290
     0
176
     1
 90
       50
176
     1
 90
       50
176
     1
 90
       50
176
     1
290
     0
176
     1
 90
       50
176
     1
 62
   256
176
     0
 40
1.0
176
     0
 90
        2
176
     1
  1
strokes_ogs.tif
176
     1
290
     0
176
     1
 40
1.0
176
     1
 40
1.0
176
     1
  0
VISUALSTYLE
  5
2D
102
{ACAD_REACTORS
330
2A
102
}
330
2A
100
AcDbVisualStyle
  2
Gouraud
 70
     2
177
     3
291
     1
 70
    58
 90
        2
176
     1
 90
        2
176
     1
 90
        1
176
     1
 90
        2
176
     1
 40
0.6
176
     1
 40
30.0
176
     1
 62
     7
420
 16777215
176
     1
 90
        0
176
     1
 90
        0
176
     1
 62
     7
176
     1
 62
   257
176
     1
 90
        1
176
     1
 90
        1
176
     1
 40
1.0
176
     1
 90
        0
176
     1
 62
     7
176
     1
 40
1.0
176
     1
 90
        1
176
     1
 90
        6
176
     1
 90
        2
176
     1
 62
     7
176
     1
 90
        5
176
     1
 90
        0
176
     1
 90
        0
176
     1
290
     0
176
     1
 90
       13
176
     1
 40
0.0
176
     1
 90
        0
176
     1
290
     0
176
     1
290
     1
176
     1
290
     1
176
     1
290
     0
176
     1
290
     0
176
     1
290
     0
176
     1
290
     0
176
     1
290
     0
176
     1
290
     0
176
     1
 90
       50
176
     1
 40
0.0
176
     1
 40
1.0
176
     1
 90
        0
176
     1
 62
    18
420
        0
176
     1
 90
       50
176
     1
 90
        3
176
     1
 62
     5
420
      255
176
     1
290
     0
176
     1
 90
       50
176
     1
 90
       50
176
     1
 90
       50
176
     1
290
     0
176
     1
 90
       50
176
     1
 62
   256
176
     0
 40
1.0
176
     0
 90
        2
176
     1
  1
strokes_ogs.tif
176
     1
290
     0
176
     1
 40
1.0
176
     1
 40
1.0
176
     1
  0
VISUALSTYLE
  5
2E
102
{ACAD_REACTORS
330
2A
102
}
330
2A
100
AcDbVisualStyle
  2
GouraudWithEdges
 70
     3
177
     3
291
     1
 70
    58
 90
        2
176
     1
 90
        2
176
     1
 90
        1
176
     1
 90
        2
176
     1
 40
0.6
176
     1
 40
30.0
176
     1
 62
     7
420
 16777215
176
     1
 90
        1
176
     1
 90
        0
176
     1
 62
     7
176
     1
 62
   257
176
     1
 90
        1
176
     1
 90
        1
176
     1
 40
1.0
176
     1
 90
        0
176
     1
 62
   257
176
     1
 40
1.0
176
     1
 90
        1
176
     1
 90
        6
176
     1
 90
        2
176
     1
 62
     7
176
     1
 90
        5
176
     1
 90
        0
176
     1
 90
        0
176
     1
290
     0
176
     1
 90
       13
176
     1
 40
0.0
176
     1
 90
        0
176
     1
290
     0
176
     1
290
     1
176
     1
290
     1
176
     1
290
     0
176
     1
290
     0
176
     1
290
     0
176
     1
290
     0
176
     1
290
     0
176
     1
290
     0
176
     1
 90
       50
176
     1
 40
0.0
176
     1
 40
1.0
176
     1
 90
        0
176
     1
 62
    18
420
        0
176
     1
 90
       50
176
     1
 90
        3
176
     1
 62
     5
420
      255
176
     1
290
     0
176
     1
 90
       50
176
     1
 90
       50
176
     1
 90
       50
176
     1
290
     0
176
     1
 90
       50
176
     1
 62
   256
176
     0
 40
1.0
176
     0
 90
        2
176
     1
  1
strokes_ogs.tif
176
     1
290
     0
176
     1
 40
1.0
176
     1
 40
1.0
176
     1
  0
VISUALSTYLE
  5
31
102
{ACAD_REACTORS
330
2A
102
}
330
2A
100
AcDbVisualStyle
  2
Hidden
 70
     6
177
     3
291
     0
 70
    58
 90
        1
176
     1
 90
        2
176
     1
 90
        2
176
     1
 90
        0
176
     1
 40
0.6
176
     1
 40
30.0
176
     1
 62
     7
420
 16777215
176
     1
 90
        2
176
     1
 90
        2
176
     1
 62
     7
176
     1
 62
   257
176
     1
 90
        2
176
     1
 90
        1
176
     1
 40
40.0
176
     1
 90
        0
176
     1
 62
   257
176
     1
 40
1.0
176
     1
 90
        1
176
     1
 90
        6
176
     1
 90
        2
176
     1
 62
     7
176
     1
 90
        3
176
     1
 90
        0
176
     1
 90
        0
176
     1
290
     0
176
     1
 90
        1
176
     1
 40
0.0
176
     1
 90
        0
176
     1
290
     0
176
     1
290
     1
176
     1
290
     1
176
     1
290
     0
176
     1
290
     0
176
     1
290
     0
176
     1
290
     0
176
     1
290
     0
176
     1
290
     0
176
     1
 90
       50
176
     1
 40
0.0
176
     1
 40
1.0
176
     1
 90
        0
176
     1
 62
    18
420
        0
176
     1
 90
       50
176
     1
 90
        3
176
     1
 62
     5
420
      255
176
     1
290
     0
176
     1
 90
       50
176
     1
 90
       50
176
     1
 90
       50
176
     1
290
     0
176
     1
 90
       50
176
     1
 62
   256
176
     0
 40
1.0
176
     0
 90
        2
176
     1
  1
strokes_ogs.tif
176
     1
290
     0
176
     1
 40
1.0
176
     1
 40
1.0
176
     1
  0
VISUALSTYLE
  5
3B
102
{ACAD_REACTORS
330
2A
102
}
330
2A
100
AcDbVisualStyle
  2
JitterOff
 70
    20
177
     3
291
     1
 70
    58
 90
        2
176
     0
 90
        2
176
     0
 90
        0
176
     0
 90
        0
176
     0
 40
0.6
176
     0
 40
30.0
176
     0
 62
     7
420
 16777215
176
     0
 90
        1
176
     0
 90
        4
176
     0
 62
     7
176
     0
 62
   257
176
     0
 90
        1
176
     0
 90
        1
176
     0
 40
1.0
176
     0
 90
       10
176
     2
 62
     7
176
     0
 40
1.0
176
     0
 90
        1
176
     0
 90
        6
176
     0
 90
        2
176
     0
 62
     7
176
     0
 90
        5
176
     0
 90
        0
176
     0
 90
        0
176
     0
290
     0
176
     0
 90
        1
176
     0
 40
0.0
176
     0
 90
        0
176
     0
290
     0
176
     0
290
     1
176
     0
290
     1
176
     0
290
     0
176
     0
290
     0
176
     0
290
     0
176
     0
290
     0
176
     0
290
     0
176
     0
290
     0
176
     0
 90
       50
176
     0
 40
0.0
176
     0
 40
1.0
176
     0
 90
        0
176
     0
 62
    18
420
        0
176
     0
 90
       50
176
     0
 90
        3
176
     0
 62
     5
420
      255
176
     0
290
     0
176
     0
 90
       50
176
     0
 90
       50
176
     0
 90
       50
176
     0
290
     0
176
     0
 90
       50
176
     0
 62
   256
176
     0
 40
1.0
176
     0
 90
        2
176
     0
  1
strokes_ogs.tif
176
     0
290
     0
176
     0
 40
1.0
176
     0
 40
1.0
176
     0
  0
VISUALSTYLE
  5
38
102
{ACAD_REACTORS
330
2A
102
}
330
2A
100
AcDbVisualStyle
  2
Linepattern
 70
    14
177
     3
291
     1
 70
    58
 90
        2
176
     1
 90
        2
176
     1
 90
        0
176
     1
 90
        0
176
     1
 40
0.6
176
     1
 40
30.0
176
     1
 62
     7
420
 16777215
176
     1
 90
        1
176
     1
 90
        4
176
     1
 62
     7
176
     1
 62
   257
176
     1
 90
        7
176
     1
 90
        7
176
     1
 40
1.0
176
     1
 90
        8
176
     1
 62
     7
176
     1
 40
1.0
176
     1
 90
        1
176
     1
 90
        6
176
     1
 90
        2
176
     1
 62
     7
176
     1
 90
        5
176
     1
 90
        0
176
     1
 90
        0
176
     1
290
     0
176
     1
 90
        1
176
     1
 40
0.0
176
     1
 90
        0
176
     1
290
     0
176
     1
290
     1
176
     1
290
     1
176
     1
290
     0
176
     1
290
     0
176
     1
290
     0
176
     1
290
     0
176
     1
290
     0
176
     1
290
     0
176
     1
 90
       50
176
     1
 40
0.0
176
     1
 40
1.0
176
     1
 90
        0
176
     1
 62
    18
420
        0
176
     1
 90
       50
176
     1
 90
        3
176
     1
 62
     5
420
      255
176
     1
290
     0
176
     1
 90
       50
176
     1
 90
       50
176
     1
 90
       50
176
     1
290
     0
176
     1
 90
       50
176
     1
 62
   256
176
     0
 40
1.0
176
     0
 90
        2
176
     1
  1
strokes_ogs.tif
176
     1
290
     0
176
     1
 40
1.0
176
     1
 40
1.0
176
     1
  0
VISUALSTYLE
  5
3C
102
{ACAD_REACTORS
330
2A
102
}
330
2A
100
AcDbVisualStyle
  2
OverhangOff
 70
    21
177
     3
291
     1
 70
    58
 90
        2
176
     0
 90
        2
176
     0
 90
        0
176
     0
 90
        0
176
     0
 40
0.6
176
     0
 40
30.0
176
     0
 62
     7
420
 16777215
176
     0
 90
        1
176
     0
 90
        4
176
     0
 62
     7
176
     0
 62
   257
176
     0
 90
        1
176
     0
 90
        1
176
     0
 40
1.0
176
     0
 90
        9
176
     2
 62
     7
176
     0
 40
1.0
176
     0
 90
        1
176
     0
 90
        6
176
     0
 90
        2
176
     0
 62
     7
176
     0
 90
        5
176
     0
 90
        0
176
     0
 90
        0
176
     0
290
     0
176
     0
 90
        1
176
     0
 40
0.0
176
     0
 90
        0
176
     0
290
     0
176
     0
290
     1
176
     0
290
     1
176
     0
290
     0
176
     0
290
     0
176
     0
290
     0
176
     0
290
     0
176
     0
290
     0
176
     0
290
     0
176
     0
 90
       50
176
     0
 40
0.0
176
     0
 40
1.0
176
     0
 90
        0
176
     0
 62
    18
420
        0
176
     0
 90
       50
176
     0
 90
        3
176
     0
 62
     5
420
      255
176
     0
290
     0
176
     0
 90
       50
176
     0
 90
       50
176
     0
 90
       50
176
     0
290
     0
176
     0
 90
       50
176
     0
 62
   256
176
     0
 40
1.0
176
     0
 90
        2
176
     0
  1
strokes_ogs.tif
176
     0
290
     0
176
     0
 40
1.0
176
     0
 40
1.0
176
     0
  0
VISUALSTYLE
  5
33
102
{ACAD_REACTORS
330
2A
102
}
330
2A
100
AcDbVisualStyle
  2
Realistic
 70
     8
177
     3
291
     0
 70
    58
 90
        2
176
     1
 90
        3
176
     1
 90
        0
176
     1
 90
        2
176
     1
 40
0.6
176
     1
 40
30.0
176
     1
 62
     7
420
 16777215
176
     1
 90
        0
176
     1
 90
        0
176
     1
 62
     7
176
     1
 62
   257
176
     1
 90
        1
176
     1
 90
        1
176
     1
 40
1.0
176
     1
 90
        8
176
     1
 62
   257
176
     1
 40
1.0
176
     1
 90
        1
176
     1
 90
        6
176
     1
 90
        2
176
     1
 62
     7
176
     1
 90
        3
176
     1
 90
        0
176
     1
 90
        0
176
     1
290
     0
176
     1
 90
       13
176
     1
 40
0.0
176
     1
 90
        0
176
     1
290
     0
176
     1
290
     1
176
     1
290
     1
176
     1
290
     0
176
     1
290
     0
176
     1
290
     0
176
     1
290
     0
176
     1
290
     0
176
     1
290
     0
176
     1
 90
       50
176
     1
 40
0.0
176
     1
 40
1.0
176
     1
 90
        0
176
     1
 62
    18
420
        0
176
     1
 90
       50
176
     1
 90
        3
176
     1
 62
     5
420
      255
176
     1
290
     0
176
     1
 90
       50
176
     1
 90
       50
176
     1
 90
       50
176
     1
290
     0
176
     1
 90
       50
176
     1
 62
   256
176
     0
 40
1.0
176
     0
 90
        2
176
     1
  1
strokes_ogs.tif
176
     1
290
     0
176
     1
 40
1.0
176
     1
 40
1.0
176
     1
  0
VISUALSTYLE
  5
42
102
{ACAD_REACTORS
330
2A
102
}
330
2A
100
AcDbVisualStyle
  2
Shaded
 70
    27
177
     3
291
     0
 70
    58
 90
        2
176
     1
 90
        2
176
     1
 90
        1
176
     1
 90
        2
176
     1
 40
0.6
176
     1
 40
30.0
176
     1
 62
     7
420
 16777215
176
     1
 90
        0
176
     1
 90
        4
176
     1
 62
     7
176
     1
 62
   257
176
     1
 90
        1
176
     1
 90
        1
176
     1
 40
1.0
176
     1
 90
        8
176
     1
 62
   257
176
     1
 40
1.0
176
     1
 90
        1
176
     1
 90
        6
176
     1
 90
        2
176
     1
 62
     8
420
  7895160
176
     1
 90
        3
176
     1
 90
        0
176
     1
 90
        0
176
     1
290
     0
176
     1
 90
        5
176
     1
 40
0.0
176
     1
 90
        0
176
     1
290
     0
176
     1
290
     1
176
     1
290
     1
176
     1
290
     0
176
     1
290
     0
176
     1
290
     0
176
     1
290
     0
176
     1
290
     0
176
     1
290
     0
176
     1
 90
       50
176
     1
 40
0.0
176
     1
 40
1.0
176
     1
 90
        0
176
     1
 62
    18
420
        0
176
     1
 90
       50
176
     1
 90
        3
176
     1
 62
     5
420
      255
176
     1
290
     0
176
     1
 90
       50
176
     1
 90
       50
176
     1
 90
       50
176
     1
290
     0
176
     1
 90
       50
176
     1
 62
   256
176
     0
 40
1.0
176
     0
 90
        2
176
     1
  1
strokes_ogs.tif
176
     1
290
     0
176
     1
 40
1.0
176
     1
 40
1.0
176
     1
  0
VISUALSTYLE
  5
41
102
{ACAD_REACTORS
330
2A
102
}
330
2A
100
AcDbVisualStyle
  2
Shaded with edges
 70
    26
177
     3
291
     0
 70
    58
 90
        2
176
     1
 90
        2
176
     1
 90
        1
176
     1
 90
        2
176
     1
 40
0.6
176
     1
 40
30.0
176
     1
 62
     7
420
 16777215
176
     1
 90
        1
176
     1
 90
       10
176
     1
 62
     7
176
     1
 62
   257
176
     1
 90
        2
176
     1
 90
        1
176
     1
 40
1.0
176
     1
 90
        8
176
     1
 62
   257
176
     1
 40
1.0
176
     1
 90
        1
176
     1
 90
        6
176
     1
 90
        2
176
     1
 62
     7
176
     1
 90
        3
176
     1
 90
        0
176
     1
 90
        0
176
     1
290
     0
176
     1
 90
        5
176
     1
 40
0.0
176
     1
 90
        0
176
     1
290
     0
176
     1
290
     1
176
     1
290
     1
176
     1
290
     0
176
     1
290
     0
176
     1
290
     0
176
     1
290
     0
176
     1
290
     0
176
     1
290
     0
176
     1
 90
       50
176
     1
 40
0.0
176
     1
 40
1.0
176
     1
 90
        0
176
     1
 62
    18
420
        0
176
     1
 90
       50
176
     1
 90
        3
176
     1
 62
     5
420
      255
176
     1
290
     0
176
     1
 90
       50
176
     1
 90
       50
176
     1
 90
       50
176
     1
290
     0
176
     1
 90
       50
176
     1
 62
   256
176
     0
 40
1.0
176
     0
 90
        2
176
     1
  1
strokes_ogs.tif
176
     1
290
     0
176
     1
 40
1.0
176
     1
 40
1.0
176
     1
  0
VISUALSTYLE
  5
3E
102
{ACAD_REACTORS
330
2A
102
}
330
2A
100
AcDbVisualStyle
  2
Shades of Gray
 70
    23
177
     3
291
     0
 70
    58
 90
        2
176
     1
 90
        2
176
     1
 90
        3
176
     1
 90
        0
176
     1
 40
0.6
176
     1
 40
30.0
176
     1
 62
     7
420
 16777215
176
     1
 90
        2
176
     1
 90
        2
176
     1
 62
     7
176
     1
 62
     7
176
     1
 90
        1
176
     1
 90
        1
176
     1
 40
40.0
176
     1
 90
        8
176
     1
 62
     7
176
     1
 40
1.0
176
     1
 90
        1
176
     1
 90
        6
176
     1
 90
        2
176
     1
 62
     7
176
     1
 90
        3
176
     1
 90
        0
176
     1
 90
        0
176
     1
290
     0
176
     1
 90
        1
176
     1
 40
0.0
176
     1
 90
        0
176
     1
290
     0
176
     1
290
     1
176
     1
290
     1
176
     1
290
     0
176
     1
290
     0
176
     1
290
     0
176
     1
290
     0
176
     1
290
     0
176
     1
290
     0
176
     1
 90
       50
176
     1
 40
0.0
176
     1
 40
1.0
176
     1
 90
        0
176
     1
 62
    18
420
        0
176
     1
 90
       50
176
     1
 90
        3
176
     1
 62
     5
420
      255
176
     1
290
     0
176
     1
 90
       50
176
     1
 90
       50
176
     1
 90
       50
176
     1
290
     0
176
     1
 90
       50
176
     1
 62
   256
176
     0
 40
1.0
176
     0
 90
        2
176
     1
  1
strokes_ogs.tif
176
     1
290
     0
176
     1
 40
1.0
176
     1
 40
1.0
176
     1
  0
VISUALSTYLE
  5
3F
102
{ACAD_REACTORS
330
2A
102
}
330
2A
100
AcDbVisualStyle
  2
Sketchy
 70
    24
177
     3
291
     0
 70
    58
 90
        1
176
     1
 90
        2
176
     1
 90
        2
176
     1
 90
        0
176
     1
 40
0.6
176
     1
 40
30.0
176
     1
 62
     7
420
 16777215
176
     1
 90
        2
176
     1
 90
        2
176
     1
 62
     7
176
     1
 62
     7
176
     1
 90
        1
176
     1
 90
        1
176
     1
 40
40.0
176
     1
 90
       11
176
     1
 62
     7
176
     1
 40
1.0
176
     1
 90
        1
176
     1
 90
        6
176
     1
 90
        2
176
     1
 62
     7
176
     1
 90
        6
176
     1
 90
        0
176
     1
 90
        0
176
     1
290
     0
176
     1
 90
        1
176
     1
 40
0.0
176
     1
 90
        0
176
     1
290
     0
176
     1
290
     1
176
     1
290
     1
176
     1
290
     0
176
     1
290
     0
176
     1
290
     0
176
     1
290
     0
176
     1
290
     0
176
     1
290
     0
176
     1
 90
       50
176
     1
 40
0.0
176
     1
 40
1.0
176
     1
 90
        0
176
     1
 62
    18
420
        0
176
     1
 90
       50
176
     1
 90
        3
176
     1
 62
     5
420
      255
176
     1
290
     0
176
     1
 90
       50
176
     1
 90
       50
176
     1
 90
       50
176
     1
290
     0
176
     1
 90
       50
176
     1
 62
   256
176
     0
 40
1.0
176
     0
 90
        2
176
     1
  1
strokes_ogs.tif
176
     1
290
     0
176
     1
 40
1.0
176
     1
 40
1.0
176
     1
  0
VISUALSTYLE
  5
37
102
{ACAD_REACTORS
330
2A
102
}
330
2A
100
AcDbVisualStyle
  2
Thicken
 70
    13
177
     3
291
     1
 70
    58
 90
        2
176
     1
 90
        2
176
     1
 90
        0
176
     1
 90
        0
176
     1
 40
0.6
176
     1
 40
30.0
176
     1
 62
     7
420
 16777215
176
     1
 90
        1
176
     1
 90
        4
176
     1
 62
     7
176
     1
 62
   257
176
     1
 90
        1
176
     1
 90
        1
176
     1
 40
1.0
176
     1
 90
       12
176
     1
 62
     7
176
     1
 40
1.0
176
     1
 90
        1
176
     1
 90
        6
176
     1
 90
        2
176
     1
 62
     7
176
     1
 90
        5
176
     1
 90
        0
176
     1
 90
        0
176
     1
290
     0
176
     1
 90
        1
176
     1
 40
0.0
176
     1
 90
        0
176
     1
290
     0
176
     1
290
     1
176
     1
290
     1
176
     1
290
     0
176
     1
290
     0
176
     1
290
     0
176
     1
290
     0
176
     1
290
     0
176
     1
290
     0
176
     1
 90
       50
176
     1
 40
0.0
176
     1
 40
1.0
176
     1
 90
        0
176
     1
 62
    18
420
        0
176
     1
 90
       50
176
     1
 90
        3
176
     1
 62
     5
420
      255
176
     1
290
     0
176
     1
 90
       50
176
     1
 90
       50
176
     1
 90
       50
176
     1
290
     0
176
     1
 90
       50
176
     1
 62
   256
176
     0
 40
1.0
176
     0
 90
        2
176
     1
  1
strokes_ogs.tif
176
     1
290
     0
176
     1
 40
1.0
176
     1
 40
1.0
176
     1
  0
VISUALSTYLE
  5
30
102
{ACAD_REACTORS
330
2A
102
}
330
2A
100
AcDbVisualStyle
  2
Wireframe
 70
     5
177
     3
291
     0
 70
    58
 90
        0
176
     1
 90
        2
176
     1
 90
        0
176
     1
 90
        0
176
     1
 40
0.6
176
     1
 40
30.0
176
     1
 62
     7
420
 16777215
176
     1
 90
        1
176
     1
 90
        4
176
     1
 62
     7
176
     1
 62
   257
176
     1
 90
        1
176
     1
 90
        1
176
     1
 40
1.0
176
     1
 90
        0
176
     1
 62
   257
176
     1
 40
1.0
176
     1
 90
        1
176
     1
 90
        6
176
     1
 90
        2
176
     1
 62
     7
176
     1
 90
        3
176
     1
 90
        0
176
     1
 90
        0
176
     1
290
     0
176
     1
 90
        1
176
     1
 40
0.0
176
     1
 90
        0
176
     1
290
     0
176
     1
290
     1
176
     1
290
     1
176
     1
290
     0
176
     1
290
     0
176
     1
290
     0
176
     1
290
     0
176
     1
290
     0
176
     1
290
     0
176
     1
 90
       50
176
     1
 40
0.0
176
     1
 40
1.0
176
     1
 90
        0
176
     1
 62
    18
420
        0
176
     1
 90
       50
176
     1
 90
        3
176
     1
 62
     5
420
      255
176
     1
290
     0
176
     1
 90
       50
176
     1
 90
       50
176
     1
 90
       50
176
     1
290
     0
176
     1
 90
       50
176
     1
 62
   256
176
     0
 40
1.0
176
     0
 90
        2
176
     1
  1
strokes_ogs.tif
176
     1
290
     0
176
     1
 40
1.0
176
     1
 40
1.0
176
     1
  0
VISUALSTYLE
  5
40
102
{ACAD_REACTORS
330
2A
102
}
330
2A
100
AcDbVisualStyle
  2
X-Ray
 70
    25
177
     3
291
     0
 70
    58
 90
        2
176
     1
 90
        2
176
     1
 90
        1
176
     1
 90
        1
176
     1
 40
0.5
176
     1
 40
30.0
176
     1
 62
     7
420
 16777215
176
     1
 90
        1
176
     1
 90
        0
176
     1
 62
     7
176
     1
 62
   257
176
     1
 90
        1
176
     1
 90
        1
176
     1
 40
1.0
176
     1
 90
        8
176
     1
 62
     7
176
     1
 40
1.0
176
     1
 90
        1
176
     1
 90
        6
176
     1
 90
        2
176
     1
 62
     7
176
     1
 90
        3
176
     1
 90
        0
176
     1
 90
        0
176
     1
290
     0
176
     1
 90
       13
176
     1
 40
0.0
176
     1
 90
        0
176
     1
290
     0
176
     1
290
     1
176
     1
290
     1
176
     1
290
     0
176
     1
290
     0
176
     1
290
     0
176
     1
290
     0
176
     1
290
     0
176
     1
290
     0
176
     1
 90
       50
176
     1
 40
0.0
176
     1
 40
1.0
176
     1
 90
        0
176
     1
 62
    18
420
        0
176
     1
 90
       50
176
     1
 90
        3
176
     1
 62
     5
420
      255
176
     1
290
     0
176
     1
 90
       50
176
     1
 90
       50
176
     1
 90
       50
176
     1
290
     0
176
     1
 90
       50
176
     1
 62
   256
176
     0
 40
1.0
176
     0
 90
        2
176
     1
  1
strokes_ogs.tif
176
     1
290
     0
176
     1
 40
1.0
176
     1
 40
1.0
176
     1
  0
DICTIONARYVAR
  5
1EC
102
{ACAD_REACTORS
330
1EB
102
}
330
1EB
100
DictionaryVariables
280
     0
  1
1:1
  0
DICTIONARYVAR
  5
1F1
102
{ACAD_REACTORS
330
1EB
102
}
330
1EB
100
DictionaryVariables
280
     0
  1
Standard
  0
DICTIONARYVAR
  5
1F0
102
{ACAD_REACTORS
330
1EB
102
}
330
1EB
100
DictionaryVariables
280
     0
  1
Standard
  0
DICTIONARY
  5
1ED
330
6A
100
AcDbDictionary
280
     1
281
     1
  3
ACAD_ROUNDTRIP_2008_TABLESTYLE_CELLSTYLEMAP
360
1EE
  0
CELLSTYLEMAP
  5
1EE
102
{ACAD_REACTORS
330
1ED
102
}
330
1ED
100
AcDbCellStyleMap
 90
        3
300
CELLSTYLE
  1
TABLEFORMAT_BEGIN
 90
        5
170
     1
 91
        0
 92
    32768
 62
   257
 93
        1
300
CONTENTFORMAT
  1
CONTENTFORMAT_BEGIN
 90
        0
 91
        0
 92
        4
 93
        0
300

 40
0.0
140
1.0
 94
        5
 62
     0
340
11
144
6.0
309
CONTENTFORMAT_END
171
     1
301
MARGIN
  1
CELLMARGIN_BEGIN
 40
1.5
 40
1.5
 40
1.5
 40
1.5
 40
1.5
 40
1.5
309
CELLMARGIN_END
 94
        6
 95
        1
302
GRIDFORMAT
  1
GRIDFORMAT_BEGIN
 90
        0
 91
        1
 62
     0
 92
       -2
340
14
 93
        0
 40
0.045
309
GRIDFORMAT_END
 95
        2
302
GRIDFORMAT
  1
GRIDFORMAT_BEGIN
 90
        0
 91
        1
 62
     0
 92
       -2
340
14
 93
        0
 40
0.045
309
GRIDFORMAT_END
 95
        4
302
GRIDFORMAT
  1
GRIDFORMAT_BEGIN
 90
        0
 91
        1
 62
     0
 92
       -2
340
14
 93
        0
 40
0.045
309
GRIDFORMAT_END
 95
        8
302
GRIDFORMAT
  1
GRIDFORMAT_BEGIN
 90
        0
 91
        1
 62
     0
 92
       -2
340
14
 93
        0
 40
0.045
309
GRIDFORMAT_END
 95
       16
302
GRIDFORMAT
  1
GRIDFORMAT_BEGIN
 90
        0
 91
        1
 62
     0
 92
       -2
340
14
 93
        0
 40
0.045
309
GRIDFORMAT_END
 95
       32
302
GRIDFORMAT
  1
GRIDFORMAT_BEGIN
 90
        0
 91
        1
 62
     0
 92
       -2
340
14
 93
        0
 40
0.045
309
GRIDFORMAT_END
309
TABLEFORMAT_END
  1
CELLSTYLE_BEGIN
 90
        1
 91
        1
300
_TITLE
309
CELLSTYLE_END
300
CELLSTYLE
  1
TABLEFORMAT_BEGIN
 90
        5
170
     1
 91
        0
 92
        0
 62
   257
 93
        1
300
CONTENTFORMAT
  1
CONTENTFORMAT_BEGIN
 90
        0
 91
        0
 92
        4
 93
        0
300

 40
0.0
140
1.0
 94
        5
 62
     0
340
11
144
4.5
309
CONTENTFORMAT_END
171
     1
301
MARGIN
  1
CELLMARGIN_BEGIN
 40
1.5
 40
1.5
 40
1.5
 40
1.5
 40
1.5
 40
1.5
309
CELLMARGIN_END
 94
        6
 95
        1
302
GRIDFORMAT
  1
GRIDFORMAT_BEGIN
 90
        0
 91
        1
 62
     0
 92
       -2
340
14
 93
        0
 40
0.045
309
GRIDFORMAT_END
 95
        2
302
GRIDFORMAT
  1
GRIDFORMAT_BEGIN
 90
        0
 91
        1
 62
     0
 92
       -2
340
14
 93
        0
 40
0.045
309
GRIDFORMAT_END
 95
        4
302
GRIDFORMAT
  1
GRIDFORMAT_BEGIN
 90
        0
 91
        1
 62
     0
 92
       -2
340
14
 93
        0
 40
0.045
309
GRIDFORMAT_END
 95
        8
302
GRIDFORMAT
  1
GRIDFORMAT_BEGIN
 90
        0
 91
        1
 62
     0
 92
       -2
340
14
 93
        0
 40
0.045
309
GRIDFORMAT_END
 95
       16
302
GRIDFORMAT
  1
GRIDFORMAT_BEGIN
 90
        0
 91
        1
 62
     0
 92
       -2
340
14
 93
        0
 40
0.045
309
GRIDFORMAT_END
 95
       32
302
GRIDFORMAT
  1
GRIDFORMAT_BEGIN
 90
        0
 91
        1
 62
     0
 92
       -2
340
14
 93
        0
 40
0.045
309
GRIDFORMAT_END
309
TABLEFORMAT_END
  1
CELLSTYLE_BEGIN
 90
        2
 91
        1
300
_HEADER
309
CELLSTYLE_END
300
CELLSTYLE
  1
TABLEFORMAT_BEGIN
 90
        5
170
     1
 91
        0
 92
        0
 62
   257
 93
        1
300
CONTENTFORMAT
  1
CONTENTFORMAT_BEGIN
 90
        0
 91
        0
 92
        4
 93
        0
300

 40
0.0
140
1.0
 94
        2
 62
     0
340
11
144
4.5
309
CONTENTFORMAT_END
171
     1
301
MARGIN
  1
CELLMARGIN_BEGIN
 40
1.5
 40
1.5
 40
1.5
 40
1.5
 40
1.5
 40
1.5
309
CELLMARGIN_END
 94
        6
 95
        1
302
GRIDFORMAT
  1
GRIDFORMAT_BEGIN
 90
        0
 91
        1
 62
     0
 92
       -2
340
14
 93
        0
 40
0.045
309
GRIDFORMAT_END
 95
        2
302
GRIDFORMAT
  1
GRIDFORMAT_BEGIN
 90
        0
 91
        1
 62
     0
 92
       -2
340
14
 93
        0
 40
0.045
309
GRIDFORMAT_END
 95
        4
302
GRIDFORMAT
  1
GRIDFORMAT_BEGIN
 90
        0
 91
        1
 62
     0
 92
       -2
340
14
 93
        0
 40
0.045
309
GRIDFORMAT_END
 95
        8
302
GRIDFORMAT
  1
GRIDFORMAT_BEGIN
 90
        0
 91
        1
 62
     0
 92
       -2
340
14
 93
        0
 40
0.045
309
GRIDFORMAT_END
 95
       16
302
GRIDFORMAT
  1
GRIDFORMAT_BEGIN
 90
        0
 91
        1
 62
     0
 92
       -2
340
14
 93
        0
 40
0.045
309
GRIDFORMAT_END
 95
       32
302
GRIDFORMAT
  1
GRIDFORMAT_BEGIN
 90
        0
 91
        1
 62
     0
 92
       -2
340
14
 93
        0
 40
0.045
309
GRIDFORMAT_END
309
TABLEFORMAT_END
  1
CELLSTYLE_BEGIN
 90
        3
 91
        2
300
_DATA
309
CELLSTYLE_END
  0
ENDSEC
  0
EOF