0
SECTION
  2
HEADER
  9
$ACADVER
  1
AC1027
  9
$ACADMAINTVER
 70
     8
  9
$DWGCODEPAGE
  3
ANSI_1252
  9
$REQUIREDVERSIONS
160
                 0
  9
$COMMENTS
  1
File was created by Cadenas
  9
$CUSTOMPROPERTYTAG
  1
NN
  9
$CUSTOMPROPERTY
  1
Grip Tight Medium Duty Four-Bolt Flange Metric Bore
  9
$CUSTOMPROPERTYTAG
  1
NT
  9
$CUSTOMPROPERTY
  1
GTM Medium Duty 4 Bolt Flange Bearings
  9
$CUSTOMPROPERTYTAG
  1
NB
  9
$CUSTOMPROPERTY
  1
136279
  9
$CUSTOMPROPERTYTAG
  1
NBSYN
  9
$CUSTOMPROPERTY
  1
$PN.$LUBE.
  9
$CUSTOMPROPERTYTAG
  1
LINA
  9
$CUSTOMPROPERTY
  1
136279
  9
$CUSTOMPROPERTYTAG
  1
SERIES
  9
$CUSTOMPROPERTY
  1
210
  9
$CUSTOMPROPERTYTAG
  1
SS
  9
$CUSTOMPROPERTY
  1
45
  9
$CUSTOMPROPERTYTAG
  1
PN
  9
$CUSTOMPROPERTY
  1
136279
  9
$CUSTOMPROPERTYTAG
  1
DESCRIPTION
  9
$CUSTOMPROPERTY
  1
F4B-GTM-45M
  9
$CUSTOMPROPERTYTAG
  1
A
  9
$CUSTOMPROPERTY
  1
47.2
  9
$CUSTOMPROPERTYTAG
  1
B
  9
$CUSTOMPROPERTY
  1
142.9
  9
$CUSTOMPROPERTYTAG
  1
C
  9
$CUSTOMPROPERTY
  1
52.0
  9
$CUSTOMPROPERTYTAG
  1
D
  9
$CUSTOMPROPERTY
  1
111.0
  9
$CUSTOMPROPERTYTAG
  1
F
  9
$CUSTOMPROPERTY
  1
M16
  9
$CUSTOMPROPERTYTAG
  1
H
  9
$CUSTOMPROPERTY
  1
15.9
  9
$CUSTOMPROPERTYTAG
  1
J
  9
$CUSTOMPROPERTY
  1
13.5
  9
$CUSTOMPROPERTYTAG
  1
L
  9
$CUSTOMPROPERTY
  1
74.6
  9
$CUSTOMPROPERTYTAG
  1
N
  9
$CUSTOMPROPERTY
  1
73.0
  9
$CUSTOMPROPERTYTAG
  1
Z
  9
$CUSTOMPROPERTY
  1
50.8
  9
$CUSTOMPROPERTYTAG
  1
COMPANY
  9
$CUSTOMPROPERTY
  1
baldor
  9
$INSBASE
 10
0.0
 20
0.0
 30
0.0
  9
$EXTMIN
 10
1.000000000000000E+20
 20
1.000000000000000E+20
 30
1.000000000000000E+20
  9
$EXTMAX
 10
-1.000000000000000E+20
 20
-1.000000000000000E+20
 30
-1.000000000000000E+20
  9
$LIMMIN
 10
0.0
 20
0.0
  9
$LIMMAX
 10
420.0
 20
297.0
  9
$ORTHOMODE
 70
     0
  9
$REGENMODE
 70
     1
  9
$FILLMODE
 70
     1
  9
$QTEXTMODE
 70
     0
  9
$MIRRTEXT
 70
     1
  9
$LTSCALE
 40
1.0
  9
$ATTMODE
 70
     1
  9
$TEXTSIZE
 40
2.5
  9
$TRACEWID
 40
1.0
  9
$TEXTSTYLE
  7
Standard
  9
$CLAYER
  8
0
  9
$CELTYPE
  6
ByLayer
  9
$CECOLOR
 62
   256
  9
$CELTSCALE
 40
1.0
  9
$DISPSILH
 70
     0
  9
$DIMSCALE
 40
1.0
  9
$DIMASZ
 40
2.5
  9
$DIMEXO
 40
0.625
  9
$DIMDLI
 40
3.75
  9
$DIMRND
 40
0.0
  9
$DIMDLE
 40
0.0
  9
$DIMEXE
 40
1.25
  9
$DIMTP
 40
0.0
  9
$DIMTM
 40
0.0
  9
$DIMTXT
 40
2.5
  9
$DIMCEN
 40
2.5
  9
$DIMTSZ
 40
0.0
  9
$DIMTOL
 70
     0
  9
$DIMLIM
 70
     0
  9
$DIMTIH
 70
     0
  9
$DIMTOH
 70
     0
  9
$DIMSE1
 70
     0
  9
$DIMSE2
 70
     0
  9
$DIMTAD
 70
     1
  9
$DIMZIN
 70
     8
  9
$DIMBLK
  1

  9
$DIMASO
 70
     1
  9
$DIMSHO
 70
     1
  9
$DIMPOST
  1

  9
$DIMAPOST
  1

  9
$DIMALT
 70
     0
  9
$DIMALTD
 70
     3
  9
$DIMALTF
 40
0.03937007874016
  9
$DIMLFAC
 40
1.0
  9
$DIMTOFL
 70
     1
  9
$DIMTVP
 40
0.0
  9
$DIMTIX
 70
     0
  9
$DIMSOXD
 70
     0
  9
$DIMSAH
 70
     0
  9
$DIMBLK1
  1

  9
$DIMBLK2
  1

  9
$DIMSTYLE
  2
ISO-25
  9
$DIMCLRD
 70
     0
  9
$DIMCLRE
 70
     0
  9
$DIMCLRT
 70
     0
  9
$DIMTFAC
 40
1.0
  9
$DIMGAP
 40
0.625
  9
$DIMJUST
 70
     0
  9
$DIMSD1
 70
     0
  9
$DIMSD2
 70
     0
  9
$DIMTOLJ
 70
     0
  9
$DIMTZIN
 70
     8
  9
$DIMALTZ
 70
     0
  9
$DIMALTTZ
 70
     0
  9
$DIMUPT
 70
     0
  9
$DIMDEC
 70
     2
  9
$DIMTDEC
 70
     2
  9
$DIMALTU
 70
     2
  9
$DIMALTTD
 70
     3
  9
$DIMTXSTY
  7
Standard
  9
$DIMAUNIT
 70
     0
  9
$DIMADEC
 70
     0
  9
$DIMALTRND
 40
0.0
  9
$DIMAZIN
 70
     0
  9
$DIMDSEP
 70
    44
  9
$DIMATFIT
 70
     3
  9
$DIMFRAC
 70
     0
  9
$DIMLDRBLK
  1

  9
$DIMLUNIT
 70
     2
  9
$DIMLWD
 70
    -2
  9
$DIMLWE
 70
    -2
  9
$DIMTMOVE
 70
     0
  9
$DIMFXL
 40
1.0
  9
$DIMFXLON
 70
     0
  9
$DIMJOGANG
 40
0.7853981633974483
  9
$DIMTFILL
 70
     0
  9
$DIMTFILLCLR
 70
     0
  9
$DIMARCSYM
 70
     0
  9
$DIMLTYPE
  6

  9
$DIMLTEX1
  6

  9
$DIMLTEX2
  6

  9
$DIMTXTDIRECTION
 70
     0
  9
$LUNITS
 70
     2
  9
$LUPREC
 70
     4
  9
$SKETCHINC
 40
1.0
  9
$FILLETRAD
 40
10.0
  9
$AUNITS
 70
     0
  9
$AUPREC
 70
     0
  9
$MENU
  1
.
  9
$ELEVATION
 40
0.0
  9
$PELEVATION
 40
0.0
  9
$THICKNESS
 40
0.0
  9
$LIMCHECK
 70
     0
  9
$CHAMFERA
 40
0.0
  9
$CHAMFERB
 40
0.0
  9
$CHAMFERC
 40
0.0
  9
$CHAMFERD
 40
0.0
  9
$SKPOLY
 70
     0
  9
$TDCREATE
 40
2458168.993244514
  9
$TDUCREATE
 40
2458168.951577847
  9
$TDUPDATE
 40
2458168.993244699
  9
$TDUUPDATE
 40
2458168.951578032
  9
$TDINDWG
 40
0.0000000116
  9
$TDUSRTIMER
 40
0.0000000116
  9
$USRTIMER
 70
     1
  9
$ANGBASE
 50
0.0
  9
$ANGDIR
 70
     0
  9
$PDMODE
 70
     0
  9
$PDSIZE
 40
0.0
  9
$PLINEWID
 40
0.0
  9
$SPLFRAME
 70
     0
  9
$SPLINETYPE
 70
     6
  9
$SPLINESEGS
 70
     8
  9
$HANDSEED
  5
1C7
  9
$SURFTAB1
 70
     6
  9
$SURFTAB2
 70
     6
  9
$SURFTYPE
 70
     6
  9
$SURFU
 70
     6
  9
$SURFV
 70
     6
  9
$UCSBASE
  2

  9
$UCSNAME
  2

  9
$UCSORG
 10
0.0
 20
0.0
 30
0.0
  9
$UCSXDIR
 10
1.0
 20
0.0
 30
0.0
  9
$UCSYDIR
 10
0.0
 20
1.0
 30
0.0
  9
$UCSORTHOREF
  2

  9
$UCSORTHOVIEW
 70
     0
  9
$UCSORGTOP
 10
0.0
 20
0.0
 30
0.0
  9
$UCSORGBOTTOM
 10
0.0
 20
0.0
 30
0.0
  9
$UCSORGLEFT
 10
0.0
 20
0.0
 30
0.0
  9
$UCSORGRIGHT
 10
0.0
 20
0.0
 30
0.0
  9
$UCSORGFRONT
 10
0.0
 20
0.0
 30
0.0
  9
$UCSORGBACK
 10
0.0
 20
0.0
 30
0.0
  9
$PUCSBASE
  2

  9
$PUCSNAME
  2

  9
$PUCSORG
 10
0.0
 20
0.0
 30
0.0
  9
$PUCSXDIR
 10
1.0
 20
0.0
 30
0.0
  9
$PUCSYDIR
 10
0.0
 20
1.0
 30
0.0
  9
$PUCSORTHOREF
  2

  9
$PUCSORTHOVIEW
 70
     0
  9
$PUCSORGTOP
 10
0.0
 20
0.0
 30
0.0
  9
$PUCSORGBOTTOM
 10
0.0
 20
0.0
 30
0.0
  9
$PUCSORGLEFT
 10
0.0
 20
0.0
 30
0.0
  9
$PUCSORGRIGHT
 10
0.0
 20
0.0
 30
0.0
  9
$PUCSORGFRONT
 10
0.0
 20
0.0
 30
0.0
  9
$PUCSORGBACK
 10
0.0
 20
0.0
 30
0.0
  9
$USERI1
 70
     0
  9
$USERI2
 70
     0
  9
$USERI3
 70
     0
  9
$USERI4
 70
     0
  9
$USERI5
 70
     0
  9
$USERR1
 40
0.0
  9
$USERR2
 40
0.0
  9
$USERR3
 40
0.0
  9
$USERR4
 40
0.0
  9
$USERR5
 40
0.0
  9
$WORLDVIEW
 70
     1
  9
$SHADEDGE
 70
     3
  9
$SHADEDIF
 70
    70
  9
$TILEMODE
 70
     1
  9
$MAXACTVP
 70
    64
  9
$PINSBASE
 10
0.0
 20
0.0
 30
0.0
  9
$PLIMCHECK
 70
     0
  9
$PEXTMIN
 10
1.000000000000000E+20
 20
1.000000000000000E+20
 30
1.000000000000000E+20
  9
$PEXTMAX
 10
-1.000000000000000E+20
 20
-1.000000000000000E+20
 30
-1.000000000000000E+20
  9
$PLIMMIN
 10
0.0
 20
0.0
  9
$PLIMMAX
 10
420.0
 20
297.0
  9
$UNITMODE
 70
     0
  9
$VISRETAIN
 70
     1
  9
$PLINEGEN
 70
     0
  9
$PSLTSCALE
 70
     1
  9
$TREEDEPTH
 70
  3020
  9
$CMLSTYLE
  2
Standard
  9
$CMLJUST
 70
     0
  9
$CMLSCALE
 40
20.0
  9
$PROXYGRAPHICS
 70
     1
  9
$MEASUREMENT
 70
     1
  9
$CELWEIGHT
370
    -1
  9
$ENDCAPS
280
     0
  9
$JOINSTYLE
280
     0
  9
$LWDISPLAY
290
     0
  9
$INSUNITS
 70
     4
  9
$HYPERLINKBASE
  1

  9
$STYLESHEET
  1

  9
$XEDIT
290
     1
  9
$CEPSNTYPE
380
     0
  9
$PSTYLEMODE
290
     1
  9
$FINGERPRINTGUID
  2
{355BA347-B442-49CF-A114-64F82C08AE7E}
  9
$VERSIONGUID
  2
{FAEB1C32-E019-11D5-929B-00C0DF256EC4}
  9
$EXTNAMES
290
     1
  9
$PSVPSCALE
 40
0.0
  9
$OLESTARTUP
290
     0
  9
$SORTENTS
280
   127
  9
$INDEXCTL
280
     0
  9
$HIDETEXT
280
     1
  9
$XCLIPFRAME
280
     2
  9
$HALOGAP
280
     0
  9
$OBSCOLOR
 70
   257
  9
$OBSLTYPE
280
     0
  9
$INTERSECTIONDISPLAY
280
     0
  9
$INTERSECTIONCOLOR
 70
   257
  9
$DIMASSOC
280
     2
  9
$PROJECTNAME
  1

  9
$CAMERADISPLAY
290
     0
  9
$LENSLENGTH
 40
50.0
  9
$CAMERAHEIGHT
 40
0.0
  9
$STEPSPERSEC
 40
2.0
  9
$STEPSIZE
 40
6.0
  9
$3DDWFPREC
 40
2.0
  9
$PSOLWIDTH
 40
5.0
  9
$PSOLHEIGHT
 40
80.0
  9
$LOFTANG1
 40
1.570796326794897
  9
$LOFTANG2
 40
1.570796326794897
  9
$LOFTMAG1
 40
0.0
  9
$LOFTMAG2
 40
0.0
  9
$LOFTPARAM
 70
     7
  9
$LOFTNORMALS
280
     1
  9
$LATITUDE
 40
37.795
  9
$LONGITUDE
 40
-122.394
  9
$NORTHDIRECTION
 40
0.0
  9
$TIMEZONE
 70
 -8000
  9
$LIGHTGLYPHDISPLAY
280
     1
  9
$TILEMODELIGHTSYNCH
280
     1
  9
$CMATERIAL
347
44
  9
$SOLIDHIST
280
     0
  9
$SHOWHIST
280
     1
  9
$DWFFRAME
280
     2
  9
$DGNFRAME
280
     2
  9
$REALWORLDSCALE
290
     1
  9
$INTERFERECOLOR
 62
   256
  9
$CSHADOW
280
     0
  9
$SHADOWPLANELOCATION
 40
0.0
  0
ENDSEC
  0
SECTION
  2
CLASSES
  0
CLASS
  1
ACDBDICTIONARYWDFLT
  2
AcDbDictionaryWithDefault
  3
ObjectDBX Classes
 90
        0
 91
        4
280
     0
281
     0
  0
CLASS
  1
VISUALSTYLE
  2
AcDbVisualStyle
  3
ObjectDBX Classes
 90
     4095
 91
        4
280
     0
281
     0
  0
CLASS
  1
MATERIAL
  2
AcDbMaterial
  3
ObjectDBX Classes
 90
     1153
 91
        4
280
     0
281
     0
  0
CLASS
  1
SCALE
  2
AcDbScale
  3
ObjectDBX Classes
 90
     1153
 91
        4
280
     0
281
     0
  0
CLASS
  1
TABLESTYLE
  2
AcDbTableStyle
  3
ObjectDBX Classes
 90
     4095
 91
        4
280
     0
281
     0
  0
CLASS
  1
MLEADERSTYLE
  2
AcDbMLeaderStyle
  3
ACDB_MLEADERSTYLE_CLASS
 90
     4095
 91
        4
280
     0
281
     0
  0
CLASS
  1
SUN
  2
AcDbSun
  3
SCENEOE
 90
     1153
 91
        4
280
     0
281
     0
  0
CLASS
  1
DICTIONARYVAR
  2
AcDbDictionaryVar
  3
ObjectDBX Classes
 90
        0
 91
        4
280
     0
281
     0
  0
CLASS
  1
CELLSTYLEMAP
  2
AcDbCellStyleMap
  3
ObjectDBX Classes
 90
     1152
 91
        4
280
     0
281
     0
  0
ENDSEC
  0
SECTION
  2
TABLES
  0
TABLE
  2
VPORT
  5
8
330
0
100
AcDbSymbolTable
 70
     1
  0
VPORT
  5
29
330
8
100
AcDbSymbolTableRecord
100
AcDbViewportTableRecord
  2
*Active
 70
     0
 10
0.0
 20
0.0
 11
1.0
 21
1.0
 12
11.05250000000001
 22
1.071449999999999
 13
0.0
 23
0.0
 14
10.0
 24
10.0
 15
10.0
 25
10.0
 16
0.0
 26
0.0
 36
1.0
 17
0.0
 27
0.0
 37
0.0
 40
147.943758
 41
0.3876439315540439
 42
50.0
 43
0.0
 44
0.0
 50
0.0
 51
0.0
 71
     0
 72
   100
 73
     1
 74
     3
 75
     0
 76
     0
 77
     0
 78
     0
281
     0
 65
     1
110
0.0
120
0.0
130
0.0
111
1.0
121
0.0
131
0.0
112
0.0
122
1.0
132
0.0
 79
     0
146
0.0
348
2F
 60
     3
 61
     5
292
     1
282
     1
141
0.0
142
0.0
 63
   250
361
6D
  0
ENDTAB
  0
TABLE
  2
LTYPE
  5
5
330
0
100
AcDbSymbolTable
 70
     3
  0
LTYPE
  5
14
330
5
100
AcDbSymbolTableRecord
100
AcDbLinetypeTableRecord
  2
ByBlock
 70
     0
  3

 72
    65
 73
     0
 40
0.0
  0
LTYPE
  5
15
330
5
100
AcDbSymbolTableRecord
100
AcDbLinetypeTableRecord
  2
ByLayer
 70
     0
  3

 72
    65
 73
     0
 40
0.0
  0
LTYPE
  5
16
330
5
100
AcDbSymbolTableRecord
100
AcDbLinetypeTableRecord
  2
Continuous
 70
     0
  3
Solid line
 72
    65
 73
     0
 40
0.0
  0
LTYPE
  5
9D
330
5
100
AcDbSymbolTableRecord
100
AcDbLinetypeTableRecord
  2
Dashed
 70
     0
  3

 72
    65
 73
     2
 40
2.0
 49
1.0
 74
     0
 49
-1.0
 74
     0
  0
LTYPE
  5
119
330
5
100
AcDbSymbolTableRecord
100
AcDbLinetypeTableRecord
  2
Center
 70
     0
  3

 72
    65
 73
     4
 40
1.5
 49
0.45
 74
     0
 49
-0.5
 74
     0
 49
0.05
 74
     0
 49
-0.5
 74
     0
  0
ENDTAB
  0
TABLE
  2
LAYER
  5
2
330
0
100
AcDbSymbolTable
 70
     7
  0
LAYER
  5
10
330
2
100
AcDbSymbolTableRecord
100
AcDbLayerTableRecord
  2
0
 70
     0
 62
     7
  6
Continuous
370
    -3
390
F
347
46
348
0
  0
LAYER
  5
72
330
2
100
AcDbSymbolTableRecord
100
AcDbLayerTableRecord
  2
AM_6
 70
     0
 62
    -2
  6
Continuous
370
    35
390
F
347
46
348
0
  0
LAYER
  5
9E
330
2
100
AcDbSymbolTableRecord
100
AcDbLayerTableRecord
  2
AM_9
 70
     0
 62
     6
  6
Dashed
370
    25
390
F
347
46
348
0
  0
LAYER
  5
CF
330
2
100
AcDbSymbolTableRecord
100
AcDbLayerTableRecord
  2
AM_4
 70
     0
 62
     7
  6
Continuous
370
    50
390
F
347
46
348
0
  0
LAYER
  5
11A
330
2
100
AcDbSymbolTableRecord
100
AcDbLayerTableRecord
  2
AM_7
 70
     0
 62
     7
  6
Center
370
    25
390
F
347
46
348
0
  0
LAYER
  5
128
330
2
100
AcDbSymbolTableRecord
100
AcDbLayerTableRecord
  2
AM_5
 70
     0
 62
     3
  6
Continuous
370
    25
390
F
347
46
348
0
  0
LAYER
  5
1BA
330
2
100
AcDbSymbolTableRecord
100
AcDbLayerTableRecord
  2
ConnectionPoints
 70
     0
 62
     7
  6
Continuous
370
    50
390
F
347
46
348
0
  0
ENDTAB
  0
TABLE
  2
STYLE
  5
3
330
0
100
AcDbSymbolTable
 70
     1
  0
STYLE
  5
11
330
3
100
AcDbSymbolTableRecord
100
AcDbTextStyleTableRecord
  2
Standard
 70
     0
 40
0.0
 41
1.0
 50
0.0
 71
     0
 42
2.5
  3
txt
  4

  0
ENDTAB
  0
TABLE
  2
VIEW
  5
6
330
0
100
AcDbSymbolTable
 70
     0
  0
ENDTAB
  0
TABLE
  2
UCS
  5
7
330
0
100
AcDbSymbolTable
 70
     0
  0
ENDTAB
  0
TABLE
  2
APPID
  5
9
330
0
100
AcDbSymbolTable
 70
     1
  0
APPID
  5
12
330
9
100
AcDbSymbolTableRecord
100
AcDbRegAppTableRecord
  2
ACAD
 70
     0
  0
ENDTAB
  0
TABLE
  2
DIMSTYLE
  5
A
330
0
100
AcDbSymbolTable
 70
     1
100
AcDbDimStyleTable
  0
DIMSTYLE
105
27
330
A
100
AcDbSymbolTableRecord
100
AcDbDimStyleTableRecord
  2
ISO-25
 70
     0
 41
2.5
 42
0.625
 43
3.75
 44
1.25
 73
     0
 74
     0
 77
     1
 78
     8
140
2.5
141
2.5
143
0.03937007874016
147
0.625
171
     3
172
     1
178
     0
271
     2
272
     2
274
     3
278
    44
283
     0
284
     8
340
11
  0
ENDTAB
  0
TABLE
  2
BLOCK_RECORD
  5
1
330
0
100
AcDbSymbolTable
 70
     5
  0
BLOCK_RECORD
  5
1F
330
1
100
AcDbSymbolTableRecord
100
AcDbBlockTableRecord
  2
*Model_Space
340
22
 70
     0
280
     1
281
     0
  0
BLOCK_RECORD
  5
1B
330
1
100
AcDbSymbolTableRecord
100
AcDbBlockTableRecord
  2
*Paper_Space
340
1E
 70
     0
280
     1
281
     0
  0
BLOCK_RECORD
  5
23
330
1
100
AcDbSymbolTableRecord
100
AcDbBlockTableRecord
  2
*Paper_Space0
340
26
 70
     0
280
     1
281
     0
  0
BLOCK_RECORD
  5
6E
330
1
100
AcDbSymbolTableRecord
100
AcDbBlockTableRecord
  2
1_136279_2
340
0
102
{BLKREFS
331
6F
102
}
 70
     0
280
     1
281
     0
  0
BLOCK_RECORD
  5
87
330
1
100
AcDbSymbolTableRecord
100
AcDbBlockTableRecord
  2
2_129523_0_in_136279_2
340
0
102
{BLKREFS
331
88
102
}
 70
     0
280
     1
281
     0
  0
BLOCK_RECORD
  5
D3
330
1
100
AcDbSymbolTableRecord
100
AcDbBlockTableRecord
  2
3_129960_0_in_136279_2
340
0
102
{BLKREFS
331
D4
102
}
 70
     0
280
     1
281
     0
  0
BLOCK_RECORD
  5
12A
330
1
100
AcDbSymbolTableRecord
100
AcDbBlockTableRecord
  2
4_129471_0_in_136279_2
340
0
102
{BLKREFS
331
12B
102
}
 70
     0
280
     1
281
     0
  0
ENDTAB
  0
ENDSEC
  0
SECTION
  2
BLOCKS
  0
BLOCK
  5
20
330
1F
100
AcDbEntity
  8
0
100
AcDbBlockBegin
  2
*Model_Space
 70
     0
 10
0.0
 20
0.0
 30
0.0
  3
*Model_Space
  1

  0
ENDBLK
  5
21
330
1F
100
AcDbEntity
  8
0
100
AcDbBlockEnd
  0
BLOCK
  5
1C
330
1B
100
AcDbEntity
 67
     1
  8
0
100
AcDbBlockBegin
  2
*Paper_Space
 70
     0
 10
0.0
 20
0.0
 30
0.0
  3
*Paper_Space
  1

  0
ENDBLK
  5
1D
330
1B
100
AcDbEntity
 67
     1
  8
0
100
AcDbBlockEnd
  0
BLOCK
  5
24
330
23
100
AcDbEntity
  8
0
100
AcDbBlockBegin
  2
*Paper_Space0
 70
     0
 10
0.0
 20
0.0
 30
0.0
  3
*Paper_Space0
  1

  0
ENDBLK
  5
25
330
23
100
AcDbEntity
  8
0
100
AcDbBlockEnd
  0
BLOCK
  5
70
330
6E
100
AcDbEntity
  8
0
100
AcDbBlockBegin
  2
1_136279_2
 70
     2
 10
0.0
 20
0.0
 30
0.0
  3
1_136279_2
  1

  0
ATTDEF
  5
73
330
6E
100
AcDbEntity
  8
AM_6
100
AcDbText
 10
44.165
 20
73.5929
 30
0.0
 40
0.5
  1
Grip Tight Medium Duty Four-Bolt Flange Metric Bore
100
AcDbAttributeDefinition
  3

  2
NN
 70
     8
280
     0
  0
ATTDEF
  5
74
330
6E
100
AcDbEntity
  8
AM_6
100
AcDbText
 10
44.165
 20
73.0929
 30
0.0
 40
0.5
  1
GTM Medium Duty 4 Bolt Flange Bearings
100
AcDbAttributeDefinition
  3

  2
NT
 70
     8
280
     0
  0
ATTDEF
  5
75
330
6E
100
AcDbEntity
  8
AM_6
100
AcDbText
 10
44.165
 20
72.5929
 30
0.0
 40
0.5
  1
136279
100
AcDbAttributeDefinition
  3

  2
NB
 70
     8
280
     0
  0
ATTDEF
  5
76
330
6E
100
AcDbEntity
  8
AM_6
100
AcDbText
 10
44.165
 20
72.0929
 30
0.0
 40
0.5
  1
$PN.$LUBE.
100
AcDbAttributeDefinition
  3

  2
NBSYN
 70
     8
280
     0
  0
ATTDEF
  5
77
330
6E
100
AcDbEntity
  8
AM_6
100
AcDbText
 10
44.165
 20
71.5929
 30
0.0
 40
0.5
  1
136279
100
AcDbAttributeDefinition
  3

  2
LINA
 70
     8
280
     0
  0
ATTDEF
  5
78
330
6E
100
AcDbEntity
  8
AM_6
100
AcDbText
 10
44.165
 20
71.0929
 30
0.0
 40
0.5
  1
210
100
AcDbAttributeDefinition
  3

  2
SERIES
 70
     8
280
     0
  0
ATTDEF
  5
79
330
6E
100
AcDbEntity
  8
AM_6
100
AcDbText
 10
44.165
 20
70.5929
 30
0.0
 40
0.5
  1
45
100
AcDbAttributeDefinition
  3

  2
SS
 70
     8
280
     0
  0
ATTDEF
  5
7A
330
6E
100
AcDbEntity
  8
AM_6
100
AcDbText
 10
44.165
 20
70.0929
 30
0.0
 40
0.5
  1
136279
100
AcDbAttributeDefinition
  3

  2
PN
 70
     8
280
     0
  0
ATTDEF
  5
7B
330
6E
100
AcDbEntity
  8
AM_6
100
AcDbText
 10
44.165
 20
69.5929
 30
0.0
 40
0.5
  1
F4B-GTM-45M
100
AcDbAttributeDefinition
  3

  2
DESCRIPTION
 70
     8
280
     0
  0
ATTDEF
  5
7C
330
6E
100
AcDbEntity
  8
AM_6
100
AcDbText
 10
44.165
 20
69.0929
 30
0.0
 40
0.5
  1
47.2
100
AcDbAttributeDefinition
  3

  2
A
 70
     8
280
     0
  0
ATTDEF
  5
7D
330
6E
100
AcDbEntity
  8
AM_6
100
AcDbText
 10
44.165
 20
68.5929
 30
0.0
 40
0.5
  1
142.9
100
AcDbAttributeDefinition
  3

  2
B
 70
     8
280
     0
  0
ATTDEF
  5
7E
330
6E
100
AcDbEntity
  8
AM_6
100
AcDbText
 10
44.165
 20
68.0929
 30
0.0
 40
0.5
  1
52.0
100
AcDbAttributeDefinition
  3

  2
C
 70
     8
280
     0
  0
ATTDEF
  5
7F
330
6E
100
AcDbEntity
  8
AM_6
100
AcDbText
 10
44.165
 20
67.5929
 30
0.0
 40
0.5
  1
111.0
100
AcDbAttributeDefinition
  3

  2
D
 70
     8
280
     0
  0
ATTDEF
  5
80
330
6E
100
AcDbEntity
  8
AM_6
100
AcDbText
 10
44.165
 20
67.0929
 30
0.0
 40
0.5
  1
M16
100
AcDbAttributeDefinition
  3

  2
F
 70
     8
280
     0
  0
ATTDEF
  5
81
330
6E
100
AcDbEntity
  8
AM_6
100
AcDbText
 10
44.165
 20
66.5929
 30
0.0
 40
0.5
  1
15.9
100
AcDbAttributeDefinition
  3

  2
H
 70
     8
280
     0
  0
ATTDEF
  5
82
330
6E
100
AcDbEntity
  8
AM_6
100
AcDbText
 10
44.165
 20
66.0929
 30
0.0
 40
0.5
  1
13.5
100
AcDbAttributeDefinition
  3

  2
J
 70
     8
280
     0
  0
ATTDEF
  5
83
330
6E
100
AcDbEntity
  8
AM_6
100
AcDbText
 10
44.165
 20
65.5929
 30
0.0
 40
0.5
  1
74.6
100
AcDbAttributeDefinition
  3

  2
L
 70
     8
280
     0
  0
ATTDEF
  5
84
330
6E
100
AcDbEntity
  8
AM_6
100
AcDbText
 10
44.165
 20
65.0929
 30
0.0
 40
0.5
  1
73.0
100
AcDbAttributeDefinition
  3

  2
N
 70
     8
280
     0
  0
ATTDEF
  5
85
330
6E
100
AcDbEntity
  8
AM_6
100
AcDbText
 10
44.165
 20
64.5929
 30
0.0
 40
0.5
  1
50.8
100
AcDbAttributeDefinition
  3

  2
Z
 70
     8
280
     0
  0
ATTDEF
  5
86
330
6E
100
AcDbEntity
  8
AM_6
100
AcDbText
 10
44.165
 20
64.0929
 30
0.0
 40
0.5
  1
baldor
100
AcDbAttributeDefinition
  3

  2
COMPANY
 70
     8
280
     0
  0
INSERT
  5
88
330
6E
100
AcDbEntity
  8
0
100
AcDbBlockReference
  2
2_129523_0_in_136279_2
 10
0.0
 20
0.0
 30
0.0
  0
INSERT
  5
D4
330
6E
100
AcDbEntity
  8
0
100
AcDbBlockReference
  2
3_129960_0_in_136279_2
 10
0.0
 20
0.0
 30
0.0
  0
INSERT
  5
12B
330
6E
100
AcDbEntity
  8
0
100
AcDbBlockReference
  2
4_129471_0_in_136279_2
 10
0.0
 20
0.0
 30
0.0
  0
ENDBLK
  5
71
330
6E
100
AcDbEntity
  8
0
100
AcDbBlockEnd
  0
BLOCK
  5
89
330
87
100
AcDbEntity
  8
0
100
AcDbBlockBegin
  2
2_129523_0_in_136279_2
 70
     2
 10
0.0
 20
0.0
 30
0.0
  3
2_129523_0_in_136279_2
  1

  0
ATTDEF
  5
8B
330
87
100
AcDbEntity
  8
AM_6
100
AcDbText
 10
35.2
 20
44.99605173974525
 30
0.0
 40
0.5
  1
INS-GT-M B
100
AcDbAttributeDefinition
  3

  2
NN
 70
     8
280
     0
  0
ATTDEF
  5
8C
330
87
100
AcDbEntity
  8
AM_6
100
AcDbText
 10
35.2
 20
44.49605173974525
 30
0.0
 40
0.5
  1
GT Normal Duty Bearing Inserts
100
AcDbAttributeDefinition
  3

  2
NT
 70
     8
280
     0
  0
ATTDEF
  5
8D
330
87
100
AcDbEntity
  8
AM_6
100
AcDbText
 10
35.2
 20
43.99605173974525
 30
0.0
 40
0.5
  1
129523
100
AcDbAttributeDefinition
  3

  2
NB
 70
     8
280
     0
  0
ATTDEF
  5
8E
330
87
100
AcDbEntity
  8
AM_6
100
AcDbText
 10
35.2
 20
43.49605173974525
 30
0.0
 40
0.5
  1
$PN.
100
AcDbAttributeDefinition
  3

  2
NBSYN
 70
     8
280
     0
  0
ATTDEF
  5
8F
330
87
100
AcDbEntity
  8
AM_6
100
AcDbText
 10
35.2
 20
42.99605173974525
 30
0.0
 40
0.5
  1
129523
100
AcDbAttributeDefinition
  3

  2
LINA
 70
     8
280
     0
  0
ATTDEF
  5
90
330
87
100
AcDbEntity
  8
AM_6
100
AcDbText
 10
35.2
 20
42.49605173974525
 30
0.0
 40
0.5
  1
210
100
AcDbAttributeDefinition
  3

  2
SERIES
 70
     8
280
     0
  0
ATTDEF
  5
91
330
87
100
AcDbEntity
  8
AM_6
100
AcDbText
 10
35.2
 20
41.99605173974525
 30
0.0
 40
0.5
  1
129523
100
AcDbAttributeDefinition
  3

  2
PN
 70
     8
280
     0
  0
ATTDEF
  5
92
330
87
100
AcDbEntity
  8
AM_6
100
AcDbText
 10
35.2
 20
41.49605173974525
 30
0.0
 40
0.5
  1
INS-GT-10
100
AcDbAttributeDefinition
  3

  2
DESCRIPTION
 70
     8
280
     0
  0
ATTDEF
  5
93
330
87
100
AcDbEntity
  8
AM_6
100
AcDbText
 10
35.2
 20
40.99605173974525
 30
0.0
 40
0.5
  1
47.2
100
AcDbAttributeDefinition
  3

  2
A
 70
     8
280
     0
  0
ATTDEF
  5
94
330
87
100
AcDbEntity
  8
AM_6
100
AcDbText
 10
35.2
 20
40.49605173974525
 30
0.0
 40
0.5
  1
22.1
100
AcDbAttributeDefinition
  3

  2
C
 70
     8
280
     0
  0
ATTDEF
  5
95
330
87
100
AcDbEntity
  8
AM_6
100
AcDbText
 10
35.2
 20
39.99605173974525
 30
0.0
 40
0.5
  1
90.0
100
AcDbAttributeDefinition
  3

  2
D
 70
     8
280
     0
  0
ATTDEF
  5
96
330
87
100
AcDbEntity
  8
AM_6
100
AcDbText
 10
35.2
 20
39.49605173974525
 30
0.0
 40
0.5
  1
6.4
100
AcDbAttributeDefinition
  3

  2
J
 70
     8
280
     0
  0
ATTDEF
  5
97
330
87
100
AcDbEntity
  8
AM_6
100
AcDbText
 10
35.2
 20
38.99605173974525
 30
0.0
 40
0.5
  1
79.5
100
AcDbAttributeDefinition
  3

  2
L
 70
     8
280
     0
  0
ATTDEF
  5
98
330
87
100
AcDbEntity
  8
AM_6
100
AcDbText
 10
35.2
 20
38.49605173974525
 30
0.0
 40
0.5
  1
#10 - 32 x 1/4
100
AcDbAttributeDefinition
  3

  2
N
 70
     8
280
     0
  0
ATTDEF
  5
99
330
87
100
AcDbEntity
  8
AM_6
100
AcDbText
 10
35.2
 20
37.99605173974525
 30
0.0
 40
0.5
  1
16.0
100
AcDbAttributeDefinition
  3

  2
W
 70
     8
280
     0
  0
ATTDEF
  5
9A
330
87
100
AcDbEntity
  8
AM_6
100
AcDbText
 10
35.2
 20
37.49605173974525
 30
0.0
 40
0.5
  1
32.0
100
AcDbAttributeDefinition
  3

  2
X
 70
     8
280
     0
  0
ATTDEF
  5
9B
330
87
100
AcDbEntity
  8
AM_6
100
AcDbText
 10
35.2
 20
36.99605173974525
 30
0.0
 40
0.5
  1
31.2
100
AcDbAttributeDefinition
  3

  2
Y
 70
     8
280
     0
  0
ATTDEF
  5
9C
330
87
100
AcDbEntity
  8
AM_6
100
AcDbText
 10
35.2
 20
36.49605173974525
 30
0.0
 40
0.5
  1
baldor
100
AcDbAttributeDefinition
  3

  2
COMPANY
 70
     8
280
     0
  0
LINE
  5
9F
330
87
100
AcDbEntity
  8
AM_9
100
AcDbLine
 10
-8.2
 20
-29.6547619047619
 30
0.0
 11
3.799999999999927
 21
-29.6547619047619
 31
0.0
  0
LINE
  5
A0
330
87
100
AcDbEntity
  8
AM_9
100
AcDbLine
 10
3.799999999999927
 20
29.6547619047619
 30
0.0
 11
-8.2
 21
29.6547619047619
 31
0.0
  0
LINE
  5
A1
330
87
100
AcDbEntity
  8
AM_9
100
AcDbLine
 10
3.799999999999927
 20
29.6547619047619
 30
0.0
 11
3.799999999999927
 21
-29.6547619047619
 31
0.0
  0
LINE
  5
A2
330
87
100
AcDbEntity
  8
AM_9
100
AcDbLine
 10
3.799999999999927
 20
-29.6547619047619
 30
0.0
 11
30.2
 21
-30.57667021934405
 31
0.0
  0
LINE
  5
A3
330
87
100
AcDbEntity
  8
AM_9
100
AcDbLine
 10
30.2
 20
30.57667021934405
 30
0.0
 11
3.799999999999927
 21
29.6547619047619
 31
0.0
  0
LINE
  5
A4
330
87
100
AcDbEntity
  8
AM_9
100
AcDbLine
 10
-4.199999999999996
 20
-32.49404761904762
 30
0.0
 11
-0.1999999999999988
 21
-32.49404761904762
 31
0.0
  0
LINE
  5
A5
330
87
100
AcDbEntity
  8
AM_9
100
AcDbLine
 10
-0.1999999999999988
 20
32.49404761904762
 30
0.0
 11
-4.199999999999996
 21
32.49404761904762
 31
0.0
  0
LINE
  5
A6
330
87
100
AcDbEntity
  8
AM_9
100
AcDbLine
 10
-4.199999999999994
 20
-3.149999999999999
 30
0.0
 11
-4.199999999999996
 21
-35.33333333333334
 31
0.0
  0
LINE
  5
A7
330
87
100
AcDbEntity
  8
AM_9
100
AcDbLine
 10
-4.199999999999996
 20
35.33333333333334
 30
0.0
 11
-4.199999999999994
 21
3.149999999999999
 31
0.0
  0
LINE
  5
A8
330
87
100
AcDbEntity
  8
AM_9
100
AcDbLine
 10
-7.315999999999996
 20
-35.33333333333334
 30
0.0
 11
-4.199999999999996
 21
-35.33333333333334
 31
0.0
  0
LINE
  5
A9
330
87
100
AcDbEntity
  8
AM_9
100
AcDbLine
 10
-4.199999999999996
 20
35.33333333333334
 30
0.0
 11
-7.315999999999996
 21
35.33333333333334
 31
0.0
  0
LINE
  5
AA
330
87
100
AcDbEntity
  8
AM_9
100
AcDbLine
 10
-8.2
 20
34.44933333333334
 30
0.0
 11
-8.2
 21
-34.44933333333334
 31
0.0
  0
LINE
  5
AB
330
87
100
AcDbEntity
  8
AM_9
100
AcDbLine
 10
-7.315999999999995
 20
-3.149999999999999
 30
0.0
 11
-7.315999999999996
 21
-35.33333333333334
 31
0.0
  0
LINE
  5
AC
330
87
100
AcDbEntity
  8
AM_9
100
AcDbLine
 10
-7.315999999999996
 20
35.33333333333334
 30
0.0
 11
-7.315999999999995
 21
3.149999999999999
 31
0.0
  0
LINE
  5
AD
330
87
100
AcDbEntity
  8
AM_9
100
AcDbLine
 10
-8.2
 20
-34.44933333333334
 30
0.0
 11
-7.315999999999996
 21
-35.33333333333334
 31
0.0
  0
LINE
  5
AE
330
87
100
AcDbEntity
  8
AM_9
100
AcDbLine
 10
-7.315999999999996
 20
35.33333333333334
 30
0.0
 11
-8.2
 21
34.44933333333334
 31
0.0
  0
LINE
  5
AF
330
87
100
AcDbEntity
  8
AM_9
100
AcDbLine
 10
-0.1999999999999897
 20
-3.149999999999999
 30
0.0
 11
-0.1999999999999919
 21
-35.33333333333333
 31
0.0
  0
LINE
  5
B0
330
87
100
AcDbEntity
  8
AM_9
100
AcDbLine
 10
-0.1999999999999919
 20
35.33333333333334
 30
0.0
 11
-0.1999999999999897
 21
3.149999999999999
 31
0.0
  0
LINE
  5
B1
330
87
100
AcDbEntity
  8
AM_9
100
AcDbLine
 10
-0.1999999999999919
 20
-35.33333333333333
 30
0.0
 11
4.750000000000003
 21
-35.33333333333333
 31
0.0
  0
LINE
  5
B2
330
87
100
AcDbEntity
  8
AM_9
100
AcDbLine
 10
4.750000000000003
 20
35.33333333333333
 30
0.0
 11
-0.1999999999999919
 21
35.33333333333333
 31
0.0
  0
LINE
  5
B3
330
87
100
AcDbEntity
  8
AM_9
100
AcDbLine
 10
30.2
 20
34.44933333333334
 30
0.0
 11
30.2
 21
-34.44933333333334
 31
0.0
  0
LINE
  5
B4
330
87
100
AcDbEntity
  8
AM_9
100
AcDbLine
 10
30.2
 20
34.44933333333334
 30
0.0
 11
29.316
 21
35.33333333333334
 31
0.0
  0
LINE
  5
B5
330
87
100
AcDbEntity
  8
AM_9
100
AcDbLine
 10
29.316
 20
-35.33333333333334
 30
0.0
 11
30.2
 21
-34.44933333333334
 31
0.0
  0
LINE
  5
B6
330
87
100
AcDbEntity
  8
AM_9
100
AcDbLine
 10
29.316
 20
35.33333333333334
 30
0.0
 11
29.316
 21
-35.33333333333334
 31
0.0
  0
LINE
  5
B7
330
87
100
AcDbEntity
  8
AM_9
100
AcDbLine
 10
26.85
 20
-35.33333333333334
 30
0.0
 11
29.316
 21
-35.33333333333334
 31
0.0
  0
LINE
  5
B8
330
87
100
AcDbEntity
  8
AM_9
100
AcDbLine
 10
29.316
 20
35.33333333333334
 30
0.0
 11
26.85
 21
35.33333333333334
 31
0.0
  0
LINE
  5
B9
330
87
100
AcDbEntity
  8
AM_9
100
AcDbLine
 10
8.120000000000001
 20
-42.79
 30
0.0
 11
10.68
 21
-42.79
 31
0.0
  0
LINE
  5
BA
330
87
100
AcDbEntity
  8
AM_9
100
AcDbLine
 10
10.68
 20
42.79
 30
0.0
 11
8.120000000000001
 21
42.79
 31
0.0
  0
LINE
  5
BB
330
87
100
AcDbEntity
  8
AM_9
100
AcDbLine
 10
26.85
 20
42.19396883195162
 30
0.0
 11
26.85
 21
-42.19396883194707
 31
0.0
  0
ARC
  5
BC
330
87
100
AcDbEntity
  8
AM_9
100
AcDbCircle
 10
25.96600000000001
 20
-42.19396883195163
 30
0.0
 40
0.8839999999999978
100
AcDbArc
 50
291.4124670468842
 51
0.0
  0
ARC
  5
BD
330
87
100
AcDbEntity
  8
AM_9
100
AcDbCircle
 10
25.96600000000001
 20
42.19396883195163
 30
0.0
 40
0.8839999999999932
100
AcDbArc
 50
0.0
 51
68.58753295311583
  0
LINE
  5
BE
330
87
100
AcDbEntity
  8
AM_9
100
AcDbLine
 10
4.749999999999996
 20
42.19396883195162
 30
0.0
 11
4.749999999999996
 21
-42.19396883194707
 31
0.0
  0
ARC
  5
BF
330
87
100
AcDbEntity
  8
AM_9
100
AcDbCircle
 10
5.634000000000018
 20
-42.19396883195162
 30
0.0
 40
0.8840000000000225
100
AcDbArc
 50
180.0
 51
248.587532953115
  0
ARC
  5
C0
330
87
100
AcDbEntity
  8
AM_9
100
AcDbCircle
 10
5.634000000000018
 20
42.19396883195162
 30
0.0
 40
0.8840000000000254
100
AcDbArc
 50
111.412467046885
 51
180.0
  0
LINE
  5
C1
330
87
100
AcDbEntity
  8
AM_9
100
AcDbLine
 10
5.311269841269837
 20
43.01695196947391
 30
0.0
 11
5.311269841269837
 21
-43.01695196947391
 31
0.0
  0
ARC
  5
C2
330
87
100
AcDbEntity
  8
AM_9
100
AcDbCircle
 10
15.79999999999687
 20
-16.27000000000911
 30
0.0
 40
28.72999999999037
100
AcDbArc
 50
248.5875329531151
 51
253.9103822016723
  0
ARC
  5
C3
330
87
100
AcDbEntity
  8
AM_9
100
AcDbCircle
 10
15.79999999999687
 20
16.27000000000911
 30
0.0
 40
28.72999999999037
100
AcDbArc
 50
106.0896177983277
 51
111.4124670468849
  0
LINE
  5
C4
330
87
100
AcDbEntity
  8
AM_9
100
AcDbLine
 10
7.837751937984498
 20
43.87462834017024
 30
0.0
 11
7.837751937984498
 21
-43.87462834017024
 31
0.0
  0
LINE
  5
C5
330
87
100
AcDbEntity
  8
AM_9
100
AcDbLine
 10
8.120000000000001
 20
43.66228504524585
 30
0.0
 11
8.120000000000001
 21
-43.66228504519546
 31
0.0
  0
ARC
  5
C6
330
87
100
AcDbEntity
  8
AM_9
100
AcDbCircle
 10
7.899000000000014
 20
-43.66228504524587
 30
0.0
 40
0.220999999999991
100
AcDbArc
 50
253.9103822016673
 51
0.0
  0
ARC
  5
C7
330
87
100
AcDbEntity
  8
AM_9
100
AcDbCircle
 10
7.899000000000014
 20
43.66228504524587
 30
0.0
 40
0.2209999999999868
100
AcDbArc
 50
0.0
 51
106.0896177983327
  0
LINE
  5
C8
330
87
100
AcDbEntity
  8
AM_9
100
AcDbLine
 10
10.68000000000001
 20
44.35492264543433
 30
0.0
 11
10.68000000000001
 21
-44.35492264537327
 31
0.0
  0
ARC
  5
C9
330
87
100
AcDbEntity
  8
AM_9
100
AcDbCircle
 10
10.901
 20
-44.35492264543433
 30
0.0
 40
0.2209999999999894
100
AcDbArc
 50
180.0
 51
260.1050311539026
  0
ARC
  5
CA
330
87
100
AcDbEntity
  8
AM_9
100
AcDbCircle
 10
10.901
 20
44.35492264543433
 30
0.0
 40
0.2209999999999879
100
AcDbArc
 50
99.89496884609738
 51
180.0
  0
LINE
  5
CB
330
87
100
AcDbEntity
  8
AM_9
100
AcDbLine
 10
10.86302278606986
 20
44.57263514214065
 30
0.0
 11
10.86302278606986
 21
-44.57263514214065
 31
0.0
  0
LINE
  5
CC
330
87
100
AcDbEntity
  8
AM_9
100
AcDbLine
 10
26.28873015873017
 20
43.0169519694739
 30
0.0
 11
26.28873015873017
 21
-43.0169519694739
 31
0.0
  0
ARC
  5
CD
330
87
100
AcDbEntity
  8
AM_9
100
AcDbCircle
 10
15.8
 20
-16.27000000000026
 30
0.0
 40
28.72999999999975
100
AcDbArc
 50
260.1051538263076
 51
291.4124670468843
  0
ARC
  5
CE
330
87
100
AcDbEntity
  8
AM_9
100
AcDbCircle
 10
15.80000000000014
 20
16.27000000000158
 30
0.0
 40
28.72999999999847
100
AcDbArc
 50
68.58753295311503
 51
99.89484617369308
  0
LINE
  5
D0
330
87
100
AcDbEntity
  8
AM_4
100
AcDbLine
 10
-4.199999999999994
 20
3.149999999999999
 30
0.0
 11
-4.199999999999994
 21
-3.149999999999999
 31
0.0
  0
LINE
  5
D1
330
87
100
AcDbEntity
  8
AM_4
100
AcDbLine
 10
-7.315999999999995
 20
3.149999999999999
 30
0.0
 11
-7.315999999999995
 21
-3.149999999999999
 31
0.0
  0
LINE
  5
D2
330
87
100
AcDbEntity
  8
AM_4
100
AcDbLine
 10
-0.1999999999999897
 20
3.149999999999999
 30
0.0
 11
-0.1999999999999897
 21
-3.149999999999999
 31
0.0
  0
ENDBLK
  5
8A
330
87
100
AcDbEntity
  8
0
100
AcDbBlockEnd
  0
BLOCK
  5
D5
330
D3
100
AcDbEntity
  8
0
100
AcDbBlockBegin
  2
3_129960_0_in_136279_2
 70
     2
 10
0.0
 20
0.0
 30
0.0
  3
3_129960_0_in_136279_2
  1

  0
ATTDEF
  5
D7
330
D3
100
AcDbEntity
  8
AM_6
100
AcDbText
 10
37.5
 20
37.3
 30
0.0
 40
0.5
  1
Grip Tight Normal Duty Adapter and Nut Metric Bore
100
AcDbAttributeDefinition
  3

  2
NN
 70
     8
280
     0
  0
ATTDEF
  5
D8
330
D3
100
AcDbEntity
  8
AM_6
100
AcDbText
 10
37.5
 20
36.8
 30
0.0
 40
0.5
  1
GT and GTM Adapter & Lock Nut Assemblies
100
AcDbAttributeDefinition
  3

  2
NT
 70
     8
280
     0
  0
ATTDEF
  5
D9
330
D3
100
AcDbEntity
  8
AM_6
100
AcDbText
 10
37.5
 20
36.3
 30
0.0
 40
0.5
  1
129960
100
AcDbAttributeDefinition
  3

  2
NB
 70
     8
280
     0
  0
ATTDEF
  5
DA
330
D3
100
AcDbEntity
  8
AM_6
100
AcDbText
 10
37.5
 20
35.8
 30
0.0
 40
0.5
  1
$PN.
100
AcDbAttributeDefinition
  3

  2
NBSYN
 70
     8
280
     0
  0
ATTDEF
  5
DB
330
D3
100
AcDbEntity
  8
AM_6
100
AcDbText
 10
37.5
 20
35.3
 30
0.0
 40
0.5
  1
129960
100
AcDbAttributeDefinition
  3

  2
LINA
 70
     8
280
     0
  0
ATTDEF
  5
DC
330
D3
100
AcDbEntity
  8
AM_6
100
AcDbText
 10
37.5
 20
34.8
 30
0.0
 40
0.5
  1
210
100
AcDbAttributeDefinition
  3

  2
SERIES
 70
     8
280
     0
  0
ATTDEF
  5
DD
330
D3
100
AcDbEntity
  8
AM_6
100
AcDbText
 10
37.5
 20
34.3
 30
0.0
 40
0.5
  1
45
100
AcDbAttributeDefinition
  3

  2
SS
 70
     8
280
     0
  0
ATTDEF
  5
DE
330
D3
100
AcDbEntity
  8
AM_6
100
AcDbText
 10
37.5
 20
33.8
 30
0.0
 40
0.5
  1
129960
100
AcDbAttributeDefinition
  3

  2
PN
 70
     8
280
     0
  0
ATTDEF
  5
DF
330
D3
100
AcDbEntity
  8
AM_6
100
AcDbText
 10
37.5
 20
33.3
 30
0.0
 40
0.5
  1
AN-GTM-10-45M
100
AcDbAttributeDefinition
  3

  2
DESCRIPTION
 70
     8
280
     0
  0
ATTDEF
  5
E0
330
D3
100
AcDbEntity
  8
AM_6
100
AcDbText
 10
37.5
 20
32.8
 30
0.0
 40
0.5
  1
47.2
100
AcDbAttributeDefinition
  3

  2
A
 70
     8
280
     0
  0
ATTDEF
  5
E1
330
D3
100
AcDbEntity
  8
AM_6
100
AcDbText
 10
37.5
 20
32.3
 30
0.0
 40
0.5
  1
22.0
100
AcDbAttributeDefinition
  3

  2
C
 70
     8
280
     0
  0
ATTDEF
  5
E2
330
D3
100
AcDbEntity
  8
AM_6
100
AcDbText
 10
37.5
 20
31.8
 30
0.0
 40
0.5
  1
90.0
100
AcDbAttributeDefinition
  3

  2
D
 70
     8
280
     0
  0
ATTDEF
  5
E3
330
D3
100
AcDbEntity
  8
AM_6
100
AcDbText
 10
37.5
 20
31.3
 30
0.0
 40
0.5
  1
6.3
100
AcDbAttributeDefinition
  3

  2
J
 70
     8
280
     0
  0
ATTDEF
  5
E4
330
D3
100
AcDbEntity
  8
AM_6
100
AcDbText
 10
37.5
 20
30.8
 30
0.0
 40
0.5
  1
74.6
100
AcDbAttributeDefinition
  3

  2
L
 70
     8
280
     0
  0
ATTDEF
  5
E5
330
D3
100
AcDbEntity
  8
AM_6
100
AcDbText
 10
37.5
 20
30.3
 30
0.0
 40
0.5
  1
10 - 32 x 1/4
100
AcDbAttributeDefinition
  3

  2
N
 70
     8
280
     0
  0
ATTDEF
  5
E6
330
D3
100
AcDbEntity
  8
AM_6
100
AcDbText
 10
37.5
 20
29.8
 30
0.0
 40
0.5
  1
16.7
100
AcDbAttributeDefinition
  3

  2
W
 70
     8
280
     0
  0
ATTDEF
  5
E7
330
D3
100
AcDbEntity
  8
AM_6
100
AcDbText
 10
37.5
 20
29.3
 30
0.0
 40
0.5
  1
29.4
100
AcDbAttributeDefinition
  3

  2
X
 70
     8
280
     0
  0
ATTDEF
  5
E8
330
D3
100
AcDbEntity
  8
AM_6
100
AcDbText
 10
37.5
 20
28.8
 30
0.0
 40
0.5
  1
30.6
100
AcDbAttributeDefinition
  3

  2
Y
 70
     8
280
     0
  0
ATTDEF
  5
E9
330
D3
100
AcDbEntity
  8
AM_6
100
AcDbText
 10
37.5
 20
28.3
 30
0.0
 40
0.5
  1
baldor
100
AcDbAttributeDefinition
  3

  2
COMPANY
 70
     8
280
     0
  0
LWPOLYLINE
  5
EA
330
D3
100
AcDbEntity
  8
AM_9
100
AcDbPolyline
 90
        5
 70
     0
 43
0.0
 10
-12.72000000000001
 20
0.9889151808548449
 10
-12.8115308508058
 20
0.4328417388416577
 10
-12.8304672418374
 20
-0.1529220264168852
 10
-12.79534478679449
 20
-0.5721838087203266
 10
-12.72
 20
-0.9889151808549028
  0
LINE
  5
EB
330
D3
100
AcDbEntity
  8
AM_9
100
AcDbLine
 10
-12.70895848959328
 20
1.011537047470236
 30
0.0
 11
-12.72000000000001
 21
0.9889151808548449
 31
0.0
  0
LWPOLYLINE
  5
EC
330
D3
100
AcDbEntity
  8
AM_9
100
AcDbPolyline
 90
       15
 70
     0
 43
0.0
 10
-8.33521034515768
 20
0.9647578385601132
 10
-8.427421512602423
 20
1.141776927128181
 10
-8.64389387954732
 20
1.454794065155699
 10
-8.915837478127374
 20
1.735769054910624
 10
-9.230040705337988
 20
1.96870359206153
 10
-9.587588307126175
 20
2.152229007070707
 10
-9.970991346065986
 20
2.275083930798957
 10
-10.3805538372135
 20
2.334857883150665
 10
-10.79070087197606
 20
2.326199020186837
 10
-11.20520989342026
 20
2.246959211919352
 10
-11.59059642334975
 20
2.102852674473123
 10
-11.95635182979006
 20
1.889141450833749
 10
-12.20006983890214
 20
1.691288253125938
 10
-12.41579380743134
 20
1.463272686611982
 10
-12.70895848959328
 20
1.011537047470236
  0
LWPOLYLINE
  5
ED
330
D3
100
AcDbEntity
  8
AM_9
100
AcDbPolyline
 90
       15
 70
     0
 43
0.0
 10
-12.69352593493815
 20
-1.042149319718215
 10
-12.5073732048176
 20
-1.345081071775927
 10
-12.25772621041645
 20
-1.636172447403473
 10
-11.9559295992903
 20
-1.88944044562682
 10
-11.61609614242204
 20
-2.090613219549158
 10
-11.2377881714563
 20
-2.237553236921558
 10
-10.8407487815332
 20
-2.320475749227081
 10
-10.42401727613722
 20
-2.337151955861017
 10
-10.01595180499483
 20
-2.285098968157087
 10
-9.611034037284298
 20
-2.161778628794474
 10
-9.244343823850855
 20
-1.977539284308442
 10
-8.904725361344935
 20
-1.725972976113307
 10
-8.62718281601295
 20
-1.434159014445563
 10
-8.397520574872336
 20
-1.088339366935104
 10
-8.334522443527417
 20
-0.9632839540013829
  0
LINE
  5
EE
330
D3
100
AcDbEntity
  8
AM_9
100
AcDbLine
 10
-12.72
 20
-0.9889151808549028
 30
0.0
 11
-12.69352593493815
 21
-1.042149319718215
 31
0.0
  0
CIRCLE
  5
EF
330
D3
100
AcDbEntity
  8
AM_9
100
AcDbCircle
 10
-10.53333333333333
 20
0.0
 30
0.0
 40
1.981199999999999
  0
LINE
  5
F0
330
D3
100
AcDbEntity
  8
AM_9
100
AcDbLine
 10
-12.72000000000001
 20
0.9889151808548449
 30
0.0
 11
-12.72
 21
3.15
 31
0.0
  0
LINE
  5
F1
330
D3
100
AcDbEntity
  8
AM_9
100
AcDbLine
 10
-12.72
 20
-3.15
 30
0.0
 11
-12.72
 21
-0.9889151808549028
 31
0.0
  0
LINE
  5
F2
330
D3
100
AcDbEntity
  8
AM_9
100
AcDbLine
 10
1.1
 20
28.57422387866996
 30
0.0
 11
-13.59999999999999
 21
28.57422387866996
 31
0.0
  0
LINE
  5
F3
330
D3
100
AcDbEntity
  8
AM_9
100
AcDbLine
 10
1.099999999999999
 20
29.84745097060379
 30
0.0
 11
0.2199999999999963
 21
30.61235194140703
 31
0.0
  0
LINE
  5
F4
330
D3
100
AcDbEntity
  8
AM_9
100
AcDbLine
 10
0.2199999999999963
 20
30.61235194140703
 30
0.0
 11
-12.71999999999999
 21
30.61235194140704
 31
0.0
  0
LINE
  5
F5
330
D3
100
AcDbEntity
  8
AM_9
100
AcDbLine
 10
-12.71999999999999
 20
30.61235194140704
 30
0.0
 11
-13.6
 21
29.84745097060379
 31
0.0
  0
LINE
  5
F6
330
D3
100
AcDbEntity
  8
AM_9
100
AcDbLine
 10
1.1
 20
-28.57422387866999
 30
0.0
 11
-13.59999999999999
 21
-28.57422387866999
 31
0.0
  0
LINE
  5
F7
330
D3
100
AcDbEntity
  8
AM_9
100
AcDbLine
 10
-13.6
 20
-29.8474509706038
 30
0.0
 11
-12.72
 21
-30.61235194140705
 31
0.0
  0
LINE
  5
F8
330
D3
100
AcDbEntity
  8
AM_9
100
AcDbLine
 10
-12.72
 20
-30.61235194140705
 30
0.0
 11
0.2199999999999963
 21
-30.61235194140705
 31
0.0
  0
LINE
  5
F9
330
D3
100
AcDbEntity
  8
AM_9
100
AcDbLine
 10
0.2199999999999963
 20
-30.61235194140705
 30
0.0
 11
1.100000000000002
 21
-29.8474509706038
 31
0.0
  0
LINE
  5
FA
330
D3
100
AcDbEntity
  8
AM_9
100
AcDbLine
 10
1.1
 20
31.72422387866997
 30
0.0
 11
-13.59999999999999
 21
31.72422387866997
 31
0.0
  0
LINE
  5
FB
330
D3
100
AcDbEntity
  8
AM_9
100
AcDbLine
 10
1.1
 20
-31.72422387866999
 30
0.0
 11
-13.59999999999999
 21
-31.72422387866999
 31
0.0
  0
LINE
  5
FC
330
D3
100
AcDbEntity
  8
AM_9
100
AcDbLine
 10
-6.249999999999996
 20
27.82698412698412
 30
0.0
 11
-13.59999999999999
 21
27.82698412698412
 31
0.0
  0
LINE
  5
FD
330
D3
100
AcDbEntity
  8
AM_9
100
AcDbLine
 10
32.5
 20
22.46525094451428
 30
0.0
 11
-14.7
 21
22.46525094451428
 31
0.0
  0
LINE
  5
FE
330
D3
100
AcDbEntity
  8
AM_9
100
AcDbLine
 10
-14.7
 20
-22.5
 30
0.0
 11
32.5
 21
-22.5
 31
0.0
  0
LINE
  5
FF
330
D3
100
AcDbEntity
  8
AM_9
100
AcDbLine
 10
-6.249999999999992
 20
27.79889468312411
 30
0.0
 11
4.774999999999807
 21
27.79889468312411
 31
0.0
  0
LINE
  5
100
330
D3
100
AcDbEntity
  8
AM_9
100
AcDbLine
 10
-6.249999999999992
 20
-27.82698412698412
 30
0.0
 11
4.774999999999807
 21
-27.82698412698412
 31
0.0
  0
LINE
  5
101
330
D3
100
AcDbEntity
  8
AM_9
100
AcDbLine
 10
4.774999999999807
 20
27.79889468312411
 30
0.0
 11
32.5
 21
28.76801837394452
 31
0.0
  0
LINE
  5
102
330
D3
100
AcDbEntity
  8
AM_9
100
AcDbLine
 10
4.774999999999807
 20
27.79889468312411
 30
0.0
 11
4.774999999999807
 21
-27.82698412698412
 31
0.0
  0
LINE
  5
103
330
D3
100
AcDbEntity
  8
AM_9
100
AcDbLine
 10
32.5
 20
28.76801837394452
 30
0.0
 11
32.5
 21
-28.79516246114283
 31
0.0
  0
LINE
  5
104
330
D3
100
AcDbEntity
  8
AM_9
100
AcDbLine
 10
4.774999999999807
 20
-27.82698412698412
 30
0.0
 11
32.5
 21
-28.79516246114283
 31
0.0
  0
LINE
  5
105
330
D3
100
AcDbEntity
  8
AM_9
100
AcDbLine
 10
-2.574999999999994
 20
-30.49126984126983
 30
0.0
 11
1.100000000000004
 21
-30.49126984126983
 31
0.0
  0
LINE
  5
106
330
D3
100
AcDbEntity
  8
AM_9
100
AcDbLine
 10
1.100000000000004
 20
30.49126984126983
 30
0.0
 11
-2.574999999999994
 21
30.49126984126983
 31
0.0
  0
LINE
  5
107
330
D3
100
AcDbEntity
  8
AM_9
100
AcDbLine
 10
-2.574999999999994
 20
33.52855555555555
 30
0.0
 11
-2.574999999999994
 21
-33.52855555555555
 31
0.0
  0
LINE
  5
108
330
D3
100
AcDbEntity
  8
AM_9
100
AcDbLine
 10
-6.249999999999992
 20
33.52855555555555
 30
0.0
 11
-6.249999999999992
 21
-33.52855555555555
 31
0.0
  0
LINE
  5
109
330
D3
100
AcDbEntity
  8
AM_9
100
AcDbLine
 10
-6.249999999999992
 20
-33.52855555555555
 30
0.0
 11
-2.574999999999994
 21
-33.52855555555555
 31
0.0
  0
LINE
  5
10A
330
D3
100
AcDbEntity
  8
AM_9
100
AcDbLine
 10
-2.574999999999994
 20
33.52855555555555
 30
0.0
 11
-6.249999999999992
 21
33.52855555555555
 31
0.0
  0
LINE
  5
10B
330
D3
100
AcDbEntity
  8
AM_9
100
AcDbLine
 10
1.100000000000007
 20
3.15
 30
0.0
 11
0.0
 21
3.149999999999999
 31
0.0
  0
LINE
  5
10C
330
D3
100
AcDbEntity
  8
AM_9
100
AcDbLine
 10
0.2199999999999963
 20
33.76235194140704
 30
0.0
 11
1.099999999999999
 21
32.99745097060379
 31
0.0
  0
LINE
  5
10D
330
D3
100
AcDbEntity
  8
AM_9
100
AcDbLine
 10
1.100000000000004
 20
36.41999999999999
 30
0.0
 11
0.219999999999998
 21
37.3
 31
0.0
  0
LINE
  5
10E
330
D3
100
AcDbEntity
  8
AM_9
100
AcDbLine
 10
1.100000000000004
 20
36.41999999999999
 30
0.0
 11
1.100000000000004
 21
-36.41999999999999
 31
0.0
  0
LINE
  5
10F
330
D3
100
AcDbEntity
  8
AM_9
100
AcDbLine
 10
0.0
 20
-3.149999999999999
 30
0.0
 11
1.100000000000007
 21
-3.15
 31
0.0
  0
LINE
  5
110
330
D3
100
AcDbEntity
  8
AM_9
100
AcDbLine
 10
1.100000000000002
 20
-32.9974509706038
 30
0.0
 11
0.2199999999999963
 21
-33.76235194140704
 31
0.0
  0
LINE
  5
111
330
D3
100
AcDbEntity
  8
AM_9
100
AcDbLine
 10
0.219999999999998
 20
-37.3
 30
0.0
 11
1.100000000000004
 21
-36.41999999999999
 31
0.0
  0
LINE
  5
112
330
D3
100
AcDbEntity
  8
AM_9
100
AcDbLine
 10
-12.71999999999999
 20
33.76235194140704
 30
0.0
 11
0.2199999999999963
 21
33.76235194140704
 31
0.0
  0
LINE
  5
113
330
D3
100
AcDbEntity
  8
AM_9
100
AcDbLine
 10
0.219999999999998
 20
37.3
 30
0.0
 11
0.0
 21
37.3
 31
0.0
  0
LINE
  5
114
330
D3
100
AcDbEntity
  8
AM_9
100
AcDbLine
 10
0.219999999999998
 20
37.3
 30
0.0
 11
0.219999999999998
 21
-37.3
 31
0.0
  0
LINE
  5
115
330
D3
100
AcDbEntity
  8
AM_9
100
AcDbLine
 10
0.2199999999999963
 20
-33.76235194140704
 30
0.0
 11
-12.72
 21
-33.76235194140705
 31
0.0
  0
LINE
  5
116
330
D3
100
AcDbEntity
  8
AM_9
100
AcDbLine
 10
0.0
 20
-37.3
 30
0.0
 11
0.219999999999998
 21
-37.3
 31
0.0
  0
LINE
  5
117
330
D3
100
AcDbEntity
  8
AM_9
100
AcDbLine
 10
-13.6
 20
32.99745097060379
 30
0.0
 11
-12.71999999999999
 21
33.76235194140704
 31
0.0
  0
LINE
  5
118
330
D3
100
AcDbEntity
  8
AM_9
100
AcDbLine
 10
-12.72
 20
-33.76235194140705
 30
0.0
 11
-13.6
 21
-32.9974509706038
 31
0.0
  0
LINE
  5
11B
330
D3
100
AcDbEntity
  8
AM_7
100
AcDbLine
 10
-10.53333333333333
 20
-2.533649999999998
 30
0.0
 11
-10.53333333333333
 21
2.533649999999998
 31
0.0
  0
LINE
  5
11C
330
D3
100
AcDbEntity
  8
AM_4
100
AcDbLine
 10
-14.7
 20
27.79889468312411
 30
0.0
 11
-13.6
 21
27.79889468312411
 31
0.0
  0
LINE
  5
11D
330
D3
100
AcDbEntity
  8
AM_4
100
AcDbLine
 10
-14.7
 20
27.79889468312411
 30
0.0
 11
-14.7
 21
-27.82698412698412
 31
0.0
  0
LINE
  5
11E
330
D3
100
AcDbEntity
  8
AM_4
100
AcDbLine
 10
-14.7
 20
-27.82698412698412
 30
0.0
 11
-13.6
 21
-27.82698412698412
 31
0.0
  0
LINE
  5
11F
330
D3
100
AcDbEntity
  8
AM_4
100
AcDbLine
 10
0.0
 20
3.149999999999999
 30
0.0
 11
-13.6
 21
3.15
 31
0.0
  0
LINE
  5
120
330
D3
100
AcDbEntity
  8
AM_4
100
AcDbLine
 10
0.0
 20
37.3
 30
0.0
 11
-12.72
 21
37.3
 31
0.0
  0
LINE
  5
121
330
D3
100
AcDbEntity
  8
AM_4
100
AcDbLine
 10
-13.6
 20
-3.15
 30
0.0
 11
0.0
 21
-3.149999999999999
 31
0.0
  0
LINE
  5
122
330
D3
100
AcDbEntity
  8
AM_4
100
AcDbLine
 10
-12.72
 20
-37.3
 30
0.0
 11
0.0
 21
-37.3
 31
0.0
  0
LINE
  5
123
330
D3
100
AcDbEntity
  8
AM_4
100
AcDbLine
 10
-12.72
 20
37.3
 30
0.0
 11
-13.6
 21
36.41999999999999
 31
0.0
  0
LINE
  5
124
330
D3
100
AcDbEntity
  8
AM_4
100
AcDbLine
 10
-12.72
 20
37.3
 30
0.0
 11
-12.71999999999999
 21
3.15
 31
0.0
  0
LINE
  5
125
330
D3
100
AcDbEntity
  8
AM_4
100
AcDbLine
 10
-12.71999999999999
 20
-3.15
 30
0.0
 11
-12.72
 21
-37.3
 31
0.0
  0
LINE
  5
126
330
D3
100
AcDbEntity
  8
AM_4
100
AcDbLine
 10
-13.6
 20
36.41999999999999
 30
0.0
 11
-13.6
 21
-36.41999999999999
 31
0.0
  0
LINE
  5
127
330
D3
100
AcDbEntity
  8
AM_4
100
AcDbLine
 10
-13.6
 20
-36.41999999999999
 30
0.0
 11
-12.72
 21
-37.3
 31
0.0
  0
ARC
  5
129
330
D3
100
AcDbEntity
  8
AM_5
100
AcDbCircle
 10
-10.53333944446481
 20
0.0000000000000012
 30
0.0
 40
2.412999999999999
100
AcDbArc
 50
74.99999999999996
 51
15.0
  0
ENDBLK
  5
D6
330
D3
100
AcDbEntity
  8
0
100
AcDbBlockEnd
  0
BLOCK
  5
12C
330
12A
100
AcDbEntity
  8
0
100
AcDbBlockBegin
  2
4_129471_0_in_136279_2
 70
     2
 10
0.0
 20
0.0
 30
0.0
  3
4_129471_0_in_136279_2
  1

  0
ATTDEF
  5
12E
330
12A
100
AcDbEntity
  8
AM_6
100
AcDbText
 10
44.165
 20
73.5929
 30
0.0
 40
0.5
  1
BODY
100
AcDbAttributeDefinition
  3

  2
NN
 70
     8
280
     0
  0
ATTDEF
  5
12F
330
12A
100
AcDbEntity
  8
AM_6
100
AcDbText
 10
44.165
 20
73.0929
 30
0.0
 40
0.5
  1
Grip Tight Adapter Ball Berarings
100
AcDbAttributeDefinition
  3

  2
NT
 70
     8
280
     0
  0
ATTDEF
  5
130
330
12A
100
AcDbEntity
  8
AM_6
100
AcDbText
 10
44.165
 20
72.5929
 30
0.0
 40
0.5
  1
129471
100
AcDbAttributeDefinition
  3

  2
NB
 70
     8
280
     0
  0
ATTDEF
  5
131
330
12A
100
AcDbEntity
  8
AM_6
100
AcDbText
 10
44.165
 20
72.0929
 30
0.0
 40
0.5
  1
$PN.$LUBE.
100
AcDbAttributeDefinition
  3

  2
NBSYN
 70
     8
280
     0
  0
ATTDEF
  5
132
330
12A
100
AcDbEntity
  8
AM_6
100
AcDbText
 10
44.165
 20
71.5929
 30
0.0
 40
0.5
  1
129471
100
AcDbAttributeDefinition
  3

  2
LINA
 70
     8
280
     0
  0
ATTDEF
  5
133
330
12A
100
AcDbEntity
  8
AM_6
100
AcDbText
 10
44.165
 20
71.0929
 30
0.0
 40
0.5
  1
210
100
AcDbAttributeDefinition
  3

  2
SERIES
 70
     8
280
     0
  0
ATTDEF
  5
134
330
12A
100
AcDbEntity
  8
AM_6
100
AcDbText
 10
44.165
 20
70.5929
 30
0.0
 40
0.5
  1
129471
100
AcDbAttributeDefinition
  3

  2
PN
 70
     8
280
     0
  0
ATTDEF
  5
135
330
12A
100
AcDbEntity
  8
AM_6
100
AcDbText
 10
44.165
 20
70.0929
 30
0.0
 40
0.5
  1
F4B-GT-10
100
AcDbAttributeDefinition
  3

  2
DESCRIPTION
 70
     8
280
     0
  0
ATTDEF
  5
136
330
12A
100
AcDbEntity
  8
AM_6
100
AcDbText
 10
44.165
 20
69.5929
 30
0.0
 40
0.5
  1
With Lube
100
AcDbAttributeDefinition
  3

  2
LUBE
 70
     8
280
     0
  0
ATTDEF
  5
137
330
12A
100
AcDbEntity
  8
AM_6
100
AcDbText
 10
44.165
 20
69.0929
 30
0.0
 40
0.5
  1
3.1
100
AcDbAttributeDefinition
  3

  2
WEIGHT
 70
     8
280
     0
  0
ATTDEF
  5
138
330
12A
100
AcDbEntity
  8
AM_6
100
AcDbText
 10
44.165
 20
68.5929
 30
0.0
 40
0.5
  1
47.2
100
AcDbAttributeDefinition
  3

  2
A
 70
     8
280
     0
  0
ATTDEF
  5
139
330
12A
100
AcDbEntity
  8
AM_6
100
AcDbText
 10
44.165
 20
68.0929
 30
0.0
 40
0.5
  1
142.9
100
AcDbAttributeDefinition
  3

  2
B
 70
     8
280
     0
  0
ATTDEF
  5
13A
330
12A
100
AcDbEntity
  8
AM_6
100
AcDbText
 10
44.165
 20
67.5929
 30
0.0
 40
0.5
  1
52.0
100
AcDbAttributeDefinition
  3

  2
C
 70
     8
280
     0
  0
ATTDEF
  5
13B
330
12A
100
AcDbEntity
  8
AM_6
100
AcDbText
 10
44.165
 20
67.0929
 30
0.0
 40
0.5
  1
M16
100
AcDbAttributeDefinition
  3

  2
F
 70
     8
280
     0
  0
ATTDEF
  5
13C
330
12A
100
AcDbEntity
  8
AM_6
100
AcDbText
 10
44.165
 20
66.5929
 30
0.0
 40
0.5
  1
15.9
100
AcDbAttributeDefinition
  3

  2
H
 70
     8
280
     0
  0
ATTDEF
  5
13D
330
12A
100
AcDbEntity
  8
AM_6
100
AcDbText
 10
44.165
 20
66.0929
 30
0.0
 40
0.5
  1
13.5
100
AcDbAttributeDefinition
  3

  2
J
 70
     8
280
     0
  0
ATTDEF
  5
13E
330
12A
100
AcDbEntity
  8
AM_6
100
AcDbText
 10
44.165
 20
65.5929
 30
0.0
 40
0.5
  1
74.6
100
AcDbAttributeDefinition
  3

  2
L
 70
     8
280
     0
  0
ATTDEF
  5
13F
330
12A
100
AcDbEntity
  8
AM_6
100
AcDbText
 10
44.165
 20
65.0929
 30
0.0
 40
0.5
  1
73.0
100
AcDbAttributeDefinition
  3

  2
N
 70
     8
280
     0
  0
ATTDEF
  5
140
330
12A
100
AcDbEntity
  8
AM_6
100
AcDbText
 10
44.165
 20
64.5929
 30
0.0
 40
0.5
  1
50.8
100
AcDbAttributeDefinition
  3

  2
Z
 70
     8
280
     0
  0
ATTDEF
  5
141
330
12A
100
AcDbEntity
  8
AM_6
100
AcDbText
 10
44.165
 20
64.0929
 30
0.0
 40
0.5
  1
Infotext
100
AcDbAttributeDefinition
  3

  2
INFO
 70
     8
280
     0
  0
ATTDEF
  5
142
330
12A
100
AcDbEntity
  8
AM_6
100
AcDbText
 10
44.165
 20
63.5929
 30
0.0
 40
0.5
  1
baldor
100
AcDbAttributeDefinition
  3

  2
COMPANY
 70
     8
280
     0
  0
LINE
  5
143
330
12A
100
AcDbEntity
  8
AM_9
100
AcDbLine
 10
21.39999999999998
 20
-52.02754834011331
 30
0.0
 11
23.3875
 21
-52.02754834011331
 31
0.0
  0
LINE
  5
144
330
12A
100
AcDbEntity
  8
AM_9
100
AcDbLine
 10
21.39999999999998
 20
41.96279459322076
 30
0.0
 11
23.3875
 21
41.96279459322076
 31
0.0
  0
LINE
  5
145
330
12A
100
AcDbEntity
  8
AM_9
100
AcDbLine
 10
21.39999999999998
 20
-64.12244569566357
 30
0.0
 11
23.3875
 21
-64.12244569566357
 31
0.0
  0
LINE
  5
146
330
12A
100
AcDbEntity
  8
AM_9
100
AcDbLine
 10
21.39999999999998
 20
71.16986213946218
 30
0.0
 11
23.3875
 21
71.16986213946218
 31
0.0
  0
LINE
  5
147
330
12A
100
AcDbEntity
  8
AM_9
100
AcDbLine
 10
23.3875
 20
-52.58312201577129
 30
0.0
 11
21.38541523678843
 21
-52.58312201577128
 31
0.0
  0
LINE
  5
148
330
12A
100
AcDbEntity
  8
AM_9
100
AcDbLine
 10
23.3875
 20
-65.52497975199981
 30
0.0
 11
23.8875
 21
-65.52497975199981
 31
0.0
  0
LINE
  5
149
330
12A
100
AcDbEntity
  8
AM_9
100
AcDbLine
 10
23.3875
 20
-65.89498783849973
 30
0.0
 11
23.8875
 21
-65.89498783849973
 31
0.0
  0
LINE
  5
14A
330
12A
100
AcDbEntity
  8
AM_9
100
AcDbLine
 10
23.3875
 20
-67.0050122326201
 30
0.0
 11
23.8875
 21
-67.0050122326201
 31
0.0
  0
LINE
  5
14B
330
12A
100
AcDbEntity
  8
AM_9
100
AcDbLine
 10
23.3875
 20
-68.11503655816033
 30
0.0
 11
23.8875
 21
-68.11503655816033
 31
0.0
  0
LINE
  5
14C
330
12A
100
AcDbEntity
  8
AM_9
100
AcDbLine
 10
23.3875
 20
-64.7849634443801
 30
0.0
 11
23.8875
 21
-64.7849634443801
 31
0.0
  0
LINE
  5
14D
330
12A
100
AcDbEntity
  8
AM_9
100
AcDbLine
 10
23.3875
 20
-65.37697648945971
 30
0.0
 11
23.8875
 21
-65.37697648945971
 31
0.0
  0
LINE
  5
14E
330
12A
100
AcDbEntity
  8
AM_9
100
AcDbLine
 10
23.3875
 20
-66.70900572531984
 30
0.0
 11
23.8875
 21
-66.70900572531984
 31
0.0
  0
LINE
  5
14F
330
12A
100
AcDbEntity
  8
AM_9
100
AcDbLine
 10
23.3875
 20
-67.52302357911972
 30
0.0
 11
23.8875
 21
-67.52302357911972
 31
0.0
  0
LINE
  5
150
330
12A
100
AcDbEntity
  8
AM_9
100
AcDbLine
 10
23.3875
 20
-67.3010187551599
 30
0.0
 11
23.8875
 21
-67.3010187551599
 31
0.0
  0
LINE
  5
151
330
12A
100
AcDbEntity
  8
AM_9
100
AcDbLine
 10
23.3875
 20
-67.96703329562023
 30
0.0
 11
23.8875
 21
-67.96703329562023
 31
0.0
  0
LINE
  5
152
330
12A
100
AcDbEntity
  8
AM_9
100
AcDbLine
 10
23.3875
 20
-64.9329667043798
 30
0.0
 11
23.8875
 21
-64.9329667043798
 31
0.0
  0
LINE
  5
153
330
12A
100
AcDbEntity
  8
AM_9
100
AcDbLine
 10
23.3875
 20
-65.22897322946001
 30
0.0
 11
23.8875
 21
-65.22897322946001
 31
0.0
  0
LINE
  5
154
330
12A
100
AcDbEntity
  8
AM_9
100
AcDbLine
 10
23.3875
 20
-67.67102690769957
 30
0.0
 11
23.8875
 21
-67.67102690769957
 31
0.0
  0
LINE
  5
155
330
12A
100
AcDbEntity
  8
AM_9
100
AcDbLine
 10
23.3875
 20
-66.26499597326016
 30
0.0
 11
23.8875
 21
-66.26499597326016
 31
0.0
  0
LINE
  5
156
330
12A
100
AcDbEntity
  8
AM_9
100
AcDbLine
 10
23.3875
 20
-67.37502038515976
 30
0.0
 11
23.8875
 21
-67.37502038515976
 31
0.0
  0
LINE
  5
157
330
12A
100
AcDbEntity
  8
AM_9
100
AcDbLine
 10
23.3875
 20
-65.59898138199966
 30
0.0
 11
23.8875
 21
-65.59898138199966
 31
0.0
  0
LINE
  5
158
330
12A
100
AcDbEntity
  8
AM_9
100
AcDbLine
 10
21.39999999999997
 20
64.0
 30
0.0
 11
23.3875
 21
64.0
 31
0.0
  0
LINE
  5
159
330
12A
100
AcDbEntity
  8
AM_9
100
AcDbLine
 10
23.3875
 20
-66.56100248056042
 30
0.0
 11
23.8875
 21
-66.56100248056042
 31
0.0
  0
LINE
  5
15A
330
12A
100
AcDbEntity
  8
AM_9
100
AcDbLine
 10
23.3875
 20
-66.11699273104041
 30
0.0
 11
23.8875
 21
-66.11699273104041
 31
0.0
  0
LINE
  5
15B
330
12A
100
AcDbEntity
  8
AM_9
100
AcDbLine
 10
23.3875
 20
-65.15497159691975
 30
0.0
 11
23.8875
 21
-65.15497159691975
 31
0.0
  0
LINE
  5
15C
330
12A
100
AcDbEntity
  8
AM_9
100
AcDbLine
 10
23.3875
 20
-67.74502854023982
 30
0.0
 11
23.8875
 21
-67.74502854023982
 31
0.0
  0
LINE
  5
15D
330
12A
100
AcDbEntity
  8
AM_9
100
AcDbLine
 10
23.3875
 20
-64.71096181183984
 30
0.0
 11
23.8875
 21
-64.71096181183984
 31
0.0
  0
LINE
  5
15E
330
12A
100
AcDbEntity
  8
AM_9
100
AcDbLine
 10
23.8875
 20
-68.18903818816017
 30
0.0
 11
23.8875
 21
-64.71096181183984
 31
0.0
  0
LINE
  5
15F
330
12A
100
AcDbEntity
  8
AM_9
100
AcDbLine
 10
23.3875
 20
-68.18903818816017
 30
0.0
 11
23.8875
 21
-68.18903818816017
 31
0.0
  0
LINE
  5
160
330
12A
100
AcDbEntity
  8
AM_9
100
AcDbLine
 10
23.3875
 20
57.16291105253476
 30
0.0
 11
21.39999999999999
 21
57.16291105253476
 31
0.0
  0
LINE
  5
161
330
12A
100
AcDbEntity
  8
AM_9
100
AcDbLine
 10
21.39999999999998
 20
-57.72
 30
0.0
 11
23.3875
 21
-57.72
 31
0.0
  0
LINE
  5
162
330
12A
100
AcDbEntity
  8
AM_9
100
AcDbLine
 10
21.39999999999998
 20
-53.15821851493231
 30
0.0
 11
23.3875
 21
-53.15821851493231
 31
0.0
  0
LINE
  5
163
330
12A
100
AcDbEntity
  8
AM_9
100
AcDbLine
 10
21.39999999999997
 20
-52.85135308292804
 30
0.0
 11
23.3875
 21
-52.85135308292804
 31
0.0
  0
LINE
  5
164
330
12A
100
AcDbEntity
  8
AM_9
100
AcDbLine
 10
21.39999999999998
 20
53.15821851493231
 30
0.0
 11
23.3875
 21
53.15821851493231
 31
0.0
  0
LINE
  5
165
330
12A
100
AcDbEntity
  8
AM_9
100
AcDbLine
 10
21.39999999999997
 20
52.85135308292806
 30
0.0
 11
23.3875
 21
52.85135308292806
 31
0.0
  0
LINE
  5
166
330
12A
100
AcDbEntity
  8
AM_9
100
AcDbLine
 10
21.38541523678843
 20
52.58312201577128
 30
0.0
 11
23.3875
 21
52.58312201577128
 31
0.0
  0
LINE
  5
167
330
12A
100
AcDbEntity
  8
AM_9
100
AcDbLine
 10
21.39999999999998
 20
64.12244569566359
 30
0.0
 11
23.3875
 21
64.12244569566359
 31
0.0
  0
LINE
  5
168
330
12A
100
AcDbEntity
  8
AM_9
100
AcDbLine
 10
0.0
 20
-45.0
 30
0.0
 11
37.3
 21
-45.0
 31
0.0
  0
LINE
  5
169
330
12A
100
AcDbEntity
  8
AM_9
100
AcDbLine
 10
37.3
 20
45.0
 30
0.0
 11
0.0
 21
45.0
 31
0.0
  0
LINE
  5
16A
330
12A
100
AcDbEntity
  8
AM_9
100
AcDbLine
 10
21.39999999999998
 20
-71.16986213946218
 30
0.0
 11
23.3875
 21
-71.16986213946218
 31
0.0
  0
LINE
  5
16B
330
12A
100
AcDbEntity
  8
AM_9
100
AcDbLine
 10
23.3875
 20
-53.71114561800027
 30
0.0
 11
23.3875
 21
-71.45
 31
0.0
  0
LINE
  5
16C
330
12A
100
AcDbEntity
  8
AM_9
100
AcDbLine
 10
23.3875
 20
71.45
 30
0.0
 11
23.3875
 21
53.71114561800022
 31
0.0
  0
LINE
  5
16D
330
12A
100
AcDbEntity
  8
AM_9
100
AcDbLine
 10
21.4
 20
-63.75
 30
0.0
 11
37.3
 21
-63.75
 31
0.0
  0
LINE
  5
16E
330
12A
100
AcDbEntity
  8
AM_9
100
AcDbLine
 10
37.3
 20
-47.25
 30
0.0
 11
21.4
 21
-47.25
 31
0.0
  0
LINE
  5
16F
330
12A
100
AcDbEntity
  8
AM_9
100
AcDbLine
 10
21.4
 20
47.25
 30
0.0
 11
37.3
 21
47.25
 31
0.0
  0
LINE
  5
170
330
12A
100
AcDbEntity
  8
AM_9
100
AcDbLine
 10
37.3
 20
63.75
 30
0.0
 11
21.4
 21
63.75
 31
0.0
  0
LINE
  5
171
330
12A
100
AcDbEntity
  8
AM_7
100
AcDbLine
 10
-17.06
 20
0.0
 30
0.0
 11
39.165
 21
0.0
 31
0.0
  0
LINE
  5
172
330
12A
100
AcDbEntity
  8
AM_7
100
AcDbLine
 10
7.0
 20
73.5929
 30
0.0
 11
7.0
 21
60.5491
 31
0.0
  0
LINE
  5
173
330
12A
100
AcDbEntity
  8
AM_7
100
AcDbLine
 10
38.17449999999999
 20
55.5
 30
0.0
 11
18.93549999999999
 21
55.5
 31
0.0
  0
LINE
  5
174
330
12A
100
AcDbEntity
  8
AM_7
100
AcDbLine
 10
38.17449999999999
 20
-55.5
 30
0.0
 11
18.93549999999999
 21
-55.5
 31
0.0
  0
LINE
  5
175
330
12A
100
AcDbEntity
  8
AM_4
100
AcDbLine
 10
8.661483519286548
 20
73.0
 30
0.0
 11
5.338516504430745
 21
73.0
 31
0.0
  0
ARC
  5
176
330
12A
100
AcDbEntity
  8
AM_4
100
AcDbCircle
 10
5.338516480713456
 20
72.5
 30
0.0
 40
0.5
100
AcDbArc
 50
90.0
 51
158.198590513648
  0
ARC
  5
177
330
12A
100
AcDbEntity
  8
AM_4
100
AcDbCircle
 10
8.661483519286532
 20
72.49999999999996
 30
0.0
 40
0.5000000000000314
100
AcDbArc
 50
21.80140948635606
 51
90.0
  0
LINE
  5
178
330
12A
100
AcDbEntity
  8
AM_4
100
AcDbLine
 10
9.125721864729178
 20
72.68569533817706
 30
0.0
 11
4.874278135270823
 21
72.68569533817706
 31
0.0
  0
LINE
  5
179
330
12A
100
AcDbEntity
  8
AM_4
100
AcDbLine
 10
4.874278135270823
 20
72.68569533817706
 30
0.0
 11
4.336109735471645
 21
71.34027433867914
 31
0.0
  0
LINE
  5
17A
330
12A
100
AcDbEntity
  8
AM_4
100
AcDbLine
 10
9.663890264528355
 20
71.34027433867914
 30
0.0
 11
9.125721864729178
 21
72.68569533817706
 31
0.0
  0
LINE
  5
17B
330
12A
100
AcDbEntity
  8
AM_4
100
AcDbLine
 10
9.663890264528355
 20
71.34027433867914
 30
0.0
 11
4.336109735471645
 21
71.34027433867914
 31
0.0
  0
ARC
  5
17C
330
12A
100
AcDbEntity
  8
AM_4
100
AcDbCircle
 10
4.800348080914288
 20
71.15457900050211
 30
0.0
 40
0.5000000000000033
100
AcDbArc
 50
158.1985905136515
 51
225.8429077430546
  0
ARC
  5
17D
330
12A
100
AcDbEntity
  8
AM_4
100
AcDbCircle
 10
9.19965191908571
 20
71.15457900050211
 30
0.0
 40
0.5000000000000229
100
AcDbArc
 50
314.1570922569455
 51
21.80140948634849
  0
LINE
  5
17E
330
12A
100
AcDbEntity
  8
AM_4
100
AcDbLine
 10
4.199999999999999
 20
64.5
 30
0.0
 11
4.199999999999999
 21
64.0
 31
0.0
  0
LINE
  5
17F
330
12A
100
AcDbEntity
  8
AM_4
100
AcDbLine
 10
9.8
 20
64.0
 30
0.0
 11
9.8
 21
64.5
 31
0.0
  0
LINE
  5
180
330
12A
100
AcDbEntity
  8
AM_4
100
AcDbLine
 10
4.199999999999997
 20
68.0
 30
0.0
 11
4.199999999999997
 21
67.5
 31
0.0
  0
LINE
  5
181
330
12A
100
AcDbEntity
  8
AM_4
100
AcDbLine
 10
9.800000000000002
 20
67.5
 30
0.0
 11
9.800000000000002
 21
68.0
 31
0.0
  0
LINE
  5
182
330
12A
100
AcDbEntity
  8
AM_4
100
AcDbLine
 10
9.800000000000006
 20
68.0
 30
0.0
 11
4.19999999999999
 21
68.0
 31
0.0
  0
LINE
  5
183
330
12A
100
AcDbEntity
  8
AM_4
100
AcDbLine
 10
9.547965932284981
 20
70.79586275023034
 30
0.0
 11
4.452034067715021
 21
70.79586275023034
 31
0.0
  0
ARC
  5
184
330
12A
100
AcDbEntity
  8
AM_4
100
AcDbCircle
 10
3.193749999999989
 20
69.5
 30
0.0
 40
1.80625
100
AcDbArc
 50
303.8550261282941
 51
45.8429212269987
  0
ARC
  5
185
330
12A
100
AcDbEntity
  8
AM_4
100
AcDbCircle
 10
10.80625000000001
 20
69.5
 30
0.0
 40
1.806250000000007
100
AcDbArc
 50
134.1570787730013
 51
236.1449738717059
  0
LINE
  5
186
330
12A
100
AcDbEntity
  8
AM_4
100
AcDbLine
 10
11.0
 20
67.5
 30
0.0
 11
3.0
 21
67.5
 31
0.0
  0
LINE
  5
187
330
12A
100
AcDbEntity
  8
AM_4
100
AcDbLine
 10
11.0
 20
67.5
 30
0.0
 11
11.0
 21
64.5
 31
0.0
  0
LINE
  5
188
330
12A
100
AcDbEntity
  8
AM_4
100
AcDbLine
 10
11.0
 20
64.5
 30
0.0
 11
3.0
 21
64.5
 31
0.0
  0
LINE
  5
189
330
12A
100
AcDbEntity
  8
AM_4
100
AcDbLine
 10
3.0
 20
64.5
 30
0.0
 11
3.0
 21
67.5
 31
0.0
  0
LWPOLYLINE
  5
18A
330
12A
100
AcDbEntity
  8
AM_4
100
AcDbPolyline
 90
        3
 70
     0
 43
0.0
 10
11.0
 20
67.33419246269048
 10
10.00449626927269
 20
67.45584868663552
 10
9.0
 20
67.5
  0
LWPOLYLINE
  5
18B
330
12A
100
AcDbEntity
  8
AM_4
100
AcDbPolyline
 90
        3
 70
     0
 43
0.0
 10
8.999999999999998
 20
64.5
 10
9.999999999999998
 20
64.54376467721207
 10
11.0
 20
64.66580753730952
  0
LWPOLYLINE
  5
18C
330
12A
100
AcDbEntity
  8
AM_4
100
AcDbPolyline
 90
        3
 70
     0
 43
0.0
 10
9.0
 20
67.5
 10
8.000000000000002
 20
67.45623532278793
 10
7.0
 20
67.33419246269048
  0
LWPOLYLINE
  5
18D
330
12A
100
AcDbEntity
  8
AM_4
100
AcDbPolyline
 90
        3
 70
     0
 43
0.0
 10
7.0
 20
67.33419246269048
 10
6.004496269272693
 20
67.45584868663552
 10
5.000000000000001
 20
67.5
  0
LWPOLYLINE
  5
18E
330
12A
100
AcDbEntity
  8
AM_4
100
AcDbPolyline
 90
        3
 70
     0
 43
0.0
 10
5.000000000000001
 20
67.5
 10
4.0
 20
67.45623532278793
 10
3.0
 20
67.33419246269048
  0
LWPOLYLINE
  5
18F
330
12A
100
AcDbEntity
  8
AM_4
100
AcDbPolyline
 90
        3
 70
     0
 43
0.0
 10
3.0
 20
64.66580753730952
 10
3.995503730727309
 20
64.54415131336448
 10
5.0
 20
64.5
  0
LINE
  5
190
330
12A
100
AcDbEntity
  8
AM_4
100
AcDbLine
 10
7.0
 20
64.66580753730952
 30
0.0
 11
7.0
 21
67.33419246269048
 31
0.0
  0
LWPOLYLINE
  5
191
330
12A
100
AcDbEntity
  8
AM_4
100
AcDbPolyline
 90
        3
 70
     0
 43
0.0
 10
7.0
 20
64.66580753730952
 10
7.995503730727306
 20
64.54415131336448
 10
8.999999999999998
 20
64.5
  0
LWPOLYLINE
  5
192
330
12A
100
AcDbEntity
  8
AM_4
100
AcDbPolyline
 90
        3
 70
     0
 43
0.0
 10
5.0
 20
64.5
 10
6.000000000000001
 20
64.54376467721207
 10
7.0
 20
64.66580753730952
  0
LINE
  5
193
330
12A
100
AcDbEntity
  8
AM_4
100
AcDbLine
 10
0.0000000000000009
 20
64.0
 30
0.0
 11
21.39999999999997
 21
64.0
 31
0.0
  0
LINE
  5
194
330
12A
100
AcDbEntity
  8
AM_4
100
AcDbLine
 10
0.0
 20
-55.45200675806953
 30
0.0
 11
0.0000000000000009
 21
64.0
 31
0.0
  0
LINE
  5
195
330
12A
100
AcDbEntity
  8
AM_4
100
AcDbLine
 10
1.000000000000003
 20
55.88289440770249
 30
0.0
 11
1.000000000000003
 21
64.0
 31
0.0
  0
LINE
  5
196
330
12A
100
AcDbEntity
  8
AM_4
100
AcDbLine
 10
21.39999999999999
 20
57.16291105253476
 30
0.0
 11
21.31177559204404
 21
57.16291105253476
 31
0.0
  0
LINE
  5
197
330
12A
100
AcDbEntity
  8
AM_4
100
AcDbLine
 10
21.31177559204406
 20
-57.72
 30
0.0
 11
21.39999999999998
 21
-57.72
 31
0.0
  0
LINE
  5
198
330
12A
100
AcDbEntity
  8
AM_4
100
AcDbLine
 10
21.31177559204419
 20
-52.85135308292804
 30
0.0
 11
21.39999999999997
 21
-52.85135308292804
 31
0.0
  0
LWPOLYLINE
  5
199
330
12A
100
AcDbEntity
  8
AM_4
100
AcDbPolyline
 90
        3
 70
     0
 43
0.0
 10
21.37917039233575
 20
-52.58878561655929
 10
21.33995395589406
 20
-52.65290733001302
 10
21.31177559204411
 20
-52.85135308292799
  0
LINE
  5
19A
330
12A
100
AcDbEntity
  8
AM_4
100
AcDbLine
 10
21.31177559204411
 20
52.85135308292806
 30
0.0
 11
21.39999999999997
 21
52.85135308292806
 31
0.0
  0
LINE
  5
19B
330
12A
100
AcDbEntity
  8
AM_4
100
AcDbLine
 10
21.39171352064574
 20
52.58312202437084
 30
0.0
 11
21.39970699938109
 21
52.59132971366965
 31
0.0
  0
LWPOLYLINE
  5
19C
330
12A
100
AcDbEntity
  8
AM_4
100
AcDbPolyline
 90
        8
 70
     0
 43
0.0
 10
0.0000000000000009
 20
55.00840893442555
 10
0.000011353617427
 20
55.01260601214091
 10
0.0751263296213776
 20
55.34234525742882
 10
0.1580684759219122
 20
55.48164512750658
 10
0.276863085548161
 20
55.61346161235896
 10
0.5221968414467987
 20
55.77680543430093
 10
0.7774408957317731
 20
55.86052843251928
 10
0.965100503318185
 20
55.88175047102966
  0
ARC
  5
19D
330
12A
100
AcDbEntity
  8
AM_4
100
AcDbCircle
 10
1.000000000000005
 20
-55.45200675806953
 30
0.0
 40
1.000000000000004
100
AcDbArc
 50
180.0
 51
267.9999999999992
  0
LINE
  5
19E
330
12A
100
AcDbEntity
  8
AM_4
100
AcDbLine
 10
0.965100503318185
 20
55.88175047102966
 30
0.0
 11
20.43489949670267
 21
56.56841172596922
 31
0.0
  0
LINE
  5
19F
330
12A
100
AcDbEntity
  8
AM_4
100
AcDbLine
 10
0.965100503318185
 20
55.88175047102966
 30
0.0
 11
0.9651005032974904
 21
-56.45139758508863
 31
0.0
  0
LINE
  5
1A0
330
12A
100
AcDbEntity
  8
AM_4
100
AcDbLine
 10
0.9651005032974904
 20
-56.45139758508863
 30
0.0
 11
20.4348994967025
 21
-57.13129794778798
 31
0.0
  0
LINE
  5
1A1
330
12A
100
AcDbEntity
  8
AM_4
100
AcDbLine
 10
20.43489949670267
 20
56.56841172596922
 30
0.0
 11
20.4348994967025
 21
-57.13129794778798
 31
0.0
  0
LWPOLYLINE
  5
1A2
330
12A
100
AcDbEntity
  8
AM_4
100
AcDbPolyline
 90
        4
 70
     0
 43
0.0
 10
21.31177559204412
 20
-23.20200157968425
 10
21.3285368283495
 20
-23.66230394025822
 10
21.36820951457985
 20
-24.15378899437002
 10
21.4
 20
-24.75724670155169
  0
LWPOLYLINE
  5
1A3
330
12A
100
AcDbEntity
  8
AM_4
100
AcDbPolyline
 90
        4
 70
     0
 43
0.0
 10
21.4
 20
24.75724670155167
 10
21.37917039233576
 20
24.29057617859558
 10
21.33995395589407
 20
23.81773828931329
 10
21.31177559204404
 20
23.20200157968426
  0
LWPOLYLINE
  5
1A4
330
12A
100
AcDbEntity
  8
AM_4
100
AcDbPolyline
 90
        3
 70
     0
 43
0.0
 10
21.31177559204414
 20
52.85135308292806
 10
21.3285368283495
 20
52.69012488745321
 10
21.36820951457985
 20
52.59992709599693
  0
LINE
  5
1A5
330
12A
100
AcDbEntity
  8
AM_4
100
AcDbLine
 10
21.31177559204411
 20
52.85135308292806
 30
0.0
 11
21.31177559204404
 21
57.16291105253476
 31
0.0
  0
LWPOLYLINE
  5
1A6
330
12A
100
AcDbEntity
  8
AM_4
100
AcDbPolyline
 90
        6
 70
     0
 43
0.0
 10
21.31177559204404
 20
57.16291105253476
 10
21.2501752359329
 20
57.04596904509194
 10
21.02531866179329
 20
56.78960397681298
 10
20.84435116083517
 20
56.6729782296586
 10
20.52576716560118
 20
56.57581570476551
 10
20.43489949670267
 20
56.56841172596922
  0
ARC
  5
1A7
330
12A
100
AcDbEntity
  8
AM_4
100
AcDbCircle
 10
20.39999999999996
 20
-58.13068877480713
 30
0.0
 40
1.000000000000052
100
AcDbArc
 50
24.24810990317053
 51
87.9999999999979
  0
LINE
  5
1A8
330
12A
100
AcDbEntity
  8
AM_4
100
AcDbLine
 10
21.31177559204406
 20
-57.71999999999983
 30
0.0
 11
21.31177559204419
 21
-52.85135308292804
 31
0.0
  0
LINE
  5
1A9
330
12A
100
AcDbEntity
  8
AM_4
100
AcDbLine
 10
21.31177559204404
 20
23.20200157968426
 30
0.0
 11
23.3875
 21
23.20200157968426
 31
0.0
  0
LINE
  5
1AA
330
12A
100
AcDbEntity
  8
AM_4
100
AcDbLine
 10
21.31177559204412
 20
-23.20200157968425
 30
0.0
 11
21.31177559204404
 21
23.20200157968426
 31
0.0
  0
LINE
  5
1AB
330
12A
100
AcDbEntity
  8
AM_4
100
AcDbLine
 10
21.31177559204412
 20
-23.20200157968425
 30
0.0
 11
23.3875
 21
-23.20200157968425
 31
0.0
  0
LINE
  5
1AC
330
12A
100
AcDbEntity
  8
AM_4
100
AcDbLine
 10
21.39999999999998
 20
-26.30425539959167
 30
0.0
 11
23.3875
 21
-26.30425539959167
 31
0.0
  0
LINE
  5
1AD
330
12A
100
AcDbEntity
  8
AM_4
100
AcDbLine
 10
21.39999999999998
 20
26.30425539959166
 30
0.0
 11
23.3875
 21
26.30425539959166
 31
0.0
  0
LINE
  5
1AE
330
12A
100
AcDbEntity
  8
AM_4
100
AcDbLine
 10
21.39999999999998
 20
-41.96279459322076
 30
0.0
 11
23.3875
 21
-41.96279459322076
 31
0.0
  0
LINE
  5
1AF
330
12A
100
AcDbEntity
  8
AM_4
100
AcDbLine
 10
21.4
 20
-24.75724670155169
 30
0.0
 11
21.40000000000001
 21
-71.45
 31
0.0
  0
LINE
  5
1B0
330
12A
100
AcDbEntity
  8
AM_4
100
AcDbLine
 10
21.40000000000001
 20
-71.45
 30
0.0
 11
37.3
 21
-71.45
 31
0.0
  0
LINE
  5
1B1
330
12A
100
AcDbEntity
  8
AM_4
100
AcDbLine
 10
23.3875
 20
-53.71114561800027
 30
0.0
 11
23.3875
 21
53.71114561800022
 31
0.0
  0
LINE
  5
1B2
330
12A
100
AcDbEntity
  8
AM_4
100
AcDbLine
 10
23.3875
 20
-53.71114561800027
 30
0.0
 11
21.40000000000001
 21
-53.71114561800027
 31
0.0
  0
LINE
  5
1B3
330
12A
100
AcDbEntity
  8
AM_4
100
AcDbLine
 10
21.40000000000001
 20
-55.50000000000003
 30
0.0
 11
37.3
 21
-55.50000000000003
 31
0.0
  0
LINE
  5
1B4
330
12A
100
AcDbEntity
  8
AM_4
100
AcDbLine
 10
37.3
 20
-71.45
 30
0.0
 11
37.3
 21
71.45
 31
0.0
  0
LINE
  5
1B5
330
12A
100
AcDbEntity
  8
AM_4
100
AcDbLine
 10
21.40000000000001
 20
71.45
 30
0.0
 11
37.3
 21
71.45
 31
0.0
  0
LINE
  5
1B6
330
12A
100
AcDbEntity
  8
AM_4
100
AcDbLine
 10
21.40000000000001
 20
55.50000000000001
 30
0.0
 11
37.3
 21
55.50000000000001
 31
0.0
  0
LINE
  5
1B7
330
12A
100
AcDbEntity
  8
AM_4
100
AcDbLine
 10
21.40000000000001
 20
71.45
 30
0.0
 11
21.4
 21
24.75724670155167
 31
0.0
  0
LINE
  5
1B8
330
12A
100
AcDbEntity
  8
AM_4
100
AcDbLine
 10
21.39999999999998
 20
52.02754834011332
 30
0.0
 11
23.3875
 21
52.02754834011332
 31
0.0
  0
LINE
  5
1B9
330
12A
100
AcDbEntity
  8
AM_4
100
AcDbLine
 10
21.40000000000001
 20
53.71114561800022
 30
0.0
 11
23.3875
 21
53.71114561800022
 31
0.0
  0
ENDBLK
  5
12D
330
12A
100
AcDbEntity
  8
0
100
AcDbBlockEnd
  0
ENDSEC
  0
SECTION
  2
ENTITIES
  0
INSERT
  5
6F
330
1F
100
AcDbEntity
  8
0
100
AcDbBlockReference
  2
1_136279_2
 10
0.0
 20
0.0
 30
0.0
  0
POINT
  5
1BB
330
1F
100
AcDbEntity
  8
ConnectionPoints
100
AcDbPoint
 10
15.8
 20
0.0
 30
0.0000000000000011
  0
POINT
  5
1BC
330
1F
100
AcDbEntity
  8
ConnectionPoints
100
AcDbPoint
 10
32.5
 20
0.0
 30
0.0000000000000001
  0
POINT
  5
1BD
330
1F
100
AcDbEntity
  8
ConnectionPoints
100
AcDbPoint
 10
32.5
 20
0.0
 30
-0.000000000000002
  0
ENDSEC
  0
SECTION
  2
OBJECTS
  0
DICTIONARY
  5
C
330
0
100
AcDbDictionary
281
     1
  3
ACAD_DETAILVIEWSTYLE
350
1C5
  3
ACAD_GROUP
350
D
  3
ACAD_LAYOUT
350
1A
  3
ACAD_MATERIAL
350
43
  3
ACAD_MLEADERSTYLE
350
6B
  3
ACAD_MLINESTYLE
350
17
  3
ACAD_PLOTSETTINGS
350
19
  3
ACAD_PLOTSTYLENAME
350
E
  3
ACAD_SCALELIST
350
47
  3
ACAD_SECTIONVIEWSTYLE
350
1C6
  3
ACAD_TABLESTYLE
350
69
  3
ACAD_VISUALSTYLE
350
2A
  3
ACDB_RECOMPOSE_DATA
350
1C2
  3
AcDbVariableDictionary
350
1BE
  0
SUN
  5
6D
330
29
100
AcDbSun
 90
        1
290
     0
 63
     7
421
 16777215
 40
1.0
291
     1
 91
  2455826
 92
 54000000
292
     0
 70
     2
 71
   256
280
     1
  0
DICTIONARY
  5
1C5
102
{ACAD_REACTORS
330
C
102
}
330
C
100
AcDbDictionary
281
     1
  0
DICTIONARY
  5
D
102
{ACAD_REACTORS
330
C
102
}
330
C
100
AcDbDictionary
281
     1
  0
DICTIONARY
  5
1A
102
{ACAD_REACTORS
330
C
102
}
330
C
100
AcDbDictionary
281
     1
  3
Layout1
350
1E
  3
Layout2
350
26
  3
Model
350
22
  0
DICTIONARY
  5
43
102
{ACAD_REACTORS
330
C
102
}
330
C
100
AcDbDictionary
281
     1
  3
ByBlock
350
45
  3
ByLayer
350
44
  3
Global
350
46
  0
DICTIONARY
  5
6B
102
{ACAD_REACTORS
330
C
102
}
330
C
100
AcDbDictionary
281
     1
  3
Standard
350
6C
  0
DICTIONARY
  5
17
102
{ACAD_REACTORS
330
C
102
}
330
C
100
AcDbDictionary
281
     1
  3
Standard
350
18
  0
DICTIONARY
  5
19
102
{ACAD_REACTORS
330
C
102
}
330
C
100
AcDbDictionary
281
     1
  0
ACDBDICTIONARYWDFLT
  5
E
102
{ACAD_REACTORS
330
C
102
}
330
C
100
AcDbDictionary
281
     1
  3
Normal
350
F
100
AcDbDictionaryWithDefault
340
F
  0
DICTIONARY
  5
47
102
{ACAD_REACTORS
330
C
102
}
330
C
100
AcDbDictionary
281
     1
  3
A0
350
48
  3
A1
350
49
  3
A2
350
4A
  3
A3
350
4B
  3
A4
350
4C
  3
A5
350
4D
  3
A6
350
4E
  3
A7
350
4F
  3
A8
350
50
  3
A9
350
51
  3
B0
350
52
  3
B1
350
53
  3
B2
350
54
  3
B3
350
55
  3
B4
350
56
  3
B5
350
57
  3
B6
350
58
  3
B7
350
59
  3
B8
350
5A
  3
B9
350
5B
  3
C0
350
5C
  3
C1
350
5D
  3
C2
350
5E
  3
C3
350
5F
  3
C4
350
60
  3
C5
350
61
  3
C6
350
62
  3
C7
350
63
  3
C8
350
64
  3
C9
350
65
  3
D0
350
66
  3
D1
350
67
  3
D2
350
68
  0
DICTIONARY
  5
1C6
102
{ACAD_REACTORS
330
C
102
}
330
C
100
AcDbDictionary
281
     1
  0
DICTIONARY
  5
69
102
{ACAD_REACTORS
330
C
102
}
330
C
100
AcDbDictionary
281
     1
  3
Standard
350
6A
  0
DICTIONARY
  5
2A
102
{ACAD_REACTORS
330
C
102
}
330
C
100
AcDbDictionary
281
     1
  3
2dWireframe
350
2F
  3
Basic
350
32
  3
Brighten
350
36
  3
ColorChange
350
3A
  3
Conceptual
350
34
  3
Dim
350
35
  3
EdgeColorOff
350
3D
  3
Facepattern
350
39
  3
Flat
350
2B
  3
FlatWithEdges
350
2C
  3
Gouraud
350
2D
  3
GouraudWithEdges
350
2E
  3
Hidden
350
31
  3
JitterOff
350
3B
  3
Linepattern
350
38
  3
OverhangOff
350
3C
  3
Realistic
350
33
  3
Shaded
350
42
  3
Shaded with edges
350
41
  3
Shades of Gray
350
3E
  3
Sketchy
350
3F
  3
Thicken
350
37
  3
Wireframe
350
30
  3
X-Ray
350
40
  0
XRECORD
  5
1C2
102
{ACAD_REACTORS
330
C
102
}
330
C
100
AcDbXrecord
280
     1
 90
        1
330
6A
  0
DICTIONARY
  5
1BE
102
{ACAD_REACTORS
330
C
102
}
330
C
100
AcDbDictionary
281
     1
  3
CANNOSCALE
350
1BF
  3
CMLEADERSTYLE
350
1C4
  3
CTABLESTYLE
350
1C3
  0
LAYOUT
  5
1E
102
{ACAD_REACTORS
330
1A
102
}
330
1A
100
AcDbPlotSettings
  1

  2
none_device
  4

  6

 40
0.0
 41
0.0
 42
0.0
 43
0.0
 44
0.0
 45
0.0
 46
0.0
 47
0.0
 48
0.0
 49
0.0
140
0.0
141
0.0
142
1.0
143
1.0
 70
   688
 72
     1
 73
     0
 74
     5
  7

 75
    16
 76
     0
 77
     2
 78
   300
147
1.0
148
0.0
149
0.0
100
AcDbLayout
  1
Layout1
 70
     1
 71
     1
 10
0.0
 20
0.0
 11
420.0
 21
297.0
 12
0.0
 22
0.0
 32
0.0
 14
1.000000000000000E+20
 24
1.000000000000000E+20
 34
1.000000000000000E+20
 15
-1.000000000000000E+20
 25
-1.000000000000000E+20
 35
-1.000000000000000E+20
146
0.0
 13
0.0
 23
0.0
 33
0.0
 16
1.0
 26
0.0
 36
0.0
 17
0.0
 27
1.0
 37
0.0
 76
     0
330
1B
  0
LAYOUT
  5
26
102
{ACAD_REACTORS
330
1A
102
}
330
1A
100
AcDbPlotSettings
  1

  2
none_device
  4

  6

 40
0.0
 41
0.0
 42
0.0
 43
0.0
 44
0.0
 45
0.0
 46
0.0
 47
0.0
 48
0.0
 49
0.0
140
0.0
141
0.0
142
1.0
143
1.0
 70
   688
 72
     1
 73
     0
 74
     5
  7

 75
    16
 76
     0
 77
     2
 78
   300
147
1.0
148
0.0
149
0.0
100
AcDbLayout
  1
Layout2
 70
     1
 71
     2
 10
0.0
 20
0.0
 11
0.0
 21
0.0
 12
0.0
 22
0.0
 32
0.0
 14
0.0
 24
0.0
 34
0.0
 15
0.0
 25
0.0
 35
0.0
146
0.0
 13
0.0
 23
0.0
 33
0.0
 16
1.0
 26
0.0
 36
0.0
 17
0.0
 27
1.0
 37
0.0
 76
     0
330
23
  0
LAYOUT
  5
22
102
{ACAD_REACTORS
330
1A
102
}
330
1A
100
AcDbPlotSettings
  1

  2
none_device
  4
Letter_(8.50_x_11.00_Inches)
  6

 40
6.35
 41
6.35
 42
6.35000508
 43
6.35000508
 44
215.9
 45
279.4
 46
0.0
 47
0.0
 48
0.0
 49
0.0
140
0.0
141
0.0
142
1.0
143
1.0
 70
  1712
 72
     1
 73
     0
 74
     0
  7

 75
     0
 76
     0
 77
     2
 78
   300
147
1.0
148
0.0
149
0.0
100
AcDbLayout
  1
Model
 70
     1
 71
     0
 10
0.0
 20
0.0
 11
420.0
 21
297.0
 12
0.0
 22
0.0
 32
0.0
 14
1.000000000000000E+20
 24
1.000000000000000E+20
 34
1.000000000000000E+20
 15
-1.000000000000000E+20
 25
-1.000000000000000E+20
 35
-1.000000000000000E+20
146
0.0
 13
0.0
 23
0.0
 33
0.0
 16
1.0
 26
0.0
 36
0.0
 17
0.0
 27
1.0
 37
0.0
 76
     0
330
1F
331
29
  0
MATERIAL
  5
45
102
{ACAD_REACTORS
330
43
102
}
330
43
100
AcDbMaterial
  1
ByBlock
 72
     1
 94
      127
  0
MATERIAL
  5
44
102
{ACAD_REACTORS
330
43
102
}
330
43
100
AcDbMaterial
  1
ByLayer
 72
     1
 94
      127
  0
MATERIAL
  5
46
102
{ACAD_REACTORS
330
43
102
}
330
43
100
AcDbMaterial
  1
Global
 72
     1
 94
      127
  0
MLEADERSTYLE
  5
6C
102
{ACAD_REACTORS
330
6B
102
}
330
6B
100
AcDbMLeaderStyle
179
     2
170
     2
171
     1
172
     0
 90
        2
 40
0.0
 41
0.0
173
     1
 91
-1056964608
340
14
 92
       -2
290
     1
 42
2.0
291
     1
 43
8.0
  3
Standard
341
0
 44
4.0
300

342
11
174
     1
178
     6
175
     1
176
     0
 93
-1056964608
 45
4.0
292
     0
297
     0
 46
4.0
343
0
 94
-1056964608
 47
1.0
 49
1.0
140
1.0
293
     1
141
0.0
294
     1
177
     0
142
1.0
295
     0
296
     0
143
3.75
271
     0
272
     9
273
     9
298
     0
  0
MLINESTYLE
  5
18
102
{ACAD_REACTORS
330
17
102
}
330
17
100
AcDbMlineStyle
  2
Standard
 70
     0
  3

 62
   256
 51
90.0
 52
90.0
 71
     2
 49
0.5
 62
   256
  6
BYLAYER
 49
-0.5
 62
   256
  6
BYLAYER
  0
ACDBPLACEHOLDER
  5
F
102
{ACAD_REACTORS
330
E
102
}
330
E
  0
SCALE
  5
48
102
{ACAD_REACTORS
330
47
102
}
330
47
100
AcDbScale
 70
     0
300
1:1
140
1.0
141
1.0
290
     1
  0
SCALE
  5
49
102
{ACAD_REACTORS
330
47
102
}
330
47
100
AcDbScale
 70
     0
300
1:2
140
1.0
141
2.0
290
     0
  0
SCALE
  5
4A
102
{ACAD_REACTORS
330
47
102
}
330
47
100
AcDbScale
 70
     0
300
1:4
140
1.0
141
4.0
290
     0
  0
SCALE
  5
4B
102
{ACAD_REACTORS
330
47
102
}
330
47
100
AcDbScale
 70
     0
300
1:5
140
1.0
141
5.0
290
     0
  0
SCALE
  5
4C
102
{ACAD_REACTORS
330
47
102
}
330
47
100
AcDbScale
 70
     0
300
1:8
140
1.0
141
8.0
290
     0
  0
SCALE
  5
4D
102
{ACAD_REACTORS
330
47
102
}
330
47
100
AcDbScale
 70
     0
300
1:10
140
1.0
141
10.0
290
     0
  0
SCALE
  5
4E
102
{ACAD_REACTORS
330
47
102
}
330
47
100
AcDbScale
 70
     0
300
1:16
140
1.0
141
16.0
290
     0
  0
SCALE
  5
4F
102
{ACAD_REACTORS
330
47
102
}
330
47
100
AcDbScale
 70
     0
300
1:20
140
1.0
141
20.0
290
     0
  0
SCALE
  5
50
102
{ACAD_REACTORS
330
47
102
}
330
47
100
AcDbScale
 70
     0
300
1:30
140
1.0
141
30.0
290
     0
  0
SCALE
  5
51
102
{ACAD_REACTORS
330
47
102
}
330
47
100
AcDbScale
 70
     0
300
1:40
140
1.0
141
40.0
290
     0
  0
SCALE
  5
52
102
{ACAD_REACTORS
330
47
102
}
330
47
100
AcDbScale
 70
     0
300
1:50
140
1.0
141
50.0
290
     0
  0
SCALE
  5
53
102
{ACAD_REACTORS
330
47
102
}
330
47
100
AcDbScale
 70
     0
300
1:100
140
1.0
141
100.0
290
     0
  0
SCALE
  5
54
102
{ACAD_REACTORS
330
47
102
}
330
47
100
AcDbScale
 70
     0
300
2:1
140
2.0
141
1.0
290
     0
  0
SCALE
  5
55
102
{ACAD_REACTORS
330
47
102
}
330
47
100
AcDbScale
 70
     0
300
4:1
140
4.0
141
1.0
290
     0
  0
SCALE
  5
56
102
{ACAD_REACTORS
330
47
102
}
330
47
100
AcDbScale
 70
     0
300
8:1
140
8.0
141
1.0
290
     0
  0
SCALE
  5
57
102
{ACAD_REACTORS
330
47
102
}
330
47
100
AcDbScale
 70
     0
300
10:1
140
10.0
141
1.0
290
     0
  0
SCALE
  5
58
102
{ACAD_REACTORS
330
47
102
}
330
47
100
AcDbScale
 70
     0
300
100:1
140
100.0
141
1.0
290
     0
  0
SCALE
  5
59
102
{ACAD_REACTORS
330
47
102
}
330
47
100
AcDbScale
 70
     0
300
1/128" = 1'-0"
140
0.0078125
141
12.0
290
     0
  0
SCALE
  5
5A
102
{ACAD_REACTORS
330
47
102
}
330
47
100
AcDbScale
 70
     0
300
1/64" = 1'-0"
140
0.015625
141
12.0
290
     0
  0
SCALE
  5
5B
102
{ACAD_REACTORS
330
47
102
}
330
47
100
AcDbScale
 70
     0
300
1/32" = 1'-0"
140
0.03125
141
12.0
290
     0
  0
SCALE
  5
5C
102
{ACAD_REACTORS
330
47
102
}
330
47
100
AcDbScale
 70
     0
300
1/16" = 1'-0"
140
0.0625
141
12.0
290
     0
  0
SCALE
  5
5D
102
{ACAD_REACTORS
330
47
102
}
330
47
100
AcDbScale
 70
     0
300
3/32" = 1'-0"
140
0.09375
141
12.0
290
     0
  0
SCALE
  5
5E
102
{ACAD_REACTORS
330
47
102
}
330
47
100
AcDbScale
 70
     0
300
1/8" = 1'-0"
140
0.125
141
12.0
290
     0
  0
SCALE
  5
5F
102
{ACAD_REACTORS
330
47
102
}
330
47
100
AcDbScale
 70
     0
300
3/16" = 1'-0"
140
0.1875
141
12.0
290
     0
  0
SCALE
  5
60
102
{ACAD_REACTORS
330
47
102
}
330
47
100
AcDbScale
 70
     0
300
1/4" = 1'-0"
140
0.25
141
12.0
290
     0
  0
SCALE
  5
61
102
{ACAD_REACTORS
330
47
102
}
330
47
100
AcDbScale
 70
     0
300
3/8" = 1'-0"
140
0.375
141
12.0
290
     0
  0
SCALE
  5
62
102
{ACAD_REACTORS
330
47
102
}
330
47
100
AcDbScale
 70
     0
300
1/2" = 1'-0"
140
0.5
141
12.0
290
     0
  0
SCALE
  5
63
102
{ACAD_REACTORS
330
47
102
}
330
47
100
AcDbScale
 70
     0
300
3/4" = 1'-0"
140
0.75
141
12.0
290
     0
  0
SCALE
  5
64
102
{ACAD_REACTORS
330
47
102
}
330
47
100
AcDbScale
 70
     0
300
1" = 1'-0"
140
1.0
141
12.0
290
     0
  0
SCALE
  5
65
102
{ACAD_REACTORS
330
47
102
}
330
47
100
AcDbScale
 70
     0
300
1-1/2" = 1'-0"
140
1.5
141
12.0
290
     0
  0
SCALE
  5
66
102
{ACAD_REACTORS
330
47
102
}
330
47
100
AcDbScale
 70
     0
300
3" = 1'-0"
140
3.0
141
12.0
290
     0
  0
SCALE
  5
67
102
{ACAD_REACTORS
330
47
102
}
330
47
100
AcDbScale
 70
     0
300
6" = 1'-0"
140
6.0
141
12.0
290
     0
  0
SCALE
  5
68
102
{ACAD_REACTORS
330
47
102
}
330
47
100
AcDbScale
 70
     0
300
1'-0" = 1'-0"
140
12.0
141
12.0
290
     0
  0
TABLESTYLE
  5
6A
102
{ACAD_REACTORS
330
69
102
}
102
{ACAD_XDICTIONARY
360
1C0
102
}
330
69
100
AcDbTableStyle
  3
Standard
 70
     0
 71
     0
 40
0.06
 41
0.06
280
     0
281
     0
  7
Standard
140
4.5
170
     2
 62
     0
 63
   257
283
     0
 90
        4
 91
        0
  1

274
    -2
284
     1
 64
     0
275
    -2
285
     1
 65
     0
276
    -2
286
     1
 66
     0
277
    -2
287
     1
 67
     0
278
    -2
288
     1
 68
     0
279
    -2
289
     1
 69
     0
  7
Standard
140
6.0
170
     5
 62
     0
 63
   257
283
     0
 90
        4
 91
        0
  1

274
    -2
284
     1
 64
     0
275
    -2
285
     1
 65
     0
276
    -2
286
     1
 66
     0
277
    -2
287
     1
 67
     0
278
    -2
288
     1
 68
     0
279
    -2
289
     1
 69
     0
  7
Standard
140
4.5
170
     5
 62
     0
 63
   257
283
     0
 90
        4
 91
        0
  1

274
    -2
284
     1
 64
     0
275
    -2
285
     1
 65
     0
276
    -2
286
     1
 66
     0
277
    -2
287
     1
 67
     0
278
    -2
288
     1
 68
     0
279
    -2
289
     1
 69
     0
  0
VISUALSTYLE
  5
2F
102
{ACAD_REACTORS
330
2A
102
}
330
2A
100
AcDbVisualStyle
  2
2dWireframe
 70
     4
177
     3
291
     0
 70
    58
 90
        0
176
     1
 90
        2
176
     1
 90
        0
176
     1
 90
        0
176
     1
 40
0.6
176
     1
 40
30.0
176
     1
 62
     7
420
 16777215
176
     1
 90
        1
176
     1
 90
        4
176
     1
 62
     7
176
     1
 62
   257
176
     1
 90
        1
176
     1
 90
        1
176
     1
 40
1.0
176
     1
 90
        0
176
     1
 62
   257
176
     1
 40
1.0
176
     1
 90
        1
176
     1
 90
        6
176
     1
 90
        2
176
     1
 62
     7
176
     1
 90
        5
176
     1
 90
        0
176
     1
 90
        0
176
     1
290
     0
176
     1
 90
        1
176
     1
 40
0.0
176
     1
 90
        0
176
     1
290
     1
176
     1
290
     1
176
     1
290
     0
176
     1
290
     0
176
     1
290
     0
176
     1
290
     0
176
     1
290
     0
176
     1
290
     0
176
     1
290
     0
176
     1
 90
       50
176
     1
 40
0.0
176
     1
 40
1.0
176
     1
 90
        0
176
     1
 62
    18
420
        0
176
     1
 90
       50
176
     1
 90
        3
176
     1
 62
     5
420
      255
176
     1
290
     0
176
     1
 90
       50
176
     1
 90
       50
176
     1
 90
       50
176
     1
290
     0
176
     1
 90
       50
176
     1
 62
   256
176
     0
 40
1.0
176
     0
 90
        2
176
     1
  1
strokes_ogs.tif
176
     1
290
     0
176
     1
 40
1.0
176
     1
 40
1.0
176
     1
  0
VISUALSTYLE
  5
32
102
{ACAD_REACTORS
330
2A
102
}
330
2A
100
AcDbVisualStyle
  2
Basic
 70
     7
177
     3
291
     1
 70
    58
 90
        1
176
     1
 90
        0
176
     1
 90
        1
176
     1
 90
        0
176
     1
 40
0.6
176
     1
 40
30.0
176
     1
 62
     7
420
 16777215
176
     1
 90
        0
176
     1
 90
        4
176
     1
 62
     7
176
     1
 62
   257
176
     1
 90
        1
176
     1
 90
        1
176
     1
 40
1.0
176
     1
 90
        8
176
     1
 62
     7
176
     1
 40
1.0
176
     1
 90
        1
176
     1
 90
        6
176
     1
 90
        2
176
     1
 62
     7
176
     1
 90
        5
176
     1
 90
        0
176
     1
 90
        0
176
     1
290
     0
176
     1
 90
        1
176
     1
 40
0.0
176
     1
 90
        0
176
     1
290
     0
176
     1
290
     1
176
     1
290
     1
176
     1
290
     0
176
     1
290
     0
176
     1
290
     0
176
     1
290
     0
176
     1
290
     0
176
     1
290
     0
176
     1
 90
       50
176
     1
 40
0.0
176
     1
 40
1.0
176
     1
 90
        0
176
     1
 62
    18
420
        0
176
     1
 90
       50
176
     1
 90
        3
176
     1
 62
     5
420
      255
176
     1
290
     0
176
     1
 90
       50
176
     1
 90
       50
176
     1
 90
       50
176
     1
290
     0
176
     1
 90
       50
176
     1
 62
   256
176
     0
 40
1.0
176
     0
 90
        2
176
     1
  1
strokes_ogs.tif
176
     1
290
     0
176
     1
 40
1.0
176
     1
 40
1.0
176
     1
  0
VISUALSTYLE
  5
36
102
{ACAD_REACTORS
330
2A
102
}
330
2A
100
AcDbVisualStyle
  2
Brighten
 70
    12
177
     3
291
     1
 70
    58
 90
        2
176
     1
 90
        2
176
     1
 90
        0
176
     1
 90
        0
176
     1
 40
0.6
176
     1
 40
30.0
176
     1
 62
     7
420
 16777215
176
     1
 90
        1
176
     1
 90
        4
176
     1
 62
     7
176
     1
 62
   257
176
     1
 90
        1
176
     1
 90
        1
176
     1
 40
1.0
176
     1
 90
        8
176
     1
 62
     7
176
     1
 40
1.0
176
     1
 90
        1
176
     1
 90
        6
176
     1
 90
        2
176
     1
 62
     7
176
     1
 90
        5
176
     1
 90
        0
176
     1
 90
        0
176
     1
290
     0
176
     1
 90
        1
176
     1
 40
50.0
176
     1
 90
        0
176
     1
290
     0
176
     1
290
     1
176
     1
290
     1
176
     1
290
     0
176
     1
290
     0
176
     1
290
     0
176
     1
290
     0
176
     1
290
     0
176
     1
290
     0
176
     1
 90
       50
176
     1
 40
0.0
176
     1
 40
1.0
176
     1
 90
        0
176
     1
 62
    18
420
        0
176
     1
 90
       50
176
     1
 90
        3
176
     1
 62
     5
420
      255
176
     1
290
     0
176
     1
 90
       50
176
     1
 90
       50
176
     1
 90
       50
176
     1
290
     0
176
     1
 90
       50
176
     1
 62
   256
176
     0
 40
1.0
176
     0
 90
        2
176
     1
  1
strokes_ogs.tif
176
     1
290
     0
176
     1
 40
1.0
176
     1
 40
1.0
176
     1
  0
VISUALSTYLE
  5
3A
102
{ACAD_REACTORS
330
2A
102
}
330
2A
100
AcDbVisualStyle
  2
ColorChange
 70
    16
177
     3
291
     1
 70
    58
 90
        2
176
     1
 90
        2
176
     1
 90
        3
176
     1
 90
        0
176
     1
 40
0.6
176
     1
 40
30.0
176
     1
 62
     8
420
  8421504
176
     1
 90
        1
176
     1
 90
        4
176
     1
 62
     7
176
     1
 62
   257
176
     1
 90
        1
176
     1
 90
        1
176
     1
 40
1.0
176
     1
 90
        8
176
     1
 62
     8
420
  8421504
176
     1
 40
1.0
176
     1
 90
        1
176
     1
 90
        6
176
     1
 90
        2
176
     1
 62
     7
176
     1
 90
        5
176
     1
 90
        0
176
     1
 90
        0
176
     1
290
     0
176
     1
 90
        1
176
     1
 40
0.0
176
     1
 90
        0
176
     1
290
     0
176
     1
290
     1
176
     1
290
     1
176
     1
290
     0
176
     1
290
     0
176
     1
290
     0
176
     1
290
     0
176
     1
290
     0
176
     1
290
     0
176
     1
 90
       50
176
     1
 40
0.0
176
     1
 40
1.0
176
     1
 90
        0
176
     1
 62
    18
420
        0
176
     1
 90
       50
176
     1
 90
        3
176
     1
 62
     5
420
      255
176
     1
290
     0
176
     1
 90
       50
176
     1
 90
       50
176
     1
 90
       50
176
     1
290
     0
176
     1
 90
       50
176
     1
 62
   256
176
     0
 40
1.0
176
     0
 90
        2
176
     1
  1
strokes_ogs.tif
176
     1
290
     0
176
     1
 40
1.0
176
     1
 40
1.0
176
     1
  0
VISUALSTYLE
  5
34
102
{ACAD_REACTORS
330
2A
102
}
330
2A
100
AcDbVisualStyle
  2
Conceptual
 70
     9
177
     3
291
     0
 70
    58
 90
        3
176
     1
 90
        2
176
     1
 90
        0
176
     1
 90
        0
176
     1
 40
0.6
176
     1
 40
30.0
176
     1
 62
     7
420
 16777215
176
     1
 90
        2
176
     1
 90
        2
176
     1
 62
     7
176
     1
 62
   257
176
     1
 90
        1
176
     1
 90
        1
176
     1
 40
179.0
176
     1
 90
        8
176
     1
 62
     7
176
     1
 40
1.0
176
     1
 90
        1
176
     1
 90
        6
176
     1
 90
        2
176
     1
 62
     7
176
     1
 90
        3
176
     1
 90
        0
176
     1
 90
        0
176
     1
290
     0
176
     1
 90
        1
176
     1
 40
0.0
176
     1
 90
        0
176
     1
290
     0
176
     1
290
     1
176
     1
290
     1
176
     1
290
     0
176
     1
290
     0
176
     1
290
     0
176
     1
290
     0
176
     1
290
     0
176
     1
290
     0
176
     1
 90
       50
176
     1
 40
0.0
176
     1
 40
1.0
176
     1
 90
        0
176
     1
 62
    18
420
        0
176
     1
 90
       50
176
     1
 90
        3
176
     1
 62
     5
420
      255
176
     1
290
     0
176
     1
 90
       50
176
     1
 90
       50
176
     1
 90
       50
176
     1
290
     0
176
     1
 90
       50
176
     1
 62
   256
176
     0
 40
1.0
176
     0
 90
        2
176
     1
  1
strokes_ogs.tif
176
     1
290
     0
176
     1
 40
1.0
176
     1
 40
1.0
176
     1
  0
VISUALSTYLE
  5
35
102
{ACAD_REACTORS
330
2A
102
}
330
2A
100
AcDbVisualStyle
  2
Dim
 70
    11
177
     3
291
     1
 70
    58
 90
        2
176
     1
 90
        2
176
     1
 90
        0
176
     1
 90
        0
176
     1
 40
0.6
176
     1
 40
30.0
176
     1
 62
     7
420
 16777215
176
     1
 90
        1
176
     1
 90
        4
176
     1
 62
     7
176
     1
 62
   257
176
     1
 90
        1
176
     1
 90
        1
176
     1
 40
1.0
176
     1
 90
        8
176
     1
 62
     7
176
     1
 40
1.0
176
     1
 90
        1
176
     1
 90
        6
176
     1
 90
        2
176
     1
 62
     7
176
     1
 90
        5
176
     1
 90
        0
176
     1
 90
        0
176
     1
290
     0
176
     1
 90
        1
176
     1
 40
-50.0
176
     1
 90
        0
176
     1
290
     0
176
     1
290
     1
176
     1
290
     1
176
     1
290
     0
176
     1
290
     0
176
     1
290
     0
176
     1
290
     0
176
     1
290
     0
176
     1
290
     0
176
     1
 90
       50
176
     1
 40
0.0
176
     1
 40
1.0
176
     1
 90
        0
176
     1
 62
    18
420
        0
176
     1
 90
       50
176
     1
 90
        3
176
     1
 62
     5
420
      255
176
     1
290
     0
176
     1
 90
       50
176
     1
 90
       50
176
     1
 90
       50
176
     1
290
     0
176
     1
 90
       50
176
     1
 62
   256
176
     0
 40
1.0
176
     0
 90
        2
176
     1
  1
strokes_ogs.tif
176
     1
290
     0
176
     1
 40
1.0
176
     1
 40
1.0
176
     1
  0
VISUALSTYLE
  5
3D
102
{ACAD_REACTORS
330
2A
102
}
330
2A
100
AcDbVisualStyle
  2
EdgeColorOff
 70
    22
177
     3
291
     1
 70
    58
 90
        2
176
     0
 90
        2
176
     0
 90
        0
176
     0
 90
        0
176
     0
 40
0.6
176
     0
 40
30.0
176
     0
 62
     7
420
 16777215
176
     0
 90
        1
176
     0
 90
        4
176
     0
 62
     7
176
     0
 62
   257
176
     0
 90
        1
176
     0
 90
        1
176
     0
 40
1.0
176
     0
 90
        8
176
     2
 62
     7
176
     0
 40
1.0
176
     0
 90
        1
176
     0
 90
        6
176
     0
 90
        2
176
     0
 62
     7
176
     0
 90
        5
176
     0
 90
        0
176
     0
 90
        0
176
     0
290
     0
176
     0
 90
        1
176
     0
 40
0.0
176
     0
 90
        0
176
     0
290
     0
176
     0
290
     1
176
     0
290
     1
176
     0
290
     0
176
     0
290
     0
176
     0
290
     0
176
     0
290
     0
176
     0
290
     0
176
     0
290
     0
176
     0
 90
       50
176
     0
 40
0.0
176
     0
 40
1.0
176
     0
 90
        0
176
     0
 62
    18
420
        0
176
     0
 90
       50
176
     0
 90
        3
176
     0
 62
     5
420
      255
176
     0
290
     0
176
     0
 90
       50
176
     0
 90
       50
176
     0
 90
       50
176
     0
290
     0
176
     0
 90
       50
176
     0
 62
   256
176
     0
 40
1.0
176
     0
 90
        2
176
     0
  1
strokes_ogs.tif
176
     0
290
     0
176
     0
 40
1.0
176
     0
 40
1.0
176
     0
  0
VISUALSTYLE
  5
39
102
{ACAD_REACTORS
330
2A
102
}
330
2A
100
AcDbVisualStyle
  2
Facepattern
 70
    15
177
     3
291
     1
 70
    58
 90
        2
176
     1
 90
        2
176
     1
 90
        0
176
     1
 90
        0
176
     1
 40
0.6
176
     1
 40
30.0
176
     1
 62
     7
420
 16777215
176
     1
 90
        1
176
     1
 90
        4
176
     1
 62
     7
176
     1
 62
   257
176
     1
 90
        1
176
     1
 90
        1
176
     1
 40
1.0
176
     1
 90
        8
176
     1
 62
     7
176
     1
 40
1.0
176
     1
 90
        1
176
     1
 90
        6
176
     1
 90
        2
176
     1
 62
     7
176
     1
 90
        5
176
     1
 90
        0
176
     1
 90
        0
176
     1
290
     0
176
     1
 90
        1
176
     1
 40
0.0
176
     1
 90
        0
176
     1
290
     0
176
     1
290
     1
176
     1
290
     1
176
     1
290
     0
176
     1
290
     0
176
     1
290
     0
176
     1
290
     0
176
     1
290
     0
176
     1
290
     0
176
     1
 90
       50
176
     1
 40
0.0
176
     1
 40
1.0
176
     1
 90
        0
176
     1
 62
    18
420
        0
176
     1
 90
       50
176
     1
 90
        3
176
     1
 62
     5
420
      255
176
     1
290
     0
176
     1
 90
       50
176
     1
 90
       50
176
     1
 90
       50
176
     1
290
     0
176
     1
 90
       50
176
     1
 62
   256
176
     0
 40
1.0
176
     0
 90
        2
176
     1
  1
strokes_ogs.tif
176
     1
290
     0
176
     1
 40
1.0
176
     1
 40
1.0
176
     1
  0
VISUALSTYLE
  5
2B
102
{ACAD_REACTORS
330
2A
102
}
330
2A
100
AcDbVisualStyle
  2
Flat
 70
     0
177
     3
291
     1
 70
    58
 90
        2
176
     1
 90
        1
176
     1
 90
        1
176
     1
 90
        2
176
     1
 40
0.6
176
     1
 40
30.0
176
     1
 62
     7
420
 16777215
176
     1
 90
        0
176
     1
 90
        0
176
     1
 62
     7
176
     1
 62
   257
176
     1
 90
        1
176
     1
 90
        1
176
     1
 40
1.0
176
     1
 90
        8
176
     1
 62
     7
176
     1
 40
1.0
176
     1
 90
        1
176
     1
 90
        6
176
     1
 90
        2
176
     1
 62
     7
176
     1
 90
        5
176
     1
 90
        0
176
     1
 90
        0
176
     1
290
     0
176
     1
 90
       13
176
     1
 40
0.0
176
     1
 90
        0
176
     1
290
     0
176
     1
290
     1
176
     1
290
     1
176
     1
290
     0
176
     1
290
     0
176
     1
290
     0
176
     1
290
     0
176
     1
290
     0
176
     1
290
     0
176
     1
 90
       50
176
     1
 40
0.0
176
     1
 40
1.0
176
     1
 90
        0
176
     1
 62
    18
420
        0
176
     1
 90
       50
176
     1
 90
        3
176
     1
 62
     5
420
      255
176
     1
290
     0
176
     1
 90
       50
176
     1
 90
       50
176
     1
 90
       50
176
     1
290
     0
176
     1
 90
       50
176
     1
 62
   256
176
     0
 40
1.0
176
     0
 90
        2
176
     1
  1
strokes_ogs.tif
176
     1
290
     0
176
     1
 40
1.0
176
     1
 40
1.0
176
     1
  0
VISUALSTYLE
  5
2C
102
{ACAD_REACTORS
330
2A
102
}
330
2A
100
AcDbVisualStyle
  2
FlatWithEdges
 70
     1
177
     3
291
     1
 70
    58
 90
        2
176
     1
 90
        1
176
     1
 90
        1
176
     1
 90
        2
176
     1
 40
0.6
176
     1
 40
30.0
176
     1
 62
     7
420
 16777215
176
     1
 90
        1
176
     1
 90
        0
176
     1
 62
     7
176
     1
 62
   257
176
     1
 90
        1
176
     1
 90
        1
176
     1
 40
1.0
176
     1
 90
        0
176
     1
 62
   257
176
     1
 40
1.0
176
     1
 90
        1
176
     1
 90
        6
176
     1
 90
        2
176
     1
 62
     7
176
     1
 90
        5
176
     1
 90
        0
176
     1
 90
        0
176
     1
290
     0
176
     1
 90
       13
176
     1
 40
0.0
176
     1
 90
        0
176
     1
290
     0
176
     1
290
     1
176
     1
290
     1
176
     1
290
     0
176
     1
290
     0
176
     1
290
     0
176
     1
290
     0
176
     1
290
     0
176
     1
290
     0
176
     1
 90
       50
176
     1
 40
0.0
176
     1
 40
1.0
176
     1
 90
        0
176
     1
 62
    18
420
        0
176
     1
 90
       50
176
     1
 90
        3
176
     1
 62
     5
420
      255
176
     1
290
     0
176
     1
 90
       50
176
     1
 90
       50
176
     1
 90
       50
176
     1
290
     0
176
     1
 90
       50
176
     1
 62
   256
176
     0
 40
1.0
176
     0
 90
        2
176
     1
  1
strokes_ogs.tif
176
     1
290
     0
176
     1
 40
1.0
176
     1
 40
1.0
176
     1
  0
VISUALSTYLE
  5
2D
102
{ACAD_REACTORS
330
2A
102
}
330
2A
100
AcDbVisualStyle
  2
Gouraud
 70
     2
177
     3
291
     1
 70
    58
 90
        2
176
     1
 90
        2
176
     1
 90
        1
176
     1
 90
        2
176
     1
 40
0.6
176
     1
 40
30.0
176
     1
 62
     7
420
 16777215
176
     1
 90
        0
176
     1
 90
        0
176
     1
 62
     7
176
     1
 62
   257
176
     1
 90
        1
176
     1
 90
        1
176
     1
 40
1.0
176
     1
 90
        0
176
     1
 62
     7
176
     1
 40
1.0
176
     1
 90
        1
176
     1
 90
        6
176
     1
 90
        2
176
     1
 62
     7
176
     1
 90
        5
176
     1
 90
        0
176
     1
 90
        0
176
     1
290
     0
176
     1
 90
       13
176
     1
 40
0.0
176
     1
 90
        0
176
     1
290
     0
176
     1
290
     1
176
     1
290
     1
176
     1
290
     0
176
     1
290
     0
176
     1
290
     0
176
     1
290
     0
176
     1
290
     0
176
     1
290
     0
176
     1
 90
       50
176
     1
 40
0.0
176
     1
 40
1.0
176
     1
 90
        0
176
     1
 62
    18
420
        0
176
     1
 90
       50
176
     1
 90
        3
176
     1
 62
     5
420
      255
176
     1
290
     0
176
     1
 90
       50
176
     1
 90
       50
176
     1
 90
       50
176
     1
290
     0
176
     1
 90
       50
176
     1
 62
   256
176
     0
 40
1.0
176
     0
 90
        2
176
     1
  1
strokes_ogs.tif
176
     1
290
     0
176
     1
 40
1.0
176
     1
 40
1.0
176
     1
  0
VISUALSTYLE
  5
2E
102
{ACAD_REACTORS
330
2A
102
}
330
2A
100
AcDbVisualStyle
  2
GouraudWithEdges
 70
     3
177
     3
291
     1
 70
    58
 90
        2
176
     1
 90
        2
176
     1
 90
        1
176
     1
 90
        2
176
     1
 40
0.6
176
     1
 40
30.0
176
     1
 62
     7
420
 16777215
176
     1
 90
        1
176
     1
 90
        0
176
     1
 62
     7
176
     1
 62
   257
176
     1
 90
        1
176
     1
 90
        1
176
     1
 40
1.0
176
     1
 90
        0
176
     1
 62
   257
176
     1
 40
1.0
176
     1
 90
        1
176
     1
 90
        6
176
     1
 90
        2
176
     1
 62
     7
176
     1
 90
        5
176
     1
 90
        0
176
     1
 90
        0
176
     1
290
     0
176
     1
 90
       13
176
     1
 40
0.0
176
     1
 90
        0
176
     1
290
     0
176
     1
290
     1
176
     1
290
     1
176
     1
290
     0
176
     1
290
     0
176
     1
290
     0
176
     1
290
     0
176
     1
290
     0
176
     1
290
     0
176
     1
 90
       50
176
     1
 40
0.0
176
     1
 40
1.0
176
     1
 90
        0
176
     1
 62
    18
420
        0
176
     1
 90
       50
176
     1
 90
        3
176
     1
 62
     5
420
      255
176
     1
290
     0
176
     1
 90
       50
176
     1
 90
       50
176
     1
 90
       50
176
     1
290
     0
176
     1
 90
       50
176
     1
 62
   256
176
     0
 40
1.0
176
     0
 90
        2
176
     1
  1
strokes_ogs.tif
176
     1
290
     0
176
     1
 40
1.0
176
     1
 40
1.0
176
     1
  0
VISUALSTYLE
  5
31
102
{ACAD_REACTORS
330
2A
102
}
330
2A
100
AcDbVisualStyle
  2
Hidden
 70
     6
177
     3
291
     0
 70
    58
 90
        1
176
     1
 90
        2
176
     1
 90
        2
176
     1
 90
        0
176
     1
 40
0.6
176
     1
 40
30.0
176
     1
 62
     7
420
 16777215
176
     1
 90
        2
176
     1
 90
        2
176
     1
 62
     7
176
     1
 62
   257
176
     1
 90
        2
176
     1
 90
        1
176
     1
 40
40.0
176
     1
 90
        0
176
     1
 62
   257
176
     1
 40
1.0
176
     1
 90
        1
176
     1
 90
        6
176
     1
 90
        2
176
     1
 62
     7
176
     1
 90
        3
176
     1
 90
        0
176
     1
 90
        0
176
     1
290
     0
176
     1
 90
        1
176
     1
 40
0.0
176
     1
 90
        0
176
     1
290
     0
176
     1
290
     1
176
     1
290
     1
176
     1
290
     0
176
     1
290
     0
176
     1
290
     0
176
     1
290
     0
176
     1
290
     0
176
     1
290
     0
176
     1
 90
       50
176
     1
 40
0.0
176
     1
 40
1.0
176
     1
 90
        0
176
     1
 62
    18
420
        0
176
     1
 90
       50
176
     1
 90
        3
176
     1
 62
     5
420
      255
176
     1
290
     0
176
     1
 90
       50
176
     1
 90
       50
176
     1
 90
       50
176
     1
290
     0
176
     1
 90
       50
176
     1
 62
   256
176
     0
 40
1.0
176
     0
 90
        2
176
     1
  1
strokes_ogs.tif
176
     1
290
     0
176
     1
 40
1.0
176
     1
 40
1.0
176
     1
  0
VISUALSTYLE
  5
3B
102
{ACAD_REACTORS
330
2A
102
}
330
2A
100
AcDbVisualStyle
  2
JitterOff
 70
    20
177
     3
291
     1
 70
    58
 90
        2
176
     0
 90
        2
176
     0
 90
        0
176
     0
 90
        0
176
     0
 40
0.6
176
     0
 40
30.0
176
     0
 62
     7
420
 16777215
176
     0
 90
        1
176
     0
 90
        4
176
     0
 62
     7
176
     0
 62
   257
176
     0
 90
        1
176
     0
 90
        1
176
     0
 40
1.0
176
     0
 90
       10
176
     2
 62
     7
176
     0
 40
1.0
176
     0
 90
        1
176
     0
 90
        6
176
     0
 90
        2
176
     0
 62
     7
176
     0
 90
        5
176
     0
 90
        0
176
     0
 90
        0
176
     0
290
     0
176
     0
 90
        1
176
     0
 40
0.0
176
     0
 90
        0
176
     0
290
     0
176
     0
290
     1
176
     0
290
     1
176
     0
290
     0
176
     0
290
     0
176
     0
290
     0
176
     0
290
     0
176
     0
290
     0
176
     0
290
     0
176
     0
 90
       50
176
     0
 40
0.0
176
     0
 40
1.0
176
     0
 90
        0
176
     0
 62
    18
420
        0
176
     0
 90
       50
176
     0
 90
        3
176
     0
 62
     5
420
      255
176
     0
290
     0
176
     0
 90
       50
176
     0
 90
       50
176
     0
 90
       50
176
     0
290
     0
176
     0
 90
       50
176
     0
 62
   256
176
     0
 40
1.0
176
     0
 90
        2
176
     0
  1
strokes_ogs.tif
176
     0
290
     0
176
     0
 40
1.0
176
     0
 40
1.0
176
     0
  0
VISUALSTYLE
  5
38
102
{ACAD_REACTORS
330
2A
102
}
330
2A
100
AcDbVisualStyle
  2
Linepattern
 70
    14
177
     3
291
     1
 70
    58
 90
        2
176
     1
 90
        2
176
     1
 90
        0
176
     1
 90
        0
176
     1
 40
0.6
176
     1
 40
30.0
176
     1
 62
     7
420
 16777215
176
     1
 90
        1
176
     1
 90
        4
176
     1
 62
     7
176
     1
 62
   257
176
     1
 90
        7
176
     1
 90
        7
176
     1
 40
1.0
176
     1
 90
        8
176
     1
 62
     7
176
     1
 40
1.0
176
     1
 90
        1
176
     1
 90
        6
176
     1
 90
        2
176
     1
 62
     7
176
     1
 90
        5
176
     1
 90
        0
176
     1
 90
        0
176
     1
290
     0
176
     1
 90
        1
176
     1
 40
0.0
176
     1
 90
        0
176
     1
290
     0
176
     1
290
     1
176
     1
290
     1
176
     1
290
     0
176
     1
290
     0
176
     1
290
     0
176
     1
290
     0
176
     1
290
     0
176
     1
290
     0
176
     1
 90
       50
176
     1
 40
0.0
176
     1
 40
1.0
176
     1
 90
        0
176
     1
 62
    18
420
        0
176
     1
 90
       50
176
     1
 90
        3
176
     1
 62
     5
420
      255
176
     1
290
     0
176
     1
 90
       50
176
     1
 90
       50
176
     1
 90
       50
176
     1
290
     0
176
     1
 90
       50
176
     1
 62
   256
176
     0
 40
1.0
176
     0
 90
        2
176
     1
  1
strokes_ogs.tif
176
     1
290
     0
176
     1
 40
1.0
176
     1
 40
1.0
176
     1
  0
VISUALSTYLE
  5
3C
102
{ACAD_REACTORS
330
2A
102
}
330
2A
100
AcDbVisualStyle
  2
OverhangOff
 70
    21
177
     3
291
     1
 70
    58
 90
        2
176
     0
 90
        2
176
     0
 90
        0
176
     0
 90
        0
176
     0
 40
0.6
176
     0
 40
30.0
176
     0
 62
     7
420
 16777215
176
     0
 90
        1
176
     0
 90
        4
176
     0
 62
     7
176
     0
 62
   257
176
     0
 90
        1
176
     0
 90
        1
176
     0
 40
1.0
176
     0
 90
        9
176
     2
 62
     7
176
     0
 40
1.0
176
     0
 90
        1
176
     0
 90
        6
176
     0
 90
        2
176
     0
 62
     7
176
     0
 90
        5
176
     0
 90
        0
176
     0
 90
        0
176
     0
290
     0
176
     0
 90
        1
176
     0
 40
0.0
176
     0
 90
        0
176
     0
290
     0
176
     0
290
     1
176
     0
290
     1
176
     0
290
     0
176
     0
290
     0
176
     0
290
     0
176
     0
290
     0
176
     0
290
     0
176
     0
290
     0
176
     0
 90
       50
176
     0
 40
0.0
176
     0
 40
1.0
176
     0
 90
        0
176
     0
 62
    18
420
        0
176
     0
 90
       50
176
     0
 90
        3
176
     0
 62
     5
420
      255
176
     0
290
     0
176
     0
 90
       50
176
     0
 90
       50
176
     0
 90
       50
176
     0
290
     0
176
     0
 90
       50
176
     0
 62
   256
176
     0
 40
1.0
176
     0
 90
        2
176
     0
  1
strokes_ogs.tif
176
     0
290
     0
176
     0
 40
1.0
176
     0
 40
1.0
176
     0
  0
VISUALSTYLE
  5
33
102
{ACAD_REACTORS
330
2A
102
}
330
2A
100
AcDbVisualStyle
  2
Realistic
 70
     8
177
     3
291
     0
 70
    58
 90
        2
176
     1
 90
        3
176
     1
 90
        0
176
     1
 90
        2
176
     1
 40
0.6
176
     1
 40
30.0
176
     1
 62
     7
420
 16777215
176
     1
 90
        0
176
     1
 90
        0
176
     1
 62
     7
176
     1
 62
   257
176
     1
 90
        1
176
     1
 90
        1
176
     1
 40
1.0
176
     1
 90
        8
176
     1
 62
   257
176
     1
 40
1.0
176
     1
 90
        1
176
     1
 90
        6
176
     1
 90
        2
176
     1
 62
     7
176
     1
 90
        3
176
     1
 90
        0
176
     1
 90
        0
176
     1
290
     0
176
     1
 90
       13
176
     1
 40
0.0
176
     1
 90
        0
176
     1
290
     0
176
     1
290
     1
176
     1
290
     1
176
     1
290
     0
176
     1
290
     0
176
     1
290
     0
176
     1
290
     0
176
     1
290
     0
176
     1
290
     0
176
     1
 90
       50
176
     1
 40
0.0
176
     1
 40
1.0
176
     1
 90
        0
176
     1
 62
    18
420
        0
176
     1
 90
       50
176
     1
 90
        3
176
     1
 62
     5
420
      255
176
     1
290
     0
176
     1
 90
       50
176
     1
 90
       50
176
     1
 90
       50
176
     1
290
     0
176
     1
 90
       50
176
     1
 62
   256
176
     0
 40
1.0
176
     0
 90
        2
176
     1
  1
strokes_ogs.tif
176
     1
290
     0
176
     1
 40
1.0
176
     1
 40
1.0
176
     1
  0
VISUALSTYLE
  5
42
102
{ACAD_REACTORS
330
2A
102
}
330
2A
100
AcDbVisualStyle
  2
Shaded
 70
    27
177
     3
291
     0
 70
    58
 90
        2
176
     1
 90
        2
176
     1
 90
        1
176
     1
 90
        2
176
     1
 40
0.6
176
     1
 40
30.0
176
     1
 62
     7
420
 16777215
176
     1
 90
        0
176
     1
 90
        4
176
     1
 62
     7
176
     1
 62
   257
176
     1
 90
        1
176
     1
 90
        1
176
     1
 40
1.0
176
     1
 90
        8
176
     1
 62
   257
176
     1
 40
1.0
176
     1
 90
        1
176
     1
 90
        6
176
     1
 90
        2
176
     1
 62
     8
420
  7895160
176
     1
 90
        3
176
     1
 90
        0
176
     1
 90
        0
176
     1
290
     0
176
     1
 90
        5
176
     1
 40
0.0
176
     1
 90
        0
176
     1
290
     0
176
     1
290
     1
176
     1
290
     1
176
     1
290
     0
176
     1
290
     0
176
     1
290
     0
176
     1
290
     0
176
     1
290
     0
176
     1
290
     0
176
     1
 90
       50
176
     1
 40
0.0
176
     1
 40
1.0
176
     1
 90
        0
176
     1
 62
    18
420
        0
176
     1
 90
       50
176
     1
 90
        3
176
     1
 62
     5
420
      255
176
     1
290
     0
176
     1
 90
       50
176
     1
 90
       50
176
     1
 90
       50
176
     1
290
     0
176
     1
 90
       50
176
     1
 62
   256
176
     0
 40
1.0
176
     0
 90
        2
176
     1
  1
strokes_ogs.tif
176
     1
290
     0
176
     1
 40
1.0
176
     1
 40
1.0
176
     1
  0
VISUALSTYLE
  5
41
102
{ACAD_REACTORS
330
2A
102
}
330
2A
100
AcDbVisualStyle
  2
Shaded with edges
 70
    26
177
     3
291
     0
 70
    58
 90
        2
176
     1
 90
        2
176
     1
 90
        1
176
     1
 90
        2
176
     1
 40
0.6
176
     1
 40
30.0
176
     1
 62
     7
420
 16777215
176
     1
 90
        1
176
     1
 90
       10
176
     1
 62
     7
176
     1
 62
   257
176
     1
 90
        2
176
     1
 90
        1
176
     1
 40
1.0
176
     1
 90
        8
176
     1
 62
   257
176
     1
 40
1.0
176
     1
 90
        1
176
     1
 90
        6
176
     1
 90
        2
176
     1
 62
     7
176
     1
 90
        3
176
     1
 90
        0
176
     1
 90
        0
176
     1
290
     0
176
     1
 90
        5
176
     1
 40
0.0
176
     1
 90
        0
176
     1
290
     0
176
     1
290
     1
176
     1
290
     1
176
     1
290
     0
176
     1
290
     0
176
     1
290
     0
176
     1
290
     0
176
     1
290
     0
176
     1
290
     0
176
     1
 90
       50
176
     1
 40
0.0
176
     1
 40
1.0
176
     1
 90
        0
176
     1
 62
    18
420
        0
176
     1
 90
       50
176
     1
 90
        3
176
     1
 62
     5
420
      255
176
     1
290
     0
176
     1
 90
       50
176
     1
 90
       50
176
     1
 90
       50
176
     1
290
     0
176
     1
 90
       50
176
     1
 62
   256
176
     0
 40
1.0
176
     0
 90
        2
176
     1
  1
strokes_ogs.tif
176
     1
290
     0
176
     1
 40
1.0
176
     1
 40
1.0
176
     1
  0
VISUALSTYLE
  5
3E
102
{ACAD_REACTORS
330
2A
102
}
330
2A
100
AcDbVisualStyle
  2
Shades of Gray
 70
    23
177
     3
291
     0
 70
    58
 90
        2
176
     1
 90
        2
176
     1
 90
        3
176
     1
 90
        0
176
     1
 40
0.6
176
     1
 40
30.0
176
     1
 62
     7
420
 16777215
176
     1
 90
        2
176
     1
 90
        2
176
     1
 62
     7
176
     1
 62
     7
176
     1
 90
        1
176
     1
 90
        1
176
     1
 40
40.0
176
     1
 90
        8
176
     1
 62
     7
176
     1
 40
1.0
176
     1
 90
        1
176
     1
 90
        6
176
     1
 90
        2
176
     1
 62
     7
176
     1
 90
        3
176
     1
 90
        0
176
     1
 90
        0
176
     1
290
     0
176
     1
 90
        1
176
     1
 40
0.0
176
     1
 90
        0
176
     1
290
     0
176
     1
290
     1
176
     1
290
     1
176
     1
290
     0
176
     1
290
     0
176
     1
290
     0
176
     1
290
     0
176
     1
290
     0
176
     1
290
     0
176
     1
 90
       50
176
     1
 40
0.0
176
     1
 40
1.0
176
     1
 90
        0
176
     1
 62
    18
420
        0
176
     1
 90
       50
176
     1
 90
        3
176
     1
 62
     5
420
      255
176
     1
290
     0
176
     1
 90
       50
176
     1
 90
       50
176
     1
 90
       50
176
     1
290
     0
176
     1
 90
       50
176
     1
 62
   256
176
     0
 40
1.0
176
     0
 90
        2
176
     1
  1
strokes_ogs.tif
176
     1
290
     0
176
     1
 40
1.0
176
     1
 40
1.0
176
     1
  0
VISUALSTYLE
  5
3F
102
{ACAD_REACTORS
330
2A
102
}
330
2A
100
AcDbVisualStyle
  2
Sketchy
 70
    24
177
     3
291
     0
 70
    58
 90
        1
176
     1
 90
        2
176
     1
 90
        2
176
     1
 90
        0
176
     1
 40
0.6
176
     1
 40
30.0
176
     1
 62
     7
420
 16777215
176
     1
 90
        2
176
     1
 90
        2
176
     1
 62
     7
176
     1
 62
     7
176
     1
 90
        1
176
     1
 90
        1
176
     1
 40
40.0
176
     1
 90
       11
176
     1
 62
     7
176
     1
 40
1.0
176
     1
 90
        1
176
     1
 90
        6
176
     1
 90
        2
176
     1
 62
     7
176
     1
 90
        6
176
     1
 90
        0
176
     1
 90
        0
176
     1
290
     0
176
     1
 90
        1
176
     1
 40
0.0
176
     1
 90
        0
176
     1
290
     0
176
     1
290
     1
176
     1
290
     1
176
     1
290
     0
176
     1
290
     0
176
     1
290
     0
176
     1
290
     0
176
     1
290
     0
176
     1
290
     0
176
     1
 90
       50
176
     1
 40
0.0
176
     1
 40
1.0
176
     1
 90
        0
176
     1
 62
    18
420
        0
176
     1
 90
       50
176
     1
 90
        3
176
     1
 62
     5
420
      255
176
     1
290
     0
176
     1
 90
       50
176
     1
 90
       50
176
     1
 90
       50
176
     1
290
     0
176
     1
 90
       50
176
     1
 62
   256
176
     0
 40
1.0
176
     0
 90
        2
176
     1
  1
strokes_ogs.tif
176
     1
290
     0
176
     1
 40
1.0
176
     1
 40
1.0
176
     1
  0
VISUALSTYLE
  5
37
102
{ACAD_REACTORS
330
2A
102
}
330
2A
100
AcDbVisualStyle
  2
Thicken
 70
    13
177
     3
291
     1
 70
    58
 90
        2
176
     1
 90
        2
176
     1
 90
        0
176
     1
 90
        0
176
     1
 40
0.6
176
     1
 40
30.0
176
     1
 62
     7
420
 16777215
176
     1
 90
        1
176
     1
 90
        4
176
     1
 62
     7
176
     1
 62
   257
176
     1
 90
        1
176
     1
 90
        1
176
     1
 40
1.0
176
     1
 90
       12
176
     1
 62
     7
176
     1
 40
1.0
176
     1
 90
        1
176
     1
 90
        6
176
     1
 90
        2
176
     1
 62
     7
176
     1
 90
        5
176
     1
 90
        0
176
     1
 90
        0
176
     1
290
     0
176
     1
 90
        1
176
     1
 40
0.0
176
     1
 90
        0
176
     1
290
     0
176
     1
290
     1
176
     1
290
     1
176
     1
290
     0
176
     1
290
     0
176
     1
290
     0
176
     1
290
     0
176
     1
290
     0
176
     1
290
     0
176
     1
 90
       50
176
     1
 40
0.0
176
     1
 40
1.0
176
     1
 90
        0
176
     1
 62
    18
420
        0
176
     1
 90
       50
176
     1
 90
        3
176
     1
 62
     5
420
      255
176
     1
290
     0
176
     1
 90
       50
176
     1
 90
       50
176
     1
 90
       50
176
     1
290
     0
176
     1
 90
       50
176
     1
 62
   256
176
     0
 40
1.0
176
     0
 90
        2
176
     1
  1
strokes_ogs.tif
176
     1
290
     0
176
     1
 40
1.0
176
     1
 40
1.0
176
     1
  0
VISUALSTYLE
  5
30
102
{ACAD_REACTORS
330
2A
102
}
330
2A
100
AcDbVisualStyle
  2
Wireframe
 70
     5
177
     3
291
     0
 70
    58
 90
        0
176
     1
 90
        2
176
     1
 90
        0
176
     1
 90
        0
176
     1
 40
0.6
176
     1
 40
30.0
176
     1
 62
     7
420
 16777215
176
     1
 90
        1
176
     1
 90
        4
176
     1
 62
     7
176
     1
 62
   257
176
     1
 90
        1
176
     1
 90
        1
176
     1
 40
1.0
176
     1
 90
        0
176
     1
 62
   257
176
     1
 40
1.0
176
     1
 90
        1
176
     1
 90
        6
176
     1
 90
        2
176
     1
 62
     7
176
     1
 90
        3
176
     1
 90
        0
176
     1
 90
        0
176
     1
290
     0
176
     1
 90
        1
176
     1
 40
0.0
176
     1
 90
        0
176
     1
290
     0
176
     1
290
     1
176
     1
290
     1
176
     1
290
     0
176
     1
290
     0
176
     1
290
     0
176
     1
290
     0
176
     1
290
     0
176
     1
290
     0
176
     1
 90
       50
176
     1
 40
0.0
176
     1
 40
1.0
176
     1
 90
        0
176
     1
 62
    18
420
        0
176
     1
 90
       50
176
     1
 90
        3
176
     1
 62
     5
420
      255
176
     1
290
     0
176
     1
 90
       50
176
     1
 90
       50
176
     1
 90
       50
176
     1
290
     0
176
     1
 90
       50
176
     1
 62
   256
176
     0
 40
1.0
176
     0
 90
        2
176
     1
  1
strokes_ogs.tif
176
     1
290
     0
176
     1
 40
1.0
176
     1
 40
1.0
176
     1
  0
VISUALSTYLE
  5
40
102
{ACAD_REACTORS
330
2A
102
}
330
2A
100
AcDbVisualStyle
  2
X-Ray
 70
    25
177
     3
291
     0
 70
    58
 90
        2
176
     1
 90
        2
176
     1
 90
        1
176
     1
 90
        1
176
     1
 40
0.5
176
     1
 40
30.0
176
     1
 62
     7
420
 16777215
176
     1
 90
        1
176
     1
 90
        0
176
     1
 62
     7
176
     1
 62
   257
176
     1
 90
        1
176
     1
 90
        1
176
     1
 40
1.0
176
     1
 90
        8
176
     1
 62
     7
176
     1
 40
1.0
176
     1
 90
        1
176
     1
 90
        6
176
     1
 90
        2
176
     1
 62
     7
176
     1
 90
        3
176
     1
 90
        0
176
     1
 90
        0
176
     1
290
     0
176
     1
 90
       13
176
     1
 40
0.0
176
     1
 90
        0
176
     1
290
     0
176
     1
290
     1
176
     1
290
     1
176
     1
290
     0
176
     1
290
     0
176
     1
290
     0
176
     1
290
     0
176
     1
290
     0
176
     1
290
     0
176
     1
 90
       50
176
     1
 40
0.0
176
     1
 40
1.0
176
     1
 90
        0
176
     1
 62
    18
420
        0
176
     1
 90
       50
176
     1
 90
        3
176
     1
 62
     5
420
      255
176
     1
290
     0
176
     1
 90
       50
176
     1
 90
       50
176
     1
 90
       50
176
     1
290
     0
176
     1
 90
       50
176
     1
 62
   256
176
     0
 40
1.0
176
     0
 90
        2
176
     1
  1
strokes_ogs.tif
176
     1
290
     0
176
     1
 40
1.0
176
     1
 40
1.0
176
     1
  0
DICTIONARYVAR
  5
1BF
102
{ACAD_REACTORS
330
1BE
102
}
330
1BE
100
DictionaryVariables
280
     0
  1
1:1
  0
DICTIONARYVAR
  5
1C4
102
{ACAD_REACTORS
330
1BE
102
}
330
1BE
100
DictionaryVariables
280
     0
  1
Standard
  0
DICTIONARYVAR
  5
1C3
102
{ACAD_REACTORS
330
1BE
102
}
330
1BE
100
DictionaryVariables
280
     0
  1
Standard
  0
DICTIONARY
  5
1C0
330
6A
100
AcDbDictionary
280
     1
281
     1
  3
ACAD_ROUNDTRIP_2008_TABLESTYLE_CELLSTYLEMAP
360
1C1
  0
CELLSTYLEMAP
  5
1C1
102
{ACAD_REACTORS
330
1C0
102
}
330
1C0
100
AcDbCellStyleMap
 90
        3
300
CELLSTYLE
  1
TABLEFORMAT_BEGIN
 90
        5
170
     1
 91
        0
 92
    32768
 62
   257
 93
        1
300
CONTENTFORMAT
  1
CONTENTFORMAT_BEGIN
 90
        0
 91
        0
 92
        4
 93
        0
300

 40
0.0
140
1.0
 94
        5
 62
     0
340
11
144
6.0
309
CONTENTFORMAT_END
171
     1
301
MARGIN
  1
CELLMARGIN_BEGIN
 40
1.5
 40
1.5
 40
1.5
 40
1.5
 40
1.5
 40
1.5
309
CELLMARGIN_END
 94
        6
 95
        1
302
GRIDFORMAT
  1
GRIDFORMAT_BEGIN
 90
        0
 91
        1
 62
     0
 92
       -2
340
14
 93
        0
 40
0.045
309
GRIDFORMAT_END
 95
        2
302
GRIDFORMAT
  1
GRIDFORMAT_BEGIN
 90
        0
 91
        1
 62
     0
 92
       -2
340
14
 93
        0
 40
0.045
309
GRIDFORMAT_END
 95
        4
302
GRIDFORMAT
  1
GRIDFORMAT_BEGIN
 90
        0
 91
        1
 62
     0
 92
       -2
340
14
 93
        0
 40
0.045
309
GRIDFORMAT_END
 95
        8
302
GRIDFORMAT
  1
GRIDFORMAT_BEGIN
 90
        0
 91
        1
 62
     0
 92
       -2
340
14
 93
        0
 40
0.045
309
GRIDFORMAT_END
 95
       16
302
GRIDFORMAT
  1
GRIDFORMAT_BEGIN
 90
        0
 91
        1
 62
     0
 92
       -2
340
14
 93
        0
 40
0.045
309
GRIDFORMAT_END
 95
       32
302
GRIDFORMAT
  1
GRIDFORMAT_BEGIN
 90
        0
 91
        1
 62
     0
 92
       -2
340
14
 93
        0
 40
0.045
309
GRIDFORMAT_END
309
TABLEFORMAT_END
  1
CELLSTYLE_BEGIN
 90
        1
 91
        1
300
_TITLE
309
CELLSTYLE_END
300
CELLSTYLE
  1
TABLEFORMAT_BEGIN
 90
        5
170
     1
 91
        0
 92
        0
 62
   257
 93
        1
300
CONTENTFORMAT
  1
CONTENTFORMAT_BEGIN
 90
        0
 91
        0
 92
        4
 93
        0
300

 40
0.0
140
1.0
 94
        5
 62
     0
340
11
144
4.5
309
CONTENTFORMAT_END
171
     1
301
MARGIN
  1
CELLMARGIN_BEGIN
 40
1.5
 40
1.5
 40
1.5
 40
1.5
 40
1.5
 40
1.5
309
CELLMARGIN_END
 94
        6
 95
        1
302
GRIDFORMAT
  1
GRIDFORMAT_BEGIN
 90
        0
 91
        1
 62
     0
 92
       -2
340
14
 93
        0
 40
0.045
309
GRIDFORMAT_END
 95
        2
302
GRIDFORMAT
  1
GRIDFORMAT_BEGIN
 90
        0
 91
        1
 62
     0
 92
       -2
340
14
 93
        0
 40
0.045
309
GRIDFORMAT_END
 95
        4
302
GRIDFORMAT
  1
GRIDFORMAT_BEGIN
 90
        0
 91
        1
 62
     0
 92
       -2
340
14
 93
        0
 40
0.045
309
GRIDFORMAT_END
 95
        8
302
GRIDFORMAT
  1
GRIDFORMAT_BEGIN
 90
        0
 91
        1
 62
     0
 92
       -2
340
14
 93
        0
 40
0.045
309
GRIDFORMAT_END
 95
       16
302
GRIDFORMAT
  1
GRIDFORMAT_BEGIN
 90
        0
 91
        1
 62
     0
 92
       -2
340
14
 93
        0
 40
0.045
309
GRIDFORMAT_END
 95
       32
302
GRIDFORMAT
  1
GRIDFORMAT_BEGIN
 90
        0
 91
        1
 62
     0
 92
       -2
340
14
 93
        0
 40
0.045
309
GRIDFORMAT_END
309
TABLEFORMAT_END
  1
CELLSTYLE_BEGIN
 90
        2
 91
        1
300
_HEADER
309
CELLSTYLE_END
300
CELLSTYLE
  1
TABLEFORMAT_BEGIN
 90
        5
170
     1
 91
        0
 92
        0
 62
   257
 93
        1
300
CONTENTFORMAT
  1
CONTENTFORMAT_BEGIN
 90
        0
 91
        0
 92
        4
 93
        0
300

 40
0.0
140
1.0
 94
        2
 62
     0
340
11
144
4.5
309
CONTENTFORMAT_END
171
     1
301
MARGIN
  1
CELLMARGIN_BEGIN
 40
1.5
 40
1.5
 40
1.5
 40
1.5
 40
1.5
 40
1.5
309
CELLMARGIN_END
 94
        6
 95
        1
302
GRIDFORMAT
  1
GRIDFORMAT_BEGIN
 90
        0
 91
        1
 62
     0
 92
       -2
340
14
 93
        0
 40
0.045
309
GRIDFORMAT_END
 95
        2
302
GRIDFORMAT
  1
GRIDFORMAT_BEGIN
 90
        0
 91
        1
 62
     0
 92
       -2
340
14
 93
        0
 40
0.045
309
GRIDFORMAT_END
 95
        4
302
GRIDFORMAT
  1
GRIDFORMAT_BEGIN
 90
        0
 91
        1
 62
     0
 92
       -2
340
14
 93
        0
 40
0.045
309
GRIDFORMAT_END
 95
        8
302
GRIDFORMAT
  1
GRIDFORMAT_BEGIN
 90
        0
 91
        1
 62
     0
 92
       -2
340
14
 93
        0
 40
0.045
309
GRIDFORMAT_END
 95
       16
302
GRIDFORMAT
  1
GRIDFORMAT_BEGIN
 90
        0
 91
        1
 62
     0
 92
       -2
340
14
 93
        0
 40
0.045
309
GRIDFORMAT_END
 95
       32
302
GRIDFORMAT
  1
GRIDFORMAT_BEGIN
 90
        0
 91
        1
 62
     0
 92
       -2
340
14
 93
        0
 40
0.045
309
GRIDFORMAT_END
309
TABLEFORMAT_END
  1
CELLSTYLE_BEGIN
 90
        3
 91
        2
300
_DATA
309
CELLSTYLE_END
  0
ENDSEC
  0
EOF