0
SECTION
  2
HEADER
  9
$ACADVER
  1
AC1027
  9
$ACADMAINTVER
 70
     8
  9
$DWGCODEPAGE
  3
ANSI_1252
  9
$REQUIREDVERSIONS
160
                 0
  9
$COMMENTS
  1
File was created by Cadenas
  9
$CUSTOMPROPERTYTAG
  1
NN
  9
$CUSTOMPROPERTY
  1
Grip Tight Wide Slot Take Up Metric Bore
  9
$CUSTOMPROPERTYTAG
  1
NT
  9
$CUSTOMPROPERTY
  1
GT Wide Slot Take-Up Bearings -(Normal Duty)
  9
$CUSTOMPROPERTYTAG
  1
NB
  9
$CUSTOMPROPERTY
  1
136251
  9
$CUSTOMPROPERTYTAG
  1
NBSYN
  9
$CUSTOMPROPERTY
  1
$PN.$LUBE.
  9
$CUSTOMPROPERTYTAG
  1
LINA
  9
$CUSTOMPROPERTY
  1
136251
  9
$CUSTOMPROPERTYTAG
  1
SERIES
  9
$CUSTOMPROPERTY
  1
208
  9
$CUSTOMPROPERTYTAG
  1
SS
  9
$CUSTOMPROPERTY
  1
40
  9
$CUSTOMPROPERTYTAG
  1
PN
  9
$CUSTOMPROPERTY
  1
136251
  9
$CUSTOMPROPERTYTAG
  1
DESCRIPTION
  9
$CUSTOMPROPERTY
  1
WSTU-GT-40M
  9
$CUSTOMPROPERTYTAG
  1
A
  9
$CUSTOMPROPERTY
  1
46.8
  9
$CUSTOMPROPERTYTAG
  1
B
  9
$CUSTOMPROPERTY
  1
144.5
  9
$CUSTOMPROPERTYTAG
  1
C
  9
$CUSTOMPROPERTY
  1
17.5
  9
$CUSTOMPROPERTYTAG
  1
D
  9
$CUSTOMPROPERTY
  1
82.6
  9
$CUSTOMPROPERTYTAG
  1
E
  9
$CUSTOMPROPERTY
  1
88.9
  9
$CUSTOMPROPERTYTAG
  1
F
  9
$CUSTOMPROPERTY
  1
25.4
  9
$CUSTOMPROPERTYTAG
  1
G
  9
$CUSTOMPROPERTY
  1
15.9
  9
$CUSTOMPROPERTYTAG
  1
H
  9
$CUSTOMPROPERTY
  1
19.1
  9
$CUSTOMPROPERTYTAG
  1
J
  9
$CUSTOMPROPERTY
  1
82.6
  9
$CUSTOMPROPERTYTAG
  1
K
  9
$CUSTOMPROPERTY
  1
49.2
  9
$CUSTOMPROPERTYTAG
  1
L
  9
$CUSTOMPROPERTY
  1
63.5
  9
$CUSTOMPROPERTYTAG
  1
M
  9
$CUSTOMPROPERTY
  1
101.6
  9
$CUSTOMPROPERTYTAG
  1
N
  9
$CUSTOMPROPERTY
  1
114.3
  9
$CUSTOMPROPERTYTAG
  1
R
  9
$CUSTOMPROPERTY
  1
16.7
  9
$CUSTOMPROPERTYTAG
  1
S
  9
$CUSTOMPROPERTY
  1
30.2
  9
$CUSTOMPROPERTYTAG
  1
T
  9
$CUSTOMPROPERTY
  1
49.2
  9
$CUSTOMPROPERTYTAG
  1
Z
  9
$CUSTOMPROPERTY
  1
29.0
  9
$CUSTOMPROPERTYTAG
  1
COMPANY
  9
$CUSTOMPROPERTY
  1
baldor
  9
$INSBASE
 10
0.0
 20
0.0
 30
0.0
  9
$EXTMIN
 10
1.000000000000000E+20
 20
1.000000000000000E+20
 30
1.000000000000000E+20
  9
$EXTMAX
 10
-1.000000000000000E+20
 20
-1.000000000000000E+20
 30
-1.000000000000000E+20
  9
$LIMMIN
 10
0.0
 20
0.0
  9
$LIMMAX
 10
420.0
 20
297.0
  9
$ORTHOMODE
 70
     0
  9
$REGENMODE
 70
     1
  9
$FILLMODE
 70
     1
  9
$QTEXTMODE
 70
     0
  9
$MIRRTEXT
 70
     1
  9
$LTSCALE
 40
1.0
  9
$ATTMODE
 70
     1
  9
$TEXTSIZE
 40
2.5
  9
$TRACEWID
 40
1.0
  9
$TEXTSTYLE
  7
Standard
  9
$CLAYER
  8
0
  9
$CELTYPE
  6
ByLayer
  9
$CECOLOR
 62
   256
  9
$CELTSCALE
 40
1.0
  9
$DISPSILH
 70
     0
  9
$DIMSCALE
 40
1.0
  9
$DIMASZ
 40
2.5
  9
$DIMEXO
 40
0.625
  9
$DIMDLI
 40
3.75
  9
$DIMRND
 40
0.0
  9
$DIMDLE
 40
0.0
  9
$DIMEXE
 40
1.25
  9
$DIMTP
 40
0.0
  9
$DIMTM
 40
0.0
  9
$DIMTXT
 40
2.5
  9
$DIMCEN
 40
2.5
  9
$DIMTSZ
 40
0.0
  9
$DIMTOL
 70
     0
  9
$DIMLIM
 70
     0
  9
$DIMTIH
 70
     0
  9
$DIMTOH
 70
     0
  9
$DIMSE1
 70
     0
  9
$DIMSE2
 70
     0
  9
$DIMTAD
 70
     1
  9
$DIMZIN
 70
     8
  9
$DIMBLK
  1

  9
$DIMASO
 70
     1
  9
$DIMSHO
 70
     1
  9
$DIMPOST
  1

  9
$DIMAPOST
  1

  9
$DIMALT
 70
     0
  9
$DIMALTD
 70
     3
  9
$DIMALTF
 40
0.03937007874016
  9
$DIMLFAC
 40
1.0
  9
$DIMTOFL
 70
     1
  9
$DIMTVP
 40
0.0
  9
$DIMTIX
 70
     0
  9
$DIMSOXD
 70
     0
  9
$DIMSAH
 70
     0
  9
$DIMBLK1
  1

  9
$DIMBLK2
  1

  9
$DIMSTYLE
  2
ISO-25
  9
$DIMCLRD
 70
     0
  9
$DIMCLRE
 70
     0
  9
$DIMCLRT
 70
     0
  9
$DIMTFAC
 40
1.0
  9
$DIMGAP
 40
0.625
  9
$DIMJUST
 70
     0
  9
$DIMSD1
 70
     0
  9
$DIMSD2
 70
     0
  9
$DIMTOLJ
 70
     0
  9
$DIMTZIN
 70
     8
  9
$DIMALTZ
 70
     0
  9
$DIMALTTZ
 70
     0
  9
$DIMUPT
 70
     0
  9
$DIMDEC
 70
     2
  9
$DIMTDEC
 70
     2
  9
$DIMALTU
 70
     2
  9
$DIMALTTD
 70
     3
  9
$DIMTXSTY
  7
Standard
  9
$DIMAUNIT
 70
     0
  9
$DIMADEC
 70
     0
  9
$DIMALTRND
 40
0.0
  9
$DIMAZIN
 70
     0
  9
$DIMDSEP
 70
    44
  9
$DIMATFIT
 70
     3
  9
$DIMFRAC
 70
     0
  9
$DIMLDRBLK
  1

  9
$DIMLUNIT
 70
     2
  9
$DIMLWD
 70
    -2
  9
$DIMLWE
 70
    -2
  9
$DIMTMOVE
 70
     0
  9
$DIMFXL
 40
1.0
  9
$DIMFXLON
 70
     0
  9
$DIMJOGANG
 40
0.7853981633974483
  9
$DIMTFILL
 70
     0
  9
$DIMTFILLCLR
 70
     0
  9
$DIMARCSYM
 70
     0
  9
$DIMLTYPE
  6

  9
$DIMLTEX1
  6

  9
$DIMLTEX2
  6

  9
$DIMTXTDIRECTION
 70
     0
  9
$LUNITS
 70
     2
  9
$LUPREC
 70
     4
  9
$SKETCHINC
 40
1.0
  9
$FILLETRAD
 40
10.0
  9
$AUNITS
 70
     0
  9
$AUPREC
 70
     0
  9
$MENU
  1
.
  9
$ELEVATION
 40
0.0
  9
$PELEVATION
 40
0.0
  9
$THICKNESS
 40
0.0
  9
$LIMCHECK
 70
     0
  9
$CHAMFERA
 40
0.0
  9
$CHAMFERB
 40
0.0
  9
$CHAMFERC
 40
0.0
  9
$CHAMFERD
 40
0.0
  9
$SKPOLY
 70
     0
  9
$TDCREATE
 40
2458168.993950949
  9
$TDUCREATE
 40
2458168.952284283
  9
$TDUPDATE
 40
2458168.993951319
  9
$TDUUPDATE
 40
2458168.952284653
  9
$TDINDWG
 40
0.0000000116
  9
$TDUSRTIMER
 40
0.0000000116
  9
$USRTIMER
 70
     1
  9
$ANGBASE
 50
0.0
  9
$ANGDIR
 70
     0
  9
$PDMODE
 70
     0
  9
$PDSIZE
 40
0.0
  9
$PLINEWID
 40
0.0
  9
$SPLFRAME
 70
     0
  9
$SPLINETYPE
 70
     6
  9
$SPLINESEGS
 70
     8
  9
$HANDSEED
  5
25B
  9
$SURFTAB1
 70
     6
  9
$SURFTAB2
 70
     6
  9
$SURFTYPE
 70
     6
  9
$SURFU
 70
     6
  9
$SURFV
 70
     6
  9
$UCSBASE
  2

  9
$UCSNAME
  2

  9
$UCSORG
 10
0.0
 20
0.0
 30
0.0
  9
$UCSXDIR
 10
1.0
 20
0.0
 30
0.0
  9
$UCSYDIR
 10
0.0
 20
1.0
 30
0.0
  9
$UCSORTHOREF
  2

  9
$UCSORTHOVIEW
 70
     0
  9
$UCSORGTOP
 10
0.0
 20
0.0
 30
0.0
  9
$UCSORGBOTTOM
 10
0.0
 20
0.0
 30
0.0
  9
$UCSORGLEFT
 10
0.0
 20
0.0
 30
0.0
  9
$UCSORGRIGHT
 10
0.0
 20
0.0
 30
0.0
  9
$UCSORGFRONT
 10
0.0
 20
0.0
 30
0.0
  9
$UCSORGBACK
 10
0.0
 20
0.0
 30
0.0
  9
$PUCSBASE
  2

  9
$PUCSNAME
  2

  9
$PUCSORG
 10
0.0
 20
0.0
 30
0.0
  9
$PUCSXDIR
 10
1.0
 20
0.0
 30
0.0
  9
$PUCSYDIR
 10
0.0
 20
1.0
 30
0.0
  9
$PUCSORTHOREF
  2

  9
$PUCSORTHOVIEW
 70
     0
  9
$PUCSORGTOP
 10
0.0
 20
0.0
 30
0.0
  9
$PUCSORGBOTTOM
 10
0.0
 20
0.0
 30
0.0
  9
$PUCSORGLEFT
 10
0.0
 20
0.0
 30
0.0
  9
$PUCSORGRIGHT
 10
0.0
 20
0.0
 30
0.0
  9
$PUCSORGFRONT
 10
0.0
 20
0.0
 30
0.0
  9
$PUCSORGBACK
 10
0.0
 20
0.0
 30
0.0
  9
$USERI1
 70
     0
  9
$USERI2
 70
     0
  9
$USERI3
 70
     0
  9
$USERI4
 70
     0
  9
$USERI5
 70
     0
  9
$USERR1
 40
0.0
  9
$USERR2
 40
0.0
  9
$USERR3
 40
0.0
  9
$USERR4
 40
0.0
  9
$USERR5
 40
0.0
  9
$WORLDVIEW
 70
     1
  9
$SHADEDGE
 70
     3
  9
$SHADEDIF
 70
    70
  9
$TILEMODE
 70
     1
  9
$MAXACTVP
 70
    64
  9
$PINSBASE
 10
0.0
 20
0.0
 30
0.0
  9
$PLIMCHECK
 70
     0
  9
$PEXTMIN
 10
1.000000000000000E+20
 20
1.000000000000000E+20
 30
1.000000000000000E+20
  9
$PEXTMAX
 10
-1.000000000000000E+20
 20
-1.000000000000000E+20
 30
-1.000000000000000E+20
  9
$PLIMMIN
 10
0.0
 20
0.0
  9
$PLIMMAX
 10
420.0
 20
297.0
  9
$UNITMODE
 70
     0
  9
$VISRETAIN
 70
     1
  9
$PLINEGEN
 70
     0
  9
$PSLTSCALE
 70
     1
  9
$TREEDEPTH
 70
  3020
  9
$CMLSTYLE
  2
Standard
  9
$CMLJUST
 70
     0
  9
$CMLSCALE
 40
20.0
  9
$PROXYGRAPHICS
 70
     1
  9
$MEASUREMENT
 70
     1
  9
$CELWEIGHT
370
    -1
  9
$ENDCAPS
280
     0
  9
$JOINSTYLE
280
     0
  9
$LWDISPLAY
290
     0
  9
$INSUNITS
 70
     4
  9
$HYPERLINKBASE
  1

  9
$STYLESHEET
  1

  9
$XEDIT
290
     1
  9
$CEPSNTYPE
380
     0
  9
$PSTYLEMODE
290
     1
  9
$FINGERPRINTGUID
  2
{995210EE-0A79-46FF-A739-C4A2AE555107}
  9
$VERSIONGUID
  2
{FAEB1C32-E019-11D5-929B-00C0DF256EC4}
  9
$EXTNAMES
290
     1
  9
$PSVPSCALE
 40
0.0
  9
$OLESTARTUP
290
     0
  9
$SORTENTS
280
   127
  9
$INDEXCTL
280
     0
  9
$HIDETEXT
280
     1
  9
$XCLIPFRAME
280
     2
  9
$HALOGAP
280
     0
  9
$OBSCOLOR
 70
   257
  9
$OBSLTYPE
280
     0
  9
$INTERSECTIONDISPLAY
280
     0
  9
$INTERSECTIONCOLOR
 70
   257
  9
$DIMASSOC
280
     2
  9
$PROJECTNAME
  1

  9
$CAMERADISPLAY
290
     0
  9
$LENSLENGTH
 40
50.0
  9
$CAMERAHEIGHT
 40
0.0
  9
$STEPSPERSEC
 40
2.0
  9
$STEPSIZE
 40
6.0
  9
$3DDWFPREC
 40
2.0
  9
$PSOLWIDTH
 40
5.0
  9
$PSOLHEIGHT
 40
80.0
  9
$LOFTANG1
 40
1.570796326794897
  9
$LOFTANG2
 40
1.570796326794897
  9
$LOFTMAG1
 40
0.0
  9
$LOFTMAG2
 40
0.0
  9
$LOFTPARAM
 70
     7
  9
$LOFTNORMALS
280
     1
  9
$LATITUDE
 40
37.795
  9
$LONGITUDE
 40
-122.394
  9
$NORTHDIRECTION
 40
0.0
  9
$TIMEZONE
 70
 -8000
  9
$LIGHTGLYPHDISPLAY
280
     1
  9
$TILEMODELIGHTSYNCH
280
     1
  9
$CMATERIAL
347
44
  9
$SOLIDHIST
280
     0
  9
$SHOWHIST
280
     1
  9
$DWFFRAME
280
     2
  9
$DGNFRAME
280
     2
  9
$REALWORLDSCALE
290
     1
  9
$INTERFERECOLOR
 62
   256
  9
$CSHADOW
280
     0
  9
$SHADOWPLANELOCATION
 40
0.0
  0
ENDSEC
  0
SECTION
  2
CLASSES
  0
CLASS
  1
ACDBDICTIONARYWDFLT
  2
AcDbDictionaryWithDefault
  3
ObjectDBX Classes
 90
        0
 91
        4
280
     0
281
     0
  0
CLASS
  1
VISUALSTYLE
  2
AcDbVisualStyle
  3
ObjectDBX Classes
 90
     4095
 91
        4
280
     0
281
     0
  0
CLASS
  1
MATERIAL
  2
AcDbMaterial
  3
ObjectDBX Classes
 90
     1153
 91
        4
280
     0
281
     0
  0
CLASS
  1
SCALE
  2
AcDbScale
  3
ObjectDBX Classes
 90
     1153
 91
        4
280
     0
281
     0
  0
CLASS
  1
TABLESTYLE
  2
AcDbTableStyle
  3
ObjectDBX Classes
 90
     4095
 91
        4
280
     0
281
     0
  0
CLASS
  1
MLEADERSTYLE
  2
AcDbMLeaderStyle
  3
ACDB_MLEADERSTYLE_CLASS
 90
     4095
 91
        4
280
     0
281
     0
  0
CLASS
  1
SUN
  2
AcDbSun
  3
SCENEOE
 90
     1153
 91
        4
280
     0
281
     0
  0
CLASS
  1
DICTIONARYVAR
  2
AcDbDictionaryVar
  3
ObjectDBX Classes
 90
        0
 91
        4
280
     0
281
     0
  0
CLASS
  1
CELLSTYLEMAP
  2
AcDbCellStyleMap
  3
ObjectDBX Classes
 90
     1152
 91
        4
280
     0
281
     0
  0
ENDSEC
  0
SECTION
  2
TABLES
  0
TABLE
  2
VPORT
  5
8
330
0
100
AcDbSymbolTable
 70
     1
  0
VPORT
  5
29
330
8
100
AcDbSymbolTableRecord
100
AcDbViewportTableRecord
  2
*Active
 70
     0
 10
0.0
 20
0.0
 11
1.0
 21
1.0
 12
25.48136678972838
 22
0.0
 13
0.0
 23
0.0
 14
10.0
 24
10.0
 15
10.0
 25
10.0
 16
0.0
 26
0.0
 36
1.0
 17
0.0
 27
0.0
 37
0.0
 40
110.4048
 41
1.656109261091494
 42
50.0
 43
0.0
 44
0.0
 50
0.0
 51
0.0
 71
     0
 72
   100
 73
     1
 74
     3
 75
     0
 76
     0
 77
     0
 78
     0
281
     0
 65
     1
110
0.0
120
0.0
130
0.0
111
1.0
121
0.0
131
0.0
112
0.0
122
1.0
132
0.0
 79
     0
146
0.0
348
2F
 60
     3
 61
     5
292
     1
282
     1
141
0.0
142
0.0
 63
   250
361
6D
  0
ENDTAB
  0
TABLE
  2
LTYPE
  5
5
330
0
100
AcDbSymbolTable
 70
     3
  0
LTYPE
  5
14
330
5
100
AcDbSymbolTableRecord
100
AcDbLinetypeTableRecord
  2
ByBlock
 70
     0
  3

 72
    65
 73
     0
 40
0.0
  0
LTYPE
  5
15
330
5
100
AcDbSymbolTableRecord
100
AcDbLinetypeTableRecord
  2
ByLayer
 70
     0
  3

 72
    65
 73
     0
 40
0.0
  0
LTYPE
  5
16
330
5
100
AcDbSymbolTableRecord
100
AcDbLinetypeTableRecord
  2
Continuous
 70
     0
  3
Solid line
 72
    65
 73
     0
 40
0.0
  0
LTYPE
  5
9F
330
5
100
AcDbSymbolTableRecord
100
AcDbLinetypeTableRecord
  2
Dashed
 70
     0
  3

 72
    65
 73
     2
 40
2.0
 49
1.0
 74
     0
 49
-1.0
 74
     0
  0
LTYPE
  5
1A2
330
5
100
AcDbSymbolTableRecord
100
AcDbLinetypeTableRecord
  2
Center
 70
     0
  3

 72
    65
 73
     4
 40
1.5
 49
0.45
 74
     0
 49
-0.5
 74
     0
 49
0.05
 74
     0
 49
-0.5
 74
     0
  0
ENDTAB
  0
TABLE
  2
LAYER
  5
2
330
0
100
AcDbSymbolTable
 70
     7
  0
LAYER
  5
10
330
2
100
AcDbSymbolTableRecord
100
AcDbLayerTableRecord
  2
0
 70
     0
 62
     7
  6
Continuous
370
    -3
390
F
347
46
348
0
  0
LAYER
  5
72
330
2
100
AcDbSymbolTableRecord
100
AcDbLayerTableRecord
  2
AM_6
 70
     0
 62
    -2
  6
Continuous
370
    35
390
F
347
46
348
0
  0
LAYER
  5
A0
330
2
100
AcDbSymbolTableRecord
100
AcDbLayerTableRecord
  2
AM_9
 70
     0
 62
     6
  6
Dashed
370
    25
390
F
347
46
348
0
  0
LAYER
  5
E6
330
2
100
AcDbSymbolTableRecord
100
AcDbLayerTableRecord
  2
AM_4
 70
     0
 62
     7
  6
Continuous
370
    50
390
F
347
46
348
0
  0
LAYER
  5
19F
330
2
100
AcDbSymbolTableRecord
100
AcDbLayerTableRecord
  2
AM_5
 70
     0
 62
     3
  6
Continuous
370
    25
390
F
347
46
348
0
  0
LAYER
  5
1A3
330
2
100
AcDbSymbolTableRecord
100
AcDbLayerTableRecord
  2
AM_7
 70
     0
 62
     7
  6
Center
370
    25
390
F
347
46
348
0
  0
LAYER
  5
24A
330
2
100
AcDbSymbolTableRecord
100
AcDbLayerTableRecord
  2
ConnectionPoints
 70
     0
 62
     7
  6
Continuous
370
    50
390
F
347
46
348
0
  0
ENDTAB
  0
TABLE
  2
STYLE
  5
3
330
0
100
AcDbSymbolTable
 70
     1
  0
STYLE
  5
11
330
3
100
AcDbSymbolTableRecord
100
AcDbTextStyleTableRecord
  2
Standard
 70
     0
 40
0.0
 41
1.0
 50
0.0
 71
     0
 42
2.5
  3
txt
  4

  0
ENDTAB
  0
TABLE
  2
VIEW
  5
6
330
0
100
AcDbSymbolTable
 70
     0
  0
ENDTAB
  0
TABLE
  2
UCS
  5
7
330
0
100
AcDbSymbolTable
 70
     0
  0
ENDTAB
  0
TABLE
  2
APPID
  5
9
330
0
100
AcDbSymbolTable
 70
     1
  0
APPID
  5
12
330
9
100
AcDbSymbolTableRecord
100
AcDbRegAppTableRecord
  2
ACAD
 70
     0
  0
ENDTAB
  0
TABLE
  2
DIMSTYLE
  5
A
330
0
100
AcDbSymbolTable
 70
     1
100
AcDbDimStyleTable
  0
DIMSTYLE
105
27
330
A
100
AcDbSymbolTableRecord
100
AcDbDimStyleTableRecord
  2
ISO-25
 70
     0
 41
2.5
 42
0.625
 43
3.75
 44
1.25
 73
     0
 74
     0
 77
     1
 78
     8
140
2.5
141
2.5
143
0.03937007874016
147
0.625
171
     3
172
     1
178
     0
271
     2
272
     2
274
     3
278
    44
283
     0
284
     8
340
11
  0
ENDTAB
  0
TABLE
  2
BLOCK_RECORD
  5
1
330
0
100
AcDbSymbolTable
 70
     6
  0
BLOCK_RECORD
  5
1F
330
1
100
AcDbSymbolTableRecord
100
AcDbBlockTableRecord
  2
*Model_Space
340
22
 70
     0
280
     1
281
     0
  0
BLOCK_RECORD
  5
1B
330
1
100
AcDbSymbolTableRecord
100
AcDbBlockTableRecord
  2
*Paper_Space
340
1E
 70
     0
280
     1
281
     0
  0
BLOCK_RECORD
  5
23
330
1
100
AcDbSymbolTableRecord
100
AcDbBlockTableRecord
  2
*Paper_Space0
340
26
 70
     0
280
     1
281
     0
  0
BLOCK_RECORD
  5
6E
330
1
100
AcDbSymbolTableRecord
100
AcDbBlockTableRecord
  2
1_136251_4
340
0
102
{BLKREFS
331
6F
102
}
 70
     0
280
     1
281
     0
  0
BLOCK_RECORD
  5
8E
330
1
100
AcDbSymbolTableRecord
100
AcDbBlockTableRecord
  2
2_405016_Metric_0_in_136251_4
340
0
102
{BLKREFS
331
8F
102
}
 70
     0
280
     1
281
     0
  0
BLOCK_RECORD
  5
11E
330
1
100
AcDbSymbolTableRecord
100
AcDbBlockTableRecord
  2
3_129521_0_in_136251_4
340
0
102
{BLKREFS
331
11F
102
}
 70
     0
280
     1
281
     0
  0
BLOCK_RECORD
  5
161
330
1
100
AcDbSymbolTableRecord
100
AcDbBlockTableRecord
  2
4_129947_0_in_136251_4
340
0
102
{BLKREFS
331
162
102
}
 70
     0
280
     1
281
     0
  0
BLOCK_RECORD
  5
1B8
330
1
100
AcDbSymbolTableRecord
100
AcDbBlockTableRecord
  2
5_WSTU_GT_08_0_in_136251_4
340
0
102
{BLKREFS
331
1B9
102
}
 70
     0
280
     1
281
     0
  0
ENDTAB
  0
ENDSEC
  0
SECTION
  2
BLOCKS
  0
BLOCK
  5
20
330
1F
100
AcDbEntity
  8
0
100
AcDbBlockBegin
  2
*Model_Space
 70
     0
 10
0.0
 20
0.0
 30
0.0
  3
*Model_Space
  1

  0
ENDBLK
  5
21
330
1F
100
AcDbEntity
  8
0
100
AcDbBlockEnd
  0
BLOCK
  5
1C
330
1B
100
AcDbEntity
 67
     1
  8
0
100
AcDbBlockBegin
  2
*Paper_Space
 70
     0
 10
0.0
 20
0.0
 30
0.0
  3
*Paper_Space
  1

  0
ENDBLK
  5
1D
330
1B
100
AcDbEntity
 67
     1
  8
0
100
AcDbBlockEnd
  0
BLOCK
  5
24
330
23
100
AcDbEntity
  8
0
100
AcDbBlockBegin
  2
*Paper_Space0
 70
     0
 10
0.0
 20
0.0
 30
0.0
  3
*Paper_Space0
  1

  0
ENDBLK
  5
25
330
23
100
AcDbEntity
  8
0
100
AcDbBlockEnd
  0
BLOCK
  5
70
330
6E
100
AcDbEntity
  8
0
100
AcDbBlockBegin
  2
1_136251_4
 70
     2
 10
0.0
 20
0.0
 30
0.0
  3
1_136251_4
  1

  0
ATTDEF
  5
73
330
6E
100
AcDbEntity
  8
AM_6
100
AcDbText
 10
120.11
 20
54.12
 30
0.0
 40
0.5
  1
Grip Tight Wide Slot Take Up Metric Bore
100
AcDbAttributeDefinition
  3

  2
NN
 70
     8
280
     0
  0
ATTDEF
  5
74
330
6E
100
AcDbEntity
  8
AM_6
100
AcDbText
 10
120.11
 20
53.62
 30
0.0
 40
0.5
  1
GT Wide Slot Take-Up Bearings -(Normal Duty)
100
AcDbAttributeDefinition
  3

  2
NT
 70
     8
280
     0
  0
ATTDEF
  5
75
330
6E
100
AcDbEntity
  8
AM_6
100
AcDbText
 10
120.11
 20
53.12
 30
0.0
 40
0.5
  1
136251
100
AcDbAttributeDefinition
  3

  2
NB
 70
     8
280
     0
  0
ATTDEF
  5
76
330
6E
100
AcDbEntity
  8
AM_6
100
AcDbText
 10
120.11
 20
52.62
 30
0.0
 40
0.5
  1
$PN.$LUBE.
100
AcDbAttributeDefinition
  3

  2
NBSYN
 70
     8
280
     0
  0
ATTDEF
  5
77
330
6E
100
AcDbEntity
  8
AM_6
100
AcDbText
 10
120.11
 20
52.12
 30
0.0
 40
0.5
  1
136251
100
AcDbAttributeDefinition
  3

  2
LINA
 70
     8
280
     0
  0
ATTDEF
  5
78
330
6E
100
AcDbEntity
  8
AM_6
100
AcDbText
 10
120.11
 20
51.62
 30
0.0
 40
0.5
  1
208
100
AcDbAttributeDefinition
  3

  2
SERIES
 70
     8
280
     0
  0
ATTDEF
  5
79
330
6E
100
AcDbEntity
  8
AM_6
100
AcDbText
 10
120.11
 20
51.12
 30
0.0
 40
0.5
  1
40
100
AcDbAttributeDefinition
  3

  2
SS
 70
     8
280
     0
  0
ATTDEF
  5
7A
330
6E
100
AcDbEntity
  8
AM_6
100
AcDbText
 10
120.11
 20
50.62
 30
0.0
 40
0.5
  1
136251
100
AcDbAttributeDefinition
  3

  2
PN
 70
     8
280
     0
  0
ATTDEF
  5
7B
330
6E
100
AcDbEntity
  8
AM_6
100
AcDbText
 10
120.11
 20
50.12
 30
0.0
 40
0.5
  1
WSTU-GT-40M
100
AcDbAttributeDefinition
  3

  2
DESCRIPTION
 70
     8
280
     0
  0
ATTDEF
  5
7C
330
6E
100
AcDbEntity
  8
AM_6
100
AcDbText
 10
120.11
 20
49.62
 30
0.0
 40
0.5
  1
46.8
100
AcDbAttributeDefinition
  3

  2
A
 70
     8
280
     0
  0
ATTDEF
  5
7D
330
6E
100
AcDbEntity
  8
AM_6
100
AcDbText
 10
120.11
 20
49.12
 30
0.0
 40
0.5
  1
144.5
100
AcDbAttributeDefinition
  3

  2
B
 70
     8
280
     0
  0
ATTDEF
  5
7E
330
6E
100
AcDbEntity
  8
AM_6
100
AcDbText
 10
120.11
 20
48.62
 30
0.0
 40
0.5
  1
17.5
100
AcDbAttributeDefinition
  3

  2
C
 70
     8
280
     0
  0
ATTDEF
  5
7F
330
6E
100
AcDbEntity
  8
AM_6
100
AcDbText
 10
120.11
 20
48.12
 30
0.0
 40
0.5
  1
82.6
100
AcDbAttributeDefinition
  3

  2
D
 70
     8
280
     0
  0
ATTDEF
  5
80
330
6E
100
AcDbEntity
  8
AM_6
100
AcDbText
 10
120.11
 20
47.62
 30
0.0
 40
0.5
  1
88.9
100
AcDbAttributeDefinition
  3

  2
E
 70
     8
280
     0
  0
ATTDEF
  5
81
330
6E
100
AcDbEntity
  8
AM_6
100
AcDbText
 10
120.11
 20
47.12
 30
0.0
 40
0.5
  1
25.4
100
AcDbAttributeDefinition
  3

  2
F
 70
     8
280
     0
  0
ATTDEF
  5
82
330
6E
100
AcDbEntity
  8
AM_6
100
AcDbText
 10
120.11
 20
46.62
 30
0.0
 40
0.5
  1
15.9
100
AcDbAttributeDefinition
  3

  2
G
 70
     8
280
     0
  0
ATTDEF
  5
83
330
6E
100
AcDbEntity
  8
AM_6
100
AcDbText
 10
120.11
 20
46.12
 30
0.0
 40
0.5
  1
19.1
100
AcDbAttributeDefinition
  3

  2
H
 70
     8
280
     0
  0
ATTDEF
  5
84
330
6E
100
AcDbEntity
  8
AM_6
100
AcDbText
 10
120.11
 20
45.62
 30
0.0
 40
0.5
  1
82.6
100
AcDbAttributeDefinition
  3

  2
J
 70
     8
280
     0
  0
ATTDEF
  5
85
330
6E
100
AcDbEntity
  8
AM_6
100
AcDbText
 10
120.11
 20
45.12
 30
0.0
 40
0.5
  1
49.2
100
AcDbAttributeDefinition
  3

  2
K
 70
     8
280
     0
  0
ATTDEF
  5
86
330
6E
100
AcDbEntity
  8
AM_6
100
AcDbText
 10
120.11
 20
44.62
 30
0.0
 40
0.5
  1
63.5
100
AcDbAttributeDefinition
  3

  2
L
 70
     8
280
     0
  0
ATTDEF
  5
87
330
6E
100
AcDbEntity
  8
AM_6
100
AcDbText
 10
120.11
 20
44.12
 30
0.0
 40
0.5
  1
101.6
100
AcDbAttributeDefinition
  3

  2
M
 70
     8
280
     0
  0
ATTDEF
  5
88
330
6E
100
AcDbEntity
  8
AM_6
100
AcDbText
 10
120.11
 20
43.62
 30
0.0
 40
0.5
  1
114.3
100
AcDbAttributeDefinition
  3

  2
N
 70
     8
280
     0
  0
ATTDEF
  5
89
330
6E
100
AcDbEntity
  8
AM_6
100
AcDbText
 10
120.11
 20
43.12
 30
0.0
 40
0.5
  1
16.7
100
AcDbAttributeDefinition
  3

  2
R
 70
     8
280
     0
  0
ATTDEF
  5
8A
330
6E
100
AcDbEntity
  8
AM_6
100
AcDbText
 10
120.11
 20
42.62
 30
0.0
 40
0.5
  1
30.2
100
AcDbAttributeDefinition
  3

  2
S
 70
     8
280
     0
  0
ATTDEF
  5
8B
330
6E
100
AcDbEntity
  8
AM_6
100
AcDbText
 10
120.11
 20
42.12
 30
0.0
 40
0.5
  1
49.2
100
AcDbAttributeDefinition
  3

  2
T
 70
     8
280
     0
  0
ATTDEF
  5
8C
330
6E
100
AcDbEntity
  8
AM_6
100
AcDbText
 10
120.11
 20
41.62
 30
0.0
 40
0.5
  1
29.0
100
AcDbAttributeDefinition
  3

  2
Z
 70
     8
280
     0
  0
ATTDEF
  5
8D
330
6E
100
AcDbEntity
  8
AM_6
100
AcDbText
 10
120.11
 20
41.12
 30
0.0
 40
0.5
  1
baldor
100
AcDbAttributeDefinition
  3

  2
COMPANY
 70
     8
280
     0
  0
INSERT
  5
8F
330
6E
100
AcDbEntity
  8
0
100
AcDbBlockReference
  2
2_405016_Metric_0_in_136251_4
 10
0.0
 20
0.0
 30
0.0
  0
INSERT
  5
11F
330
6E
100
AcDbEntity
  8
0
100
AcDbBlockReference
  2
3_129521_0_in_136251_4
 10
0.0
 20
0.0
 30
0.0
  0
INSERT
  5
162
330
6E
100
AcDbEntity
  8
0
100
AcDbBlockReference
  2
4_129947_0_in_136251_4
 10
0.0
 20
0.0
 30
0.0
  0
INSERT
  5
1B9
330
6E
100
AcDbEntity
  8
0
100
AcDbBlockReference
  2
5_WSTU_GT_08_0_in_136251_4
 10
0.0
 20
0.0
 30
0.0
  0
ENDBLK
  5
71
330
6E
100
AcDbEntity
  8
0
100
AcDbBlockEnd
  0
BLOCK
  5
90
330
8E
100
AcDbEntity
  8
0
100
AcDbBlockBegin
  2
2_405016_Metric_0_in_136251_4
 70
     2
 10
0.0
 20
0.0
 30
0.0
  3
2_405016_Metric_0_in_136251_4
  1

  0
ATTDEF
  5
92
330
8E
100
AcDbEntity
  8
AM_6
100
AcDbText
 10
-38.01803035306563
 20
5.556249999999999
 30
0.0
 40
0.5
  1
405016 -Metric
100
AcDbAttributeDefinition
  3

  2
NN
 70
     8
280
     0
  0
ATTDEF
  5
93
330
8E
100
AcDbEntity
  8
AM_6
100
AcDbText
 10
-38.01803035306563
 20
5.056249999999999
 30
0.0
 40
0.5
  1
Grease Fitting
100
AcDbAttributeDefinition
  3

  2
NT
 70
     8
280
     0
  0
ATTDEF
  5
94
330
8E
100
AcDbEntity
  8
AM_6
100
AcDbText
 10
-38.01803035306563
 20
4.556249999999999
 30
0.0
 40
0.5
  1
405016-Metric
100
AcDbAttributeDefinition
  3

  2
NB
 70
     8
280
     0
  0
ATTDEF
  5
95
330
8E
100
AcDbEntity
  8
AM_6
100
AcDbText
 10
-38.01803035306563
 20
4.056249999999999
 30
0.0
 40
0.5
  1
$MN.-Metric
100
AcDbAttributeDefinition
  3

  2
NBSYN
 70
     8
280
     0
  0
ATTDEF
  5
96
330
8E
100
AcDbEntity
  8
AM_6
100
AcDbText
 10
-38.01803035306563
 20
3.556249999999999
 30
0.0
 40
0.5
  1
405016
100
AcDbAttributeDefinition
  3

  2
LINA
 70
     8
280
     0
  0
ATTDEF
  5
97
330
8E
100
AcDbEntity
  8
AM_6
100
AcDbText
 10
-38.01803035306563
 20
3.056249999999999
 30
0.0
 40
0.5
  1
405016
100
AcDbAttributeDefinition
  3

  2
MN
 70
     8
280
     0
  0
ATTDEF
  5
98
330
8E
100
AcDbEntity
  8
AM_6
100
AcDbText
 10
-38.01803035306563
 20
2.556249999999999
 30
0.0
 40
0.5
  1
7/16 HEX
100
AcDbAttributeDefinition
  3

  2
H
 70
     8
280
     0
  0
ATTDEF
  5
99
330
8E
100
AcDbEntity
  8
AM_6
100
AcDbText
 10
-38.01803035306563
 20
2.056249999999999
 30
0.0
 40
0.5
  1
9.728
100
AcDbAttributeDefinition
  3

  2
NDR
 70
     8
280
     0
  0
ATTDEF
  5
9A
330
8E
100
AcDbEntity
  8
AM_6
100
AcDbText
 10
-38.01803035306563
 20
1.556249999999999
 30
0.0
 40
0.5
  1
8.560
100
AcDbAttributeDefinition
  3

  2
KDR
 70
     8
280
     0
  0
ATTDEF
  5
9B
330
8E
100
AcDbEntity
  8
AM_6
100
AcDbText
 10
-38.01803035306563
 20
1.056249999999999
 30
0.0
 40
0.5
  1
4.0005
100
AcDbAttributeDefinition
  3

  2
BZE
 70
     8
280
     0
  0
ATTDEF
  5
9C
330
8E
100
AcDbEntity
  8
AM_6
100
AcDbText
 10
-38.01803035306563
 20
0.5562499999999995
 30
0.0
 40
0.5
  1
11.1125
100
AcDbAttributeDefinition
  3

  2
HEX
 70
     8
280
     0
  0
ATTDEF
  5
9D
330
8E
100
AcDbEntity
  8
AM_6
100
AcDbText
 10
-38.01803035306563
 20
0.0562499999999995
 30
0.0
 40
0.5
  1
7.143750
100
AcDbAttributeDefinition
  3

  2
HEX2
 70
     8
280
     0
  0
ATTDEF
  5
9E
330
8E
100
AcDbEntity
  8
AM_6
100
AcDbText
 10
-38.01803035306563
 20
-0.4437500000000005
 30
0.0
 40
0.5
  1
baldor
100
AcDbAttributeDefinition
  3

  2
COMPANY
 70
     8
280
     0
  0
LINE
  5
A1
330
8E
100
AcDbEntity
  8
AM_9
100
AcDbLine
 10
-60.72550786246138
 20
-3.837282897828231
 30
0.0
 11
-61.01307582234786
 21
-4.549376881905936
 31
0.0
  0
LINE
  5
A2
330
8E
100
AcDbEntity
  8
AM_9
100
AcDbLine
 10
-56.88566677308355
 20
-5.333905179049321
 30
0.0
 11
-57.18252282705999
 21
-6.068998929608747
 31
0.0
  0
LWPOLYLINE
  5
A3
330
8E
100
AcDbEntity
  8
AM_9
100
AcDbPolyline
 90
        3
 70
     0
 43
0.0
 10
-50.39392411015518
 20
-0.0000000000000028
 10
-50.93945695146279
 20
-1.382816900963401
 10
-51.39536011934224
 20
-2.778125000000002
  0
LWPOLYLINE
  5
A4
330
8E
100
AcDbEntity
  8
AM_9
100
AcDbPolyline
 90
        3
 70
     0
 43
0.0
 10
-51.39536011934224
 20
2.778124999999997
 10
-50.94172500975059
 20
1.389062499999997
 10
-50.39392411015518
 20
-0.0000000000000028
  0
LWPOLYLINE
  5
A5
330
8E
100
AcDbEntity
  8
AM_9
100
AcDbPolyline
 90
        3
 70
     0
 43
0.0
 10
-55.41422322316246
 20
-7.58869625231989
 10
-55.81776025106512
 20
-7.397029361446425
 10
-56.20409429419468
 20
-7.147354260923539
  0
LWPOLYLINE
  5
A6
330
8E
100
AcDbEntity
  8
AM_9
100
AcDbPolyline
 90
        3
 70
     0
 43
0.0
 10
-49.19565559372978
 20
-2.778125000000002
 10
-48.84731509502521
 20
-1.389062500000002
 10
-48.59314038632441
 20
-0.000000000000003
  0
LWPOLYLINE
  5
A7
330
8E
100
AcDbEntity
  8
AM_9
100
AcDbPolyline
 90
        3
 70
     0
 43
0.0
 10
-48.59314038632441
 20
-0.000000000000003
 10
-48.84597725502798
 20
1.382816900963397
 10
-49.19565559372978
 20
2.778124999999998
  0
LWPOLYLINE
  5
A8
330
8E
100
AcDbEntity
  8
AM_9
100
AcDbPolyline
 90
        3
 70
     0
 43
0.0
 10
-55.5979586546926
 20
-6.145924475337351
 10
-55.50648598367135
 20
-6.253713524124906
 10
-55.10800973066361
 20
-6.830431020205951
  0
LWPOLYLINE
  5
A9
330
8E
100
AcDbEntity
  8
AM_9
100
AcDbPolyline
 90
        3
 70
     0
 43
0.0
 10
-51.9978753267476
 20
5.556249999999999
 10
-51.74503845804404
 20
4.173433099036599
 10
-51.39536011934224
 20
2.778124999999997
  0
LINE
  5
AA
330
8E
100
AcDbEntity
  8
AM_9
100
AcDbLine
 10
-50.39392411015518
 20
-0.0000000000000028
 30
0.0
 11
-48.59314038632441
 21
-0.000000000000003
 31
0.0
  0
LWPOLYLINE
  5
AB
330
8E
100
AcDbEntity
  8
AM_9
100
AcDbPolyline
 90
        3
 70
     0
 43
0.0
 10
-51.39536011934224
 20
-2.778125000000002
 10
-51.7437006180468
 20
-4.167187500000002
 10
-51.9978753267476
 20
-5.556250000000003
  0
LWPOLYLINE
  5
AC
330
8E
100
AcDbEntity
  8
AM_9
100
AcDbPolyline
 90
        3
 70
     0
 43
0.0
 10
-55.10800973066361
 20
-6.830431020205951
 10
-55.43810528204374
 20
-6.691143549353728
 10
-55.59614942857773
 20
-6.646494473735393
  0
LINE
  5
AD
330
8E
100
AcDbEntity
  8
AM_9
100
AcDbLine
 10
-55.60156520807698
 20
-7.640532397063009
 30
0.0
 11
-55.41422322316246
 21
-7.58869625231989
 31
0.0
  0
LINE
  5
AE
330
8E
100
AcDbEntity
  8
AM_9
100
AcDbLine
 10
-55.10800973066361
 20
-6.830431020205951
 30
0.0
 11
-55.41422322316246
 21
-7.58869625231989
 31
0.0
  0
ELLIPSE
  5
AF
330
8E
100
AcDbEntity
  8
AM_9
100
AcDbEllipse
 10
-61.56817695152937
 20
-11.90625
 30
0.0
 11
-2.437227270755869
 21
0.9842359150649287
 31
0.0
210
0.0
220
0.0
230
1.0
 40
0.2113091308703501
 41
3.040609649696542
 42
6.384168311072829
  0
ELLIPSE
  5
B0
330
8E
100
AcDbEntity
  8
AM_9
100
AcDbEllipse
 10
-60.8571379317133
 20
-10.14553017343999
 30
0.0
 11
-3.277232327750511
 21
1.323458750723533
 31
0.0
210
0.0
220
0.0
230
1.0
 40
0.211309130870352
 41
3.036068447092115
 42
5.801105639492178
  0
ELLIPSE
  5
B1
330
8E
100
AcDbEntity
  8
AM_9
100
AcDbEllipse
 10
-60.58599338956676
 20
-9.474104895899515
 30
0.0
 11
-3.136987913476289
 21
1.266823248949706
 31
0.0
210
0.0
220
0.0
230
1.0
 40
0.2113091308703363
 41
3.381898588993517
 42
6.025352393584413
  0
LWPOLYLINE
  5
B2
330
8E
100
AcDbEntity
  8
AM_9
100
AcDbPolyline
 90
        5
 70
     0
 43
0.0
 10
-61.01307582234786
 20
-4.549376881905936
 10
-61.56838049021295
 20
-4.680053692952522
 10
-62.09914109823478
 20
-4.730040525586979
 10
-62.60504863492947
 20
-4.684077415975232
 10
-63.07529881510955
 20
-4.549376881905936
  0
LWPOLYLINE
  5
B3
330
8E
100
AcDbEntity
  8
AM_9
100
AcDbPolyline
 90
        5
 70
     0
 43
0.0
 10
-57.18252282705999
 20
-6.068998929608747
 10
-58.16909155972069
 20
-5.830160733401207
 10
-59.13772174620343
 20
-5.503852774457659
 10
-60.09323912297748
 20
-5.070861224918887
 10
-61.01307582234786
 20
-4.549376881905936
  0
LWPOLYLINE
  5
B4
330
8E
100
AcDbEntity
  8
AM_9
100
AcDbPolyline
 90
        3
 70
     0
 43
0.0
 10
-56.50944116081256
 20
-6.887292896806422
 10
-56.85831467603271
 20
-6.507011440078409
 10
-57.18252282705999
 20
-6.068998929608747
  0
ELLIPSE
  5
B5
330
8E
100
AcDbEntity
  8
AM_9
100
AcDbEllipse
 10
-59.29057045928372
 20
-6.266296641271037
 30
0.0
 11
-3.312005593886809
 21
1.337501387545522
 31
0.0
210
0.0
220
0.0
230
1.0
 40
0.2113091308703314
 41
3.806340372003156
 42
6.919181903097288
  0
LINE
  5
B6
330
8E
100
AcDbEntity
  8
AM_9
100
AcDbLine
 10
-50.00050784554704
 20
5.081049061129095
 30
0.0
 11
-50.19709160291684
 21
5.556249999999999
 31
0.0
  0
LWPOLYLINE
  5
B7
330
8E
100
AcDbEntity
  8
AM_9
100
AcDbPolyline
 90
        3
 70
     0
 43
0.0
 10
-49.19565559372978
 20
2.778124999999998
 10
-49.64929070332143
 20
4.167187499999998
 10
-50.00050784554704
 20
5.081049061129095
  0
LWPOLYLINE
  5
B8
330
8E
100
AcDbEntity
  8
AM_9
100
AcDbPolyline
 90
        3
 70
     0
 43
0.0
 10
-50.00050474466512
 20
-5.081041392296854
 10
-49.65155876160922
 20
-4.173433099036602
 10
-49.19565559372978
 20
-2.778125000000002
  0
LINE
  5
B9
330
8E
100
AcDbEntity
  8
AM_9
100
AcDbLine
 10
-50.19709160291684
 20
-5.556250000000003
 30
0.0
 11
-50.00050474466512
 21
-5.081041392296854
 31
0.0
  0
LINE
  5
BA
330
8E
100
AcDbEntity
  8
AM_9
100
AcDbLine
 10
-61.00833180409938
 20
-3.058387021916507
 30
0.0
 11
-61.03590210683807
 21
-3.126658350638854
 31
0.0
  0
LINE
  5
BB
330
8E
100
AcDbEntity
  8
AM_9
100
AcDbLine
 10
-55.79827800208216
 20
-5.080000000000001
 30
0.0
 11
-55.73049862672669
 21
-4.912160420603781
 31
0.0
  0
ELLIPSE
  5
BC
330
8E
100
AcDbEntity
  8
AM_9
100
AcDbEllipse
 10
-58.82575280780475
 20
-5.115285751734376
 30
0.0
 11
-2.590724375662752
 21
1.046223307591093
 31
0.0
210
0.0
220
0.0
230
1.0
 40
0.2113091308703492
 41
3.141592653589793
 42
6.283185307179586
  0
LWPOLYLINE
  5
BD
330
8E
100
AcDbEntity
  8
AM_9
100
AcDbPolyline
 90
        4
 70
     0
 43
0.0
 10
-61.00845193733688
 20
-3.058684545841785
 10
-61.01198675334393
 20
-3.069253891791883
 10
-60.99731612083291
 20
-3.162573084305298
 10
-60.94884720521482
 20
-3.235043684306185
  0
LWPOLYLINE
  5
BE
330
8E
100
AcDbEntity
  8
AM_9
100
AcDbPolyline
 90
        5
 70
     0
 43
0.0
 10
-55.73047464400889
 20
-4.91210102493407
 10
-55.73284538174013
 20
-4.917691338485696
 10
-55.81452002033714
 20
-5.008516140987742
 10
-55.96738644670381
 20
-5.065126856945112
 10
-56.14173129944707
 20
-5.079999999236803
  0
LWPOLYLINE
  5
BF
330
8E
100
AcDbEntity
  8
AM_9
100
AcDbPolyline
 90
        3
 70
     0
 43
0.0
 10
-58.51147843224301
 20
-4.434184386909876
 10
-57.81579591775786
 20
-4.766969289547203
 10
-56.88566677308355
 20
-5.333905179049321
  0
LWPOLYLINE
  5
C0
330
8E
100
AcDbEntity
  8
AM_9
100
AcDbPolyline
 90
        3
 70
     0
 43
0.0
 10
-60.72550786246138
 20
-3.837282897828231
 10
-59.98371083197348
 20
-3.973124856539688
 10
-59.25548015883918
 20
-4.163853732670686
  0
LWPOLYLINE
  5
C1
330
8E
100
AcDbEntity
  8
AM_9
100
AcDbPolyline
 90
        3
 70
     0
 43
0.0
 10
-56.88566677308355
 20
-5.333905179049321
 10
-56.45453524181207
 20
-5.49523760296716
 10
-56.04462350933383
 20
-5.736282007269851
  0
LWPOLYLINE
  5
C2
330
8E
100
AcDbEntity
  8
AM_9
100
AcDbPolyline
 90
        4
 70
     0
 43
0.0
 10
-61.66304422321155
 20
-3.60574614931637
 10
-61.56461618928191
 20
-3.608061141866097
 10
-61.19659774536724
 20
-3.660719790057628
 10
-60.72550786246138
 20
-3.837282897828232
  0
ELLIPSE
  5
C3
330
8E
100
AcDbEntity
  8
AM_9
100
AcDbEllipse
 10
-58.82575280780476
 20
-5.115285751734361
 30
0.0
 11
-3.312005593887022
 21
1.337501387545448
 31
0.0
210
0.0
220
0.0
230
1.0
 40
0.2113091308703437
 41
3.814164134970072
 42
4.682923256296322
  0
ELLIPSE
  5
C4
330
8E
100
AcDbEntity
  8
AM_9
100
AcDbEllipse
 10
-58.82575280780473
 20
-5.115285751734421
 30
0.0
 11
-3.312005593887101
 21
1.337501387545476
 31
0.0
210
0.0
220
0.0
230
1.0
 40
0.2113091308703521
 41
-1.28311183623903
 42
-0.6725714813802872
  0
LINE
  5
C5
330
8E
100
AcDbEntity
  8
AM_9
100
AcDbLine
 10
-56.20409429419468
 20
-7.147354260923539
 30
0.0
 11
-56.50944116081256
 21
-6.887292896806422
 31
0.0
  0
ELLIPSE
  5
C6
330
8E
100
AcDbEntity
  8
AM_9
100
AcDbEllipse
 10
-59.2905704592836
 20
-6.266296641270911
 30
0.0
 11
-3.312005593887123
 21
1.337501387545452
 31
0.0
210
0.0
220
0.0
230
1.0
 40
0.2113091308703507
 41
2.800469246484364
 42
3.60708070219512
  0
ELLIPSE
  5
C7
330
8E
100
AcDbEntity
  8
AM_9
100
AcDbEllipse
 10
-59.29057045926812
 20
-6.266296641312223
 30
0.0
 11
-3.312005593862239
 21
1.337501387509716
 31
0.0
210
0.0
220
0.0
230
1.0
 40
0.2113091308657431
 41
-3.777589249509109
 42
-3.764628581860682
  0
ELLIPSE
  5
C8
330
8E
100
AcDbEntity
  8
AM_9
100
AcDbEllipse
 10
-58.82575280780483
 20
-5.115285751734372
 30
0.0
 11
-3.312005593887108
 21
1.337501387545446
 31
0.0
210
0.0
220
0.0
230
1.0
 40
0.2113091308703492
 41
2.982932624200068
 42
3.470507964078964
  0
LWPOLYLINE
  5
C9
330
8E
100
AcDbEntity
  8
AM_9
100
AcDbPolyline
 90
       17
 70
     0
 43
0.0
 10
-55.90004782155162
 20
-4.54754929579452
 10
-56.10242143448692
 20
-4.404185730898368
 10
-56.37562569971512
 20
-4.243653641815979
 10
-56.6967592083852
 20
-4.079360450144661
 10
-57.07497595628956
 20
-3.906600444275934
 10
-57.47888362718432
 20
-3.739733627290439
 10
-57.91985226065598
 20
-3.574110867010545
 10
-58.36068137976419
 20
-3.423743718108895
 10
-58.81426725400512
 20
-3.284291520882655
 10
-59.24174319610702
 20
-3.167739146394208
 10
-59.65618849118493
 20
-3.070557447853723
 10
-60.0219243830247
 20
-3.001126812430812
 10
-60.35040614581468
 20
-2.957268343506164
 10
-60.61354324107107
 20
-2.942714645652546
 10
-60.81954168141518
 20
-2.956956816676946
 10
-60.95102836766255
 20
-2.998748603033094
 10
-61.00845193733688
 20
-3.058684545841785
  0
LWPOLYLINE
  5
CA
330
8E
100
AcDbEntity
  8
AM_9
100
AcDbPolyline
 90
        4
 70
     0
 43
0.0
 10
-55.90004782155162
 20
-4.547549295794528
 10
-55.77419944556109
 20
-4.680277139818005
 10
-55.72065918010583
 20
-4.804994146739736
 10
-55.73047464400889
 20
-4.91210102493407
  0
LINE
  5
CB
330
8E
100
AcDbEntity
  8
AM_9
100
AcDbLine
 10
-53.80128694423089
 20
5.079999999999997
 30
0.0
 11
-55.60000000000001
 21
5.079999999999997
 31
0.0
  0
LINE
  5
CC
330
8E
100
AcDbEntity
  8
AM_9
100
AcDbLine
 10
-55.60000000000001
 20
-5.080000000000001
 30
0.0
 11
-53.80128694423089
 21
-5.080000000000001
 31
0.0
  0
LINE
  5
CD
330
8E
100
AcDbEntity
  8
AM_9
100
AcDbLine
 10
-49.88306325798366
 20
5.079999999999997
 30
0.0
 11
-51.60158241861842
 21
5.079999999999997
 31
0.0
  0
LINE
  5
CE
330
8E
100
AcDbEntity
  8
AM_9
100
AcDbLine
 10
-51.60158241861841
 20
-5.080000000000001
 30
0.0
 11
-49.88306325798366
 21
-5.080000000000001
 31
0.0
  0
ELLIPSE
  5
CF
330
8E
100
AcDbEntity
  8
AM_9
100
AcDbEllipse
 10
-49.88306325798366
 20
-0.0000000000000064
 30
0.0
 11
3.110602869834284E-16
 21
5.080000000000012
 31
0.0
210
0.0
220
0.0
230
1.0
 40
0.4999999999999974
 41
1.812133330595542
 42
7.601060418827432
  0
LINE
  5
D0
330
8E
100
AcDbEntity
  8
AM_9
100
AcDbLine
 10
-55.20577775993246
 20
-5.556250000000002
 30
0.0
 11
-55.60812562191487
 21
-4.557751347378503
 31
0.0
  0
LINE
  5
D1
330
8E
100
AcDbEntity
  8
AM_9
100
AcDbLine
 10
-55.20577775993246
 20
-5.556250000000002
 30
0.0
 11
-50.19709160291684
 21
-5.556250000000003
 31
0.0
  0
LWPOLYLINE
  5
D2
330
8E
100
AcDbEntity
  8
AM_9
100
AcDbPolyline
 90
        3
 70
     0
 43
0.0
 10
-53.72854493460741
 20
-3.854959895782306
 10
-53.6591687448025
 20
-4.167187500000002
 10
-53.4049940361017
 20
-5.556250000000002
  0
LINE
  5
D3
330
8E
100
AcDbEntity
  8
AM_9
100
AcDbLine
 10
-54.00750924350706
 20
-2.778125000000001
 30
0.0
 11
-53.72854493460741
 21
-3.854959895782306
 31
0.0
  0
LWPOLYLINE
  5
D4
330
8E
100
AcDbEntity
  8
AM_9
100
AcDbPolyline
 90
        3
 70
     0
 43
0.0
 10
-55.00894525269413
 20
-0.0000000000000006
 10
-54.46341241138651
 20
-1.382816900963401
 10
-54.00750924350706
 20
-2.778125000000001
  0
LINE
  5
D5
330
8E
100
AcDbEntity
  8
AM_9
100
AcDbLine
 10
-55.20577775993246
 20
5.556249999999999
 30
0.0
 11
-50.19709160291684
 21
5.556249999999999
 31
0.0
  0
LINE
  5
D6
330
8E
100
AcDbEntity
  8
AM_9
100
AcDbLine
 10
-55.60825723600571
 20
4.557406458533242
 30
0.0
 11
-55.20577775993246
 21
5.556249999999999
 31
0.0
  0
LINE
  5
D7
330
8E
100
AcDbEntity
  8
AM_9
100
AcDbLine
 10
-55.60000000000001
 20
-0.0000000000000006
 30
0.0
 11
-55.00894525269413
 21
-0.0000000000000006
 31
0.0
  0
LWPOLYLINE
  5
D8
330
8E
100
AcDbEntity
  8
AM_9
100
AcDbPolyline
 90
        3
 70
     0
 43
0.0
 10
-54.00750924350706
 20
2.778124999999999
 10
-54.46114435309871
 20
1.389062499999999
 10
-55.00894525269413
 20
-0.0000000000000006
  0
LINE
  5
D9
330
8E
100
AcDbEntity
  8
AM_9
100
AcDbLine
 10
-53.72879651592165
 20
3.853866952567805
 30
0.0
 11
-54.00750924350706
 21
2.778124999999999
 31
0.0
  0
LWPOLYLINE
  5
DA
330
8E
100
AcDbEntity
  8
AM_9
100
AcDbPolyline
 90
        3
 70
     0
 43
0.0
 10
-53.4049940361017
 20
5.556249999999999
 10
-53.65783090480527
 20
4.173433099036599
 10
-53.72879651592165
 20
3.853866952567805
  0
LINE
  5
DB
330
8E
100
AcDbEntity
  8
AM_9
100
AcDbLine
 10
-45.55105205287294
 20
4.708725846697615
 30
0.0
 11
-49.83917987253147
 21
4.863493258495418
 31
0.0
  0
LINE
  5
DC
330
8E
100
AcDbEntity
  8
AM_9
100
AcDbLine
 10
-49.83917987253147
 20
-4.863493258495422
 30
0.0
 11
-45.55105205287294
 21
-4.708725846697618
 31
0.0
  0
LINE
  5
DD
330
8E
100
AcDbEntity
  8
AM_9
100
AcDbLine
 10
-43.88580601255632
 20
3.352827683708302
 30
0.0
 11
-44.23402558657789
 21
3.845284527973389
 31
0.0
  0
LINE
  5
DE
330
8E
100
AcDbEntity
  8
AM_9
100
AcDbLine
 10
-44.23402558657789
 20
-3.845284527973393
 30
0.0
 11
-43.88580601255632
 21
-3.352827683708306
 31
0.0
  0
ELLIPSE
  5
DF
330
8E
100
AcDbEntity
  8
AM_9
100
AcDbEllipse
 10
-53.80128694423091
 20
-0.0000000000000007
 30
0.0
 11
3.402221888881227E-16
 21
5.556249999999978
 31
0.0
210
0.0
220
0.0
230
1.0
 40
0.4999999999999999
 41
0.0
 42
6.283185307179586
  0
ELLIPSE
  5
E0
330
8E
100
AcDbEntity
  8
AM_9
100
AcDbEllipse
 10
-53.80128694423088
 20
0.0000000000000089
 30
0.0
 11
3.110602869834286E-16
 21
5.080000000000013
 31
0.0
210
0.0
220
0.0
230
1.0
 40
0.4999999999999985
 41
0.0
 42
6.283185307179586
  0
ELLIPSE
  5
E1
330
8E
100
AcDbEntity
  8
AM_9
100
AcDbEllipse
 10
-51.60158241861551
 20
-0.0000000000012044
 30
0.0
 11
3.402221888879888E-16
 21
5.556249999997791
 31
0.0
210
0.0
220
0.0
230
1.0
 40
0.5000000000005792
 41
0.0
 42
6.283185307179586
  0
ELLIPSE
  5
E2
330
8E
100
AcDbEntity
  8
AM_9
100
AcDbEllipse
 10
-51.60158241861841
 20
-0.0000000000000009
 30
0.0
 11
3.110602869834279E-16
 21
5.080000000000004
 31
0.0
210
0.0
220
0.0
230
1.0
 40
0.4999999999999967
 41
0.0
 42
6.283185307179586
  0
ELLIPSE
  5
E3
330
8E
100
AcDbEntity
  8
AM_9
100
AcDbEllipse
 10
-49.88306325798368
 20
-0.0000000000000009
 30
0.0
 11
2.978515598206522E-16
 21
4.86428511515366
 31
0.0
210
0.0
220
0.0
230
1.0
 40
0.4999999999999989
 41
0.0
 42
6.283185307179586
  0
ELLIPSE
  5
E4
330
8E
100
AcDbEntity
  8
AM_9
100
AcDbEllipse
 10
-45.59353896923874
 20
-0.000000000000008
 30
0.0
 11
2.883732460730461E-16
 21
4.709492504676823
 31
0.0
210
0.0
220
0.0
230
1.0
 40
0.5000000000000023
 41
0.0
 42
6.283185307179586
  0
ELLIPSE
  5
E5
330
8E
100
AcDbEntity
  8
AM_9
100
AcDbEllipse
 10
-45.0712096082064
 20
0.0
 30
0.0
 11
2.514419402883857E-16
 21
4.106358510281486
 31
0.0
210
0.0
220
0.0
230
1.0
 40
0.5000000000000047
 41
0.0
 42
6.283185307179586
  0
LINE
  5
E7
330
8E
100
AcDbEntity
  8
AM_4
100
AcDbLine
 10
-55.73927664271592
 20
-5.996343371387007
 30
0.0
 11
-55.5979586546926
 21
-6.145924475337351
 31
0.0
  0
LINE
  5
E8
330
8E
100
AcDbEntity
  8
AM_4
100
AcDbLine
 10
-55.59614942857773
 20
-6.646494473735393
 30
0.0
 11
-55.79913834494544
 21
-6.609853898455522
 31
0.0
  0
LWPOLYLINE
  5
E9
330
8E
100
AcDbEntity
  8
AM_4
100
AcDbPolyline
 90
        3
 70
     0
 43
0.0
 10
-56.2639559964242
 20
-7.76086478799207
 10
-55.84785434910216
 20
-7.69811432306444
 10
-55.60156520807698
 20
-7.640532397063009
  0
LINE
  5
EA
330
8E
100
AcDbEntity
  8
AM_4
100
AcDbLine
 10
-59.16433258799718
 20
-12.93739051932093
 30
0.0
 11
-57.62479413120867
 21
-11.53205948275794
 31
0.0
  0
LINE
  5
EB
330
8E
100
AcDbEntity
  8
AM_4
100
AcDbLine
 10
-64.1458673806255
 20
-8.898626575676335
 30
0.0
 11
-64.01395445444093
 21
-10.9789469745965
 31
0.0
  0
ELLIPSE
  5
EC
330
8E
100
AcDbEntity
  8
AM_4
100
AcDbEllipse
 10
-61.56817695152936
 20
-11.90625000000001
 30
0.0
 11
-2.437227270755862
 21
0.9842359150649281
 31
0.0
210
0.0
220
0.0
230
1.0
 40
0.2113091308703481
 41
0.1009830038932469
 42
3.040609649696545
  0
LINE
  5
ED
330
8E
100
AcDbEntity
  8
AM_4
100
AcDbLine
 10
-62.78773085522307
 20
-3.837282897828231
 30
0.0
 11
-63.07529881510955
 21
-4.549376881905936
 31
0.0
  0
LWPOLYLINE
  5
EE
330
8E
100
AcDbEntity
  8
AM_4
100
AcDbPolyline
 90
        9
 70
     0
 43
0.0
 10
-63.53391401345505
 20
-8.074725592993179
 10
-63.58423207607712
 20
-8.091122148941858
 10
-63.7303759582287
 20
-8.15639566705736
 10
-63.86177913490091
 20
-8.245445309243834
 10
-63.97528668587983
 20
-8.359768027550347
 10
-64.06435522213863
 20
-8.497209501225052
 10
-64.12571423183924
 20
-8.6638092623624
 10
-64.14726642054327
 20
-8.82893342241511
 10
-64.14481606399167
 20
-8.913148443205799
  0
LWPOLYLINE
  5
EF
330
8E
100
AcDbEntity
  8
AM_4
100
AcDbPolyline
 90
        9
 70
     0
 43
0.0
 10
-57.63585918104931
 20
-11.54197632537901
 10
-57.57674262215161
 20
-11.48434633758116
 10
-57.47904770388025
 20
-11.35385580201185
 10
-57.40535674118983
 20
-11.18874434020068
 10
-57.37301974896289
 20
-11.02203884950202
 10
-57.37582834247966
 20
-10.86307663191722
 10
-57.40680954683226
 20
-10.71450026490308
 10
-57.46137210068012
 20
-10.57486891817208
 10
-57.4927061007873
 20
-10.51478052606262
  0
ELLIPSE
  5
F0
330
8E
100
AcDbEntity
  8
AM_4
100
AcDbEllipse
 10
-60.85713793171328
 20
-10.14553017343999
 30
0.0
 11
-3.27723232775051
 21
1.323458750723533
 31
0.0
210
0.0
220
0.0
230
1.0
 40
0.2113091308703476
 41
0.1054387620776085
 42
3.036068447092105
  0
LWPOLYLINE
  5
F1
330
8E
100
AcDbEntity
  8
AM_4
100
AcDbPolyline
 90
        3
 70
     0
 43
0.0
 10
-57.47644621592416
 20
-7.58869625231989
 10
-57.13270127221426
 20
-7.697739397127513
 10
-56.78829544273963
 20
-7.758592464327529
  0
LINE
  5
F2
330
8E
100
AcDbEntity
  8
AM_4
100
AcDbLine
 10
-56.79400195689315
 20
-7.757990703186896
 30
0.0
 11
-56.76576855523723
 21
-7.76086478799207
 31
0.0
  0
ELLIPSE
  5
F3
330
8E
100
AcDbEntity
  8
AM_4
100
AcDbEllipse
 10
-59.29057045928351
 20
-6.266296641270967
 30
0.0
 11
-3.312005593887009
 21
1.337501387545415
 31
0.0
210
0.0
220
0.0
230
1.0
 40
0.2113091308703426
 41
1.711945269609625
 42
2.505596057672117
  0
LWPOLYLINE
  5
F4
330
8E
100
AcDbEntity
  8
AM_4
100
AcDbPolyline
 90
        4
 70
     0
 43
0.0
 10
-63.07529881510955
 20
-4.549376881905936
 10
-62.69742001681541
 20
-5.05042200837363
 10
-62.28011650185149
 20
-5.477080537076166
 10
-62.14049222912338
 20
-5.59226878358325
  0
LINE
  5
F5
330
8E
100
AcDbEntity
  8
AM_4
100
AcDbLine
 10
-62.14298515588487
 20
-5.590323799250987
 30
0.0
 11
-62.12288739454062
 21
-5.606004100241778
 31
0.0
  0
LWPOLYLINE
  5
F6
330
8E
100
AcDbEntity
  8
AM_4
100
AcDbPolyline
 90
        3
 70
     0
 43
0.0
 10
-62.14049222912338
 20
-5.59226878358325
 10
-61.81180298051824
 20
-5.817773758536458
 10
-61.30696881258341
 20
-6.068998929608745
  0
LWPOLYLINE
  5
F7
330
8E
100
AcDbEntity
  8
AM_4
100
AcDbPolyline
 90
        4
 70
     0
 43
0.0
 10
-56.30095090375845
 20
-6.609853898455276
 10
-56.53586624327136
 20
-6.646959991776583
 10
-56.84822318649208
 20
-6.724401268817782
 10
-57.17023272342531
 20
-6.830431020205951
  0
LINE
  5
F8
330
8E
100
AcDbEntity
  8
AM_4
100
AcDbLine
 10
-61.03590210683807
 20
-3.126658350638854
 30
0.0
 11
-61.41647718346751
 21
-4.069062444143282
 31
0.0
  0
LINE
  5
F9
330
8E
100
AcDbEntity
  8
AM_4
100
AcDbLine
 10
-56.23502843214201
 20
-6.161509059325487
 30
0.0
 11
-55.79827800208216
 21
-5.080000000000001
 31
0.0
  0
ELLIPSE
  5
FA
330
8E
100
AcDbEntity
  8
AM_4
100
AcDbEllipse
 10
-58.82575280780475
 20
-5.115285751734387
 30
0.0
 11
-2.590724375662752
 21
1.046223307591104
 31
0.0
210
0.0
220
0.0
230
1.0
 40
0.2113091308703499
 41
0.0
 42
3.141592653589793
  0
LWPOLYLINE
  5
FB
330
8E
100
AcDbEntity
  8
AM_4
100
AcDbPolyline
 90
        4
 70
     0
 43
0.0
 10
-62.78773085522307
 20
-3.837282897828231
 10
-62.36568846873985
 20
-3.705296695971724
 10
-61.95790130729947
 20
-3.624930539193417
 10
-61.66304422321155
 20
-3.60574614931637
  0
LWPOLYLINE
  5
FC
330
8E
100
AcDbEntity
  8
AM_4
100
AcDbPolyline
 90
        7
 70
     0
 43
0.0
 10
-61.01011275860693
 20
-5.333905179049321
 10
-61.2719648220831
 20
-4.936675458173813
 10
-61.56009802367205
 20
-4.585948207644054
 10
-61.88303297792294
 20
-4.290054100087518
 10
-62.23598950314112
 20
-4.060772684155615
 10
-62.50709233001345
 20
-3.934543968436728
 10
-62.78773085522307
 20
-3.837282897828231
  0
LINE
  5
FD
330
8E
100
AcDbEntity
  8
AM_4
100
AcDbLine
 10
-61.62926594322368
 20
-3.605746148079322
 30
0.0
 11
-61.66580325008678
 21
-3.605746148079322
 31
0.0
  0
ELLIPSE
  5
FE
330
8E
100
AcDbEntity
  8
AM_4
100
AcDbEllipse
 10
-58.82575280805303
 20
-5.115285751711908
 30
0.0
 11
-3.312005594180037
 21
1.337501387635493
 31
0.0
210
0.0
220
0.0
230
1.0
 40
0.2113091308758587
 41
3.806340372002078
 42
3.814164134968641
  0
ELLIPSE
  5
FF
330
8E
100
AcDbEntity
  8
AM_4
100
AcDbEllipse
 10
-58.8257528078051
 20
-5.115285751733852
 30
0.0
 11
-3.312005593886539
 21
1.337501387544982
 31
0.0
210
0.0
220
0.0
230
1.0
 40
0.2113091308703029
 41
5.610613825799284
 42
7.795870906981689
  0
ELLIPSE
  5
100
330
8E
100
AcDbEntity
  8
AM_4
100
AcDbEllipse
 10
-59.29057045928351
 20
-6.266296641270946
 30
0.0
 11
-3.312005593887009
 21
1.337501387545442
 31
0.0
210
0.0
220
0.0
230
1.0
 40
0.2113091308703446
 41
0.6359965959176836
 42
1.512685599801944
  0
LWPOLYLINE
  5
101
330
8E
100
AcDbEntity
  8
AM_4
100
AcDbPolyline
 90
        3
 70
     0
 43
0.0
 10
-56.76576855523723
 20
-7.76086478799207
 10
-56.525733503525
 20
-7.784509761460651
 10
-56.2639559964242
 20
-7.76086478799207
  0
LWPOLYLINE
  5
102
330
8E
100
AcDbEntity
  8
AM_4
100
AcDbPolyline
 90
       17
 70
     0
 43
0.0
 10
-57.48134615885181
 20
-10.53536170051321
 10
-57.54034363705728
 20
-10.40719536351847
 10
-57.60065824685327
 20
-10.23524632400427
 10
-57.64910228341047
 20
-10.02836587865252
 10
-57.67587355336439
 20
-9.793174055754518
 10
-57.67329419004832
 20
-9.539840497607281
 10
-57.63707482677945
 20
-9.278980160864721
 10
-57.5573526534382
 20
-8.995710448371153
 10
-57.44127320999521
 20
-8.732895629008048
 10
-57.29613817035048
 20
-8.497896172538653
 10
-57.12986315220005
 20
-8.29460175085804
 10
-56.95120362108937
 20
-8.125300277865655
 10
-56.7702411823151
 20
-7.991042901085569
 10
-56.59798819347002
 20
-7.891019644846629
 10
-56.44451539265314
 20
-7.821836492812319
 10
-56.31664501424356
 20
-7.777815113810474
 10
-56.21830925676181
 20
-7.752661491808881
  0
LWPOLYLINE
  5
103
330
8E
100
AcDbEntity
  8
AM_4
100
AcDbPolyline
 90
       18
 70
     0
 43
0.0
 10
-62.52985256096273
 20
-5.207757399434255
 10
-62.52706260125654
 20
-5.211972916649563
 10
-62.47160716729275
 20
-5.304048233924804
 10
-62.40951339092775
 20
-5.429702313417589
 10
-62.34763396714233
 20
-5.591450966054826
 10
-62.29486735258146
 20
-5.789040977862525
 10
-62.26115205249531
 20
-6.017272684182213
 10
-62.25497290007874
 20
-6.266645625955855
 10
-62.28157482966817
 20
-6.526417719953121
 10
-62.35133069244947
 20
-6.813387596640585
 10
-62.45902705917746
 20
-7.082285656250221
 10
-62.59765013617026
 20
-7.324685534947205
 10
-62.75943115182968
 20
-7.536136963492887
 10
-62.93589361589557
 20
-7.714061497415031
 10
-63.11729592263364
 20
-7.857062601355963
 10
-63.29274263787592
 20
-7.96540593242514
 10
-63.45168692576052
 20
-8.041811431914176
 10
-63.55800532132051
 20
-8.082175751468677
  0
ELLIPSE
  5
104
330
8E
100
AcDbEntity
  8
AM_4
100
AcDbEllipse
 10
-60.58599338956624
 20
-9.474104895899876
 30
0.0
 11
-3.136987913476886
 21
1.266823248950025
 31
0.0
210
0.0
220
0.0
230
1.0
 40
0.2113091308703532
 41
6.042395401739531
 42
9.665083896173416
  0
ELLIPSE
  5
105
330
8E
100
AcDbEntity
  8
AM_4
100
AcDbEllipse
 10
-60.58599338972914
 20
-9.474104895753866
 30
0.0
 11
-3.136987913304166
 21
1.266823248810939
 31
0.0
210
0.0
220
0.0
230
1.0
 40
0.2113091308657639
 41
-0.2578329135997892
 42
-0.2407899054435747
  0
ELLIPSE
  5
106
330
8E
100
AcDbEntity
  8
AM_4
100
AcDbEllipse
 10
-58.82575280780475
 20
-5.115285751734403
 30
0.0
 11
-3.312005593887179
 21
1.337501387545077
 31
0.0
210
0.0
220
0.0
230
1.0
 40
0.211309130870359
 41
1.711945269609614
 42
2.518556725320337
  0
LINE
  5
107
330
8E
100
AcDbEntity
  8
AM_4
100
AcDbLine
 10
-55.79913834494544
 20
-6.609853898455522
 30
0.0
 11
-56.30095090375845
 21
-6.609853898455276
 31
0.0
  0
ELLIPSE
  5
108
330
8E
100
AcDbEntity
  8
AM_4
100
AcDbEllipse
 10
-58.82575280780532
 20
-5.115285751734189
 30
0.0
 11
-3.312005593887626
 21
1.337501387545608
 31
0.0
210
0.0
220
0.0
230
1.0
 40
0.2113091308703479
 41
-3.482716060695207
 42
-3.300252682979538
  0
ELLIPSE
  5
109
330
8E
100
AcDbEntity
  8
AM_4
100
AcDbEllipse
 10
-58.82575280780589
 20
-5.115285751734135
 30
0.0
 11
-3.312005593888216
 21
1.337501387545825
 31
0.0
210
0.0
220
0.0
230
1.0
 40
0.2113091308703578
 41
3.470507964079003
 42
3.607080702195103
  0
LINE
  5
10A
330
8E
100
AcDbEntity
  8
AM_4
100
AcDbLine
 10
-56.04462350933383
 20
-5.736282007269851
 30
0.0
 11
-55.73927664271592
 21
-5.996343371387007
 31
0.0
  0
LWPOLYLINE
  5
10B
330
8E
100
AcDbEntity
  8
AM_4
100
AcDbPolyline
 90
        3
 70
     0
 43
0.0
 10
-57.17023272342531
 20
-6.830431020205951
 10
-57.88301514263394
 20
-6.382400080731244
 10
-58.63963300551877
 20
-5.996343371387013
  0
LINE
  5
10C
330
8E
100
AcDbEntity
  8
AM_4
100
AcDbLine
 10
-58.63963300551877
 20
-5.996343371387013
 30
0.0
 11
-59.30025675477879
 21
-5.736282007269859
 31
0.0
  0
LWPOLYLINE
  5
10D
330
8E
100
AcDbEntity
  8
AM_4
100
AcDbPolyline
 90
        4
 70
     0
 43
0.0
 10
-59.30025675477879
 20
-5.736282007269859
 10
-59.8842036359617
 20
-5.560509266840902
 10
-60.44315273042309
 20
-5.432128708591388
 10
-61.01011275860693
 20
-5.333905179049321
  0
LINE
  5
10E
330
8E
100
AcDbEntity
  8
AM_4
100
AcDbLine
 10
-61.01011275860693
 20
-5.333905179049321
 30
0.0
 11
-61.30696881258338
 21
-6.068998929608747
 31
0.0
  0
LWPOLYLINE
  5
10F
330
8E
100
AcDbEntity
  8
AM_4
100
AcDbPolyline
 90
        3
 70
     0
 43
0.0
 10
-61.30696881258338
 20
-6.068998929608747
 10
-60.55310135324481
 20
-6.504786871533986
 10
-59.7650744062575
 20
-6.887292896806422
  0
LINE
  5
110
330
8E
100
AcDbEntity
  8
AM_4
100
AcDbLine
 10
-59.7650744062575
 20
-6.887292896806422
 30
0.0
 11
-59.10445065699758
 21
-7.14735426092354
 31
0.0
  0
LWPOLYLINE
  5
111
330
8E
100
AcDbEntity
  8
AM_4
100
AcDbPolyline
 90
        3
 70
     0
 43
0.0
 10
-59.10445065699758
 20
-7.14735426092354
 10
-58.30052666530535
 20
-7.395910919975459
 10
-57.47644621592416
 20
-7.58869625231989
  0
LINE
  5
112
330
8E
100
AcDbEntity
  8
AM_4
100
AcDbLine
 10
-57.17023272342531
 20
-6.830431020205951
 30
0.0
 11
-57.47644621592416
 21
-7.58869625231989
 31
0.0
  0
ARC
  5
113
330
8E
100
AcDbEntity
  8
AM_4
100
AcDbCircle
 10
-57.03210296622423
 20
0.0000000000000102
 30
0.0
 40
5.079999999999988
100
AcDbArc
 50
90.0
 51
219.6396774771801
  0
LWPOLYLINE
  5
114
330
8E
100
AcDbEntity
  8
AM_4
100
AcDbPolyline
 90
       10
 70
     0
 43
0.0
 10
-60.94884720521482
 20
-3.235043684306185
 10
-60.90659484408116
 20
-3.281280336792629
 10
-60.74714514348251
 20
-3.41561366815326
 10
-60.5145421272894
 20
-3.569173128090977
 10
-60.22761892257432
 20
-3.729407788863488
 10
-59.87859368359927
 20
-3.900563582124101
 10
-59.49603184421643
 20
-4.068570560479343
 10
-59.06947890459707
 20
-4.237973131810882
 10
-58.62753576628558
 20
-4.397035613753721
 10
-58.16415811089636
 20
-4.547549295795372
  0
ELLIPSE
  5
115
330
8E
100
AcDbEntity
  8
AM_4
100
AcDbEllipse
 10
-57.03210296622422
 20
-0.0000000000000058
 30
0.0
 11
3.110602869834271E-16
 21
5.079999999999989
 31
0.0
210
0.0
220
0.0
230
1.0
 40
0.4999999999999981
 41
0.0
 42
2.679646633022829
  0
LINE
  5
116
330
8E
100
AcDbEntity
  8
AM_4
100
AcDbLine
 10
-55.60000000000001
 20
5.079999999999997
 30
0.0
 11
-57.03210296622422
 21
5.079999999999997
 31
0.0
  0
LINE
  5
117
330
8E
100
AcDbEntity
  8
AM_4
100
AcDbLine
 10
-56.14548501881052
 20
-5.080000000000001
 30
0.0
 11
-55.60000000000001
 21
-5.080000000000001
 31
0.0
  0
LWPOLYLINE
  5
118
330
8E
100
AcDbEntity
  8
AM_4
100
AcDbPolyline
 90
        8
 70
     0
 43
0.0
 10
-56.14173129944707
 20
-5.079999999236803
 10
-56.17950407732538
 20
-5.079458245572024
 10
-56.4556935294348
 20
-5.050335633392995
 10
-56.77061090096995
 20
-4.982589552160019
 10
-57.13696603226614
 20
-4.878563523460394
 10
-57.53099572073091
 20
-4.752207997638139
 10
-57.96516817691997
 20
-4.610115106939384
 10
-58.1641581108968
 20
-4.547549295794528
  0
LWPOLYLINE
  5
119
330
8E
100
AcDbEntity
  8
AM_4
100
AcDbPolyline
 90
        3
 70
     0
 43
0.0
 10
-56.20721376911953
 20
-2.778125000000001
 10
-56.55555426782409
 20
-1.389062500000001
 10
-56.80972897652489
 20
-0.0000000000000007
  0
LWPOLYLINE
  5
11A
330
8E
100
AcDbEntity
  8
AM_4
100
AcDbPolyline
 90
        3
 70
     0
 43
0.0
 10
-55.60812562191487
 20
-4.557751347378503
 10
-55.75131060124008
 20
-4.173433099036602
 10
-56.20721376911953
 20
-2.778125000000001
  0
LWPOLYLINE
  5
11B
330
8E
100
AcDbEntity
  8
AM_4
100
AcDbPolyline
 90
        3
 70
     0
 43
0.0
 10
-56.20721376911953
 20
2.778124999999998
 10
-55.75357865952788
 20
4.167187499999998
 10
-55.60825723600571
 20
4.557406458533242
  0
LWPOLYLINE
  5
11C
330
8E
100
AcDbEntity
  8
AM_4
100
AcDbPolyline
 90
        3
 70
     0
 43
0.0
 10
-56.80972897652489
 20
-0.0000000000000007
 10
-56.55689210782132
 20
1.382816900963398
 10
-56.20721376911953
 20
2.778124999999998
  0
LINE
  5
11D
330
8E
100
AcDbEntity
  8
AM_4
100
AcDbLine
 10
-56.80972897652489
 20
-0.0000000000000007
 30
0.0
 11
-55.60000000000001
 21
-0.0000000000000006
 31
0.0
  0
ENDBLK
  5
91
330
8E
100
AcDbEntity
  8
0
100
AcDbBlockEnd
  0
BLOCK
  5
120
330
11E
100
AcDbEntity
  8
0
100
AcDbBlockBegin
  2
3_129521_0_in_136251_4
 70
     2
 10
0.0
 20
0.0
 30
0.0
  3
3_129521_0_in_136251_4
  1

  0
ATTDEF
  5
122
330
11E
100
AcDbEntity
  8
AM_6
100
AcDbText
 10
44.99999841159863
 20
13.95
 30
0.0
 40
0.5
  1
INS-GT-M B
100
AcDbAttributeDefinition
  3

  2
NN
 70
     8
280
     0
  0
ATTDEF
  5
123
330
11E
100
AcDbEntity
  8
AM_6
100
AcDbText
 10
44.99999841159863
 20
13.45
 30
0.0
 40
0.5
  1
GT Normal Duty Bearing Inserts
100
AcDbAttributeDefinition
  3

  2
NT
 70
     8
280
     0
  0
ATTDEF
  5
124
330
11E
100
AcDbEntity
  8
AM_6
100
AcDbText
 10
44.99999841159863
 20
12.95
 30
0.0
 40
0.5
  1
129521
100
AcDbAttributeDefinition
  3

  2
NB
 70
     8
280
     0
  0
ATTDEF
  5
125
330
11E
100
AcDbEntity
  8
AM_6
100
AcDbText
 10
44.99999841159863
 20
12.45
 30
0.0
 40
0.5
  1
$PN.
100
AcDbAttributeDefinition
  3

  2
NBSYN
 70
     8
280
     0
  0
ATTDEF
  5
126
330
11E
100
AcDbEntity
  8
AM_6
100
AcDbText
 10
44.99999841159863
 20
11.95
 30
0.0
 40
0.5
  1
129521
100
AcDbAttributeDefinition
  3

  2
LINA
 70
     8
280
     0
  0
ATTDEF
  5
127
330
11E
100
AcDbEntity
  8
AM_6
100
AcDbText
 10
44.99999841159863
 20
11.45
 30
0.0
 40
0.5
  1
208
100
AcDbAttributeDefinition
  3

  2
SERIES
 70
     8
280
     0
  0
ATTDEF
  5
128
330
11E
100
AcDbEntity
  8
AM_6
100
AcDbText
 10
44.99999841159863
 20
10.95
 30
0.0
 40
0.5
  1
129521
100
AcDbAttributeDefinition
  3

  2
PN
 70
     8
280
     0
  0
ATTDEF
  5
129
330
11E
100
AcDbEntity
  8
AM_6
100
AcDbText
 10
44.99999841159863
 20
10.45
 30
0.0
 40
0.5
  1
INS-GT-08
100
AcDbAttributeDefinition
  3

  2
DESCRIPTION
 70
     8
280
     0
  0
ATTDEF
  5
12A
330
11E
100
AcDbEntity
  8
AM_6
100
AcDbText
 10
44.99999841159863
 20
9.95
 30
0.0
 40
0.5
  1
46.7
100
AcDbAttributeDefinition
  3

  2
A
 70
     8
280
     0
  0
ATTDEF
  5
12B
330
11E
100
AcDbEntity
  8
AM_6
100
AcDbText
 10
44.99999841159863
 20
9.45
 30
0.0
 40
0.5
  1
22.1
100
AcDbAttributeDefinition
  3

  2
C
 70
     8
280
     0
  0
ATTDEF
  5
12C
330
11E
100
AcDbEntity
  8
AM_6
100
AcDbText
 10
44.99999841159863
 20
8.95
 30
0.0
 40
0.5
  1
80.0
100
AcDbAttributeDefinition
  3

  2
D
 70
     8
280
     0
  0
ATTDEF
  5
12D
330
11E
100
AcDbEntity
  8
AM_6
100
AcDbText
 10
44.99999841159863
 20
8.45
 30
0.0
 40
0.5
  1
5.6
100
AcDbAttributeDefinition
  3

  2
J
 70
     8
280
     0
  0
ATTDEF
  5
12E
330
11E
100
AcDbEntity
  8
AM_6
100
AcDbText
 10
44.99999841159863
 20
7.949999999999999
 30
0.0
 40
0.5
  1
66.5
100
AcDbAttributeDefinition
  3

  2
L
 70
     8
280
     0
  0
ATTDEF
  5
12F
330
11E
100
AcDbEntity
  8
AM_6
100
AcDbText
 10
44.99999841159863
 20
7.449999999999999
 30
0.0
 40
0.5
  1
#10 - 32 x 1/4
100
AcDbAttributeDefinition
  3

  2
N
 70
     8
280
     0
  0
ATTDEF
  5
130
330
11E
100
AcDbEntity
  8
AM_6
100
AcDbText
 10
44.99999841159863
 20
6.949999999999999
 30
0.0
 40
0.5
  1
15.5
100
AcDbAttributeDefinition
  3

  2
W
 70
     8
280
     0
  0
ATTDEF
  5
131
330
11E
100
AcDbEntity
  8
AM_6
100
AcDbText
 10
44.99999841159863
 20
6.449999999999999
 30
0.0
 40
0.5
  1
31.2
100
AcDbAttributeDefinition
  3

  2
X
 70
     8
280
     0
  0
ATTDEF
  5
132
330
11E
100
AcDbEntity
  8
AM_6
100
AcDbText
 10
44.99999841159863
 20
5.949999999999999
 30
0.0
 40
0.5
  1
31.2
100
AcDbAttributeDefinition
  3

  2
Y
 70
     8
280
     0
  0
ATTDEF
  5
133
330
11E
100
AcDbEntity
  8
AM_6
100
AcDbText
 10
44.99999841159863
 20
5.449999999999999
 30
0.0
 40
0.5
  1
baldor
100
AcDbAttributeDefinition
  3

  2
COMPANY
 70
     8
280
     0
  0
LINE
  5
134
330
11E
100
AcDbEntity
  8
AM_9
100
AcDbLine
 10
24.80555555555555
 20
-23.40000000000001
 30
0.0
 11
24.80555555555555
 21
-11.70000000000007
 31
0.0
  0
LINE
  5
135
330
11E
100
AcDbEntity
  8
AM_9
100
AcDbLine
 10
-24.80555555555555
 20
-11.70000000000007
 30
0.0
 11
-24.80555555555555
 21
-23.40000000000001
 31
0.0
  0
LINE
  5
136
330
11E
100
AcDbEntity
  8
AM_9
100
AcDbLine
 10
-24.80555555555555
 20
-11.70000000000007
 30
0.0
 11
24.80555555555555
 21
-11.70000000000007
 31
0.0
  0
LINE
  5
137
330
11E
100
AcDbEntity
  8
AM_9
100
AcDbLine
 10
24.80555555555555
 20
-11.70000000000007
 30
0.0
 11
25.70127329301889
 21
13.95
 31
0.0
  0
LINE
  5
138
330
11E
100
AcDbEntity
  8
AM_9
100
AcDbLine
 10
-25.70127329301889
 20
13.95
 30
0.0
 11
-24.80555555555555
 21
-11.70000000000007
 31
0.0
  0
LINE
  5
139
330
11E
100
AcDbEntity
  8
AM_9
100
AcDbLine
 10
27.18055555555555
 20
-19.5
 30
0.0
 11
27.18055555555555
 21
-15.6
 31
0.0
  0
LINE
  5
13A
330
11E
100
AcDbEntity
  8
AM_9
100
AcDbLine
 10
-27.18055555555555
 20
-15.6
 30
0.0
 11
-27.18055555555555
 21
-19.5
 31
0.0
  0
LINE
  5
13B
330
11E
100
AcDbEntity
  8
AM_9
100
AcDbLine
 10
28.67155555555556
 20
-23.40000000000001
 30
0.0
 11
29.55555555555556
 21
-22.516
 31
0.0
  0
LINE
  5
13C
330
11E
100
AcDbEntity
  8
AM_9
100
AcDbLine
 10
-29.55555555555556
 20
-22.516
 30
0.0
 11
-28.67155555555556
 21
-23.40000000000001
 31
0.0
  0
LINE
  5
13D
330
11E
100
AcDbEntity
  8
AM_9
100
AcDbLine
 10
-28.67155555555556
 20
-23.40000000000001
 30
0.0
 11
28.67155555555556
 21
-23.40000000000001
 31
0.0
  0
LINE
  5
13E
330
11E
100
AcDbEntity
  8
AM_9
100
AcDbLine
 10
-29.55555555555555
 20
-15.6
 30
0.0
 11
29.55555555555555
 21
-15.6
 31
0.0
  0
LINE
  5
13F
330
11E
100
AcDbEntity
  8
AM_9
100
AcDbLine
 10
29.55555555555555
 20
-15.6
 30
0.0
 11
29.55555555555555
 21
-11.05
 31
0.0
  0
LINE
  5
140
330
11E
100
AcDbEntity
  8
AM_9
100
AcDbLine
 10
-29.55555555555555
 20
-11.05
 30
0.0
 11
-29.55555555555555
 21
-15.6
 31
0.0
  0
LINE
  5
141
330
11E
100
AcDbEntity
  8
AM_9
100
AcDbLine
 10
-28.67155555555556
 20
13.95
 30
0.0
 11
28.67155555555556
 21
13.95
 31
0.0
  0
LINE
  5
142
330
11E
100
AcDbEntity
  8
AM_9
100
AcDbLine
 10
-28.67155555555556
 20
13.95
 30
0.0
 11
-29.55555555555556
 21
13.066
 31
0.0
  0
LINE
  5
143
330
11E
100
AcDbEntity
  8
AM_9
100
AcDbLine
 10
29.55555555555556
 20
13.066
 30
0.0
 11
28.67155555555556
 21
13.95
 31
0.0
  0
LINE
  5
144
330
11E
100
AcDbEntity
  8
AM_9
100
AcDbLine
 10
-29.55555555555555
 20
13.066
 30
0.0
 11
29.55555555555555
 21
13.066
 31
0.0
  0
LINE
  5
145
330
11E
100
AcDbEntity
  8
AM_9
100
AcDbLine
 10
29.55555555555555
 20
11.05
 30
0.0
 11
29.55555555555555
 21
13.066
 31
0.0
  0
LINE
  5
146
330
11E
100
AcDbEntity
  8
AM_9
100
AcDbLine
 10
-29.55555555555555
 20
13.066
 30
0.0
 11
-29.55555555555555
 21
11.05
 31
0.0
  0
LINE
  5
147
330
11E
100
AcDbEntity
  8
AM_9
100
AcDbLine
 10
29.55555555555556
 20
-22.516
 30
0.0
 11
29.55555555555556
 21
-19.5
 31
0.0
  0
LINE
  5
148
330
11E
100
AcDbEntity
  8
AM_9
100
AcDbLine
 10
-29.55555555555556
 20
-19.5
 30
0.0
 11
-29.55555555555556
 21
-22.516
 31
0.0
  0
LINE
  5
149
330
11E
100
AcDbEntity
  8
AM_9
100
AcDbLine
 10
-29.55555555555556
 20
-22.516
 30
0.0
 11
29.55555555555556
 21
-22.516
 31
0.0
  0
LINE
  5
14A
330
11E
100
AcDbEntity
  8
AM_9
100
AcDbLine
 10
-29.55555555555556
 20
-19.5
 30
0.0
 11
29.55555555555556
 21
-19.5
 31
0.0
  0
LINE
  5
14B
330
11E
100
AcDbEntity
  8
AM_9
100
AcDbLine
 10
37.79
 20
-6.719999999999999
 30
0.0
 11
37.79
 21
-4.48
 31
0.0
  0
LINE
  5
14C
330
11E
100
AcDbEntity
  8
AM_9
100
AcDbLine
 10
-37.79
 20
-4.48
 30
0.0
 11
-37.79
 21
-6.719999999999999
 31
0.0
  0
LINE
  5
14D
330
11E
100
AcDbEntity
  8
AM_9
100
AcDbLine
 10
-37.19396883195164
 20
-11.05
 30
0.0
 11
37.19396883195164
 21
-11.05
 31
0.0
  0
ARC
  5
14E
330
11E
100
AcDbEntity
  8
AM_9
100
AcDbCircle
 10
37.19396883195163
 20
-10.16600000000001
 30
0.0
 40
0.8839999999999968
100
AcDbArc
 50
270.0
 51
338.5875329531165
  0
ARC
  5
14F
330
11E
100
AcDbEntity
  8
AM_9
100
AcDbCircle
 10
-37.19396883195163
 20
-10.16600000000001
 30
0.0
 40
0.8840000000000019
100
AcDbArc
 50
201.4124670468836
 51
270.0
  0
LINE
  5
150
330
11E
100
AcDbEntity
  8
AM_9
100
AcDbLine
 10
-37.19396883195164
 20
11.05
 30
0.0
 11
37.19396883195164
 21
11.05
 31
0.0
  0
ARC
  5
151
330
11E
100
AcDbEntity
  8
AM_9
100
AcDbCircle
 10
37.19396883195162
 20
10.16599999999998
 30
0.0
 40
0.8840000000000192
100
AcDbArc
 50
21.41246175694062
 51
90.0
  0
ARC
  5
152
330
11E
100
AcDbEntity
  8
AM_9
100
AcDbCircle
 10
-37.19396883195162
 20
10.16599999999998
 30
0.0
 40
0.8840000000000199
100
AcDbArc
 50
90.0
 51
158.5875382430594
  0
LINE
  5
153
330
11E
100
AcDbEntity
  8
AM_9
100
AcDbLine
 10
-38.01695196947391
 20
-10.48873015873016
 30
0.0
 11
38.01695196947391
 21
-10.48873015873016
 31
0.0
  0
ARC
  5
154
330
11E
100
AcDbEntity
  8
AM_9
100
AcDbCircle
 10
11.27000000000143
 20
-0.000000000000421
 30
0.0
 40
28.72999999999851
100
AcDbArc
 50
338.5875329531157
 51
345.9087452627391
  0
ARC
  5
155
330
11E
100
AcDbEntity
  8
AM_9
100
AcDbCircle
 10
-11.27000000000234
 20
-0.0000000000007088
 30
0.0
 40
28.72999999999755
100
AcDbArc
 50
194.0912547372607
 51
201.4124670468845
  0
LINE
  5
156
330
11E
100
AcDbEntity
  8
AM_9
100
AcDbLine
 10
-39.1354909663646
 20
-6.994806159104977
 30
0.0
 11
39.1354909663646
 21
-6.994806159104977
 31
0.0
  0
LINE
  5
157
330
11E
100
AcDbEntity
  8
AM_9
100
AcDbLine
 10
-38.9211410252814
 20
-6.719999999999999
 30
0.0
 11
38.9211410252814
 21
-6.719999999999999
 31
0.0
  0
ARC
  5
158
330
11E
100
AcDbEntity
  8
AM_9
100
AcDbCircle
 10
38.92114102528141
 20
-6.940999999999994
 30
0.0
 40
0.2209999999999971
100
AcDbArc
 50
345.9087565211294
 51
90.0
  0
ARC
  5
159
330
11E
100
AcDbEntity
  8
AM_9
100
AcDbCircle
 10
-38.92114102528141
 20
-6.940999999999994
 30
0.0
 40
0.2209999999999948
100
AcDbArc
 50
90.0
 51
194.0912434788706
  0
LINE
  5
15A
330
11E
100
AcDbEntity
  8
AM_9
100
AcDbLine
 10
-39.45907590159106
 20
-4.480000000000007
 30
0.0
 11
39.45907590159106
 21
-4.480000000000007
 31
0.0
  0
ARC
  5
15B
330
11E
100
AcDbEntity
  8
AM_9
100
AcDbCircle
 10
39.4590758982979
 20
-4.259000000000015
 30
0.0
 40
0.2209999999999921
100
AcDbArc
 50
270.0
 51
351.4083398709887
  0
ARC
  5
15C
330
11E
100
AcDbEntity
  8
AM_9
100
AcDbCircle
 10
-39.4590758982979
 20
-4.259000000000015
 30
0.0
 40
0.220999999999995
100
AcDbArc
 50
188.5916601290113
 51
270.0
  0
LINE
  5
15D
330
11E
100
AcDbEntity
  8
AM_9
100
AcDbLine
 10
-39.67759586650175
 20
-4.292015503875967
 30
0.0
 11
39.67759586650175
 21
-4.292015503875967
 31
0.0
  0
LINE
  5
15E
330
11E
100
AcDbEntity
  8
AM_9
100
AcDbLine
 10
-38.0169519992706
 20
10.48873008274664
 30
0.0
 11
38.0169519992706
 21
10.48873008274664
 31
0.0
  0
ARC
  5
15F
330
11E
100
AcDbEntity
  8
AM_9
100
AcDbCircle
 10
11.26999999999907
 20
-0.0000000000000903
 30
0.0
 40
28.73000000000089
100
AcDbArc
 50
351.4083398709851
 51
21.41246688411604
  0
ARC
  5
160
330
11E
100
AcDbEntity
  8
AM_9
100
AcDbCircle
 10
-11.27000000001373
 20
0.0000000000015561
 30
0.0
 40
28.72999999998665
100
AcDbArc
 50
158.5875331158763
 51
188.5916601290226
  0
ENDBLK
  5
121
330
11E
100
AcDbEntity
  8
0
100
AcDbBlockEnd
  0
BLOCK
  5
163
330
161
100
AcDbEntity
  8
0
100
AcDbBlockBegin
  2
4_129947_0_in_136251_4
 70
     2
 10
0.0
 20
0.0
 30
0.0
  3
4_129947_0_in_136251_4
  1

  0
ATTDEF
  5
165
330
161
100
AcDbEntity
  8
AM_6
100
AcDbText
 10
36.62182790415507
 20
16.7
 30
0.0
 40
0.5
  1
Grip Tight Normal Duty Adapter and Nut Metric Bore
100
AcDbAttributeDefinition
  3

  2
NN
 70
     8
280
     0
  0
ATTDEF
  5
166
330
161
100
AcDbEntity
  8
AM_6
100
AcDbText
 10
36.62182790415507
 20
16.2
 30
0.0
 40
0.5
  1
GT and GTM Adapter & Lock Nut Assemblies
100
AcDbAttributeDefinition
  3

  2
NT
 70
     8
280
     0
  0
ATTDEF
  5
167
330
161
100
AcDbEntity
  8
AM_6
100
AcDbText
 10
36.62182790415507
 20
15.7
 30
0.0
 40
0.5
  1
129947
100
AcDbAttributeDefinition
  3

  2
NB
 70
     8
280
     0
  0
ATTDEF
  5
168
330
161
100
AcDbEntity
  8
AM_6
100
AcDbText
 10
36.62182790415507
 20
15.2
 30
0.0
 40
0.5
  1
$PN.
100
AcDbAttributeDefinition
  3

  2
NBSYN
 70
     8
280
     0
  0
ATTDEF
  5
169
330
161
100
AcDbEntity
  8
AM_6
100
AcDbText
 10
36.62182790415507
 20
14.7
 30
0.0
 40
0.5
  1
129947
100
AcDbAttributeDefinition
  3

  2
LINA
 70
     8
280
     0
  0
ATTDEF
  5
16A
330
161
100
AcDbEntity
  8
AM_6
100
AcDbText
 10
36.62182790415507
 20
14.2
 30
0.0
 40
0.5
  1
208
100
AcDbAttributeDefinition
  3

  2
SERIES
 70
     8
280
     0
  0
ATTDEF
  5
16B
330
161
100
AcDbEntity
  8
AM_6
100
AcDbText
 10
36.62182790415507
 20
13.7
 30
0.0
 40
0.5
  1
40
100
AcDbAttributeDefinition
  3

  2
SS
 70
     8
280
     0
  0
ATTDEF
  5
16C
330
161
100
AcDbEntity
  8
AM_6
100
AcDbText
 10
36.62182790415507
 20
13.2
 30
0.0
 40
0.5
  1
129947
100
AcDbAttributeDefinition
  3

  2
PN
 70
     8
280
     0
  0
ATTDEF
  5
16D
330
161
100
AcDbEntity
  8
AM_6
100
AcDbText
 10
36.62182790415507
 20
12.7
 30
0.0
 40
0.5
  1
AN-GT-08-40M
100
AcDbAttributeDefinition
  3

  2
DESCRIPTION
 70
     8
280
     0
  0
ATTDEF
  5
16E
330
161
100
AcDbEntity
  8
AM_6
100
AcDbText
 10
36.62182790415507
 20
12.2
 30
0.0
 40
0.5
  1
46.8
100
AcDbAttributeDefinition
  3

  2
A
 70
     8
280
     0
  0
ATTDEF
  5
16F
330
161
100
AcDbEntity
  8
AM_6
100
AcDbText
 10
36.62182790415507
 20
11.7
 30
0.0
 40
0.5
  1
22.0
100
AcDbAttributeDefinition
  3

  2
C
 70
     8
280
     0
  0
ATTDEF
  5
170
330
161
100
AcDbEntity
  8
AM_6
100
AcDbText
 10
36.62182790415507
 20
11.2
 30
0.0
 40
0.5
  1
80.0
100
AcDbAttributeDefinition
  3

  2
D
 70
     8
280
     0
  0
ATTDEF
  5
171
330
161
100
AcDbEntity
  8
AM_6
100
AcDbText
 10
36.62182790415507
 20
10.7
 30
0.0
 40
0.5
  1
5.7
100
AcDbAttributeDefinition
  3

  2
J
 70
     8
280
     0
  0
ATTDEF
  5
172
330
161
100
AcDbEntity
  8
AM_6
100
AcDbText
 10
36.62182790415507
 20
10.2
 30
0.0
 40
0.5
  1
63.5
100
AcDbAttributeDefinition
  3

  2
L
 70
     8
280
     0
  0
ATTDEF
  5
173
330
161
100
AcDbEntity
  8
AM_6
100
AcDbText
 10
36.62182790415507
 20
9.7
 30
0.0
 40
0.5
  1
10 - 32 x 1/4
100
AcDbAttributeDefinition
  3

  2
N
 70
     8
280
     0
  0
ATTDEF
  5
174
330
161
100
AcDbEntity
  8
AM_6
100
AcDbText
 10
36.62182790415507
 20
9.2
 30
0.0
 40
0.5
  1
16.7
100
AcDbAttributeDefinition
  3

  2
W
 70
     8
280
     0
  0
ATTDEF
  5
175
330
161
100
AcDbEntity
  8
AM_6
100
AcDbText
 10
36.62182790415507
 20
8.7
 30
0.0
 40
0.5
  1
29.0
100
AcDbAttributeDefinition
  3

  2
X
 70
     8
280
     0
  0
ATTDEF
  5
176
330
161
100
AcDbEntity
  8
AM_6
100
AcDbText
 10
36.62182790415507
 20
8.2
 30
0.0
 40
0.5
  1
30.2
100
AcDbAttributeDefinition
  3

  2
Y
 70
     8
280
     0
  0
ATTDEF
  5
177
330
161
100
AcDbEntity
  8
AM_6
100
AcDbText
 10
36.62182790415507
 20
7.699999999999999
 30
0.0
 40
0.5
  1
baldor
100
AcDbAttributeDefinition
  3

  2
COMPANY
 70
     8
280
     0
  0
LINE
  5
178
330
161
100
AcDbEntity
  8
AM_9
100
AcDbLine
 10
-31.3182
 20
-28.01453333333333
 30
0.0
 11
-24.2443
 21
-28.01453333333333
 31
0.0
  0
LINE
  5
179
330
161
100
AcDbEntity
  8
AM_9
100
AcDbLine
 10
-24.2443
 20
-24.05213333333333
 30
0.0
 11
-31.3182
 21
-24.05213333333333
 31
0.0
  0
LINE
  5
17A
330
161
100
AcDbEntity
  8
AM_9
100
AcDbLine
 10
-24.2443
 20
-28.01453333333333
 30
0.0
 11
-23.8125
 21
-28.44633333333334
 31
0.0
  0
LINE
  5
17B
330
161
100
AcDbEntity
  8
AM_9
100
AcDbLine
 10
-23.8125
 20
-23.62033333333333
 30
0.0
 11
-24.2443
 21
-24.05213333333333
 31
0.0
  0
LINE
  5
17C
330
161
100
AcDbEntity
  8
AM_9
100
AcDbLine
 10
-23.8125
 20
-23.62033333333333
 30
0.0
 11
-23.8125
 21
-28.44633333333334
 31
0.0
  0
LINE
  5
17D
330
161
100
AcDbEntity
  8
AM_9
100
AcDbLine
 10
-24.2443
 20
-24.05213333333333
 30
0.0
 11
-24.2443
 21
-28.01453333333333
 31
0.0
  0
LINE
  5
17E
330
161
100
AcDbEntity
  8
AM_9
100
AcDbLine
 10
-31.3182
 20
-24.05213333333333
 30
0.0
 11
-31.74914705952247
 21
-23.62118627381086
 31
0.0
  0
LINE
  5
17F
330
161
100
AcDbEntity
  8
AM_9
100
AcDbLine
 10
-31.58672856913896
 20
-28.28306190247229
 30
0.0
 11
-31.3182
 21
-28.01453333333333
 31
0.0
  0
LINE
  5
180
330
161
100
AcDbEntity
  8
AM_9
100
AcDbLine
 10
-31.3182
 20
-24.05213333333333
 30
0.0
 11
-31.3182
 21
-28.01453333333333
 31
0.0
  0
LINE
  5
181
330
161
100
AcDbEntity
  8
AM_9
100
AcDbLine
 10
29.63332627775426
 20
-14.5
 30
0.0
 11
29.63332627775426
 21
-29.0
 31
0.0
  0
LINE
  5
182
330
161
100
AcDbEntity
  8
AM_9
100
AcDbLine
 10
20.0
 20
-30.09999999999999
 30
0.0
 11
20.0
 21
16.7
 31
0.0
  0
LINE
  5
183
330
161
100
AcDbEntity
  8
AM_9
100
AcDbLine
 10
-20.0
 20
16.7
 30
0.0
 11
-20.0
 21
-30.09999999999999
 31
0.0
  0
LINE
  5
184
330
161
100
AcDbEntity
  8
AM_9
100
AcDbLine
 10
23.68650793650792
 20
-21.75
 30
0.0
 11
23.68650793650792
 21
-10.87500000000038
 31
0.0
  0
LINE
  5
185
330
161
100
AcDbEntity
  8
AM_9
100
AcDbLine
 10
-23.68650793650792
 20
-10.87500000000038
 30
0.0
 11
-23.68650793650792
 21
-21.75
 31
0.0
  0
LINE
  5
186
330
161
100
AcDbEntity
  8
AM_9
100
AcDbLine
 10
1.25
 20
16.7
 30
0.0
 11
1.25
 21
-29.0
 31
0.0
  0
LINE
  5
187
330
161
100
AcDbEntity
  8
AM_9
100
AcDbLine
 10
-1.25
 20
16.7
 30
0.0
 11
-1.250000000000001
 21
-29.0
 31
0.0
  0
LINE
  5
188
330
161
100
AcDbEntity
  8
AM_9
100
AcDbLine
 10
23.68650793650792
 20
-10.87500000000038
 30
0.0
 11
24.64944815524288
 21
16.7
 31
0.0
  0
LINE
  5
189
330
161
100
AcDbEntity
  8
AM_9
100
AcDbLine
 10
-24.64944815524288
 20
16.7
 30
0.0
 11
-23.68650793650792
 21
-10.87500000000038
 31
0.0
  0
LINE
  5
18A
330
161
100
AcDbEntity
  8
AM_9
100
AcDbLine
 10
-23.68650793650792
 20
-10.87500000000038
 30
0.0
 11
23.68650793650792
 21
-10.87500000000038
 31
0.0
  0
LINE
  5
18B
330
161
100
AcDbEntity
  8
AM_9
100
AcDbLine
 10
-24.64944815524288
 20
16.7
 30
0.0
 11
24.64944815524288
 21
16.7
 31
0.0
  0
LINE
  5
18C
330
161
100
AcDbEntity
  8
AM_9
100
AcDbLine
 10
25.95436507936508
 20
-18.125
 30
0.0
 11
25.95436507936508
 21
-14.5
 31
0.0
  0
LINE
  5
18D
330
161
100
AcDbEntity
  8
AM_9
100
AcDbLine
 10
-25.95436507936508
 20
-14.5
 30
0.0
 11
-25.95436507936508
 21
-18.125
 31
0.0
  0
LINE
  5
18E
330
161
100
AcDbEntity
  8
AM_9
100
AcDbLine
 10
-31.75
 20
-15.38
 30
0.0
 11
-31.75
 21
-18.37
 31
0.0
  0
LINE
  5
18F
330
161
100
AcDbEntity
  8
AM_9
100
AcDbLine
 10
-30.87
 20
-14.5
 30
0.0
 11
-31.75
 21
-15.38
 31
0.0
  0
LINE
  5
190
330
161
100
AcDbEntity
  8
AM_9
100
AcDbLine
 10
-31.75
 20
-15.38
 30
0.0
 11
-18.2790863528632
 21
-15.38
 31
0.0
  0
LINE
  5
191
330
161
100
AcDbEntity
  8
AM_9
100
AcDbLine
 10
-17.8372517486191
 20
-14.5
 30
0.0
 11
-18.2790863528632
 21
-15.38
 31
0.0
  0
LINE
  5
192
330
161
100
AcDbEntity
  8
AM_9
100
AcDbLine
 10
-18.2790863528632
 20
-15.38
 30
0.0
 11
-18.2790863528632
 21
-18.37
 31
0.0
  0
LINE
  5
193
330
161
100
AcDbEntity
  8
AM_9
100
AcDbLine
 10
-12.34849073809149
 20
-14.5
 30
0.0
 11
-12.34849073809149
 21
-29.0
 31
0.0
  0
LINE
  5
194
330
161
100
AcDbEntity
  8
AM_9
100
AcDbLine
 10
-17.28483553966279
 20
-14.5
 30
0.0
 11
-17.28483553966279
 21
-18.37
 31
0.0
  0
LINE
  5
195
330
161
100
AcDbEntity
  8
AM_9
100
AcDbLine
 10
-28.53972222222221
 20
-21.75
 30
0.0
 11
28.53972222222221
 21
-21.75
 31
0.0
  0
LINE
  5
196
330
161
100
AcDbEntity
  8
AM_9
100
AcDbLine
 10
-28.53972222222221
 20
-18.125
 30
0.0
 11
28.53972222222221
 21
-18.125
 31
0.0
  0
LINE
  5
197
330
161
100
AcDbEntity
  8
AM_9
100
AcDbLine
 10
28.53972222222221
 20
-21.75
 30
0.0
 11
28.53972222222221
 21
-18.125
 31
0.0
  0
LINE
  5
198
330
161
100
AcDbEntity
  8
AM_9
100
AcDbLine
 10
-28.53972222222221
 20
-18.125
 30
0.0
 11
-28.53972222222221
 21
-21.75
 31
0.0
  0
LINE
  5
199
330
161
100
AcDbEntity
  8
AM_9
100
AcDbLine
 10
31.62182790415507
 20
-15.38
 30
0.0
 11
31.62182790415507
 21
-18.37
 31
0.0
  0
LINE
  5
19A
330
161
100
AcDbEntity
  8
AM_9
100
AcDbLine
 10
-13.3427415512919
 20
-18.37
 30
0.0
 11
-13.3427415512919
 21
-15.38
 31
0.0
  0
LINE
  5
19B
330
161
100
AcDbEntity
  8
AM_9
100
AcDbLine
 10
30.73815869566686
 20
-14.5
 30
0.0
 11
31.62182790415507
 21
-15.38
 31
0.0
  0
LINE
  5
19C
330
161
100
AcDbEntity
  8
AM_9
100
AcDbLine
 10
-30.87
 20
-14.5
 30
0.0
 11
30.73815869566686
 21
-14.5
 31
0.0
  0
LINE
  5
19D
330
161
100
AcDbEntity
  8
AM_9
100
AcDbLine
 10
-13.3427415512919
 20
-15.38
 30
0.0
 11
-12.90090694704779
 21
-14.5
 31
0.0
  0
LINE
  5
19E
330
161
100
AcDbEntity
  8
AM_9
100
AcDbLine
 10
-13.3427415512919
 20
-15.38
 30
0.0
 11
31.62182790415507
 21
-15.38
 31
0.0
  0
LINE
  5
1A0
330
161
100
AcDbEntity
  8
AM_5
100
AcDbLine
 10
-31.42366666666667
 20
-28.44633333333334
 30
0.0
 11
-23.8125
 21
-28.44633333333334
 31
0.0
  0
LINE
  5
1A1
330
161
100
AcDbEntity
  8
AM_5
100
AcDbLine
 10
-31.75
 20
-23.62033333333333
 30
0.0
 11
-23.8125
 21
-23.62033333333333
 31
0.0
  0
LINE
  5
1A4
330
161
100
AcDbEntity
  8
AM_7
100
AcDbLine
 10
-23.415625
 20
-26.03333333333333
 30
0.0
 11
-32.146875
 21
-26.03333333333333
 31
0.0
  0
LINE
  5
1A5
330
161
100
AcDbEntity
  8
AM_4
100
AcDbLine
 10
1.25
 20
-30.1
 30
0.0
 11
1.250000000000001
 21
-29.0
 31
0.0
  0
LINE
  5
1A6
330
161
100
AcDbEntity
  8
AM_4
100
AcDbLine
 10
-1.25
 20
-30.1
 30
0.0
 11
-1.250000000000001
 21
-29.0
 31
0.0
  0
LINE
  5
1A7
330
161
100
AcDbEntity
  8
AM_4
100
AcDbLine
 10
23.68650793650795
 20
-30.09999999999999
 30
0.0
 11
23.68650793650795
 21
-29.0
 31
0.0
  0
LINE
  5
1A8
330
161
100
AcDbEntity
  8
AM_4
100
AcDbLine
 10
-23.68650793650795
 20
-29.0
 30
0.0
 11
-23.68650793650795
 21
-30.09999999999999
 31
0.0
  0
LINE
  5
1A9
330
161
100
AcDbEntity
  8
AM_4
100
AcDbLine
 10
-23.68650793650795
 20
-30.09999999999999
 30
0.0
 11
23.68650793650795
 21
-30.09999999999999
 31
0.0
  0
LINE
  5
1AA
330
161
100
AcDbEntity
  8
AM_4
100
AcDbLine
 10
-31.75
 20
-18.37
 30
0.0
 11
-31.75
 21
-23.62193147130282
 31
0.0
  0
LWPOLYLINE
  5
1AB
330
161
100
AcDbEntity
  8
AM_4
100
AcDbPolyline
 90
       17
 70
     0
 43
0.0
 10
-31.74999999999999
 20
-23.62033333333342
 10
-31.747864475827
 20
-23.65075777392661
 10
-31.74163377054971
 20
-23.74181026031613
 10
-31.73166199018869
 20
-23.89551231490357
 10
-31.71937823089596
 20
-24.10144788391267
 10
-31.70556750419053
 20
-24.36281760916607
 10
-31.69195326044411
 20
-24.66834017545677
 10
-31.67972576826203
 20
-25.01800640196369
 10
-31.67052443547428
 20
-25.39697312957393
 10
-31.6653440295296
 20
-25.80377195088388
 10
-31.66505398163796
 20
-26.21493454882038
 10
-31.66985091897969
 20
-26.6326251158425
 10
-31.67900095943658
 20
-27.02407562171381
 10
-31.69194072721891
 20
-27.39801384036441
 10
-31.70293865087949
 20
-27.6493422445569
 10
-31.71449307978378
 20
-27.87698309069644
 10
-31.72849550524234
 20
-28.12000000000001
  0
LINE
  5
1AC
330
161
100
AcDbEntity
  8
AM_4
100
AcDbLine
 10
-18.2790863528632
 20
-18.37
 30
0.0
 11
-18.2790863528632
 21
-28.12
 31
0.0
  0
LINE
  5
1AD
330
161
100
AcDbEntity
  8
AM_4
100
AcDbLine
 10
-31.72849550524234
 20
-28.12
 30
0.0
 11
-18.2790863528632
 21
-28.12
 31
0.0
  0
LINE
  5
1AE
330
161
100
AcDbEntity
  8
AM_4
100
AcDbLine
 10
-31.72849550524234
 20
-28.12
 30
0.0
 11
-31.58683333333342
 21
-28.28316666666657
 31
0.0
  0
LINE
  5
1AF
330
161
100
AcDbEntity
  8
AM_4
100
AcDbLine
 10
-18.2790863528632
 20
-28.12
 30
0.0
 11
-17.83725174861909
 21
-29.0
 31
0.0
  0
LINE
  5
1B0
330
161
100
AcDbEntity
  8
AM_4
100
AcDbLine
 10
-31.58831837313418
 20
-28.28168162686582
 30
0.0
 11
-30.87
 21
-29.0
 31
0.0
  0
LINE
  5
1B1
330
161
100
AcDbEntity
  8
AM_4
100
AcDbLine
 10
-17.28483553966279
 20
-18.37
 30
0.0
 11
-17.28483553966279
 21
-29.0
 31
0.0
  0
LINE
  5
1B2
330
161
100
AcDbEntity
  8
AM_4
100
AcDbLine
 10
31.62182790415507
 20
-18.37
 30
0.0
 11
31.62182790415507
 21
-28.12
 31
0.0
  0
LINE
  5
1B3
330
161
100
AcDbEntity
  8
AM_4
100
AcDbLine
 10
-13.3427415512919
 20
-28.11999999999999
 30
0.0
 11
-13.3427415512919
 21
-18.37
 31
0.0
  0
LINE
  5
1B4
330
161
100
AcDbEntity
  8
AM_4
100
AcDbLine
 10
31.62182790415507
 20
-28.12
 30
0.0
 11
30.73815869566686
 21
-29.0
 31
0.0
  0
LINE
  5
1B5
330
161
100
AcDbEntity
  8
AM_4
100
AcDbLine
 10
-13.3427415512919
 20
-28.11999999999999
 30
0.0
 11
31.62182790415507
 21
-28.12
 31
0.0
  0
LINE
  5
1B6
330
161
100
AcDbEntity
  8
AM_4
100
AcDbLine
 10
-12.9009069470478
 20
-29.0
 30
0.0
 11
-13.3427415512919
 21
-28.11999999999999
 31
0.0
  0
LINE
  5
1B7
330
161
100
AcDbEntity
  8
AM_4
100
AcDbLine
 10
-30.87
 20
-29.0
 30
0.0
 11
30.73815869566686
 21
-29.0
 31
0.0
  0
ENDBLK
  5
164
330
161
100
AcDbEntity
  8
0
100
AcDbBlockEnd
  0
BLOCK
  5
1BA
330
1B8
100
AcDbEntity
  8
0
100
AcDbBlockBegin
  2
5_WSTU_GT_08_0_in_136251_4
 70
     2
 10
0.0
 20
0.0
 30
0.0
  3
5_WSTU_GT_08_0_in_136251_4
  1

  0
ATTDEF
  5
1BC
330
1B8
100
AcDbEntity
  8
AM_6
100
AcDbText
 10
120.11
 20
54.12
 30
0.0
 40
0.5
  1
GTNWSTUB-M-b
100
AcDbAttributeDefinition
  3

  2
NN
 70
     8
280
     0
  0
ATTDEF
  5
1BD
330
1B8
100
AcDbEntity
  8
AM_6
100
AcDbText
 10
120.11
 20
53.62
 30
0.0
 40
0.5
  1
Grip Tight Adapter Ball Bearings
100
AcDbAttributeDefinition
  3

  2
NT
 70
     8
280
     0
  0
ATTDEF
  5
1BE
330
1B8
100
AcDbEntity
  8
AM_6
100
AcDbText
 10
120.11
 20
53.12
 30
0.0
 40
0.5
  1
WSTU-GT-08
100
AcDbAttributeDefinition
  3

  2
NB
 70
     8
280
     0
  0
ATTDEF
  5
1BF
330
1B8
100
AcDbEntity
  8
AM_6
100
AcDbText
 10
120.11
 20
52.62
 30
0.0
 40
0.5
  1
$PN.$LUBE.
100
AcDbAttributeDefinition
  3

  2
NBSYN
 70
     8
280
     0
  0
ATTDEF
  5
1C0
330
1B8
100
AcDbEntity
  8
AM_6
100
AcDbText
 10
120.11
 20
52.12
 30
0.0
 40
0.5
  1
WSTU-GT-08
100
AcDbAttributeDefinition
  3

  2
LINA
 70
     8
280
     0
  0
ATTDEF
  5
1C1
330
1B8
100
AcDbEntity
  8
AM_6
100
AcDbText
 10
120.11
 20
51.62
 30
0.0
 40
0.5
  1
208
100
AcDbAttributeDefinition
  3

  2
SERIES
 70
     8
280
     0
  0
ATTDEF
  5
1C2
330
1B8
100
AcDbEntity
  8
AM_6
100
AcDbText
 10
120.11
 20
51.12
 30
0.0
 40
0.5
  1
40
100
AcDbAttributeDefinition
  3

  2
SS
 70
     8
280
     0
  0
ATTDEF
  5
1C3
330
1B8
100
AcDbEntity
  8
AM_6
100
AcDbText
 10
120.11
 20
50.62
 30
0.0
 40
0.5
  1
WSTU-GT-08
100
AcDbAttributeDefinition
  3

  2
PN
 70
     8
280
     0
  0
ATTDEF
  5
1C4
330
1B8
100
AcDbEntity
  8
AM_6
100
AcDbText
 10
120.11
 20
50.12
 30
0.0
 40
0.5
  1
WSTU-GT-08
100
AcDbAttributeDefinition
  3

  2
DESCRIPTION
 70
     8
280
     0
  0
ATTDEF
  5
1C5
330
1B8
100
AcDbEntity
  8
AM_6
100
AcDbText
 10
120.11
 20
49.62
 30
0.0
 40
0.5
  1
2.8
100
AcDbAttributeDefinition
  3

  2
WEIGHT
 70
     8
280
     0
  0
ATTDEF
  5
1C6
330
1B8
100
AcDbEntity
  8
AM_6
100
AcDbText
 10
120.11
 20
49.12
 30
0.0
 40
0.5
  1
80.0
100
AcDbAttributeDefinition
  3

  2
BOD
 70
     8
280
     0
  0
ATTDEF
  5
1C7
330
1B8
100
AcDbEntity
  8
AM_6
100
AcDbText
 10
120.11
 20
48.62
 30
0.0
 40
0.5
  1
46.8
100
AcDbAttributeDefinition
  3

  2
A
 70
     8
280
     0
  0
ATTDEF
  5
1C8
330
1B8
100
AcDbEntity
  8
AM_6
100
AcDbText
 10
120.11
 20
48.12
 30
0.0
 40
0.5
  1
144.5
100
AcDbAttributeDefinition
  3

  2
B
 70
     8
280
     0
  0
ATTDEF
  5
1C9
330
1B8
100
AcDbEntity
  8
AM_6
100
AcDbText
 10
120.11
 20
47.62
 30
0.0
 40
0.5
  1
17.5
100
AcDbAttributeDefinition
  3

  2
C
 70
     8
280
     0
  0
ATTDEF
  5
1CA
330
1B8
100
AcDbEntity
  8
AM_6
100
AcDbText
 10
120.11
 20
47.12
 30
0.0
 40
0.5
  1
88.9
100
AcDbAttributeDefinition
  3

  2
E
 70
     8
280
     0
  0
ATTDEF
  5
1CB
330
1B8
100
AcDbEntity
  8
AM_6
100
AcDbText
 10
120.11
 20
46.62
 30
0.0
 40
0.5
  1
25.4
100
AcDbAttributeDefinition
  3

  2
F
 70
     8
280
     0
  0
ATTDEF
  5
1CC
330
1B8
100
AcDbEntity
  8
AM_6
100
AcDbText
 10
120.11
 20
46.12
 30
0.0
 40
0.5
  1
15.9
100
AcDbAttributeDefinition
  3

  2
G
 70
     8
280
     0
  0
ATTDEF
  5
1CD
330
1B8
100
AcDbEntity
  8
AM_6
100
AcDbText
 10
120.11
 20
45.62
 30
0.0
 40
0.5
  1
19.1
100
AcDbAttributeDefinition
  3

  2
H
 70
     8
280
     0
  0
ATTDEF
  5
1CE
330
1B8
100
AcDbEntity
  8
AM_6
100
AcDbText
 10
120.11
 20
45.12
 30
0.0
 40
0.5
  1
82.6
100
AcDbAttributeDefinition
  3

  2
J
 70
     8
280
     0
  0
ATTDEF
  5
1CF
330
1B8
100
AcDbEntity
  8
AM_6
100
AcDbText
 10
120.11
 20
44.62
 30
0.0
 40
0.5
  1
49.2
100
AcDbAttributeDefinition
  3

  2
K
 70
     8
280
     0
  0
ATTDEF
  5
1D0
330
1B8
100
AcDbEntity
  8
AM_6
100
AcDbText
 10
120.11
 20
44.12
 30
0.0
 40
0.5
  1
63.5
100
AcDbAttributeDefinition
  3

  2
L
 70
     8
280
     0
  0
ATTDEF
  5
1D1
330
1B8
100
AcDbEntity
  8
AM_6
100
AcDbText
 10
120.11
 20
43.62
 30
0.0
 40
0.5
  1
101.6
100
AcDbAttributeDefinition
  3

  2
M
 70
     8
280
     0
  0
ATTDEF
  5
1D2
330
1B8
100
AcDbEntity
  8
AM_6
100
AcDbText
 10
120.11
 20
43.12
 30
0.0
 40
0.5
  1
114.3
100
AcDbAttributeDefinition
  3

  2
N
 70
     8
280
     0
  0
ATTDEF
  5
1D3
330
1B8
100
AcDbEntity
  8
AM_6
100
AcDbText
 10
120.11
 20
42.62
 30
0.0
 40
0.5
  1
16.7
100
AcDbAttributeDefinition
  3

  2
R
 70
     8
280
     0
  0
ATTDEF
  5
1D4
330
1B8
100
AcDbEntity
  8
AM_6
100
AcDbText
 10
120.11
 20
42.12
 30
0.0
 40
0.5
  1
30.2
100
AcDbAttributeDefinition
  3

  2
S
 70
     8
280
     0
  0
ATTDEF
  5
1D5
330
1B8
100
AcDbEntity
  8
AM_6
100
AcDbText
 10
120.11
 20
41.62
 30
0.0
 40
0.5
  1
49.2
100
AcDbAttributeDefinition
  3

  2
T
 70
     8
280
     0
  0
ATTDEF
  5
1D6
330
1B8
100
AcDbEntity
  8
AM_6
100
AcDbText
 10
120.11
 20
41.12
 30
0.0
 40
0.5
  1
29.0
100
AcDbAttributeDefinition
  3

  2
Z
 70
     8
280
     0
  0
ATTDEF
  5
1D7
330
1B8
100
AcDbEntity
  8
AM_6
100
AcDbText
 10
120.11
 20
40.62
 30
0.0
 40
0.5
  1
baldor
100
AcDbAttributeDefinition
  3

  2
COMPANY
 70
     8
280
     0
  0
ELLIPSE
  5
1D8
330
1B8
100
AcDbEntity
  8
AM_9
100
AcDbEllipse
 10
-49.88306325798365
 20
-0.0000000000000018
 30
0.0
 11
4.898587196589413E-16
 21
8.0
 31
0.0
210
0.0
220
0.0
230
1.0
 40
0.5
 41
0.0
 42
6.283185307179586
  0
LINE
  5
1D9
330
1B8
100
AcDbEntity
  8
AM_9
100
AcDbLine
 10
-48.2042091243197
 20
-9.999646254459638
 30
0.0
 11
-48.14901800889515
 21
-9.999999502775363
 31
0.0
  0
LWPOLYLINE
  5
1DA
330
1B8
100
AcDbEntity
  8
AM_9
100
AcDbPolyline
 90
       26
 70
     0
 43
0.0
 10
-54.15101245041478
 20
-0.0000000000000013
 10
-54.14793986921837
 20
-0.332533168873652
 10
-54.12569024083765
 20
-0.9535456096952513
 10
-54.0819487601227
 20
-1.571247912104541
 10
-54.01673941899259
 20
-2.18353915391822
 10
-53.93007360626147
 20
-2.788433187371676
 10
-53.82194065718495
 20
-3.383984760281328
 10
-53.6922933531844
 20
-3.96829322892985
 10
-53.54103059927804
 20
-4.539499110422386
 10
-53.36797917901635
 20
-5.095769281490752
 10
-53.17287879840882
 20
-5.635264902267778
 10
-52.95537882132557
 20
-6.156084319459923
 10
-52.71506192823136
 20
-6.656172675989799
 10
-52.45151907565287
 20
-7.133194400725589
 10
-52.1645070646605
 20
-7.584381624590384
 10
-51.85460937032821
 20
-8.005906557354045
 10
-51.52316539648339
 20
-8.393696334313637
 10
-51.17241502179181
 20
-8.743767849549222
 10
-50.80542956962522
 20
-9.052720912140314
 10
-50.42565178540426
 20
-9.318294433224262
 10
-50.03638909763049
 20
-9.539524345497865
 10
-49.64053993927048
 20
-9.71648258605215
 10
-49.24059379314867
 20
-9.849855136547088
 10
-48.8387585317828
 20
-9.940600940357996
 10
-48.43707027821998
 20
-9.989763182697754
 10
-48.2042091243197
 20
-9.999646254459638
  0
LWPOLYLINE
  5
1DB
330
1B8
100
AcDbEntity
  8
AM_9
100
AcDbPolyline
 90
       27
 70
     0
 43
0.0
 10
-48.15221756534083
 20
9.999999818462248
 10
-48.20264917458534
 20
9.999666697410825
 10
-48.5992031407117
 20
9.974841257872894
 10
-48.99019190899917
 20
9.911361467417551
 10
-49.37410155635945
 20
9.810222727777333
 10
-49.75002568457105
 20
9.672149973080026
 10
-50.11732180357222
 20
9.497523395186988
 10
-50.47551966184128
 20
9.286338171605097
 10
-50.82416891106435
 20
9.038245532778634
 10
-51.16264151354216
 20
8.752720321484167
 10
-51.48993259997574
 20
8.4293785735441
 10
-51.80453941715023
 20
8.068402669386689
 10
-52.10451079283146
 20
7.670927679810714
 10
-52.38770081081229
 20
7.239180245079286
 10
-52.65213213603197
 20
6.776256475157065
 10
-52.89628678546224
 20
6.285653855390708
 10
-53.11898079182518
 20
5.771361578790341
 10
-53.31987742852633
 20
5.236320924427039
 10
-53.49889793115985
 20
4.683116450075601
 10
-53.65608567318218
 20
4.114064808727274
 10
-53.79152253501918
 20
3.531312818752681
 10
-53.90528675965624
 20
2.936916821302583
 10
-53.99743734416752
 20
2.332896545216225
 10
-54.06801271592987
 20
1.721266810843511
 10
-54.11703568521381
 20
1.104052813993376
 10
-54.14452001124505
 20
0.4832941828307327
 10
-54.15101245041478
 20
-0.0000000000000013
  0
LINE
  5
1DC
330
1B8
100
AcDbEntity
  8
AM_9
100
AcDbLine
 10
73.0
 20
-12.7
 30
0.0
 11
88.9
 21
-12.7
 31
0.0
  0
LINE
  5
1DD
330
1B8
100
AcDbEntity
  8
AM_9
100
AcDbLine
 10
88.9
 20
12.7
 30
0.0
 11
73.0
 21
12.7
 31
0.0
  0
LINE
  5
1DE
330
1B8
100
AcDbEntity
  8
AM_9
100
AcDbLine
 10
72.04499999999999
 20
-15.865
 30
0.0
 11
72.04499999999999
 21
15.865
 31
0.0
  0
LINE
  5
1DF
330
1B8
100
AcDbEntity
  8
AM_9
100
AcDbLine
 10
73.0
 20
-15.865
 30
0.0
 11
73.0
 21
15.865
 31
0.0
  0
LINE
  5
1E0
330
1B8
100
AcDbEntity
  8
AM_9
100
AcDbLine
 10
53.9
 20
-15.865
 30
0.0
 11
53.9
 21
15.865
 31
0.0
  0
LINE
  5
1E1
330
1B8
100
AcDbEntity
  8
AM_9
100
AcDbLine
 10
54.855
 20
-15.865
 30
0.0
 11
54.855
 21
15.865
 31
0.0
  0
LWPOLYLINE
  5
1E2
330
1B8
100
AcDbEntity
  8
AM_9
100
AcDbPolyline
 90
       29
 70
     0
 43
0.0
 10
-48.1510124504148
 20
10.0
 10
-47.5857178755084
 20
9.9372938538181
 10
-47.00709132326139
 20
9.751641618242171
 10
-46.42709805214238
 20
9.446742597726896
 10
-45.85292124708722
 20
9.024336374775762
 10
-45.29185917431651
 20
8.490076700778673
 10
-44.75670383792246
 20
7.853946203929412
 10
-44.25073839315276
 20
7.112816314053195
 10
-43.78676739109943
 20
6.280504122335986
 10
-43.3765292400001
 20
5.37216585478357
 10
-43.02563071532693
 20
4.387683085227305
 10
-42.74259579045432
 20
3.343394048334425
 10
-42.53545599276364
 20
2.259089785056244
 10
-42.41064527537674
 20
1.156774598207829
 10
-42.36652733646348
 20
0.036017705023903
 10
-42.40440417869949
 20
-1.081603291116871
 10
-42.52309466586321
 20
-2.171846231261199
 10
-42.71879930780725
 20
-3.238292721913297
 10
-42.98604548777519
 20
-4.261293792698407
 10
-43.32315198243734
 20
-5.236158744413426
 10
-43.72181994560553
 20
-6.149116191840919
 10
-44.17177969325341
 20
-6.983836545730821
 10
-44.67392652000732
 20
-7.742030998600536
 10
-45.21368218841283
 20
-8.405208367421398
 10
-45.77800307892795
 20
-8.960934079406158
 10
-46.35957371552906
 20
-9.40264445656672
 10
-46.94996089483738
 20
-9.72679374235888
 10
-47.53603774516741
 20
-9.92686043047239
 10
-48.15101245041481
 20
-10.0
  0
LWPOLYLINE
  5
1E3
330
1B8
100
AcDbEntity
  8
AM_9
100
AcDbPolyline
 90
       29
 70
     0
 43
0.0
 10
-48.15101245041481
 20
-10.0
 10
-48.6751547037069
 20
-9.942837477856422
 10
-49.17585916500862
 20
-9.772760845726351
 10
-49.66399198927049
 20
-9.478636180722074
 10
-50.1187991028053
 20
-9.068493277211179
 10
-50.53414223350391
 20
-8.550108421498072
 10
-50.91180389035239
 20
-7.920133435825724
 10
-51.24767551434036
 20
-7.190538621830076
 10
-51.53886323965655
 20
-6.374583716549385
 10
-51.78814976326072
 20
-5.467071829985611
 10
-51.99310683308847
 20
-4.486759149189486
 10
-52.15271675291552
 20
-3.451909353278092
 10
-52.26705740460561
 20
-2.376654394461919
 10
-52.33804252151095
 20
-1.267140939139911
 10
-52.36545237202154
 20
-0.14477509903037
 10
-52.34974931932719
 20
0.9631181171619919
 10
-52.29181663420588
 20
2.062323381839719
 10
-52.19182395222454
 20
3.132182955775892
 10
-52.04909352850468
 20
4.160634129102863
 10
-51.86304034646798
 20
5.140678242671632
 10
-51.6344952690397
 20
6.054728776448623
 10
-51.35801623048632
 20
6.904924439429935
 10
-51.03629005324355
 20
7.671463078099282
 10
-50.67193886217798
 20
8.340333014381045
 10
-50.26103923959936
 20
8.907904662021664
 10
-49.80792345333391
 20
9.364441278372269
 10
-49.31872852628128
 20
9.700953381065997
 10
-48.75079068113423
 20
9.924628143345016
 10
-48.15101245041481
 20
10.0
  0
LINE
  5
1E4
330
1B8
100
AcDbEntity
  8
AM_9
100
AcDbLine
 10
40.0
 20
-15.865
 30
0.0
 11
40.0
 21
15.865
 31
0.0
  0
LINE
  5
1E5
330
1B8
100
AcDbEntity
  8
AM_9
100
AcDbLine
 10
-40.0
 20
15.865
 30
0.0
 11
-40.0
 21
-15.865
 31
0.0
  0
LINE
  5
1E6
330
1B8
100
AcDbEntity
  8
AM_9
100
AcDbLine
 10
41.3
 20
-15.86499999999999
 30
0.0
 11
-41.3
 21
-15.86499999999999
 31
0.0
  0
LINE
  5
1E7
330
1B8
100
AcDbEntity
  8
AM_9
100
AcDbLine
 10
41.3
 20
15.865
 30
0.0
 11
-41.3
 21
15.865
 31
0.0
  0
LINE
  5
1E8
330
1B8
100
AcDbEntity
  8
AM_9
100
AcDbLine
 10
4.237172627998687
 20
-18.37
 30
0.0
 11
4.237172627998687
 21
-15.03
 31
0.0
  0
LINE
  5
1E9
330
1B8
100
AcDbEntity
  8
AM_9
100
AcDbLine
 10
8.513218376120212
 20
-18.37
 30
0.0
 11
8.513218376120212
 21
-15.03
 31
0.0
  0
LINE
  5
1EA
330
1B8
100
AcDbEntity
  8
AM_9
100
AcDbLine
 10
2.371261871639487
 20
-18.37
 30
0.0
 11
2.371261871639487
 21
-15.03
 31
0.0
  0
LINE
  5
1EB
330
1B8
100
AcDbEntity
  8
AM_9
100
AcDbLine
 10
-5.714352038381545
 20
-18.37
 30
0.0
 11
-5.714352038381545
 21
-15.03
 31
0.0
  0
LINE
  5
1EC
330
1B8
100
AcDbEntity
  8
AM_9
100
AcDbLine
 10
1.749291528078628
 20
-18.37
 30
0.0
 11
1.749291528078628
 21
-15.03
 31
0.0
  0
LINE
  5
1ED
330
1B8
100
AcDbEntity
  8
AM_9
100
AcDbLine
 10
-5.092381557660427
 20
-18.37
 30
0.0
 11
-5.092381557660427
 21
-15.03
 31
0.0
  0
LINE
  5
1EE
330
1B8
100
AcDbEntity
  8
AM_9
100
AcDbLine
 10
-1.982530253880907
 20
-18.37
 30
0.0
 11
-1.982530253880907
 21
-15.03
 31
0.0
  0
LINE
  5
1EF
330
1B8
100
AcDbEntity
  8
AM_9
100
AcDbLine
 10
-4.625904108601457
 20
-18.37
 30
0.0
 11
-4.625904108601457
 21
-15.03
 31
0.0
  0
LINE
  5
1F0
330
1B8
100
AcDbEntity
  8
AM_9
100
AcDbLine
 10
-6.180829487440455
 20
-18.37
 30
0.0
 11
-6.180829487440455
 21
-15.03
 31
0.0
  0
LINE
  5
1F1
330
1B8
100
AcDbEntity
  8
AM_9
100
AcDbLine
 10
-2.449007977260417
 20
-18.37
 30
0.0
 11
-2.449007977260417
 21
-15.03
 31
0.0
  0
LINE
  5
1F2
330
1B8
100
AcDbEntity
  8
AM_9
100
AcDbLine
 10
1.282813807238818
 20
-18.37
 30
0.0
 11
1.282813807238818
 21
-15.03
 31
0.0
  0
LINE
  5
1F3
330
1B8
100
AcDbEntity
  8
AM_9
100
AcDbLine
 10
2.837739457858728
 20
-18.37
 30
0.0
 11
2.837739457858728
 21
-15.03
 31
0.0
  0
LINE
  5
1F4
330
1B8
100
AcDbEntity
  8
AM_9
100
AcDbLine
 10
5.403367072339277
 20
-18.37
 30
0.0
 11
5.403367072339277
 21
-15.03
 31
0.0
  0
LINE
  5
1F5
330
1B8
100
AcDbEntity
  8
AM_9
100
AcDbLine
 10
2.449008114419137
 20
-18.37
 30
0.0
 11
2.449008114419137
 21
-15.03
 31
0.0
  0
LINE
  5
1F6
330
1B8
100
AcDbEntity
  8
AM_9
100
AcDbLine
 10
-2.060276496660557
 20
-18.37
 30
0.0
 11
-2.060276496660557
 21
-15.03
 31
0.0
  0
LINE
  5
1F7
330
1B8
100
AcDbEntity
  8
AM_9
100
AcDbLine
 10
-5.014635317420417
 20
-18.37
 30
0.0
 11
-5.014635317420417
 21
-15.03
 31
0.0
  0
LINE
  5
1F8
330
1B8
100
AcDbEntity
  8
AM_9
100
AcDbLine
 10
1.671545287838618
 20
-18.37
 30
0.0
 11
1.671545287838618
 21
-15.03
 31
0.0
  0
LINE
  5
1F9
330
1B8
100
AcDbEntity
  8
AM_9
100
AcDbLine
 10
-5.792098281159775
 20
-18.37
 30
0.0
 11
-5.792098281159775
 21
-15.03
 31
0.0
  0
LINE
  5
1FA
330
1B8
100
AcDbEntity
  8
AM_9
100
AcDbLine
 10
4.936889074639217
 20
-18.37
 30
0.0
 11
4.936889074639217
 21
-15.03
 31
0.0
  0
LINE
  5
1FB
330
1B8
100
AcDbEntity
  8
AM_9
100
AcDbLine
 10
-4.392664836700707
 20
-18.37
 30
0.0
 11
-4.392664836700707
 21
-15.03
 31
0.0
  0
LINE
  5
1FC
330
1B8
100
AcDbEntity
  8
AM_9
100
AcDbLine
 10
-2.682246703061147
 20
-18.37
 30
0.0
 11
-2.682246703061147
 21
-15.03
 31
0.0
  0
LINE
  5
1FD
330
1B8
100
AcDbEntity
  8
AM_9
100
AcDbLine
 10
-4.859142834400802
 20
-18.37
 30
0.0
 11
-4.859142834400767
 21
-15.03
 31
0.0
  0
LINE
  5
1FE
330
1B8
100
AcDbEntity
  8
AM_9
100
AcDbLine
 10
-6.414068213241245
 20
-18.37
 30
0.0
 11
-6.414068213241245
 21
-15.03
 31
0.0
  0
LINE
  5
1FF
330
1B8
100
AcDbEntity
  8
AM_9
100
AcDbLine
 10
-5.947590764180855
 20
-18.37
 30
0.0
 11
-5.947590764180855
 21
-15.03
 31
0.0
  0
LINE
  5
200
330
1B8
100
AcDbEntity
  8
AM_9
100
AcDbLine
 10
3.070978455440347
 20
-18.37
 30
0.0
 11
3.070978455440347
 21
-15.03
 31
0.0
  0
LINE
  5
201
330
1B8
100
AcDbEntity
  8
AM_9
100
AcDbLine
 10
2.604500734599072
 20
-18.37
 30
0.0
 11
2.604500734599067
 21
-15.03
 31
0.0
  0
LINE
  5
202
330
1B8
100
AcDbEntity
  8
AM_9
100
AcDbLine
 10
5.325620829559618
 20
-18.37
 30
0.0
 11
5.325620829559618
 21
-15.03
 31
0.0
  0
LINE
  5
203
330
1B8
100
AcDbEntity
  8
AM_9
100
AcDbLine
 10
1.049574944279238
 20
-18.37
 30
0.0
 11
1.049574944279238
 21
-15.03
 31
0.0
  0
LINE
  5
204
330
1B8
100
AcDbEntity
  8
AM_9
100
AcDbLine
 10
4.859142834399277
 20
-18.37
 30
0.0
 11
4.859142834399277
 21
-15.03
 31
0.0
  0
LINE
  5
205
330
1B8
100
AcDbEntity
  8
AM_9
100
AcDbLine
 10
1.516052667660178
 20
-18.37
 30
0.0
 11
1.516052667660178
 21
-15.03
 31
0.0
  0
LINE
  5
206
330
1B8
100
AcDbEntity
  8
AM_9
100
AcDbLine
 10
-2.215768979680217
 20
-18.37
 30
0.0
 11
-2.215768979680217
 21
-15.03
 31
0.0
  0
LINE
  5
207
330
1B8
100
AcDbEntity
  8
AM_9
100
AcDbLine
 10
-6.647307485140565
 20
-18.37
 30
0.0
 11
-6.647307485140565
 21
-15.03
 31
0.0
  0
LINE
  5
208
330
1B8
100
AcDbEntity
  8
AM_9
100
AcDbLine
 10
0.8163361168795378
 20
-18.37
 30
0.0
 11
0.8163361168795378
 21
-15.03
 31
0.0
  0
LINE
  5
209
330
1B8
100
AcDbEntity
  8
AM_9
100
AcDbLine
 10
3.304217181239658
 20
-18.37
 30
0.0
 11
3.304217181239658
 21
-15.03
 31
0.0
  0
LINE
  5
20A
330
1B8
100
AcDbEntity
  8
AM_9
100
AcDbLine
 10
-4.159426113441107
 20
-18.37
 30
0.0
 11
-4.159426113441107
 21
-15.03
 31
0.0
  0
LINE
  5
20B
330
1B8
100
AcDbEntity
  8
AM_9
100
AcDbLine
 10
-2.915485700639927
 20
-18.37
 30
0.0
 11
-2.915485700639927
 21
-15.03
 31
0.0
  0
LINE
  5
20C
330
1B8
100
AcDbEntity
  8
AM_9
100
AcDbLine
 10
-8.357725347000654
 20
-18.37
 30
0.0
 11
-8.357725347000654
 21
-15.03
 31
0.0
  0
LINE
  5
20D
330
1B8
100
AcDbEntity
  8
AM_9
100
AcDbLine
 10
6.491814999579723
 20
-18.37
 30
0.0
 11
6.491814999579723
 21
-15.03
 31
0.0
  0
LINE
  5
20E
330
1B8
100
AcDbEntity
  8
AM_9
100
AcDbLine
 10
4.625904108598488
 20
-18.37
 30
0.0
 11
4.625904108598488
 21
-15.03
 31
0.0
  0
LINE
  5
20F
330
1B8
100
AcDbEntity
  8
AM_9
100
AcDbLine
 10
-0.8940821894816531
 20
-18.37
 30
0.0
 11
-0.8940821894816531
 21
-15.03
 31
0.0
  0
LINE
  5
210
330
1B8
100
AcDbEntity
  8
AM_9
100
AcDbLine
 10
-4.548157868361508
 20
-18.37
 30
0.0
 11
-4.548157868361508
 21
-15.03
 31
0.0
  0
LINE
  5
211
330
1B8
100
AcDbEntity
  8
AM_9
100
AcDbLine
 10
1.205067564459168
 20
-18.37
 30
0.0
 11
1.205067564459168
 21
-15.03
 31
0.0
  0
LINE
  5
212
330
1B8
100
AcDbEntity
  8
AM_9
100
AcDbLine
 10
-2.526754220040067
 20
-18.37
 30
0.0
 11
-2.526754220040067
 21
-15.03
 31
0.0
  0
LINE
  5
213
330
1B8
100
AcDbEntity
  8
AM_9
100
AcDbLine
 10
5.014635317418877
 20
-18.37
 30
0.0
 11
5.014635317418877
 21
-15.03
 31
0.0
  0
LINE
  5
214
330
1B8
100
AcDbEntity
  8
AM_9
100
AcDbLine
 10
-6.258575730220166
 20
-18.37
 30
0.0
 11
-6.258575730220166
 21
-15.03
 31
0.0
  0
LINE
  5
215
330
1B8
100
AcDbEntity
  8
AM_9
100
AcDbLine
 10
2.915485700639807
 20
-18.37
 30
0.0
 11
2.915485700639807
 21
-15.03
 31
0.0
  0
LINE
  5
216
330
1B8
100
AcDbEntity
  8
AM_9
100
AcDbLine
 10
4.703650351379618
 20
-18.37
 30
0.0
 11
4.703650351379618
 21
-15.03
 31
0.0
  0
LINE
  5
217
330
1B8
100
AcDbEntity
  8
AM_9
100
AcDbLine
 10
3.226470940999658
 20
-18.37
 30
0.0
 11
3.226470940999658
 21
-15.03
 31
0.0
  0
LINE
  5
218
330
1B8
100
AcDbEntity
  8
AM_9
100
AcDbLine
 10
0.8940823926794198
 20
-18.37
 30
0.0
 11
0.8940823926794198
 21
-15.03
 31
0.0
  0
LINE
  5
219
330
1B8
100
AcDbEntity
  8
AM_9
100
AcDbLine
 10
-2.837739186080807
 20
-18.37
 30
0.0
 11
-2.837739186080807
 21
-15.03
 31
0.0
  0
LINE
  5
21A
330
1B8
100
AcDbEntity
  8
AM_9
100
AcDbLine
 10
-4.237172353681058
 20
-18.37
 30
0.0
 11
-4.237172353681058
 21
-15.03
 31
0.0
  0
LINE
  5
21B
330
1B8
100
AcDbEntity
  8
AM_9
100
AcDbLine
 10
-6.569561242360855
 20
-18.37
 30
0.0
 11
-6.569561242360854
 21
-15.03
 31
0.0
  0
LINE
  5
21C
330
1B8
100
AcDbEntity
  8
AM_9
100
AcDbLine
 10
0.505350962879042
 20
-18.37
 30
0.0
 11
0.5053509628790468
 21
-15.03
 31
0.0
  0
LINE
  5
21D
330
1B8
100
AcDbEntity
  8
AM_9
100
AcDbLine
 10
-6.958292451179825
 20
-18.37
 30
0.0
 11
-6.958292451179825
 21
-15.03
 31
0.0
  0
LINE
  5
21E
330
1B8
100
AcDbEntity
  8
AM_9
100
AcDbLine
 10
3.615202421599518
 20
-18.37
 30
0.0
 11
3.615202421599518
 21
-15.03
 31
0.0
  0
LINE
  5
21F
330
1B8
100
AcDbEntity
  8
AM_9
100
AcDbLine
 10
6.025337004419314
 20
-18.37
 30
0.0
 11
6.025337004419314
 21
-15.03
 31
0.0
  0
LINE
  5
220
330
1B8
100
AcDbEntity
  8
AM_9
100
AcDbLine
 10
-3.226470666680657
 20
-18.37
 30
0.0
 11
-3.226470666680657
 21
-15.03
 31
0.0
  0
LINE
  5
221
330
1B8
100
AcDbEntity
  8
AM_9
100
AcDbLine
 10
8.824203342159526
 20
-18.37
 30
0.0
 11
8.824203342159535
 21
-15.03
 31
0.0
  0
LINE
  5
222
330
1B8
100
AcDbEntity
  8
AM_9
100
AcDbLine
 10
1.749291528078628
 20
-15.03
 30
0.0
 11
-1.360559912859692
 21
-15.03
 31
0.0
  0
LINE
  5
223
330
1B8
100
AcDbEntity
  8
AM_9
100
AcDbLine
 10
-1.360559912859692
 20
-18.37
 30
0.0
 11
-1.360559912859692
 21
-15.03
 31
0.0
  0
LINE
  5
224
330
1B8
100
AcDbEntity
  8
AM_9
100
AcDbLine
 10
-5.714352038381545
 20
-15.03
 30
0.0
 11
-8.824203342159585
 21
-15.03
 31
0.0
  0
LINE
  5
225
330
1B8
100
AcDbEntity
  8
AM_9
100
AcDbLine
 10
-8.824203342159585
 20
-18.37
 30
0.0
 11
-8.824203342159585
 21
-15.03
 31
0.0
  0
LINE
  5
226
330
1B8
100
AcDbEntity
  8
AM_9
100
AcDbLine
 10
8.824203342159535
 20
-15.03
 30
0.0
 11
6.025337004419314
 21
-15.03
 31
0.0
  0
LINE
  5
227
330
1B8
100
AcDbEntity
  8
AM_9
100
AcDbLine
 10
-3.848441147400377
 20
-18.37
 30
0.0
 11
-3.848441147400377
 21
-15.03
 31
0.0
  0
LINE
  5
228
330
1B8
100
AcDbEntity
  8
AM_9
100
AcDbLine
 10
-1.982530253880907
 20
-15.03
 30
0.0
 11
-5.092381557660427
 21
-15.03
 31
0.0
  0
LINE
  5
229
330
1B8
100
AcDbEntity
  8
AM_9
100
AcDbLine
 10
4.314918868238637
 20
-18.37
 30
0.0
 11
4.314918868238637
 21
-15.03
 31
0.0
  0
LINE
  5
22A
330
1B8
100
AcDbEntity
  8
AM_9
100
AcDbLine
 10
5.403367072339277
 20
-15.03
 30
0.0
 11
2.371261871639487
 21
-15.03
 31
0.0
  0
ELLIPSE
  5
22B
330
1B8
100
AcDbEntity
  8
AM_9
100
AcDbEllipse
 10
-48.1510124504148
 20
0.0000000000000142
 30
0.0
 11
-1.836970198721027E-15
 21
-9.999999999999986
 31
0.0
210
0.0
220
0.0
230
1.0
 40
0.5000000000000008
 41
0.0
 42
6.283185307179586
  0
LINE
  5
22C
330
1B8
100
AcDbEntity
  8
AM_7
100
AcDbLine
 10
60.99
 20
0.0
 30
0.0
 11
115.11
 21
0.0
 31
0.0
  0
LINE
  5
22D
330
1B8
100
AcDbEntity
  8
AM_7
100
AcDbLine
 10
0.0
 20
54.12
 30
0.0
 11
0.0
 21
-54.12
 31
0.0
  0
LINE
  5
22E
330
1B8
100
AcDbEntity
  8
AM_4
100
AcDbLine
 10
73.0
 20
15.86500000000001
 30
0.0
 11
73.0
 21
24.6
 31
0.0
  0
LINE
  5
22F
330
1B8
100
AcDbEntity
  8
AM_4
100
AcDbLine
 10
88.9
 20
24.6
 30
0.0
 11
73.0
 21
24.6
 31
0.0
  0
LINE
  5
230
330
1B8
100
AcDbEntity
  8
AM_4
100
AcDbLine
 10
73.0
 20
-24.59999999999999
 30
0.0
 11
88.9
 21
-24.59999999999999
 31
0.0
  0
LINE
  5
231
330
1B8
100
AcDbEntity
  8
AM_4
100
AcDbLine
 10
73.0
 20
-24.59999999999999
 30
0.0
 11
73.0
 21
-15.86499999999999
 31
0.0
  0
LINE
  5
232
330
1B8
100
AcDbEntity
  8
AM_4
100
AcDbLine
 10
88.9
 20
-24.59999999999999
 30
0.0
 11
88.9
 21
24.6
 31
0.0
  0
LINE
  5
233
330
1B8
100
AcDbEntity
  8
AM_4
100
AcDbLine
 10
-41.3
 20
-15.86499999999999
 30
0.0
 11
-55.60000000000001
 21
-15.865
 31
0.0
  0
LINE
  5
234
330
1B8
100
AcDbEntity
  8
AM_4
100
AcDbLine
 10
-55.60000000000001
 20
15.865
 30
0.0
 11
-55.60000000000001
 21
-15.865
 31
0.0
  0
LINE
  5
235
330
1B8
100
AcDbEntity
  8
AM_4
100
AcDbLine
 10
-55.60000000000001
 20
15.865
 30
0.0
 11
-41.3
 21
15.86500000000001
 31
0.0
  0
LINE
  5
236
330
1B8
100
AcDbEntity
  8
AM_4
100
AcDbLine
 10
86.99000000000004
 20
-15.86499999999999
 30
0.0
 11
86.99000000000004
 21
15.86500000000001
 31
0.0
  0
LINE
  5
237
330
1B8
100
AcDbEntity
  8
AM_4
100
AcDbLine
 10
88.9
 20
15.86500000000001
 30
0.0
 11
41.3
 21
15.86500000000001
 31
0.0
  0
LINE
  5
238
330
1B8
100
AcDbEntity
  8
AM_4
100
AcDbLine
 10
41.3
 20
-15.86499999999999
 30
0.0
 11
88.9
 21
-15.86499999999999
 31
0.0
  0
LINE
  5
239
330
1B8
100
AcDbEntity
  8
AM_4
100
AcDbLine
 10
43.20999999999999
 20
-15.86499999999999
 30
0.0
 11
43.20999999999999
 21
15.86500000000001
 31
0.0
  0
LINE
  5
23A
330
1B8
100
AcDbEntity
  8
AM_4
100
AcDbLine
 10
40.34500000000001
 20
-17.37
 30
0.0
 11
40.34500000000001
 21
-8.749999999999991
 31
0.0
  0
LINE
  5
23B
330
1B8
100
AcDbEntity
  8
AM_4
100
AcDbLine
 10
40.34500000000001
 20
8.749999999999998
 30
0.0
 11
40.34500000000001
 21
17.37
 31
0.0
  0
LINE
  5
23C
330
1B8
100
AcDbEntity
  8
AM_4
100
AcDbLine
 10
41.3
 20
18.37
 30
0.0
 11
-41.3
 21
18.37
 31
0.0
  0
LINE
  5
23D
330
1B8
100
AcDbEntity
  8
AM_4
100
AcDbLine
 10
40.34500000000001
 20
17.37
 30
0.0
 11
-40.345
 21
17.37
 31
0.0
  0
LWPOLYLINE
  5
23E
330
1B8
100
AcDbEntity
  8
AM_4
100
AcDbPolyline
 90
       19
 70
     0
 43
0.0
 10
40.34500000000001
 20
17.37000000000002
 10
40.42823373432402
 20
17.3736340633224
 10
40.51083400967192
 20
17.38450859587335
 10
40.59217218807292
 20
17.40254083589395
 10
40.67162923687602
 20
17.42759354714947
 10
40.74860043996237
 20
17.45947606338001
 10
40.82250000000001
 20
17.49794573938587
 10
40.89276549671525
 20
17.54270979770402
 10
40.95886216725065
 20
17.59342755682139
 10
41.02028697603316
 20
17.64971302396686
 10
41.07657244317863
 20
17.71113783274936
 10
41.12729020229599
 20
17.77723450328476
 10
41.17205426061413
 20
17.84750000000001
 10
41.21052393661999
 20
17.92139956003764
 10
41.24240645285054
 20
17.99837076312399
 10
41.26745916410606
 20
18.07782781192709
 10
41.28549140412666
 20
18.15916599032808
 10
41.29636593667761
 20
18.24176626567598
 10
41.3
 20
18.325
  0
LINE
  5
23F
330
1B8
100
AcDbEntity
  8
AM_4
100
AcDbLine
 10
41.3
 20
-18.37
 30
0.0
 11
41.3
 21
18.37
 31
0.0
  0
LINE
  5
240
330
1B8
100
AcDbEntity
  8
AM_4
100
AcDbLine
 10
-41.3
 20
18.37
 30
0.0
 11
-41.3
 21
-18.37
 31
0.0
  0
LINE
  5
241
330
1B8
100
AcDbEntity
  8
AM_4
100
AcDbLine
 10
41.3
 20
-18.37
 30
0.0
 11
-41.3
 21
-18.37
 31
0.0
  0
LWPOLYLINE
  5
242
330
1B8
100
AcDbEntity
  8
AM_4
100
AcDbPolyline
 90
       19
 70
     0
 43
0.0
 10
41.3
 20
-18.325
 10
41.29636593667762
 20
-18.24176626567599
 10
41.28549140412667
 20
-18.15916599032809
 10
41.26745916410606
 20
-18.0778278119271
 10
41.24240645285055
 20
-17.99837076312399
 10
41.21052393662001
 20
-17.92139956003764
 10
41.17205426061415
 20
-17.84750000000001
 10
41.127290202296
 20
-17.77723450328476
 10
41.07657244317865
 20
-17.71113783274937
 10
41.02028697603318
 20
-17.64971302396686
 10
40.95886216725067
 20
-17.59342755682139
 10
40.89276549671528
 20
-17.54270979770402
 10
40.82250000000003
 20
-17.49794573938587
 10
40.7486004399624
 20
-17.45947606338001
 10
40.67162923687605
 20
-17.42759354714946
 10
40.59217218807294
 20
-17.40254083589394
 10
40.51083400967196
 20
-17.38450859587334
 10
40.42823373432405
 20
-17.37363406332238
 10
40.34500000000004
 20
-17.36999999999999
  0
LINE
  5
243
330
1B8
100
AcDbEntity
  8
AM_4
100
AcDbLine
 10
40.34500000000001
 20
-17.37
 30
0.0
 11
-40.345
 21
-17.36999999999999
 31
0.0
  0
LINE
  5
244
330
1B8
100
AcDbEntity
  8
AM_4
100
AcDbLine
 10
41.3
 20
8.749999999999998
 30
0.0
 11
-41.3
 21
8.749999999999998
 31
0.0
  0
LINE
  5
245
330
1B8
100
AcDbEntity
  8
AM_4
100
AcDbLine
 10
-40.345
 20
8.749999999999998
 30
0.0
 11
-40.345
 21
17.37
 31
0.0
  0
LWPOLYLINE
  5
246
330
1B8
100
AcDbEntity
  8
AM_4
100
AcDbPolyline
 90
       19
 70
     0
 43
0.0
 10
-41.3
 20
18.32499998576936
 10
-41.29636593543734
 20
18.24176625149951
 10
-41.28549140165553
 20
18.15916597631364
 10
-41.2674591604229
 20
18.07782779818136
 10
-41.24240644798339
 20
17.99837074975157
 10
-41.21052393060588
 20
17.9213995471403
 10
-41.17205425349884
 20
17.84749998767591
 10
-41.12729019413364
 20
17.7772344916277
 10
-41.07657243403136
 20
17.71113782184806
 10
-41.0202869659706
 20
17.64971301390427
 10
-40.95886215634937
 20
17.5934275476741
 10
-40.89276548505822
 20
17.54270978954166
 10
-40.82249998767594
 20
17.49794573227054
 10
-40.74860042706506
 20
17.45947605736587
 10
-40.67162922350363
 20
17.42759354228229
 10
-40.59217217432721
 20
17.40254083221078
 10
-40.51083399565752
 20
17.38450859340221
 10
-40.42823372014757
 20
17.37363406208209
 10
-40.34499998576941
 20
17.36999999999999
  0
LWPOLYLINE
  5
247
330
1B8
100
AcDbEntity
  8
AM_4
100
AcDbPolyline
 90
       19
 70
     0
 43
0.0
 10
-40.34499992205576
 20
-17.36999999999999
 10
-40.42823365667637
 20
-17.37363405652908
 10
-40.51083393291182
 20
-17.38450858233845
 10
-40.59217211278455
 20
-17.40254081572047
 10
-40.67162916363238
 20
-17.42759352049094
 10
-40.74860036932089
 20
-17.45947603043932
 10
-40.8224999324983
 20
-17.49794570041372
 10
-40.89276543286705
 20
-17.54270975299701
 10
-40.95886210754188
 20
-17.59342750671976
 10
-41.02028692091824
 20
-17.64971296885192
 10
-41.07657239307702
 20
-17.71113777304057
 10
-41.12729015758899
 20
-17.77723443943654
 10
-41.17205422164201
 20
-17.84749993249827
 10
-41.21052390367933
 20
-17.92139948939612
 10
-41.24240642619203
 20
-17.99837068988032
 10
-41.2674591439326
 20
-18.0778277366387
 10
-41.28549139059177
 20
-18.15916591356795
 10
-41.29636592988432
 20
-18.2417661880283
 10
-41.3
 20
-18.32499992205571
  0
LINE
  5
248
330
1B8
100
AcDbEntity
  8
AM_4
100
AcDbLine
 10
-40.345
 20
-17.36999999999999
 30
0.0
 11
-40.345
 21
-8.749999999999991
 31
0.0
  0
LINE
  5
249
330
1B8
100
AcDbEntity
  8
AM_4
100
AcDbLine
 10
-41.3
 20
-8.750000000000004
 30
0.0
 11
41.3
 21
-8.749999999999991
 31
0.0
  0
ENDBLK
  5
1BB
330
1B8
100
AcDbEntity
  8
0
100
AcDbBlockEnd
  0
ENDSEC
  0
SECTION
  2
ENTITIES
  0
INSERT
  5
6F
330
1F
100
AcDbEntity
  8
0
100
AcDbBlockReference
  2
1_136251_4
 10
0.0
 20
0.0
 30
0.0
  0
POINT
  5
24B
330
1F
100
AcDbEntity
  8
ConnectionPoints
100
AcDbPoint
 10
0.0
 20
0.0
 30
0.0
  0
POINT
  5
24C
330
1F
100
AcDbEntity
  8
ConnectionPoints
100
AcDbPoint
 10
0.0
 20
0.0
 30
0.0
  0
POINT
  5
24D
330
1F
100
AcDbEntity
  8
ConnectionPoints
100
AcDbPoint
 10
0.0
 20
16.7
 30
-0.000000000000001
  0
POINT
  5
24E
330
1F
100
AcDbEntity
  8
ConnectionPoints
100
AcDbPoint
 10
0.0
 20
0.0
 30
0.0
  0
POINT
  5
24F
330
1F
100
AcDbEntity
  8
ConnectionPoints
100
AcDbPoint
 10
0.0
 20
0.0
 30
0.0
  0
POINT
  5
250
330
1F
100
AcDbEntity
  8
ConnectionPoints
100
AcDbPoint
 10
-49.88306325798366
 20
-0.0000000000000018
 30
-28.79999999999999
  0
POINT
  5
251
330
1F
100
AcDbEntity
  8
ConnectionPoints
100
AcDbPoint
 10
0.0
 20
-16.7
 30
0.000000000000001
  0
ENDSEC
  0
SECTION
  2
OBJECTS
  0
DICTIONARY
  5
C
330
0
100
AcDbDictionary
281
     1
  3
ACAD_DETAILVIEWSTYLE
350
259
  3
ACAD_GROUP
350
D
  3
ACAD_LAYOUT
350
1A
  3
ACAD_MATERIAL
350
43
  3
ACAD_MLEADERSTYLE
350
6B
  3
ACAD_MLINESTYLE
350
17
  3
ACAD_PLOTSETTINGS
350
19
  3
ACAD_PLOTSTYLENAME
350
E
  3
ACAD_SCALELIST
350
47
  3
ACAD_SECTIONVIEWSTYLE
350
25A
  3
ACAD_TABLESTYLE
350
69
  3
ACAD_VISUALSTYLE
350
2A
  3
ACDB_RECOMPOSE_DATA
350
256
  3
AcDbVariableDictionary
350
252
  0
SUN
  5
6D
330
29
100
AcDbSun
 90
        1
290
     0
 63
     7
421
 16777215
 40
1.0
291
     1
 91
  2455826
 92
 54000000
292
     0
 70
     2
 71
   256
280
     1
  0
DICTIONARY
  5
259
102
{ACAD_REACTORS
330
C
102
}
330
C
100
AcDbDictionary
281
     1
  0
DICTIONARY
  5
D
102
{ACAD_REACTORS
330
C
102
}
330
C
100
AcDbDictionary
281
     1
  0
DICTIONARY
  5
1A
102
{ACAD_REACTORS
330
C
102
}
330
C
100
AcDbDictionary
281
     1
  3
Layout1
350
1E
  3
Layout2
350
26
  3
Model
350
22
  0
DICTIONARY
  5
43
102
{ACAD_REACTORS
330
C
102
}
330
C
100
AcDbDictionary
281
     1
  3
ByBlock
350
45
  3
ByLayer
350
44
  3
Global
350
46
  0
DICTIONARY
  5
6B
102
{ACAD_REACTORS
330
C
102
}
330
C
100
AcDbDictionary
281
     1
  3
Standard
350
6C
  0
DICTIONARY
  5
17
102
{ACAD_REACTORS
330
C
102
}
330
C
100
AcDbDictionary
281
     1
  3
Standard
350
18
  0
DICTIONARY
  5
19
102
{ACAD_REACTORS
330
C
102
}
330
C
100
AcDbDictionary
281
     1
  0
ACDBDICTIONARYWDFLT
  5
E
102
{ACAD_REACTORS
330
C
102
}
330
C
100
AcDbDictionary
281
     1
  3
Normal
350
F
100
AcDbDictionaryWithDefault
340
F
  0
DICTIONARY
  5
47
102
{ACAD_REACTORS
330
C
102
}
330
C
100
AcDbDictionary
281
     1
  3
A0
350
48
  3
A1
350
49
  3
A2
350
4A
  3
A3
350
4B
  3
A4
350
4C
  3
A5
350
4D
  3
A6
350
4E
  3
A7
350
4F
  3
A8
350
50
  3
A9
350
51
  3
B0
350
52
  3
B1
350
53
  3
B2
350
54
  3
B3
350
55
  3
B4
350
56
  3
B5
350
57
  3
B6
350
58
  3
B7
350
59
  3
B8
350
5A
  3
B9
350
5B
  3
C0
350
5C
  3
C1
350
5D
  3
C2
350
5E
  3
C3
350
5F
  3
C4
350
60
  3
C5
350
61
  3
C6
350
62
  3
C7
350
63
  3
C8
350
64
  3
C9
350
65
  3
D0
350
66
  3
D1
350
67
  3
D2
350
68
  0
DICTIONARY
  5
25A
102
{ACAD_REACTORS
330
C
102
}
330
C
100
AcDbDictionary
281
     1
  0
DICTIONARY
  5
69
102
{ACAD_REACTORS
330
C
102
}
330
C
100
AcDbDictionary
281
     1
  3
Standard
350
6A
  0
DICTIONARY
  5
2A
102
{ACAD_REACTORS
330
C
102
}
330
C
100
AcDbDictionary
281
     1
  3
2dWireframe
350
2F
  3
Basic
350
32
  3
Brighten
350
36
  3
ColorChange
350
3A
  3
Conceptual
350
34
  3
Dim
350
35
  3
EdgeColorOff
350
3D
  3
Facepattern
350
39
  3
Flat
350
2B
  3
FlatWithEdges
350
2C
  3
Gouraud
350
2D
  3
GouraudWithEdges
350
2E
  3
Hidden
350
31
  3
JitterOff
350
3B
  3
Linepattern
350
38
  3
OverhangOff
350
3C
  3
Realistic
350
33
  3
Shaded
350
42
  3
Shaded with edges
350
41
  3
Shades of Gray
350
3E
  3
Sketchy
350
3F
  3
Thicken
350
37
  3
Wireframe
350
30
  3
X-Ray
350
40
  0
XRECORD
  5
256
102
{ACAD_REACTORS
330
C
102
}
330
C
100
AcDbXrecord
280
     1
 90
        1
330
6A
  0
DICTIONARY
  5
252
102
{ACAD_REACTORS
330
C
102
}
330
C
100
AcDbDictionary
281
     1
  3
CANNOSCALE
350
253
  3
CMLEADERSTYLE
350
258
  3
CTABLESTYLE
350
257
  0
LAYOUT
  5
1E
102
{ACAD_REACTORS
330
1A
102
}
330
1A
100
AcDbPlotSettings
  1

  2
none_device
  4

  6

 40
0.0
 41
0.0
 42
0.0
 43
0.0
 44
0.0
 45
0.0
 46
0.0
 47
0.0
 48
0.0
 49
0.0
140
0.0
141
0.0
142
1.0
143
1.0
 70
   688
 72
     1
 73
     0
 74
     5
  7

 75
    16
 76
     0
 77
     2
 78
   300
147
1.0
148
0.0
149
0.0
100
AcDbLayout
  1
Layout1
 70
     1
 71
     1
 10
0.0
 20
0.0
 11
420.0
 21
297.0
 12
0.0
 22
0.0
 32
0.0
 14
1.000000000000000E+20
 24
1.000000000000000E+20
 34
1.000000000000000E+20
 15
-1.000000000000000E+20
 25
-1.000000000000000E+20
 35
-1.000000000000000E+20
146
0.0
 13
0.0
 23
0.0
 33
0.0
 16
1.0
 26
0.0
 36
0.0
 17
0.0
 27
1.0
 37
0.0
 76
     0
330
1B
  0
LAYOUT
  5
26
102
{ACAD_REACTORS
330
1A
102
}
330
1A
100
AcDbPlotSettings
  1

  2
none_device
  4

  6

 40
0.0
 41
0.0
 42
0.0
 43
0.0
 44
0.0
 45
0.0
 46
0.0
 47
0.0
 48
0.0
 49
0.0
140
0.0
141
0.0
142
1.0
143
1.0
 70
   688
 72
     1
 73
     0
 74
     5
  7

 75
    16
 76
     0
 77
     2
 78
   300
147
1.0
148
0.0
149
0.0
100
AcDbLayout
  1
Layout2
 70
     1
 71
     2
 10
0.0
 20
0.0
 11
0.0
 21
0.0
 12
0.0
 22
0.0
 32
0.0
 14
0.0
 24
0.0
 34
0.0
 15
0.0
 25
0.0
 35
0.0
146
0.0
 13
0.0
 23
0.0
 33
0.0
 16
1.0
 26
0.0
 36
0.0
 17
0.0
 27
1.0
 37
0.0
 76
     0
330
23
  0
LAYOUT
  5
22
102
{ACAD_REACTORS
330
1A
102
}
330
1A
100
AcDbPlotSettings
  1

  2
none_device
  4
Letter_(8.50_x_11.00_Inches)
  6

 40
6.35
 41
6.35
 42
6.35000508
 43
6.35000508
 44
215.9
 45
279.4
 46
0.0
 47
0.0
 48
0.0
 49
0.0
140
0.0
141
0.0
142
1.0
143
1.0
 70
  1712
 72
     1
 73
     0
 74
     0
  7

 75
     0
 76
     0
 77
     2
 78
   300
147
1.0
148
0.0
149
0.0
100
AcDbLayout
  1
Model
 70
     1
 71
     0
 10
0.0
 20
0.0
 11
420.0
 21
297.0
 12
0.0
 22
0.0
 32
0.0
 14
1.000000000000000E+20
 24
1.000000000000000E+20
 34
1.000000000000000E+20
 15
-1.000000000000000E+20
 25
-1.000000000000000E+20
 35
-1.000000000000000E+20
146
0.0
 13
0.0
 23
0.0
 33
0.0
 16
1.0
 26
0.0
 36
0.0
 17
0.0
 27
1.0
 37
0.0
 76
     0
330
1F
331
29
  0
MATERIAL
  5
45
102
{ACAD_REACTORS
330
43
102
}
330
43
100
AcDbMaterial
  1
ByBlock
 72
     1
 94
      127
  0
MATERIAL
  5
44
102
{ACAD_REACTORS
330
43
102
}
330
43
100
AcDbMaterial
  1
ByLayer
 72
     1
 94
      127
  0
MATERIAL
  5
46
102
{ACAD_REACTORS
330
43
102
}
330
43
100
AcDbMaterial
  1
Global
 72
     1
 94
      127
  0
MLEADERSTYLE
  5
6C
102
{ACAD_REACTORS
330
6B
102
}
330
6B
100
AcDbMLeaderStyle
179
     2
170
     2
171
     1
172
     0
 90
        2
 40
0.0
 41
0.0
173
     1
 91
-1056964608
340
14
 92
       -2
290
     1
 42
2.0
291
     1
 43
8.0
  3
Standard
341
0
 44
4.0
300

342
11
174
     1
178
     6
175
     1
176
     0
 93
-1056964608
 45
4.0
292
     0
297
     0
 46
4.0
343
0
 94
-1056964608
 47
1.0
 49
1.0
140
1.0
293
     1
141
0.0
294
     1
177
     0
142
1.0
295
     0
296
     0
143
3.75
271
     0
272
     9
273
     9
298
     0
  0
MLINESTYLE
  5
18
102
{ACAD_REACTORS
330
17
102
}
330
17
100
AcDbMlineStyle
  2
Standard
 70
     0
  3

 62
   256
 51
90.0
 52
90.0
 71
     2
 49
0.5
 62
   256
  6
BYLAYER
 49
-0.5
 62
   256
  6
BYLAYER
  0
ACDBPLACEHOLDER
  5
F
102
{ACAD_REACTORS
330
E
102
}
330
E
  0
SCALE
  5
48
102
{ACAD_REACTORS
330
47
102
}
330
47
100
AcDbScale
 70
     0
300
1:1
140
1.0
141
1.0
290
     1
  0
SCALE
  5
49
102
{ACAD_REACTORS
330
47
102
}
330
47
100
AcDbScale
 70
     0
300
1:2
140
1.0
141
2.0
290
     0
  0
SCALE
  5
4A
102
{ACAD_REACTORS
330
47
102
}
330
47
100
AcDbScale
 70
     0
300
1:4
140
1.0
141
4.0
290
     0
  0
SCALE
  5
4B
102
{ACAD_REACTORS
330
47
102
}
330
47
100
AcDbScale
 70
     0
300
1:5
140
1.0
141
5.0
290
     0
  0
SCALE
  5
4C
102
{ACAD_REACTORS
330
47
102
}
330
47
100
AcDbScale
 70
     0
300
1:8
140
1.0
141
8.0
290
     0
  0
SCALE
  5
4D
102
{ACAD_REACTORS
330
47
102
}
330
47
100
AcDbScale
 70
     0
300
1:10
140
1.0
141
10.0
290
     0
  0
SCALE
  5
4E
102
{ACAD_REACTORS
330
47
102
}
330
47
100
AcDbScale
 70
     0
300
1:16
140
1.0
141
16.0
290
     0
  0
SCALE
  5
4F
102
{ACAD_REACTORS
330
47
102
}
330
47
100
AcDbScale
 70
     0
300
1:20
140
1.0
141
20.0
290
     0
  0
SCALE
  5
50
102
{ACAD_REACTORS
330
47
102
}
330
47
100
AcDbScale
 70
     0
300
1:30
140
1.0
141
30.0
290
     0
  0
SCALE
  5
51
102
{ACAD_REACTORS
330
47
102
}
330
47
100
AcDbScale
 70
     0
300
1:40
140
1.0
141
40.0
290
     0
  0
SCALE
  5
52
102
{ACAD_REACTORS
330
47
102
}
330
47
100
AcDbScale
 70
     0
300
1:50
140
1.0
141
50.0
290
     0
  0
SCALE
  5
53
102
{ACAD_REACTORS
330
47
102
}
330
47
100
AcDbScale
 70
     0
300
1:100
140
1.0
141
100.0
290
     0
  0
SCALE
  5
54
102
{ACAD_REACTORS
330
47
102
}
330
47
100
AcDbScale
 70
     0
300
2:1
140
2.0
141
1.0
290
     0
  0
SCALE
  5
55
102
{ACAD_REACTORS
330
47
102
}
330
47
100
AcDbScale
 70
     0
300
4:1
140
4.0
141
1.0
290
     0
  0
SCALE
  5
56
102
{ACAD_REACTORS
330
47
102
}
330
47
100
AcDbScale
 70
     0
300
8:1
140
8.0
141
1.0
290
     0
  0
SCALE
  5
57
102
{ACAD_REACTORS
330
47
102
}
330
47
100
AcDbScale
 70
     0
300
10:1
140
10.0
141
1.0
290
     0
  0
SCALE
  5
58
102
{ACAD_REACTORS
330
47
102
}
330
47
100
AcDbScale
 70
     0
300
100:1
140
100.0
141
1.0
290
     0
  0
SCALE
  5
59
102
{ACAD_REACTORS
330
47
102
}
330
47
100
AcDbScale
 70
     0
300
1/128" = 1'-0"
140
0.0078125
141
12.0
290
     0
  0
SCALE
  5
5A
102
{ACAD_REACTORS
330
47
102
}
330
47
100
AcDbScale
 70
     0
300
1/64" = 1'-0"
140
0.015625
141
12.0
290
     0
  0
SCALE
  5
5B
102
{ACAD_REACTORS
330
47
102
}
330
47
100
AcDbScale
 70
     0
300
1/32" = 1'-0"
140
0.03125
141
12.0
290
     0
  0
SCALE
  5
5C
102
{ACAD_REACTORS
330
47
102
}
330
47
100
AcDbScale
 70
     0
300
1/16" = 1'-0"
140
0.0625
141
12.0
290
     0
  0
SCALE
  5
5D
102
{ACAD_REACTORS
330
47
102
}
330
47
100
AcDbScale
 70
     0
300
3/32" = 1'-0"
140
0.09375
141
12.0
290
     0
  0
SCALE
  5
5E
102
{ACAD_REACTORS
330
47
102
}
330
47
100
AcDbScale
 70
     0
300
1/8" = 1'-0"
140
0.125
141
12.0
290
     0
  0
SCALE
  5
5F
102
{ACAD_REACTORS
330
47
102
}
330
47
100
AcDbScale
 70
     0
300
3/16" = 1'-0"
140
0.1875
141
12.0
290
     0
  0
SCALE
  5
60
102
{ACAD_REACTORS
330
47
102
}
330
47
100
AcDbScale
 70
     0
300
1/4" = 1'-0"
140
0.25
141
12.0
290
     0
  0
SCALE
  5
61
102
{ACAD_REACTORS
330
47
102
}
330
47
100
AcDbScale
 70
     0
300
3/8" = 1'-0"
140
0.375
141
12.0
290
     0
  0
SCALE
  5
62
102
{ACAD_REACTORS
330
47
102
}
330
47
100
AcDbScale
 70
     0
300
1/2" = 1'-0"
140
0.5
141
12.0
290
     0
  0
SCALE
  5
63
102
{ACAD_REACTORS
330
47
102
}
330
47
100
AcDbScale
 70
     0
300
3/4" = 1'-0"
140
0.75
141
12.0
290
     0
  0
SCALE
  5
64
102
{ACAD_REACTORS
330
47
102
}
330
47
100
AcDbScale
 70
     0
300
1" = 1'-0"
140
1.0
141
12.0
290
     0
  0
SCALE
  5
65
102
{ACAD_REACTORS
330
47
102
}
330
47
100
AcDbScale
 70
     0
300
1-1/2" = 1'-0"
140
1.5
141
12.0
290
     0
  0
SCALE
  5
66
102
{ACAD_REACTORS
330
47
102
}
330
47
100
AcDbScale
 70
     0
300
3" = 1'-0"
140
3.0
141
12.0
290
     0
  0
SCALE
  5
67
102
{ACAD_REACTORS
330
47
102
}
330
47
100
AcDbScale
 70
     0
300
6" = 1'-0"
140
6.0
141
12.0
290
     0
  0
SCALE
  5
68
102
{ACAD_REACTORS
330
47
102
}
330
47
100
AcDbScale
 70
     0
300
1'-0" = 1'-0"
140
12.0
141
12.0
290
     0
  0
TABLESTYLE
  5
6A
102
{ACAD_REACTORS
330
69
102
}
102
{ACAD_XDICTIONARY
360
254
102
}
330
69
100
AcDbTableStyle
  3
Standard
 70
     0
 71
     0
 40
0.06
 41
0.06
280
     0
281
     0
  7
Standard
140
4.5
170
     2
 62
     0
 63
   257
283
     0
 90
        4
 91
        0
  1

274
    -2
284
     1
 64
     0
275
    -2
285
     1
 65
     0
276
    -2
286
     1
 66
     0
277
    -2
287
     1
 67
     0
278
    -2
288
     1
 68
     0
279
    -2
289
     1
 69
     0
  7
Standard
140
6.0
170
     5
 62
     0
 63
   257
283
     0
 90
        4
 91
        0
  1

274
    -2
284
     1
 64
     0
275
    -2
285
     1
 65
     0
276
    -2
286
     1
 66
     0
277
    -2
287
     1
 67
     0
278
    -2
288
     1
 68
     0
279
    -2
289
     1
 69
     0
  7
Standard
140
4.5
170
     5
 62
     0
 63
   257
283
     0
 90
        4
 91
        0
  1

274
    -2
284
     1
 64
     0
275
    -2
285
     1
 65
     0
276
    -2
286
     1
 66
     0
277
    -2
287
     1
 67
     0
278
    -2
288
     1
 68
     0
279
    -2
289
     1
 69
     0
  0
VISUALSTYLE
  5
2F
102
{ACAD_REACTORS
330
2A
102
}
330
2A
100
AcDbVisualStyle
  2
2dWireframe
 70
     4
177
     3
291
     0
 70
    58
 90
        0
176
     1
 90
        2
176
     1
 90
        0
176
     1
 90
        0
176
     1
 40
0.6
176
     1
 40
30.0
176
     1
 62
     7
420
 16777215
176
     1
 90
        1
176
     1
 90
        4
176
     1
 62
     7
176
     1
 62
   257
176
     1
 90
        1
176
     1
 90
        1
176
     1
 40
1.0
176
     1
 90
        0
176
     1
 62
   257
176
     1
 40
1.0
176
     1
 90
        1
176
     1
 90
        6
176
     1
 90
        2
176
     1
 62
     7
176
     1
 90
        5
176
     1
 90
        0
176
     1
 90
        0
176
     1
290
     0
176
     1
 90
        1
176
     1
 40
0.0
176
     1
 90
        0
176
     1
290
     1
176
     1
290
     1
176
     1
290
     0
176
     1
290
     0
176
     1
290
     0
176
     1
290
     0
176
     1
290
     0
176
     1
290
     0
176
     1
290
     0
176
     1
 90
       50
176
     1
 40
0.0
176
     1
 40
1.0
176
     1
 90
        0
176
     1
 62
    18
420
        0
176
     1
 90
       50
176
     1
 90
        3
176
     1
 62
     5
420
      255
176
     1
290
     0
176
     1
 90
       50
176
     1
 90
       50
176
     1
 90
       50
176
     1
290
     0
176
     1
 90
       50
176
     1
 62
   256
176
     0
 40
1.0
176
     0
 90
        2
176
     1
  1
strokes_ogs.tif
176
     1
290
     0
176
     1
 40
1.0
176
     1
 40
1.0
176
     1
  0
VISUALSTYLE
  5
32
102
{ACAD_REACTORS
330
2A
102
}
330
2A
100
AcDbVisualStyle
  2
Basic
 70
     7
177
     3
291
     1
 70
    58
 90
        1
176
     1
 90
        0
176
     1
 90
        1
176
     1
 90
        0
176
     1
 40
0.6
176
     1
 40
30.0
176
     1
 62
     7
420
 16777215
176
     1
 90
        0
176
     1
 90
        4
176
     1
 62
     7
176
     1
 62
   257
176
     1
 90
        1
176
     1
 90
        1
176
     1
 40
1.0
176
     1
 90
        8
176
     1
 62
     7
176
     1
 40
1.0
176
     1
 90
        1
176
     1
 90
        6
176
     1
 90
        2
176
     1
 62
     7
176
     1
 90
        5
176
     1
 90
        0
176
     1
 90
        0
176
     1
290
     0
176
     1
 90
        1
176
     1
 40
0.0
176
     1
 90
        0
176
     1
290
     0
176
     1
290
     1
176
     1
290
     1
176
     1
290
     0
176
     1
290
     0
176
     1
290
     0
176
     1
290
     0
176
     1
290
     0
176
     1
290
     0
176
     1
 90
       50
176
     1
 40
0.0
176
     1
 40
1.0
176
     1
 90
        0
176
     1
 62
    18
420
        0
176
     1
 90
       50
176
     1
 90
        3
176
     1
 62
     5
420
      255
176
     1
290
     0
176
     1
 90
       50
176
     1
 90
       50
176
     1
 90
       50
176
     1
290
     0
176
     1
 90
       50
176
     1
 62
   256
176
     0
 40
1.0
176
     0
 90
        2
176
     1
  1
strokes_ogs.tif
176
     1
290
     0
176
     1
 40
1.0
176
     1
 40
1.0
176
     1
  0
VISUALSTYLE
  5
36
102
{ACAD_REACTORS
330
2A
102
}
330
2A
100
AcDbVisualStyle
  2
Brighten
 70
    12
177
     3
291
     1
 70
    58
 90
        2
176
     1
 90
        2
176
     1
 90
        0
176
     1
 90
        0
176
     1
 40
0.6
176
     1
 40
30.0
176
     1
 62
     7
420
 16777215
176
     1
 90
        1
176
     1
 90
        4
176
     1
 62
     7
176
     1
 62
   257
176
     1
 90
        1
176
     1
 90
        1
176
     1
 40
1.0
176
     1
 90
        8
176
     1
 62
     7
176
     1
 40
1.0
176
     1
 90
        1
176
     1
 90
        6
176
     1
 90
        2
176
     1
 62
     7
176
     1
 90
        5
176
     1
 90
        0
176
     1
 90
        0
176
     1
290
     0
176
     1
 90
        1
176
     1
 40
50.0
176
     1
 90
        0
176
     1
290
     0
176
     1
290
     1
176
     1
290
     1
176
     1
290
     0
176
     1
290
     0
176
     1
290
     0
176
     1
290
     0
176
     1
290
     0
176
     1
290
     0
176
     1
 90
       50
176
     1
 40
0.0
176
     1
 40
1.0
176
     1
 90
        0
176
     1
 62
    18
420
        0
176
     1
 90
       50
176
     1
 90
        3
176
     1
 62
     5
420
      255
176
     1
290
     0
176
     1
 90
       50
176
     1
 90
       50
176
     1
 90
       50
176
     1
290
     0
176
     1
 90
       50
176
     1
 62
   256
176
     0
 40
1.0
176
     0
 90
        2
176
     1
  1
strokes_ogs.tif
176
     1
290
     0
176
     1
 40
1.0
176
     1
 40
1.0
176
     1
  0
VISUALSTYLE
  5
3A
102
{ACAD_REACTORS
330
2A
102
}
330
2A
100
AcDbVisualStyle
  2
ColorChange
 70
    16
177
     3
291
     1
 70
    58
 90
        2
176
     1
 90
        2
176
     1
 90
        3
176
     1
 90
        0
176
     1
 40
0.6
176
     1
 40
30.0
176
     1
 62
     8
420
  8421504
176
     1
 90
        1
176
     1
 90
        4
176
     1
 62
     7
176
     1
 62
   257
176
     1
 90
        1
176
     1
 90
        1
176
     1
 40
1.0
176
     1
 90
        8
176
     1
 62
     8
420
  8421504
176
     1
 40
1.0
176
     1
 90
        1
176
     1
 90
        6
176
     1
 90
        2
176
     1
 62
     7
176
     1
 90
        5
176
     1
 90
        0
176
     1
 90
        0
176
     1
290
     0
176
     1
 90
        1
176
     1
 40
0.0
176
     1
 90
        0
176
     1
290
     0
176
     1
290
     1
176
     1
290
     1
176
     1
290
     0
176
     1
290
     0
176
     1
290
     0
176
     1
290
     0
176
     1
290
     0
176
     1
290
     0
176
     1
 90
       50
176
     1
 40
0.0
176
     1
 40
1.0
176
     1
 90
        0
176
     1
 62
    18
420
        0
176
     1
 90
       50
176
     1
 90
        3
176
     1
 62
     5
420
      255
176
     1
290
     0
176
     1
 90
       50
176
     1
 90
       50
176
     1
 90
       50
176
     1
290
     0
176
     1
 90
       50
176
     1
 62
   256
176
     0
 40
1.0
176
     0
 90
        2
176
     1
  1
strokes_ogs.tif
176
     1
290
     0
176
     1
 40
1.0
176
     1
 40
1.0
176
     1
  0
VISUALSTYLE
  5
34
102
{ACAD_REACTORS
330
2A
102
}
330
2A
100
AcDbVisualStyle
  2
Conceptual
 70
     9
177
     3
291
     0
 70
    58
 90
        3
176
     1
 90
        2
176
     1
 90
        0
176
     1
 90
        0
176
     1
 40
0.6
176
     1
 40
30.0
176
     1
 62
     7
420
 16777215
176
     1
 90
        2
176
     1
 90
        2
176
     1
 62
     7
176
     1
 62
   257
176
     1
 90
        1
176
     1
 90
        1
176
     1
 40
179.0
176
     1
 90
        8
176
     1
 62
     7
176
     1
 40
1.0
176
     1
 90
        1
176
     1
 90
        6
176
     1
 90
        2
176
     1
 62
     7
176
     1
 90
        3
176
     1
 90
        0
176
     1
 90
        0
176
     1
290
     0
176
     1
 90
        1
176
     1
 40
0.0
176
     1
 90
        0
176
     1
290
     0
176
     1
290
     1
176
     1
290
     1
176
     1
290
     0
176
     1
290
     0
176
     1
290
     0
176
     1
290
     0
176
     1
290
     0
176
     1
290
     0
176
     1
 90
       50
176
     1
 40
0.0
176
     1
 40
1.0
176
     1
 90
        0
176
     1
 62
    18
420
        0
176
     1
 90
       50
176
     1
 90
        3
176
     1
 62
     5
420
      255
176
     1
290
     0
176
     1
 90
       50
176
     1
 90
       50
176
     1
 90
       50
176
     1
290
     0
176
     1
 90
       50
176
     1
 62
   256
176
     0
 40
1.0
176
     0
 90
        2
176
     1
  1
strokes_ogs.tif
176
     1
290
     0
176
     1
 40
1.0
176
     1
 40
1.0
176
     1
  0
VISUALSTYLE
  5
35
102
{ACAD_REACTORS
330
2A
102
}
330
2A
100
AcDbVisualStyle
  2
Dim
 70
    11
177
     3
291
     1
 70
    58
 90
        2
176
     1
 90
        2
176
     1
 90
        0
176
     1
 90
        0
176
     1
 40
0.6
176
     1
 40
30.0
176
     1
 62
     7
420
 16777215
176
     1
 90
        1
176
     1
 90
        4
176
     1
 62
     7
176
     1
 62
   257
176
     1
 90
        1
176
     1
 90
        1
176
     1
 40
1.0
176
     1
 90
        8
176
     1
 62
     7
176
     1
 40
1.0
176
     1
 90
        1
176
     1
 90
        6
176
     1
 90
        2
176
     1
 62
     7
176
     1
 90
        5
176
     1
 90
        0
176
     1
 90
        0
176
     1
290
     0
176
     1
 90
        1
176
     1
 40
-50.0
176
     1
 90
        0
176
     1
290
     0
176
     1
290
     1
176
     1
290
     1
176
     1
290
     0
176
     1
290
     0
176
     1
290
     0
176
     1
290
     0
176
     1
290
     0
176
     1
290
     0
176
     1
 90
       50
176
     1
 40
0.0
176
     1
 40
1.0
176
     1
 90
        0
176
     1
 62
    18
420
        0
176
     1
 90
       50
176
     1
 90
        3
176
     1
 62
     5
420
      255
176
     1
290
     0
176
     1
 90
       50
176
     1
 90
       50
176
     1
 90
       50
176
     1
290
     0
176
     1
 90
       50
176
     1
 62
   256
176
     0
 40
1.0
176
     0
 90
        2
176
     1
  1
strokes_ogs.tif
176
     1
290
     0
176
     1
 40
1.0
176
     1
 40
1.0
176
     1
  0
VISUALSTYLE
  5
3D
102
{ACAD_REACTORS
330
2A
102
}
330
2A
100
AcDbVisualStyle
  2
EdgeColorOff
 70
    22
177
     3
291
     1
 70
    58
 90
        2
176
     0
 90
        2
176
     0
 90
        0
176
     0
 90
        0
176
     0
 40
0.6
176
     0
 40
30.0
176
     0
 62
     7
420
 16777215
176
     0
 90
        1
176
     0
 90
        4
176
     0
 62
     7
176
     0
 62
   257
176
     0
 90
        1
176
     0
 90
        1
176
     0
 40
1.0
176
     0
 90
        8
176
     2
 62
     7
176
     0
 40
1.0
176
     0
 90
        1
176
     0
 90
        6
176
     0
 90
        2
176
     0
 62
     7
176
     0
 90
        5
176
     0
 90
        0
176
     0
 90
        0
176
     0
290
     0
176
     0
 90
        1
176
     0
 40
0.0
176
     0
 90
        0
176
     0
290
     0
176
     0
290
     1
176
     0
290
     1
176
     0
290
     0
176
     0
290
     0
176
     0
290
     0
176
     0
290
     0
176
     0
290
     0
176
     0
290
     0
176
     0
 90
       50
176
     0
 40
0.0
176
     0
 40
1.0
176
     0
 90
        0
176
     0
 62
    18
420
        0
176
     0
 90
       50
176
     0
 90
        3
176
     0
 62
     5
420
      255
176
     0
290
     0
176
     0
 90
       50
176
     0
 90
       50
176
     0
 90
       50
176
     0
290
     0
176
     0
 90
       50
176
     0
 62
   256
176
     0
 40
1.0
176
     0
 90
        2
176
     0
  1
strokes_ogs.tif
176
     0
290
     0
176
     0
 40
1.0
176
     0
 40
1.0
176
     0
  0
VISUALSTYLE
  5
39
102
{ACAD_REACTORS
330
2A
102
}
330
2A
100
AcDbVisualStyle
  2
Facepattern
 70
    15
177
     3
291
     1
 70
    58
 90
        2
176
     1
 90
        2
176
     1
 90
        0
176
     1
 90
        0
176
     1
 40
0.6
176
     1
 40
30.0
176
     1
 62
     7
420
 16777215
176
     1
 90
        1
176
     1
 90
        4
176
     1
 62
     7
176
     1
 62
   257
176
     1
 90
        1
176
     1
 90
        1
176
     1
 40
1.0
176
     1
 90
        8
176
     1
 62
     7
176
     1
 40
1.0
176
     1
 90
        1
176
     1
 90
        6
176
     1
 90
        2
176
     1
 62
     7
176
     1
 90
        5
176
     1
 90
        0
176
     1
 90
        0
176
     1
290
     0
176
     1
 90
        1
176
     1
 40
0.0
176
     1
 90
        0
176
     1
290
     0
176
     1
290
     1
176
     1
290
     1
176
     1
290
     0
176
     1
290
     0
176
     1
290
     0
176
     1
290
     0
176
     1
290
     0
176
     1
290
     0
176
     1
 90
       50
176
     1
 40
0.0
176
     1
 40
1.0
176
     1
 90
        0
176
     1
 62
    18
420
        0
176
     1
 90
       50
176
     1
 90
        3
176
     1
 62
     5
420
      255
176
     1
290
     0
176
     1
 90
       50
176
     1
 90
       50
176
     1
 90
       50
176
     1
290
     0
176
     1
 90
       50
176
     1
 62
   256
176
     0
 40
1.0
176
     0
 90
        2
176
     1
  1
strokes_ogs.tif
176
     1
290
     0
176
     1
 40
1.0
176
     1
 40
1.0
176
     1
  0
VISUALSTYLE
  5
2B
102
{ACAD_REACTORS
330
2A
102
}
330
2A
100
AcDbVisualStyle
  2
Flat
 70
     0
177
     3
291
     1
 70
    58
 90
        2
176
     1
 90
        1
176
     1
 90
        1
176
     1
 90
        2
176
     1
 40
0.6
176
     1
 40
30.0
176
     1
 62
     7
420
 16777215
176
     1
 90
        0
176
     1
 90
        0
176
     1
 62
     7
176
     1
 62
   257
176
     1
 90
        1
176
     1
 90
        1
176
     1
 40
1.0
176
     1
 90
        8
176
     1
 62
     7
176
     1
 40
1.0
176
     1
 90
        1
176
     1
 90
        6
176
     1
 90
        2
176
     1
 62
     7
176
     1
 90
        5
176
     1
 90
        0
176
     1
 90
        0
176
     1
290
     0
176
     1
 90
       13
176
     1
 40
0.0
176
     1
 90
        0
176
     1
290
     0
176
     1
290
     1
176
     1
290
     1
176
     1
290
     0
176
     1
290
     0
176
     1
290
     0
176
     1
290
     0
176
     1
290
     0
176
     1
290
     0
176
     1
 90
       50
176
     1
 40
0.0
176
     1
 40
1.0
176
     1
 90
        0
176
     1
 62
    18
420
        0
176
     1
 90
       50
176
     1
 90
        3
176
     1
 62
     5
420
      255
176
     1
290
     0
176
     1
 90
       50
176
     1
 90
       50
176
     1
 90
       50
176
     1
290
     0
176
     1
 90
       50
176
     1
 62
   256
176
     0
 40
1.0
176
     0
 90
        2
176
     1
  1
strokes_ogs.tif
176
     1
290
     0
176
     1
 40
1.0
176
     1
 40
1.0
176
     1
  0
VISUALSTYLE
  5
2C
102
{ACAD_REACTORS
330
2A
102
}
330
2A
100
AcDbVisualStyle
  2
FlatWithEdges
 70
     1
177
     3
291
     1
 70
    58
 90
        2
176
     1
 90
        1
176
     1
 90
        1
176
     1
 90
        2
176
     1
 40
0.6
176
     1
 40
30.0
176
     1
 62
     7
420
 16777215
176
     1
 90
        1
176
     1
 90
        0
176
     1
 62
     7
176
     1
 62
   257
176
     1
 90
        1
176
     1
 90
        1
176
     1
 40
1.0
176
     1
 90
        0
176
     1
 62
   257
176
     1
 40
1.0
176
     1
 90
        1
176
     1
 90
        6
176
     1
 90
        2
176
     1
 62
     7
176
     1
 90
        5
176
     1
 90
        0
176
     1
 90
        0
176
     1
290
     0
176
     1
 90
       13
176
     1
 40
0.0
176
     1
 90
        0
176
     1
290
     0
176
     1
290
     1
176
     1
290
     1
176
     1
290
     0
176
     1
290
     0
176
     1
290
     0
176
     1
290
     0
176
     1
290
     0
176
     1
290
     0
176
     1
 90
       50
176
     1
 40
0.0
176
     1
 40
1.0
176
     1
 90
        0
176
     1
 62
    18
420
        0
176
     1
 90
       50
176
     1
 90
        3
176
     1
 62
     5
420
      255
176
     1
290
     0
176
     1
 90
       50
176
     1
 90
       50
176
     1
 90
       50
176
     1
290
     0
176
     1
 90
       50
176
     1
 62
   256
176
     0
 40
1.0
176
     0
 90
        2
176
     1
  1
strokes_ogs.tif
176
     1
290
     0
176
     1
 40
1.0
176
     1
 40
1.0
176
     1
  0
VISUALSTYLE
  5
2D
102
{ACAD_REACTORS
330
2A
102
}
330
2A
100
AcDbVisualStyle
  2
Gouraud
 70
     2
177
     3
291
     1
 70
    58
 90
        2
176
     1
 90
        2
176
     1
 90
        1
176
     1
 90
        2
176
     1
 40
0.6
176
     1
 40
30.0
176
     1
 62
     7
420
 16777215
176
     1
 90
        0
176
     1
 90
        0
176
     1
 62
     7
176
     1
 62
   257
176
     1
 90
        1
176
     1
 90
        1
176
     1
 40
1.0
176
     1
 90
        0
176
     1
 62
     7
176
     1
 40
1.0
176
     1
 90
        1
176
     1
 90
        6
176
     1
 90
        2
176
     1
 62
     7
176
     1
 90
        5
176
     1
 90
        0
176
     1
 90
        0
176
     1
290
     0
176
     1
 90
       13
176
     1
 40
0.0
176
     1
 90
        0
176
     1
290
     0
176
     1
290
     1
176
     1
290
     1
176
     1
290
     0
176
     1
290
     0
176
     1
290
     0
176
     1
290
     0
176
     1
290
     0
176
     1
290
     0
176
     1
 90
       50
176
     1
 40
0.0
176
     1
 40
1.0
176
     1
 90
        0
176
     1
 62
    18
420
        0
176
     1
 90
       50
176
     1
 90
        3
176
     1
 62
     5
420
      255
176
     1
290
     0
176
     1
 90
       50
176
     1
 90
       50
176
     1
 90
       50
176
     1
290
     0
176
     1
 90
       50
176
     1
 62
   256
176
     0
 40
1.0
176
     0
 90
        2
176
     1
  1
strokes_ogs.tif
176
     1
290
     0
176
     1
 40
1.0
176
     1
 40
1.0
176
     1
  0
VISUALSTYLE
  5
2E
102
{ACAD_REACTORS
330
2A
102
}
330
2A
100
AcDbVisualStyle
  2
GouraudWithEdges
 70
     3
177
     3
291
     1
 70
    58
 90
        2
176
     1
 90
        2
176
     1
 90
        1
176
     1
 90
        2
176
     1
 40
0.6
176
     1
 40
30.0
176
     1
 62
     7
420
 16777215
176
     1
 90
        1
176
     1
 90
        0
176
     1
 62
     7
176
     1
 62
   257
176
     1
 90
        1
176
     1
 90
        1
176
     1
 40
1.0
176
     1
 90
        0
176
     1
 62
   257
176
     1
 40
1.0
176
     1
 90
        1
176
     1
 90
        6
176
     1
 90
        2
176
     1
 62
     7
176
     1
 90
        5
176
     1
 90
        0
176
     1
 90
        0
176
     1
290
     0
176
     1
 90
       13
176
     1
 40
0.0
176
     1
 90
        0
176
     1
290
     0
176
     1
290
     1
176
     1
290
     1
176
     1
290
     0
176
     1
290
     0
176
     1
290
     0
176
     1
290
     0
176
     1
290
     0
176
     1
290
     0
176
     1
 90
       50
176
     1
 40
0.0
176
     1
 40
1.0
176
     1
 90
        0
176
     1
 62
    18
420
        0
176
     1
 90
       50
176
     1
 90
        3
176
     1
 62
     5
420
      255
176
     1
290
     0
176
     1
 90
       50
176
     1
 90
       50
176
     1
 90
       50
176
     1
290
     0
176
     1
 90
       50
176
     1
 62
   256
176
     0
 40
1.0
176
     0
 90
        2
176
     1
  1
strokes_ogs.tif
176
     1
290
     0
176
     1
 40
1.0
176
     1
 40
1.0
176
     1
  0
VISUALSTYLE
  5
31
102
{ACAD_REACTORS
330
2A
102
}
330
2A
100
AcDbVisualStyle
  2
Hidden
 70
     6
177
     3
291
     0
 70
    58
 90
        1
176
     1
 90
        2
176
     1
 90
        2
176
     1
 90
        0
176
     1
 40
0.6
176
     1
 40
30.0
176
     1
 62
     7
420
 16777215
176
     1
 90
        2
176
     1
 90
        2
176
     1
 62
     7
176
     1
 62
   257
176
     1
 90
        2
176
     1
 90
        1
176
     1
 40
40.0
176
     1
 90
        0
176
     1
 62
   257
176
     1
 40
1.0
176
     1
 90
        1
176
     1
 90
        6
176
     1
 90
        2
176
     1
 62
     7
176
     1
 90
        3
176
     1
 90
        0
176
     1
 90
        0
176
     1
290
     0
176
     1
 90
        1
176
     1
 40
0.0
176
     1
 90
        0
176
     1
290
     0
176
     1
290
     1
176
     1
290
     1
176
     1
290
     0
176
     1
290
     0
176
     1
290
     0
176
     1
290
     0
176
     1
290
     0
176
     1
290
     0
176
     1
 90
       50
176
     1
 40
0.0
176
     1
 40
1.0
176
     1
 90
        0
176
     1
 62
    18
420
        0
176
     1
 90
       50
176
     1
 90
        3
176
     1
 62
     5
420
      255
176
     1
290
     0
176
     1
 90
       50
176
     1
 90
       50
176
     1
 90
       50
176
     1
290
     0
176
     1
 90
       50
176
     1
 62
   256
176
     0
 40
1.0
176
     0
 90
        2
176
     1
  1
strokes_ogs.tif
176
     1
290
     0
176
     1
 40
1.0
176
     1
 40
1.0
176
     1
  0
VISUALSTYLE
  5
3B
102
{ACAD_REACTORS
330
2A
102
}
330
2A
100
AcDbVisualStyle
  2
JitterOff
 70
    20
177
     3
291
     1
 70
    58
 90
        2
176
     0
 90
        2
176
     0
 90
        0
176
     0
 90
        0
176
     0
 40
0.6
176
     0
 40
30.0
176
     0
 62
     7
420
 16777215
176
     0
 90
        1
176
     0
 90
        4
176
     0
 62
     7
176
     0
 62
   257
176
     0
 90
        1
176
     0
 90
        1
176
     0
 40
1.0
176
     0
 90
       10
176
     2
 62
     7
176
     0
 40
1.0
176
     0
 90
        1
176
     0
 90
        6
176
     0
 90
        2
176
     0
 62
     7
176
     0
 90
        5
176
     0
 90
        0
176
     0
 90
        0
176
     0
290
     0
176
     0
 90
        1
176
     0
 40
0.0
176
     0
 90
        0
176
     0
290
     0
176
     0
290
     1
176
     0
290
     1
176
     0
290
     0
176
     0
290
     0
176
     0
290
     0
176
     0
290
     0
176
     0
290
     0
176
     0
290
     0
176
     0
 90
       50
176
     0
 40
0.0
176
     0
 40
1.0
176
     0
 90
        0
176
     0
 62
    18
420
        0
176
     0
 90
       50
176
     0
 90
        3
176
     0
 62
     5
420
      255
176
     0
290
     0
176
     0
 90
       50
176
     0
 90
       50
176
     0
 90
       50
176
     0
290
     0
176
     0
 90
       50
176
     0
 62
   256
176
     0
 40
1.0
176
     0
 90
        2
176
     0
  1
strokes_ogs.tif
176
     0
290
     0
176
     0
 40
1.0
176
     0
 40
1.0
176
     0
  0
VISUALSTYLE
  5
38
102
{ACAD_REACTORS
330
2A
102
}
330
2A
100
AcDbVisualStyle
  2
Linepattern
 70
    14
177
     3
291
     1
 70
    58
 90
        2
176
     1
 90
        2
176
     1
 90
        0
176
     1
 90
        0
176
     1
 40
0.6
176
     1
 40
30.0
176
     1
 62
     7
420
 16777215
176
     1
 90
        1
176
     1
 90
        4
176
     1
 62
     7
176
     1
 62
   257
176
     1
 90
        7
176
     1
 90
        7
176
     1
 40
1.0
176
     1
 90
        8
176
     1
 62
     7
176
     1
 40
1.0
176
     1
 90
        1
176
     1
 90
        6
176
     1
 90
        2
176
     1
 62
     7
176
     1
 90
        5
176
     1
 90
        0
176
     1
 90
        0
176
     1
290
     0
176
     1
 90
        1
176
     1
 40
0.0
176
     1
 90
        0
176
     1
290
     0
176
     1
290
     1
176
     1
290
     1
176
     1
290
     0
176
     1
290
     0
176
     1
290
     0
176
     1
290
     0
176
     1
290
     0
176
     1
290
     0
176
     1
 90
       50
176
     1
 40
0.0
176
     1
 40
1.0
176
     1
 90
        0
176
     1
 62
    18
420
        0
176
     1
 90
       50
176
     1
 90
        3
176
     1
 62
     5
420
      255
176
     1
290
     0
176
     1
 90
       50
176
     1
 90
       50
176
     1
 90
       50
176
     1
290
     0
176
     1
 90
       50
176
     1
 62
   256
176
     0
 40
1.0
176
     0
 90
        2
176
     1
  1
strokes_ogs.tif
176
     1
290
     0
176
     1
 40
1.0
176
     1
 40
1.0
176
     1
  0
VISUALSTYLE
  5
3C
102
{ACAD_REACTORS
330
2A
102
}
330
2A
100
AcDbVisualStyle
  2
OverhangOff
 70
    21
177
     3
291
     1
 70
    58
 90
        2
176
     0
 90
        2
176
     0
 90
        0
176
     0
 90
        0
176
     0
 40
0.6
176
     0
 40
30.0
176
     0
 62
     7
420
 16777215
176
     0
 90
        1
176
     0
 90
        4
176
     0
 62
     7
176
     0
 62
   257
176
     0
 90
        1
176
     0
 90
        1
176
     0
 40
1.0
176
     0
 90
        9
176
     2
 62
     7
176
     0
 40
1.0
176
     0
 90
        1
176
     0
 90
        6
176
     0
 90
        2
176
     0
 62
     7
176
     0
 90
        5
176
     0
 90
        0
176
     0
 90
        0
176
     0
290
     0
176
     0
 90
        1
176
     0
 40
0.0
176
     0
 90
        0
176
     0
290
     0
176
     0
290
     1
176
     0
290
     1
176
     0
290
     0
176
     0
290
     0
176
     0
290
     0
176
     0
290
     0
176
     0
290
     0
176
     0
290
     0
176
     0
 90
       50
176
     0
 40
0.0
176
     0
 40
1.0
176
     0
 90
        0
176
     0
 62
    18
420
        0
176
     0
 90
       50
176
     0
 90
        3
176
     0
 62
     5
420
      255
176
     0
290
     0
176
     0
 90
       50
176
     0
 90
       50
176
     0
 90
       50
176
     0
290
     0
176
     0
 90
       50
176
     0
 62
   256
176
     0
 40
1.0
176
     0
 90
        2
176
     0
  1
strokes_ogs.tif
176
     0
290
     0
176
     0
 40
1.0
176
     0
 40
1.0
176
     0
  0
VISUALSTYLE
  5
33
102
{ACAD_REACTORS
330
2A
102
}
330
2A
100
AcDbVisualStyle
  2
Realistic
 70
     8
177
     3
291
     0
 70
    58
 90
        2
176
     1
 90
        3
176
     1
 90
        0
176
     1
 90
        2
176
     1
 40
0.6
176
     1
 40
30.0
176
     1
 62
     7
420
 16777215
176
     1
 90
        0
176
     1
 90
        0
176
     1
 62
     7
176
     1
 62
   257
176
     1
 90
        1
176
     1
 90
        1
176
     1
 40
1.0
176
     1
 90
        8
176
     1
 62
   257
176
     1
 40
1.0
176
     1
 90
        1
176
     1
 90
        6
176
     1
 90
        2
176
     1
 62
     7
176
     1
 90
        3
176
     1
 90
        0
176
     1
 90
        0
176
     1
290
     0
176
     1
 90
       13
176
     1
 40
0.0
176
     1
 90
        0
176
     1
290
     0
176
     1
290
     1
176
     1
290
     1
176
     1
290
     0
176
     1
290
     0
176
     1
290
     0
176
     1
290
     0
176
     1
290
     0
176
     1
290
     0
176
     1
 90
       50
176
     1
 40
0.0
176
     1
 40
1.0
176
     1
 90
        0
176
     1
 62
    18
420
        0
176
     1
 90
       50
176
     1
 90
        3
176
     1
 62
     5
420
      255
176
     1
290
     0
176
     1
 90
       50
176
     1
 90
       50
176
     1
 90
       50
176
     1
290
     0
176
     1
 90
       50
176
     1
 62
   256
176
     0
 40
1.0
176
     0
 90
        2
176
     1
  1
strokes_ogs.tif
176
     1
290
     0
176
     1
 40
1.0
176
     1
 40
1.0
176
     1
  0
VISUALSTYLE
  5
42
102
{ACAD_REACTORS
330
2A
102
}
330
2A
100
AcDbVisualStyle
  2
Shaded
 70
    27
177
     3
291
     0
 70
    58
 90
        2
176
     1
 90
        2
176
     1
 90
        1
176
     1
 90
        2
176
     1
 40
0.6
176
     1
 40
30.0
176
     1
 62
     7
420
 16777215
176
     1
 90
        0
176
     1
 90
        4
176
     1
 62
     7
176
     1
 62
   257
176
     1
 90
        1
176
     1
 90
        1
176
     1
 40
1.0
176
     1
 90
        8
176
     1
 62
   257
176
     1
 40
1.0
176
     1
 90
        1
176
     1
 90
        6
176
     1
 90
        2
176
     1
 62
     8
420
  7895160
176
     1
 90
        3
176
     1
 90
        0
176
     1
 90
        0
176
     1
290
     0
176
     1
 90
        5
176
     1
 40
0.0
176
     1
 90
        0
176
     1
290
     0
176
     1
290
     1
176
     1
290
     1
176
     1
290
     0
176
     1
290
     0
176
     1
290
     0
176
     1
290
     0
176
     1
290
     0
176
     1
290
     0
176
     1
 90
       50
176
     1
 40
0.0
176
     1
 40
1.0
176
     1
 90
        0
176
     1
 62
    18
420
        0
176
     1
 90
       50
176
     1
 90
        3
176
     1
 62
     5
420
      255
176
     1
290
     0
176
     1
 90
       50
176
     1
 90
       50
176
     1
 90
       50
176
     1
290
     0
176
     1
 90
       50
176
     1
 62
   256
176
     0
 40
1.0
176
     0
 90
        2
176
     1
  1
strokes_ogs.tif
176
     1
290
     0
176
     1
 40
1.0
176
     1
 40
1.0
176
     1
  0
VISUALSTYLE
  5
41
102
{ACAD_REACTORS
330
2A
102
}
330
2A
100
AcDbVisualStyle
  2
Shaded with edges
 70
    26
177
     3
291
     0
 70
    58
 90
        2
176
     1
 90
        2
176
     1
 90
        1
176
     1
 90
        2
176
     1
 40
0.6
176
     1
 40
30.0
176
     1
 62
     7
420
 16777215
176
     1
 90
        1
176
     1
 90
       10
176
     1
 62
     7
176
     1
 62
   257
176
     1
 90
        2
176
     1
 90
        1
176
     1
 40
1.0
176
     1
 90
        8
176
     1
 62
   257
176
     1
 40
1.0
176
     1
 90
        1
176
     1
 90
        6
176
     1
 90
        2
176
     1
 62
     7
176
     1
 90
        3
176
     1
 90
        0
176
     1
 90
        0
176
     1
290
     0
176
     1
 90
        5
176
     1
 40
0.0
176
     1
 90
        0
176
     1
290
     0
176
     1
290
     1
176
     1
290
     1
176
     1
290
     0
176
     1
290
     0
176
     1
290
     0
176
     1
290
     0
176
     1
290
     0
176
     1
290
     0
176
     1
 90
       50
176
     1
 40
0.0
176
     1
 40
1.0
176
     1
 90
        0
176
     1
 62
    18
420
        0
176
     1
 90
       50
176
     1
 90
        3
176
     1
 62
     5
420
      255
176
     1
290
     0
176
     1
 90
       50
176
     1
 90
       50
176
     1
 90
       50
176
     1
290
     0
176
     1
 90
       50
176
     1
 62
   256
176
     0
 40
1.0
176
     0
 90
        2
176
     1
  1
strokes_ogs.tif
176
     1
290
     0
176
     1
 40
1.0
176
     1
 40
1.0
176
     1
  0
VISUALSTYLE
  5
3E
102
{ACAD_REACTORS
330
2A
102
}
330
2A
100
AcDbVisualStyle
  2
Shades of Gray
 70
    23
177
     3
291
     0
 70
    58
 90
        2
176
     1
 90
        2
176
     1
 90
        3
176
     1
 90
        0
176
     1
 40
0.6
176
     1
 40
30.0
176
     1
 62
     7
420
 16777215
176
     1
 90
        2
176
     1
 90
        2
176
     1
 62
     7
176
     1
 62
     7
176
     1
 90
        1
176
     1
 90
        1
176
     1
 40
40.0
176
     1
 90
        8
176
     1
 62
     7
176
     1
 40
1.0
176
     1
 90
        1
176
     1
 90
        6
176
     1
 90
        2
176
     1
 62
     7
176
     1
 90
        3
176
     1
 90
        0
176
     1
 90
        0
176
     1
290
     0
176
     1
 90
        1
176
     1
 40
0.0
176
     1
 90
        0
176
     1
290
     0
176
     1
290
     1
176
     1
290
     1
176
     1
290
     0
176
     1
290
     0
176
     1
290
     0
176
     1
290
     0
176
     1
290
     0
176
     1
290
     0
176
     1
 90
       50
176
     1
 40
0.0
176
     1
 40
1.0
176
     1
 90
        0
176
     1
 62
    18
420
        0
176
     1
 90
       50
176
     1
 90
        3
176
     1
 62
     5
420
      255
176
     1
290
     0
176
     1
 90
       50
176
     1
 90
       50
176
     1
 90
       50
176
     1
290
     0
176
     1
 90
       50
176
     1
 62
   256
176
     0
 40
1.0
176
     0
 90
        2
176
     1
  1
strokes_ogs.tif
176
     1
290
     0
176
     1
 40
1.0
176
     1
 40
1.0
176
     1
  0
VISUALSTYLE
  5
3F
102
{ACAD_REACTORS
330
2A
102
}
330
2A
100
AcDbVisualStyle
  2
Sketchy
 70
    24
177
     3
291
     0
 70
    58
 90
        1
176
     1
 90
        2
176
     1
 90
        2
176
     1
 90
        0
176
     1
 40
0.6
176
     1
 40
30.0
176
     1
 62
     7
420
 16777215
176
     1
 90
        2
176
     1
 90
        2
176
     1
 62
     7
176
     1
 62
     7
176
     1
 90
        1
176
     1
 90
        1
176
     1
 40
40.0
176
     1
 90
       11
176
     1
 62
     7
176
     1
 40
1.0
176
     1
 90
        1
176
     1
 90
        6
176
     1
 90
        2
176
     1
 62
     7
176
     1
 90
        6
176
     1
 90
        0
176
     1
 90
        0
176
     1
290
     0
176
     1
 90
        1
176
     1
 40
0.0
176
     1
 90
        0
176
     1
290
     0
176
     1
290
     1
176
     1
290
     1
176
     1
290
     0
176
     1
290
     0
176
     1
290
     0
176
     1
290
     0
176
     1
290
     0
176
     1
290
     0
176
     1
 90
       50
176
     1
 40
0.0
176
     1
 40
1.0
176
     1
 90
        0
176
     1
 62
    18
420
        0
176
     1
 90
       50
176
     1
 90
        3
176
     1
 62
     5
420
      255
176
     1
290
     0
176
     1
 90
       50
176
     1
 90
       50
176
     1
 90
       50
176
     1
290
     0
176
     1
 90
       50
176
     1
 62
   256
176
     0
 40
1.0
176
     0
 90
        2
176
     1
  1
strokes_ogs.tif
176
     1
290
     0
176
     1
 40
1.0
176
     1
 40
1.0
176
     1
  0
VISUALSTYLE
  5
37
102
{ACAD_REACTORS
330
2A
102
}
330
2A
100
AcDbVisualStyle
  2
Thicken
 70
    13
177
     3
291
     1
 70
    58
 90
        2
176
     1
 90
        2
176
     1
 90
        0
176
     1
 90
        0
176
     1
 40
0.6
176
     1
 40
30.0
176
     1
 62
     7
420
 16777215
176
     1
 90
        1
176
     1
 90
        4
176
     1
 62
     7
176
     1
 62
   257
176
     1
 90
        1
176
     1
 90
        1
176
     1
 40
1.0
176
     1
 90
       12
176
     1
 62
     7
176
     1
 40
1.0
176
     1
 90
        1
176
     1
 90
        6
176
     1
 90
        2
176
     1
 62
     7
176
     1
 90
        5
176
     1
 90
        0
176
     1
 90
        0
176
     1
290
     0
176
     1
 90
        1
176
     1
 40
0.0
176
     1
 90
        0
176
     1
290
     0
176
     1
290
     1
176
     1
290
     1
176
     1
290
     0
176
     1
290
     0
176
     1
290
     0
176
     1
290
     0
176
     1
290
     0
176
     1
290
     0
176
     1
 90
       50
176
     1
 40
0.0
176
     1
 40
1.0
176
     1
 90
        0
176
     1
 62
    18
420
        0
176
     1
 90
       50
176
     1
 90
        3
176
     1
 62
     5
420
      255
176
     1
290
     0
176
     1
 90
       50
176
     1
 90
       50
176
     1
 90
       50
176
     1
290
     0
176
     1
 90
       50
176
     1
 62
   256
176
     0
 40
1.0
176
     0
 90
        2
176
     1
  1
strokes_ogs.tif
176
     1
290
     0
176
     1
 40
1.0
176
     1
 40
1.0
176
     1
  0
VISUALSTYLE
  5
30
102
{ACAD_REACTORS
330
2A
102
}
330
2A
100
AcDbVisualStyle
  2
Wireframe
 70
     5
177
     3
291
     0
 70
    58
 90
        0
176
     1
 90
        2
176
     1
 90
        0
176
     1
 90
        0
176
     1
 40
0.6
176
     1
 40
30.0
176
     1
 62
     7
420
 16777215
176
     1
 90
        1
176
     1
 90
        4
176
     1
 62
     7
176
     1
 62
   257
176
     1
 90
        1
176
     1
 90
        1
176
     1
 40
1.0
176
     1
 90
        0
176
     1
 62
   257
176
     1
 40
1.0
176
     1
 90
        1
176
     1
 90
        6
176
     1
 90
        2
176
     1
 62
     7
176
     1
 90
        3
176
     1
 90
        0
176
     1
 90
        0
176
     1
290
     0
176
     1
 90
        1
176
     1
 40
0.0
176
     1
 90
        0
176
     1
290
     0
176
     1
290
     1
176
     1
290
     1
176
     1
290
     0
176
     1
290
     0
176
     1
290
     0
176
     1
290
     0
176
     1
290
     0
176
     1
290
     0
176
     1
 90
       50
176
     1
 40
0.0
176
     1
 40
1.0
176
     1
 90
        0
176
     1
 62
    18
420
        0
176
     1
 90
       50
176
     1
 90
        3
176
     1
 62
     5
420
      255
176
     1
290
     0
176
     1
 90
       50
176
     1
 90
       50
176
     1
 90
       50
176
     1
290
     0
176
     1
 90
       50
176
     1
 62
   256
176
     0
 40
1.0
176
     0
 90
        2
176
     1
  1
strokes_ogs.tif
176
     1
290
     0
176
     1
 40
1.0
176
     1
 40
1.0
176
     1
  0
VISUALSTYLE
  5
40
102
{ACAD_REACTORS
330
2A
102
}
330
2A
100
AcDbVisualStyle
  2
X-Ray
 70
    25
177
     3
291
     0
 70
    58
 90
        2
176
     1
 90
        2
176
     1
 90
        1
176
     1
 90
        1
176
     1
 40
0.5
176
     1
 40
30.0
176
     1
 62
     7
420
 16777215
176
     1
 90
        1
176
     1
 90
        0
176
     1
 62
     7
176
     1
 62
   257
176
     1
 90
        1
176
     1
 90
        1
176
     1
 40
1.0
176
     1
 90
        8
176
     1
 62
     7
176
     1
 40
1.0
176
     1
 90
        1
176
     1
 90
        6
176
     1
 90
        2
176
     1
 62
     7
176
     1
 90
        3
176
     1
 90
        0
176
     1
 90
        0
176
     1
290
     0
176
     1
 90
       13
176
     1
 40
0.0
176
     1
 90
        0
176
     1
290
     0
176
     1
290
     1
176
     1
290
     1
176
     1
290
     0
176
     1
290
     0
176
     1
290
     0
176
     1
290
     0
176
     1
290
     0
176
     1
290
     0
176
     1
 90
       50
176
     1
 40
0.0
176
     1
 40
1.0
176
     1
 90
        0
176
     1
 62
    18
420
        0
176
     1
 90
       50
176
     1
 90
        3
176
     1
 62
     5
420
      255
176
     1
290
     0
176
     1
 90
       50
176
     1
 90
       50
176
     1
 90
       50
176
     1
290
     0
176
     1
 90
       50
176
     1
 62
   256
176
     0
 40
1.0
176
     0
 90
        2
176
     1
  1
strokes_ogs.tif
176
     1
290
     0
176
     1
 40
1.0
176
     1
 40
1.0
176
     1
  0
DICTIONARYVAR
  5
253
102
{ACAD_REACTORS
330
252
102
}
330
252
100
DictionaryVariables
280
     0
  1
1:1
  0
DICTIONARYVAR
  5
258
102
{ACAD_REACTORS
330
252
102
}
330
252
100
DictionaryVariables
280
     0
  1
Standard
  0
DICTIONARYVAR
  5
257
102
{ACAD_REACTORS
330
252
102
}
330
252
100
DictionaryVariables
280
     0
  1
Standard
  0
DICTIONARY
  5
254
330
6A
100
AcDbDictionary
280
     1
281
     1
  3
ACAD_ROUNDTRIP_2008_TABLESTYLE_CELLSTYLEMAP
360
255
  0
CELLSTYLEMAP
  5
255
102
{ACAD_REACTORS
330
254
102
}
330
254
100
AcDbCellStyleMap
 90
        3
300
CELLSTYLE
  1
TABLEFORMAT_BEGIN
 90
        5
170
     1
 91
        0
 92
    32768
 62
   257
 93
        1
300
CONTENTFORMAT
  1
CONTENTFORMAT_BEGIN
 90
        0
 91
        0
 92
        4
 93
        0
300

 40
0.0
140
1.0
 94
        5
 62
     0
340
11
144
6.0
309
CONTENTFORMAT_END
171
     1
301
MARGIN
  1
CELLMARGIN_BEGIN
 40
1.5
 40
1.5
 40
1.5
 40
1.5
 40
1.5
 40
1.5
309
CELLMARGIN_END
 94
        6
 95
        1
302
GRIDFORMAT
  1
GRIDFORMAT_BEGIN
 90
        0
 91
        1
 62
     0
 92
       -2
340
14
 93
        0
 40
0.045
309
GRIDFORMAT_END
 95
        2
302
GRIDFORMAT
  1
GRIDFORMAT_BEGIN
 90
        0
 91
        1
 62
     0
 92
       -2
340
14
 93
        0
 40
0.045
309
GRIDFORMAT_END
 95
        4
302
GRIDFORMAT
  1
GRIDFORMAT_BEGIN
 90
        0
 91
        1
 62
     0
 92
       -2
340
14
 93
        0
 40
0.045
309
GRIDFORMAT_END
 95
        8
302
GRIDFORMAT
  1
GRIDFORMAT_BEGIN
 90
        0
 91
        1
 62
     0
 92
       -2
340
14
 93
        0
 40
0.045
309
GRIDFORMAT_END
 95
       16
302
GRIDFORMAT
  1
GRIDFORMAT_BEGIN
 90
        0
 91
        1
 62
     0
 92
       -2
340
14
 93
        0
 40
0.045
309
GRIDFORMAT_END
 95
       32
302
GRIDFORMAT
  1
GRIDFORMAT_BEGIN
 90
        0
 91
        1
 62
     0
 92
       -2
340
14
 93
        0
 40
0.045
309
GRIDFORMAT_END
309
TABLEFORMAT_END
  1
CELLSTYLE_BEGIN
 90
        1
 91
        1
300
_TITLE
309
CELLSTYLE_END
300
CELLSTYLE
  1
TABLEFORMAT_BEGIN
 90
        5
170
     1
 91
        0
 92
        0
 62
   257
 93
        1
300
CONTENTFORMAT
  1
CONTENTFORMAT_BEGIN
 90
        0
 91
        0
 92
        4
 93
        0
300

 40
0.0
140
1.0
 94
        5
 62
     0
340
11
144
4.5
309
CONTENTFORMAT_END
171
     1
301
MARGIN
  1
CELLMARGIN_BEGIN
 40
1.5
 40
1.5
 40
1.5
 40
1.5
 40
1.5
 40
1.5
309
CELLMARGIN_END
 94
        6
 95
        1
302
GRIDFORMAT
  1
GRIDFORMAT_BEGIN
 90
        0
 91
        1
 62
     0
 92
       -2
340
14
 93
        0
 40
0.045
309
GRIDFORMAT_END
 95
        2
302
GRIDFORMAT
  1
GRIDFORMAT_BEGIN
 90
        0
 91
        1
 62
     0
 92
       -2
340
14
 93
        0
 40
0.045
309
GRIDFORMAT_END
 95
        4
302
GRIDFORMAT
  1
GRIDFORMAT_BEGIN
 90
        0
 91
        1
 62
     0
 92
       -2
340
14
 93
        0
 40
0.045
309
GRIDFORMAT_END
 95
        8
302
GRIDFORMAT
  1
GRIDFORMAT_BEGIN
 90
        0
 91
        1
 62
     0
 92
       -2
340
14
 93
        0
 40
0.045
309
GRIDFORMAT_END
 95
       16
302
GRIDFORMAT
  1
GRIDFORMAT_BEGIN
 90
        0
 91
        1
 62
     0
 92
       -2
340
14
 93
        0
 40
0.045
309
GRIDFORMAT_END
 95
       32
302
GRIDFORMAT
  1
GRIDFORMAT_BEGIN
 90
        0
 91
        1
 62
     0
 92
       -2
340
14
 93
        0
 40
0.045
309
GRIDFORMAT_END
309
TABLEFORMAT_END
  1
CELLSTYLE_BEGIN
 90
        2
 91
        1
300
_HEADER
309
CELLSTYLE_END
300
CELLSTYLE
  1
TABLEFORMAT_BEGIN
 90
        5
170
     1
 91
        0
 92
        0
 62
   257
 93
        1
300
CONTENTFORMAT
  1
CONTENTFORMAT_BEGIN
 90
        0
 91
        0
 92
        4
 93
        0
300

 40
0.0
140
1.0
 94
        2
 62
     0
340
11
144
4.5
309
CONTENTFORMAT_END
171
     1
301
MARGIN
  1
CELLMARGIN_BEGIN
 40
1.5
 40
1.5
 40
1.5
 40
1.5
 40
1.5
 40
1.5
309
CELLMARGIN_END
 94
        6
 95
        1
302
GRIDFORMAT
  1
GRIDFORMAT_BEGIN
 90
        0
 91
        1
 62
     0
 92
       -2
340
14
 93
        0
 40
0.045
309
GRIDFORMAT_END
 95
        2
302
GRIDFORMAT
  1
GRIDFORMAT_BEGIN
 90
        0
 91
        1
 62
     0
 92
       -2
340
14
 93
        0
 40
0.045
309
GRIDFORMAT_END
 95
        4
302
GRIDFORMAT
  1
GRIDFORMAT_BEGIN
 90
        0
 91
        1
 62
     0
 92
       -2
340
14
 93
        0
 40
0.045
309
GRIDFORMAT_END
 95
        8
302
GRIDFORMAT
  1
GRIDFORMAT_BEGIN
 90
        0
 91
        1
 62
     0
 92
       -2
340
14
 93
        0
 40
0.045
309
GRIDFORMAT_END
 95
       16
302
GRIDFORMAT
  1
GRIDFORMAT_BEGIN
 90
        0
 91
        1
 62
     0
 92
       -2
340
14
 93
        0
 40
0.045
309
GRIDFORMAT_END
 95
       32
302
GRIDFORMAT
  1
GRIDFORMAT_BEGIN
 90
        0
 91
        1
 62
     0
 92
       -2
340
14
 93
        0
 40
0.045
309
GRIDFORMAT_END
309
TABLEFORMAT_END
  1
CELLSTYLE_BEGIN
 90
        3
 91
        2
300
_DATA
309
CELLSTYLE_END
  0
ENDSEC
  0
EOF