0
SECTION
  2
HEADER
  9
$ACADVER
  1
AC1027
  9
$ACADMAINTVER
 70
     8
  9
$DWGCODEPAGE
  3
ANSI_1252
  9
$REQUIREDVERSIONS
160
                 0
  9
$COMMENTS
  1
File was created by Cadenas
  9
$CUSTOMPROPERTYTAG
  1
NN
  9
$CUSTOMPROPERTY
  1
Grip Tight Wide Slot Take Up Metric Bore
  9
$CUSTOMPROPERTYTAG
  1
NT
  9
$CUSTOMPROPERTY
  1
GT Wide Slot Take-Up Bearings -(Normal Duty)
  9
$CUSTOMPROPERTYTAG
  1
NB
  9
$CUSTOMPROPERTY
  1
136249
  9
$CUSTOMPROPERTYTAG
  1
NBSYN
  9
$CUSTOMPROPERTY
  1
$PN.$LUBE.
  9
$CUSTOMPROPERTYTAG
  1
LINA
  9
$CUSTOMPROPERTY
  1
136249
  9
$CUSTOMPROPERTYTAG
  1
SERIES
  9
$CUSTOMPROPERTY
  1
206
  9
$CUSTOMPROPERTYTAG
  1
SS
  9
$CUSTOMPROPERTY
  1
30
  9
$CUSTOMPROPERTYTAG
  1
PN
  9
$CUSTOMPROPERTY
  1
136249
  9
$CUSTOMPROPERTYTAG
  1
DESCRIPTION
  9
$CUSTOMPROPERTY
  1
WSTU-GT-30M
  9
$CUSTOMPROPERTYTAG
  1
A
  9
$CUSTOMPROPERTY
  1
40.9
  9
$CUSTOMPROPERTYTAG
  1
B
  9
$CUSTOMPROPERTY
  1
111.1
  9
$CUSTOMPROPERTYTAG
  1
C
  9
$CUSTOMPROPERTY
  1
13.5
  9
$CUSTOMPROPERTYTAG
  1
D
  9
$CUSTOMPROPERTY
  1
57.2
  9
$CUSTOMPROPERTYTAG
  1
E
  9
$CUSTOMPROPERTY
  1
69.9
  9
$CUSTOMPROPERTYTAG
  1
F
  9
$CUSTOMPROPERTY
  1
19.1
  9
$CUSTOMPROPERTYTAG
  1
G
  9
$CUSTOMPROPERTY
  1
9.5
  9
$CUSTOMPROPERTYTAG
  1
H
  9
$CUSTOMPROPERTY
  1
15.9
  9
$CUSTOMPROPERTYTAG
  1
J
  9
$CUSTOMPROPERTY
  1
55.6
  9
$CUSTOMPROPERTYTAG
  1
K
  9
$CUSTOMPROPERTY
  1
36.5
  9
$CUSTOMPROPERTYTAG
  1
L
  9
$CUSTOMPROPERTY
  1
50.8
  9
$CUSTOMPROPERTYTAG
  1
M
  9
$CUSTOMPROPERTY
  1
88.9
  9
$CUSTOMPROPERTYTAG
  1
N
  9
$CUSTOMPROPERTY
  1
104.8
  9
$CUSTOMPROPERTYTAG
  1
R
  9
$CUSTOMPROPERTY
  1
13.5
  9
$CUSTOMPROPERTYTAG
  1
S
  9
$CUSTOMPROPERTY
  1
27.4
  9
$CUSTOMPROPERTYTAG
  1
T
  9
$CUSTOMPROPERTY
  1
41.3
  9
$CUSTOMPROPERTYTAG
  1
Z
  9
$CUSTOMPROPERTY
  1
26.2
  9
$CUSTOMPROPERTYTAG
  1
COMPANY
  9
$CUSTOMPROPERTY
  1
baldor
  9
$INSBASE
 10
0.0
 20
0.0
 30
0.0
  9
$EXTMIN
 10
1.000000000000000E+20
 20
1.000000000000000E+20
 30
1.000000000000000E+20
  9
$EXTMAX
 10
-1.000000000000000E+20
 20
-1.000000000000000E+20
 30
-1.000000000000000E+20
  9
$LIMMIN
 10
0.0
 20
0.0
  9
$LIMMAX
 10
420.0
 20
297.0
  9
$ORTHOMODE
 70
     0
  9
$REGENMODE
 70
     1
  9
$FILLMODE
 70
     1
  9
$QTEXTMODE
 70
     0
  9
$MIRRTEXT
 70
     1
  9
$LTSCALE
 40
1.0
  9
$ATTMODE
 70
     1
  9
$TEXTSIZE
 40
2.5
  9
$TRACEWID
 40
1.0
  9
$TEXTSTYLE
  7
Standard
  9
$CLAYER
  8
0
  9
$CELTYPE
  6
ByLayer
  9
$CECOLOR
 62
   256
  9
$CELTSCALE
 40
1.0
  9
$DISPSILH
 70
     0
  9
$DIMSCALE
 40
1.0
  9
$DIMASZ
 40
2.5
  9
$DIMEXO
 40
0.625
  9
$DIMDLI
 40
3.75
  9
$DIMRND
 40
0.0
  9
$DIMDLE
 40
0.0
  9
$DIMEXE
 40
1.25
  9
$DIMTP
 40
0.0
  9
$DIMTM
 40
0.0
  9
$DIMTXT
 40
2.5
  9
$DIMCEN
 40
2.5
  9
$DIMTSZ
 40
0.0
  9
$DIMTOL
 70
     0
  9
$DIMLIM
 70
     0
  9
$DIMTIH
 70
     0
  9
$DIMTOH
 70
     0
  9
$DIMSE1
 70
     0
  9
$DIMSE2
 70
     0
  9
$DIMTAD
 70
     1
  9
$DIMZIN
 70
     8
  9
$DIMBLK
  1

  9
$DIMASO
 70
     1
  9
$DIMSHO
 70
     1
  9
$DIMPOST
  1

  9
$DIMAPOST
  1

  9
$DIMALT
 70
     0
  9
$DIMALTD
 70
     3
  9
$DIMALTF
 40
0.03937007874016
  9
$DIMLFAC
 40
1.0
  9
$DIMTOFL
 70
     1
  9
$DIMTVP
 40
0.0
  9
$DIMTIX
 70
     0
  9
$DIMSOXD
 70
     0
  9
$DIMSAH
 70
     0
  9
$DIMBLK1
  1

  9
$DIMBLK2
  1

  9
$DIMSTYLE
  2
ISO-25
  9
$DIMCLRD
 70
     0
  9
$DIMCLRE
 70
     0
  9
$DIMCLRT
 70
     0
  9
$DIMTFAC
 40
1.0
  9
$DIMGAP
 40
0.625
  9
$DIMJUST
 70
     0
  9
$DIMSD1
 70
     0
  9
$DIMSD2
 70
     0
  9
$DIMTOLJ
 70
     0
  9
$DIMTZIN
 70
     8
  9
$DIMALTZ
 70
     0
  9
$DIMALTTZ
 70
     0
  9
$DIMUPT
 70
     0
  9
$DIMDEC
 70
     2
  9
$DIMTDEC
 70
     2
  9
$DIMALTU
 70
     2
  9
$DIMALTTD
 70
     3
  9
$DIMTXSTY
  7
Standard
  9
$DIMAUNIT
 70
     0
  9
$DIMADEC
 70
     0
  9
$DIMALTRND
 40
0.0
  9
$DIMAZIN
 70
     0
  9
$DIMDSEP
 70
    44
  9
$DIMATFIT
 70
     3
  9
$DIMFRAC
 70
     0
  9
$DIMLDRBLK
  1

  9
$DIMLUNIT
 70
     2
  9
$DIMLWD
 70
    -2
  9
$DIMLWE
 70
    -2
  9
$DIMTMOVE
 70
     0
  9
$DIMFXL
 40
1.0
  9
$DIMFXLON
 70
     0
  9
$DIMJOGANG
 40
0.7853981633974483
  9
$DIMTFILL
 70
     0
  9
$DIMTFILLCLR
 70
     0
  9
$DIMARCSYM
 70
     0
  9
$DIMLTYPE
  6

  9
$DIMLTEX1
  6

  9
$DIMLTEX2
  6

  9
$DIMTXTDIRECTION
 70
     0
  9
$LUNITS
 70
     2
  9
$LUPREC
 70
     4
  9
$SKETCHINC
 40
1.0
  9
$FILLETRAD
 40
10.0
  9
$AUNITS
 70
     0
  9
$AUPREC
 70
     0
  9
$MENU
  1
.
  9
$ELEVATION
 40
0.0
  9
$PELEVATION
 40
0.0
  9
$THICKNESS
 40
0.0
  9
$LIMCHECK
 70
     0
  9
$CHAMFERA
 40
0.0
  9
$CHAMFERB
 40
0.0
  9
$CHAMFERC
 40
0.0
  9
$CHAMFERD
 40
0.0
  9
$SKPOLY
 70
     0
  9
$TDCREATE
 40
2458168.9939436
  9
$TDUCREATE
 40
2458168.952276933
  9
$TDUPDATE
 40
2458168.99394397
  9
$TDUUPDATE
 40
2458168.952277303
  9
$TDINDWG
 40
0.0000000116
  9
$TDUSRTIMER
 40
0.0000000116
  9
$USRTIMER
 70
     1
  9
$ANGBASE
 50
0.0
  9
$ANGDIR
 70
     0
  9
$PDMODE
 70
     0
  9
$PDSIZE
 40
0.0
  9
$PLINEWID
 40
0.0
  9
$SPLFRAME
 70
     0
  9
$SPLINETYPE
 70
     6
  9
$SPLINESEGS
 70
     8
  9
$HANDSEED
  5
266
  9
$SURFTAB1
 70
     6
  9
$SURFTAB2
 70
     6
  9
$SURFTYPE
 70
     6
  9
$SURFU
 70
     6
  9
$SURFV
 70
     6
  9
$UCSBASE
  2

  9
$UCSNAME
  2

  9
$UCSORG
 10
0.0
 20
0.0
 30
0.0
  9
$UCSXDIR
 10
1.0
 20
0.0
 30
0.0
  9
$UCSYDIR
 10
0.0
 20
1.0
 30
0.0
  9
$UCSORTHOREF
  2

  9
$UCSORTHOVIEW
 70
     0
  9
$UCSORGTOP
 10
0.0
 20
0.0
 30
0.0
  9
$UCSORGBOTTOM
 10
0.0
 20
0.0
 30
0.0
  9
$UCSORGLEFT
 10
0.0
 20
0.0
 30
0.0
  9
$UCSORGRIGHT
 10
0.0
 20
0.0
 30
0.0
  9
$UCSORGFRONT
 10
0.0
 20
0.0
 30
0.0
  9
$UCSORGBACK
 10
0.0
 20
0.0
 30
0.0
  9
$PUCSBASE
  2

  9
$PUCSNAME
  2

  9
$PUCSORG
 10
0.0
 20
0.0
 30
0.0
  9
$PUCSXDIR
 10
1.0
 20
0.0
 30
0.0
  9
$PUCSYDIR
 10
0.0
 20
1.0
 30
0.0
  9
$PUCSORTHOREF
  2

  9
$PUCSORTHOVIEW
 70
     0
  9
$PUCSORGTOP
 10
0.0
 20
0.0
 30
0.0
  9
$PUCSORGBOTTOM
 10
0.0
 20
0.0
 30
0.0
  9
$PUCSORGLEFT
 10
0.0
 20
0.0
 30
0.0
  9
$PUCSORGRIGHT
 10
0.0
 20
0.0
 30
0.0
  9
$PUCSORGFRONT
 10
0.0
 20
0.0
 30
0.0
  9
$PUCSORGBACK
 10
0.0
 20
0.0
 30
0.0
  9
$USERI1
 70
     0
  9
$USERI2
 70
     0
  9
$USERI3
 70
     0
  9
$USERI4
 70
     0
  9
$USERI5
 70
     0
  9
$USERR1
 40
0.0
  9
$USERR2
 40
0.0
  9
$USERR3
 40
0.0
  9
$USERR4
 40
0.0
  9
$USERR5
 40
0.0
  9
$WORLDVIEW
 70
     1
  9
$SHADEDGE
 70
     3
  9
$SHADEDIF
 70
    70
  9
$TILEMODE
 70
     1
  9
$MAXACTVP
 70
    64
  9
$PINSBASE
 10
0.0
 20
0.0
 30
0.0
  9
$PLIMCHECK
 70
     0
  9
$PEXTMIN
 10
1.000000000000000E+20
 20
1.000000000000000E+20
 30
1.000000000000000E+20
  9
$PEXTMAX
 10
-1.000000000000000E+20
 20
-1.000000000000000E+20
 30
-1.000000000000000E+20
  9
$PLIMMIN
 10
0.0
 20
0.0
  9
$PLIMMAX
 10
420.0
 20
297.0
  9
$UNITMODE
 70
     0
  9
$VISRETAIN
 70
     1
  9
$PLINEGEN
 70
     0
  9
$PSLTSCALE
 70
     1
  9
$TREEDEPTH
 70
  3020
  9
$CMLSTYLE
  2
Standard
  9
$CMLJUST
 70
     0
  9
$CMLSCALE
 40
20.0
  9
$PROXYGRAPHICS
 70
     1
  9
$MEASUREMENT
 70
     1
  9
$CELWEIGHT
370
    -1
  9
$ENDCAPS
280
     0
  9
$JOINSTYLE
280
     0
  9
$LWDISPLAY
290
     0
  9
$INSUNITS
 70
     4
  9
$HYPERLINKBASE
  1

  9
$STYLESHEET
  1

  9
$XEDIT
290
     1
  9
$CEPSNTYPE
380
     0
  9
$PSTYLEMODE
290
     1
  9
$FINGERPRINTGUID
  2
{C192D64F-C2AC-4607-B919-5A523AEE8144}
  9
$VERSIONGUID
  2
{FAEB1C32-E019-11D5-929B-00C0DF256EC4}
  9
$EXTNAMES
290
     1
  9
$PSVPSCALE
 40
0.0
  9
$OLESTARTUP
290
     0
  9
$SORTENTS
280
   127
  9
$INDEXCTL
280
     0
  9
$HIDETEXT
280
     1
  9
$XCLIPFRAME
280
     2
  9
$HALOGAP
280
     0
  9
$OBSCOLOR
 70
   257
  9
$OBSLTYPE
280
     0
  9
$INTERSECTIONDISPLAY
280
     0
  9
$INTERSECTIONCOLOR
 70
   257
  9
$DIMASSOC
280
     2
  9
$PROJECTNAME
  1

  9
$CAMERADISPLAY
290
     0
  9
$LENSLENGTH
 40
50.0
  9
$CAMERAHEIGHT
 40
0.0
  9
$STEPSPERSEC
 40
2.0
  9
$STEPSIZE
 40
6.0
  9
$3DDWFPREC
 40
2.0
  9
$PSOLWIDTH
 40
5.0
  9
$PSOLHEIGHT
 40
80.0
  9
$LOFTANG1
 40
1.570796326794897
  9
$LOFTANG2
 40
1.570796326794897
  9
$LOFTMAG1
 40
0.0
  9
$LOFTMAG2
 40
0.0
  9
$LOFTPARAM
 70
     7
  9
$LOFTNORMALS
280
     1
  9
$LATITUDE
 40
37.795
  9
$LONGITUDE
 40
-122.394
  9
$NORTHDIRECTION
 40
0.0
  9
$TIMEZONE
 70
 -8000
  9
$LIGHTGLYPHDISPLAY
280
     1
  9
$TILEMODELIGHTSYNCH
280
     1
  9
$CMATERIAL
347
44
  9
$SOLIDHIST
280
     0
  9
$SHOWHIST
280
     1
  9
$DWFFRAME
280
     2
  9
$DGNFRAME
280
     2
  9
$REALWORLDSCALE
290
     1
  9
$INTERFERECOLOR
 62
   256
  9
$CSHADOW
280
     0
  9
$SHADOWPLANELOCATION
 40
0.0
  0
ENDSEC
  0
SECTION
  2
CLASSES
  0
CLASS
  1
ACDBDICTIONARYWDFLT
  2
AcDbDictionaryWithDefault
  3
ObjectDBX Classes
 90
        0
 91
        4
280
     0
281
     0
  0
CLASS
  1
VISUALSTYLE
  2
AcDbVisualStyle
  3
ObjectDBX Classes
 90
     4095
 91
        4
280
     0
281
     0
  0
CLASS
  1
MATERIAL
  2
AcDbMaterial
  3
ObjectDBX Classes
 90
     1153
 91
        4
280
     0
281
     0
  0
CLASS
  1
SCALE
  2
AcDbScale
  3
ObjectDBX Classes
 90
     1153
 91
        4
280
     0
281
     0
  0
CLASS
  1
TABLESTYLE
  2
AcDbTableStyle
  3
ObjectDBX Classes
 90
     4095
 91
        4
280
     0
281
     0
  0
CLASS
  1
MLEADERSTYLE
  2
AcDbMLeaderStyle
  3
ACDB_MLEADERSTYLE_CLASS
 90
     4095
 91
        4
280
     0
281
     0
  0
CLASS
  1
SUN
  2
AcDbSun
  3
SCENEOE
 90
     1153
 91
        4
280
     0
281
     0
  0
CLASS
  1
DICTIONARYVAR
  2
AcDbDictionaryVar
  3
ObjectDBX Classes
 90
        0
 91
        4
280
     0
281
     0
  0
CLASS
  1
CELLSTYLEMAP
  2
AcDbCellStyleMap
  3
ObjectDBX Classes
 90
     1152
 91
        4
280
     0
281
     0
  0
ENDSEC
  0
SECTION
  2
TABLES
  0
TABLE
  2
VPORT
  5
8
330
0
100
AcDbSymbolTable
 70
     1
  0
VPORT
  5
29
330
8
100
AcDbSymbolTableRecord
100
AcDbViewportTableRecord
  2
*Active
 70
     0
 10
0.0
 20
0.0
 11
1.0
 21
1.0
 12
19.54974250476488
 22
0.0
 13
0.0
 23
0.0
 14
10.0
 24
10.0
 15
10.0
 25
10.0
 16
0.0
 26
0.0
 36
1.0
 17
0.0
 27
0.0
 37
0.0
 40
106.896
 41
1.359260639222045
 42
50.0
 43
0.0
 44
0.0
 50
0.0
 51
0.0
 71
     0
 72
   100
 73
     1
 74
     3
 75
     0
 76
     0
 77
     0
 78
     0
281
     0
 65
     1
110
0.0
120
0.0
130
0.0
111
1.0
121
0.0
131
0.0
112
0.0
122
1.0
132
0.0
 79
     0
146
0.0
348
2F
 60
     3
 61
     5
292
     1
282
     1
141
0.0
142
0.0
 63
   250
361
6D
  0
ENDTAB
  0
TABLE
  2
LTYPE
  5
5
330
0
100
AcDbSymbolTable
 70
     3
  0
LTYPE
  5
14
330
5
100
AcDbSymbolTableRecord
100
AcDbLinetypeTableRecord
  2
ByBlock
 70
     0
  3

 72
    65
 73
     0
 40
0.0
  0
LTYPE
  5
15
330
5
100
AcDbSymbolTableRecord
100
AcDbLinetypeTableRecord
  2
ByLayer
 70
     0
  3

 72
    65
 73
     0
 40
0.0
  0
LTYPE
  5
16
330
5
100
AcDbSymbolTableRecord
100
AcDbLinetypeTableRecord
  2
Continuous
 70
     0
  3
Solid line
 72
    65
 73
     0
 40
0.0
  0
LTYPE
  5
9F
330
5
100
AcDbSymbolTableRecord
100
AcDbLinetypeTableRecord
  2
Dashed
 70
     0
  3

 72
    65
 73
     2
 40
2.0
 49
1.0
 74
     0
 49
-1.0
 74
     0
  0
LTYPE
  5
C7
330
5
100
AcDbSymbolTableRecord
100
AcDbLinetypeTableRecord
  2
Center
 70
     0
  3

 72
    65
 73
     4
 40
1.5
 49
0.45
 74
     0
 49
-0.5
 74
     0
 49
0.05
 74
     0
 49
-0.5
 74
     0
  0
ENDTAB
  0
TABLE
  2
LAYER
  5
2
330
0
100
AcDbSymbolTable
 70
     7
  0
LAYER
  5
10
330
2
100
AcDbSymbolTableRecord
100
AcDbLayerTableRecord
  2
0
 70
     0
 62
     7
  6
Continuous
370
    -3
390
F
347
46
348
0
  0
LAYER
  5
72
330
2
100
AcDbSymbolTableRecord
100
AcDbLayerTableRecord
  2
AM_6
 70
     0
 62
    -2
  6
Continuous
370
    35
390
F
347
46
348
0
  0
LAYER
  5
A0
330
2
100
AcDbSymbolTableRecord
100
AcDbLayerTableRecord
  2
AM_9
 70
     0
 62
     6
  6
Dashed
370
    25
390
F
347
46
348
0
  0
LAYER
  5
C0
330
2
100
AcDbSymbolTableRecord
100
AcDbLayerTableRecord
  2
AM_5
 70
     0
 62
     3
  6
Continuous
370
    25
390
F
347
46
348
0
  0
LAYER
  5
C8
330
2
100
AcDbSymbolTableRecord
100
AcDbLayerTableRecord
  2
AM_7
 70
     0
 62
     7
  6
Center
370
    25
390
F
347
46
348
0
  0
LAYER
  5
CB
330
2
100
AcDbSymbolTableRecord
100
AcDbLayerTableRecord
  2
AM_4
 70
     0
 62
     7
  6
Continuous
370
    50
390
F
347
46
348
0
  0
LAYER
  5
255
330
2
100
AcDbSymbolTableRecord
100
AcDbLayerTableRecord
  2
ConnectionPoints
 70
     0
 62
     7
  6
Continuous
370
    50
390
F
347
46
348
0
  0
ENDTAB
  0
TABLE
  2
STYLE
  5
3
330
0
100
AcDbSymbolTable
 70
     1
  0
STYLE
  5
11
330
3
100
AcDbSymbolTableRecord
100
AcDbTextStyleTableRecord
  2
Standard
 70
     0
 40
0.0
 41
1.0
 50
0.0
 71
     0
 42
2.5
  3
txt
  4

  0
ENDTAB
  0
TABLE
  2
VIEW
  5
6
330
0
100
AcDbSymbolTable
 70
     0
  0
ENDTAB
  0
TABLE
  2
UCS
  5
7
330
0
100
AcDbSymbolTable
 70
     0
  0
ENDTAB
  0
TABLE
  2
APPID
  5
9
330
0
100
AcDbSymbolTable
 70
     1
  0
APPID
  5
12
330
9
100
AcDbSymbolTableRecord
100
AcDbRegAppTableRecord
  2
ACAD
 70
     0
  0
ENDTAB
  0
TABLE
  2
DIMSTYLE
  5
A
330
0
100
AcDbSymbolTable
 70
     1
100
AcDbDimStyleTable
  0
DIMSTYLE
105
27
330
A
100
AcDbSymbolTableRecord
100
AcDbDimStyleTableRecord
  2
ISO-25
 70
     0
 41
2.5
 42
0.625
 43
3.75
 44
1.25
 73
     0
 74
     0
 77
     1
 78
     8
140
2.5
141
2.5
143
0.03937007874016
147
0.625
171
     3
172
     1
178
     0
271
     2
272
     2
274
     3
278
    44
283
     0
284
     8
340
11
  0
ENDTAB
  0
TABLE
  2
BLOCK_RECORD
  5
1
330
0
100
AcDbSymbolTable
 70
     6
  0
BLOCK_RECORD
  5
1F
330
1
100
AcDbSymbolTableRecord
100
AcDbBlockTableRecord
  2
*Model_Space
340
22
 70
     0
280
     1
281
     0
  0
BLOCK_RECORD
  5
1B
330
1
100
AcDbSymbolTableRecord
100
AcDbBlockTableRecord
  2
*Paper_Space
340
1E
 70
     0
280
     1
281
     0
  0
BLOCK_RECORD
  5
23
330
1
100
AcDbSymbolTableRecord
100
AcDbBlockTableRecord
  2
*Paper_Space0
340
26
 70
     0
280
     1
281
     0
  0
BLOCK_RECORD
  5
6E
330
1
100
AcDbSymbolTableRecord
100
AcDbBlockTableRecord
  2
1_136249_0
340
0
102
{BLKREFS
331
6F
102
}
 70
     0
280
     1
281
     0
  0
BLOCK_RECORD
  5
8E
330
1
100
AcDbSymbolTableRecord
100
AcDbBlockTableRecord
  2
2_405016_Metric_0_in_136249_0
340
0
102
{BLKREFS
331
8F
102
}
 70
     0
280
     1
281
     0
  0
BLOCK_RECORD
  5
10A
330
1
100
AcDbSymbolTableRecord
100
AcDbBlockTableRecord
  2
3_129519_0_in_136249_0
340
0
102
{BLKREFS
331
10B
102
}
 70
     0
280
     1
281
     0
  0
BLOCK_RECORD
  5
12D
330
1
100
AcDbSymbolTableRecord
100
AcDbBlockTableRecord
  2
4_129945_0_in_136249_0
340
0
102
{BLKREFS
331
12E
102
}
 70
     0
280
     1
281
     0
  0
BLOCK_RECORD
  5
16E
330
1
100
AcDbSymbolTableRecord
100
AcDbBlockTableRecord
  2
5_WSTU_GT_06_0_in_136249_0
340
0
102
{BLKREFS
331
16F
102
}
 70
     0
280
     1
281
     0
  0
ENDTAB
  0
ENDSEC
  0
SECTION
  2
BLOCKS
  0
BLOCK
  5
20
330
1F
100
AcDbEntity
  8
0
100
AcDbBlockBegin
  2
*Model_Space
 70
     0
 10
0.0
 20
0.0
 30
0.0
  3
*Model_Space
  1

  0
ENDBLK
  5
21
330
1F
100
AcDbEntity
  8
0
100
AcDbBlockEnd
  0
BLOCK
  5
1C
330
1B
100
AcDbEntity
 67
     1
  8
0
100
AcDbBlockBegin
  2
*Paper_Space
 70
     0
 10
0.0
 20
0.0
 30
0.0
  3
*Paper_Space
  1

  0
ENDBLK
  5
1D
330
1B
100
AcDbEntity
 67
     1
  8
0
100
AcDbBlockEnd
  0
BLOCK
  5
24
330
23
100
AcDbEntity
  8
0
100
AcDbBlockBegin
  2
*Paper_Space0
 70
     0
 10
0.0
 20
0.0
 30
0.0
  3
*Paper_Space0
  1

  0
ENDBLK
  5
25
330
23
100
AcDbEntity
  8
0
100
AcDbBlockEnd
  0
BLOCK
  5
70
330
6E
100
AcDbEntity
  8
0
100
AcDbBlockBegin
  2
1_136249_0
 70
     2
 10
0.0
 20
0.0
 30
0.0
  3
1_136249_0
  1

  0
ATTDEF
  5
73
330
6E
100
AcDbEntity
  8
AM_6
100
AcDbText
 10
95.775
 20
52.40000000000001
 30
0.0
 40
0.5
  1
Grip Tight Wide Slot Take Up Metric Bore
100
AcDbAttributeDefinition
  3

  2
NN
 70
     8
280
     0
  0
ATTDEF
  5
74
330
6E
100
AcDbEntity
  8
AM_6
100
AcDbText
 10
95.775
 20
51.90000000000001
 30
0.0
 40
0.5
  1
GT Wide Slot Take-Up Bearings -(Normal Duty)
100
AcDbAttributeDefinition
  3

  2
NT
 70
     8
280
     0
  0
ATTDEF
  5
75
330
6E
100
AcDbEntity
  8
AM_6
100
AcDbText
 10
95.775
 20
51.40000000000001
 30
0.0
 40
0.5
  1
136249
100
AcDbAttributeDefinition
  3

  2
NB
 70
     8
280
     0
  0
ATTDEF
  5
76
330
6E
100
AcDbEntity
  8
AM_6
100
AcDbText
 10
95.775
 20
50.90000000000001
 30
0.0
 40
0.5
  1
$PN.$LUBE.
100
AcDbAttributeDefinition
  3

  2
NBSYN
 70
     8
280
     0
  0
ATTDEF
  5
77
330
6E
100
AcDbEntity
  8
AM_6
100
AcDbText
 10
95.775
 20
50.40000000000001
 30
0.0
 40
0.5
  1
136249
100
AcDbAttributeDefinition
  3

  2
LINA
 70
     8
280
     0
  0
ATTDEF
  5
78
330
6E
100
AcDbEntity
  8
AM_6
100
AcDbText
 10
95.775
 20
49.90000000000001
 30
0.0
 40
0.5
  1
206
100
AcDbAttributeDefinition
  3

  2
SERIES
 70
     8
280
     0
  0
ATTDEF
  5
79
330
6E
100
AcDbEntity
  8
AM_6
100
AcDbText
 10
95.775
 20
49.40000000000001
 30
0.0
 40
0.5
  1
30
100
AcDbAttributeDefinition
  3

  2
SS
 70
     8
280
     0
  0
ATTDEF
  5
7A
330
6E
100
AcDbEntity
  8
AM_6
100
AcDbText
 10
95.775
 20
48.90000000000001
 30
0.0
 40
0.5
  1
136249
100
AcDbAttributeDefinition
  3

  2
PN
 70
     8
280
     0
  0
ATTDEF
  5
7B
330
6E
100
AcDbEntity
  8
AM_6
100
AcDbText
 10
95.775
 20
48.40000000000001
 30
0.0
 40
0.5
  1
WSTU-GT-30M
100
AcDbAttributeDefinition
  3

  2
DESCRIPTION
 70
     8
280
     0
  0
ATTDEF
  5
7C
330
6E
100
AcDbEntity
  8
AM_6
100
AcDbText
 10
95.775
 20
47.90000000000001
 30
0.0
 40
0.5
  1
40.9
100
AcDbAttributeDefinition
  3

  2
A
 70
     8
280
     0
  0
ATTDEF
  5
7D
330
6E
100
AcDbEntity
  8
AM_6
100
AcDbText
 10
95.775
 20
47.40000000000001
 30
0.0
 40
0.5
  1
111.1
100
AcDbAttributeDefinition
  3

  2
B
 70
     8
280
     0
  0
ATTDEF
  5
7E
330
6E
100
AcDbEntity
  8
AM_6
100
AcDbText
 10
95.775
 20
46.90000000000001
 30
0.0
 40
0.5
  1
13.5
100
AcDbAttributeDefinition
  3

  2
C
 70
     8
280
     0
  0
ATTDEF
  5
7F
330
6E
100
AcDbEntity
  8
AM_6
100
AcDbText
 10
95.775
 20
46.40000000000001
 30
0.0
 40
0.5
  1
57.2
100
AcDbAttributeDefinition
  3

  2
D
 70
     8
280
     0
  0
ATTDEF
  5
80
330
6E
100
AcDbEntity
  8
AM_6
100
AcDbText
 10
95.775
 20
45.90000000000001
 30
0.0
 40
0.5
  1
69.9
100
AcDbAttributeDefinition
  3

  2
E
 70
     8
280
     0
  0
ATTDEF
  5
81
330
6E
100
AcDbEntity
  8
AM_6
100
AcDbText
 10
95.775
 20
45.40000000000001
 30
0.0
 40
0.5
  1
19.1
100
AcDbAttributeDefinition
  3

  2
F
 70
     8
280
     0
  0
ATTDEF
  5
82
330
6E
100
AcDbEntity
  8
AM_6
100
AcDbText
 10
95.775
 20
44.90000000000001
 30
0.0
 40
0.5
  1
9.5
100
AcDbAttributeDefinition
  3

  2
G
 70
     8
280
     0
  0
ATTDEF
  5
83
330
6E
100
AcDbEntity
  8
AM_6
100
AcDbText
 10
95.775
 20
44.40000000000001
 30
0.0
 40
0.5
  1
15.9
100
AcDbAttributeDefinition
  3

  2
H
 70
     8
280
     0
  0
ATTDEF
  5
84
330
6E
100
AcDbEntity
  8
AM_6
100
AcDbText
 10
95.775
 20
43.90000000000001
 30
0.0
 40
0.5
  1
55.6
100
AcDbAttributeDefinition
  3

  2
J
 70
     8
280
     0
  0
ATTDEF
  5
85
330
6E
100
AcDbEntity
  8
AM_6
100
AcDbText
 10
95.775
 20
43.40000000000001
 30
0.0
 40
0.5
  1
36.5
100
AcDbAttributeDefinition
  3

  2
K
 70
     8
280
     0
  0
ATTDEF
  5
86
330
6E
100
AcDbEntity
  8
AM_6
100
AcDbText
 10
95.775
 20
42.90000000000001
 30
0.0
 40
0.5
  1
50.8
100
AcDbAttributeDefinition
  3

  2
L
 70
     8
280
     0
  0
ATTDEF
  5
87
330
6E
100
AcDbEntity
  8
AM_6
100
AcDbText
 10
95.775
 20
42.40000000000001
 30
0.0
 40
0.5
  1
88.9
100
AcDbAttributeDefinition
  3

  2
M
 70
     8
280
     0
  0
ATTDEF
  5
88
330
6E
100
AcDbEntity
  8
AM_6
100
AcDbText
 10
95.775
 20
41.90000000000001
 30
0.0
 40
0.5
  1
104.8
100
AcDbAttributeDefinition
  3

  2
N
 70
     8
280
     0
  0
ATTDEF
  5
89
330
6E
100
AcDbEntity
  8
AM_6
100
AcDbText
 10
95.775
 20
41.40000000000001
 30
0.0
 40
0.5
  1
13.5
100
AcDbAttributeDefinition
  3

  2
R
 70
     8
280
     0
  0
ATTDEF
  5
8A
330
6E
100
AcDbEntity
  8
AM_6
100
AcDbText
 10
95.775
 20
40.90000000000001
 30
0.0
 40
0.5
  1
27.4
100
AcDbAttributeDefinition
  3

  2
S
 70
     8
280
     0
  0
ATTDEF
  5
8B
330
6E
100
AcDbEntity
  8
AM_6
100
AcDbText
 10
95.775
 20
40.40000000000001
 30
0.0
 40
0.5
  1
41.3
100
AcDbAttributeDefinition
  3

  2
T
 70
     8
280
     0
  0
ATTDEF
  5
8C
330
6E
100
AcDbEntity
  8
AM_6
100
AcDbText
 10
95.775
 20
39.90000000000001
 30
0.0
 40
0.5
  1
26.2
100
AcDbAttributeDefinition
  3

  2
Z
 70
     8
280
     0
  0
ATTDEF
  5
8D
330
6E
100
AcDbEntity
  8
AM_6
100
AcDbText
 10
95.775
 20
39.40000000000001
 30
0.0
 40
0.5
  1
baldor
100
AcDbAttributeDefinition
  3

  2
COMPANY
 70
     8
280
     0
  0
INSERT
  5
8F
330
6E
100
AcDbEntity
  8
0
100
AcDbBlockReference
  2
2_405016_Metric_0_in_136249_0
 10
0.0
 20
0.0
 30
0.0
  0
INSERT
  5
10B
330
6E
100
AcDbEntity
  8
0
100
AcDbBlockReference
  2
3_129519_0_in_136249_0
 10
0.0
 20
0.0
 30
0.0
  0
INSERT
  5
12E
330
6E
100
AcDbEntity
  8
0
100
AcDbBlockReference
  2
4_129945_0_in_136249_0
 10
0.0
 20
0.0
 30
0.0
  0
INSERT
  5
16F
330
6E
100
AcDbEntity
  8
0
100
AcDbBlockReference
  2
5_WSTU_GT_06_0_in_136249_0
 10
0.0
 20
0.0
 30
0.0
  0
ENDBLK
  5
71
330
6E
100
AcDbEntity
  8
0
100
AcDbBlockEnd
  0
BLOCK
  5
90
330
8E
100
AcDbEntity
  8
0
100
AcDbBlockBegin
  2
2_405016_Metric_0_in_136249_0
 70
     2
 10
0.0
 20
0.0
 30
0.0
  3
2_405016_Metric_0_in_136249_0
  1

  0
ATTDEF
  5
92
330
8E
100
AcDbEntity
  8
AM_6
100
AcDbText
 10
-25.54726453856971
 20
-15.04490184921512
 30
0.0
 40
0.5
  1
405016 -Metric
100
AcDbAttributeDefinition
  3

  2
NN
 70
     8
280
     0
  0
ATTDEF
  5
93
330
8E
100
AcDbEntity
  8
AM_6
100
AcDbText
 10
-25.54726453856971
 20
-15.54490184921512
 30
0.0
 40
0.5
  1
Grease Fitting
100
AcDbAttributeDefinition
  3

  2
NT
 70
     8
280
     0
  0
ATTDEF
  5
94
330
8E
100
AcDbEntity
  8
AM_6
100
AcDbText
 10
-25.54726453856971
 20
-16.04490184921512
 30
0.0
 40
0.5
  1
405016-Metric
100
AcDbAttributeDefinition
  3

  2
NB
 70
     8
280
     0
  0
ATTDEF
  5
95
330
8E
100
AcDbEntity
  8
AM_6
100
AcDbText
 10
-25.54726453856971
 20
-16.54490184921512
 30
0.0
 40
0.5
  1
$MN.-Metric
100
AcDbAttributeDefinition
  3

  2
NBSYN
 70
     8
280
     0
  0
ATTDEF
  5
96
330
8E
100
AcDbEntity
  8
AM_6
100
AcDbText
 10
-25.54726453856971
 20
-17.04490184921512
 30
0.0
 40
0.5
  1
405016
100
AcDbAttributeDefinition
  3

  2
LINA
 70
     8
280
     0
  0
ATTDEF
  5
97
330
8E
100
AcDbEntity
  8
AM_6
100
AcDbText
 10
-25.54726453856971
 20
-17.54490184921512
 30
0.0
 40
0.5
  1
405016
100
AcDbAttributeDefinition
  3

  2
MN
 70
     8
280
     0
  0
ATTDEF
  5
98
330
8E
100
AcDbEntity
  8
AM_6
100
AcDbText
 10
-25.54726453856971
 20
-18.04490184921512
 30
0.0
 40
0.5
  1
7/16 HEX
100
AcDbAttributeDefinition
  3

  2
H
 70
     8
280
     0
  0
ATTDEF
  5
99
330
8E
100
AcDbEntity
  8
AM_6
100
AcDbText
 10
-25.54726453856971
 20
-18.54490184921512
 30
0.0
 40
0.5
  1
9.728
100
AcDbAttributeDefinition
  3

  2
NDR
 70
     8
280
     0
  0
ATTDEF
  5
9A
330
8E
100
AcDbEntity
  8
AM_6
100
AcDbText
 10
-25.54726453856971
 20
-19.04490184921512
 30
0.0
 40
0.5
  1
8.560
100
AcDbAttributeDefinition
  3

  2
KDR
 70
     8
280
     0
  0
ATTDEF
  5
9B
330
8E
100
AcDbEntity
  8
AM_6
100
AcDbText
 10
-25.54726453856971
 20
-19.54490184921512
 30
0.0
 40
0.5
  1
4.0005
100
AcDbAttributeDefinition
  3

  2
BZE
 70
     8
280
     0
  0
ATTDEF
  5
9C
330
8E
100
AcDbEntity
  8
AM_6
100
AcDbText
 10
-25.54726453856971
 20
-20.04490184921512
 30
0.0
 40
0.5
  1
11.1125
100
AcDbAttributeDefinition
  3

  2
HEX
 70
     8
280
     0
  0
ATTDEF
  5
9D
330
8E
100
AcDbEntity
  8
AM_6
100
AcDbText
 10
-25.54726453856971
 20
-20.54490184921512
 30
0.0
 40
0.5
  1
7.143750
100
AcDbAttributeDefinition
  3

  2
HEX2
 70
     8
280
     0
  0
ATTDEF
  5
9E
330
8E
100
AcDbEntity
  8
AM_6
100
AcDbText
 10
-25.54726453856971
 20
-21.04490184921512
 30
0.0
 40
0.5
  1
baldor
100
AcDbAttributeDefinition
  3

  2
COMPANY
 70
     8
280
     0
  0
LINE
  5
A1
330
8E
100
AcDbEntity
  8
AM_9
100
AcDbLine
 10
-30.54726453856971
 20
-22.37808578695018
 30
0.0
 11
-34.65362304885119
 21
-15.2656642130498
 31
0.0
  0
LINE
  5
A2
330
8E
100
AcDbEntity
  8
AM_9
100
AcDbLine
 10
-34.65362304885119
 20
-15.2656642130498
 30
0.0
 11
-35.47751940708123
 21
-15.04490184921512
 31
0.0
  0
LINE
  5
A3
330
8E
100
AcDbEntity
  8
AM_9
100
AcDbLine
 10
-30.7680269024044
 20
-23.20198214518021
 30
0.0
 11
-30.54726453856971
 21
-22.37808578695018
 31
0.0
  0
ARC
  5
A4
330
8E
100
AcDbEntity
  8
AM_9
100
AcDbCircle
 10
-44.56133715171985
 20
-25.72749999999512
 30
0.0
 40
5.080000000007018
100
AcDbArc
 50
166.058148524145
 51
253.9267838334123
  0
LINE
  5
A5
330
8E
100
AcDbEntity
  8
AM_9
100
AcDbLine
 10
-30.7680269024044
 20
-23.20198214518021
 30
0.0
 11
-35.47751940708123
 21
-15.04490184921512
 31
0.0
  0
LINE
  5
A6
330
8E
100
AcDbEntity
  8
AM_9
100
AcDbLine
 10
-35.47751940708123
 20
-15.04490184921512
 30
0.0
 11
-39.84444000106457
 21
-17.38740551902641
 31
0.0
  0
LINE
  5
A7
330
8E
100
AcDbEntity
  8
AM_9
100
AcDbLine
 10
-34.98015488591092
 20
-25.81259448097357
 30
0.0
 11
-30.7680269024044
 21
-23.20198214518021
 31
0.0
  0
LINE
  5
A8
330
8E
100
AcDbEntity
  8
AM_9
100
AcDbLine
 10
-48.25474204796546
 20
-30.2411383110688
 30
0.0
 11
-48.54231000785193
 21
-30.40716575011957
 31
0.0
  0
LINE
  5
A9
330
8E
100
AcDbEntity
  8
AM_9
100
AcDbLine
 10
-50.31696504072715
 20
-26.6692633110688
 30
0.0
 11
-50.60453300061363
 21
-26.83529075011957
 31
0.0
  0
LWPOLYLINE
  5
AA
330
8E
100
AcDbEntity
  8
AM_9
100
AcDbPolyline
 90
        4
 70
     0
 43
0.0
 10
-50.31696504072715
 20
-26.6692633110688
 10
-49.48713549280355
 20
-27.90852718757701
 10
-48.72583193087132
 20
-29.260521240342
 10
-48.25474204796546
 20
-30.2411383110688
  0
LINE
  5
AB
330
8E
100
AcDbEntity
  8
AM_9
100
AcDbLine
 10
-43.16372894486439
 20
-28.14822842336351
 30
0.0
 11
-45.96198197682999
 21
-23.30151199956541
 31
0.0
  0
ELLIPSE
  5
AC
330
8E
100
AcDbEntity
  8
AM_9
100
AcDbEllipse
 10
-46.35498699330883
 20
-26.76306421886845
 30
0.0
 11
-1.785937500000003
 21
3.093334489142553
 31
0.0
210
0.0
220
0.0
230
1.0
 40
0.9063077870366495
 41
5.859216366485141
 42
9.84874690146382
  0
LWPOLYLINE
  5
AD
330
8E
100
AcDbEntity
  8
AM_9
100
AcDbPolyline
 90
        4
 70
     0
 43
0.0
 10
-48.25474204796546
 20
-30.2411383110688
 10
-46.77955129213862
 20
-30.25086209670618
 10
-45.34503010326193
 20
-30.3214232777137
 10
-44.41490095858762
 20
-30.40545502447112
  0
LWPOLYLINE
  5
AE
330
8E
100
AcDbEntity
  8
AM_9
100
AcDbPolyline
 90
        4
 70
     0
 43
0.0
 10
-48.53934694411101
 20
-23.26170502447112
 10
-49.08933220917612
 20
-24.43100486283385
 10
-49.76522368864519
 20
-25.70892471870114
 10
-50.31696504072715
 20
-26.6692633110688
  0
LWPOLYLINE
  5
AF
330
8E
100
AcDbEntity
  8
AM_9
100
AcDbPolyline
 90
        3
 70
     0
 43
0.0
 10
-43.4292820070557
 20
-27.68827702754265
 10
-43.9048598852192
 20
-28.44169258101901
 10
-44.49208049170223
 20
-28.91374677865349
  0
LWPOLYLINE
  5
B0
330
8E
100
AcDbEntity
  8
AM_9
100
AcDbPolyline
 90
        9
 70
     0
 43
0.0
 10
-43.4292820070557
 20
-27.68827702754265
 10
-43.30343363106518
 20
-27.28201089390837
 10
-43.26207956724421
 20
-26.4482967576745
 10
-43.49662063220789
 20
-25.56132388347286
 10
-43.98492771493888
 20
-24.76171697599753
 10
-44.66620021777022
 20
-24.15259458609681
 10
-45.06647369400918
 20
-23.9401913047787
 10
-45.49440236242405
 20
-23.80226857346144
 10
-45.69339229640087
 20
-23.76672297245733
  0
LINE
  5
B1
330
8E
100
AcDbEntity
  8
AM_9
100
AcDbLine
 10
-47.28418755636474
 20
-24.0733051098483
 30
0.0
 11
-47.75198699330883
 21
-24.34338924069473
 31
0.0
  0
LINE
  5
B2
330
8E
100
AcDbEntity
  8
AM_9
100
AcDbLine
 10
-44.95798699330884
 20
-29.18273919704217
 30
0.0
 11
-44.49018715184182
 21
-28.91265483264432
 31
0.0
  0
LWPOLYLINE
  5
B3
330
8E
100
AcDbEntity
  8
AM_9
100
AcDbPolyline
 90
        3
 70
     0
 43
0.0
 10
-47.55574966640461
 20
-24.25536863859951
 10
-47.40782786910334
 20
-24.14968684955891
 10
-47.28616429611546
 20
-24.07444766089993
  0
LWPOLYLINE
  5
B4
330
8E
100
AcDbEntity
  8
AM_9
100
AcDbPolyline
 90
       10
 70
     0
 43
0.0
 10
-44.74187851982764
 20
-29.03919909699856
 10
-45.44908644616005
 20
-29.22664742480978
 10
-46.3435014395092
 20
-29.16897056608313
 10
-47.185422676689
 20
-28.80844987254282
 10
-47.87964033131876
 20
-28.1871398014376
 10
-48.34877586691925
 20
-27.37617048344424
 10
-48.541220938848
 20
-26.466827795191
 10
-48.43582902958524
 20
-25.56043103280825
 10
-48.04377631279348
 20
-24.75795336822161
 10
-47.55574966640461
 20
-24.25536863859951
  0
LWPOLYLINE
  5
B5
330
8E
100
AcDbEntity
  8
AM_9
100
AcDbPolyline
 90
        3
 70
     0
 43
0.0
 10
-44.49208049170223
 20
-28.91374677865349
 10
-44.60421014179364
 20
-28.97450398452263
 10
-44.74187851982764
 20
-29.03919909699856
  0
LWPOLYLINE
  5
B6
330
8E
100
AcDbEntity
  8
AM_9
100
AcDbPolyline
 90
        4
 70
     0
 43
0.0
 10
-47.28616429611546
 20
-24.07444766089993
 10
-46.59871309010115
 20
-23.80524012688494
 10
-46.15676995178966
 20
-23.74581586980423
 10
-45.69339229640044
 20
-23.76672297245753
  0
ELLIPSE
  5
B7
330
8E
100
AcDbEntity
  8
AM_9
100
AcDbEllipse
 10
-46.35498699330891
 20
-26.76306421886844
 30
0.0
 11
-1.785937500000031
 21
3.093334489142613
 31
0.0
210
0.0
220
0.0
230
1.0
 40
0.9063077870366506
 41
3.764821264091955
 42
4.571432719802693
  0
ELLIPSE
  5
B8
330
8E
100
AcDbEntity
  8
AM_9
100
AcDbEllipse
 10
-46.35498699330883
 20
-26.76306421886848
 30
0.0
 11
-1.785937500000442
 21
3.093334489142304
 31
0.0
210
0.0
220
0.0
230
1.0
 40
0.906307787036688
 41
4.85334524096658
 42
5.659956696677307
  0
LWPOLYLINE
  5
B9
330
8E
100
AcDbEntity
  8
AM_9
100
AcDbPolyline
 90
        5
 70
     0
 43
0.0
 10
-48.54231000785193
 20
-30.40716575011957
 10
-49.09953637997872
 20
-29.56372366086361
 10
-49.62837528373885
 20
-28.69453519314442
 10
-50.13604253503023
 20
-27.77137918427097
 10
-50.60453300061363
 20
-26.83529075011957
  0
LWPOLYLINE
  5
BA
330
8E
100
AcDbEntity
  8
AM_9
100
AcDbPolyline
 90
        4
 70
     0
 43
0.0
 10
-45.92713725383886
 20
-30.56098506408687
 10
-46.6669559317075
 20
-30.53578491330025
 10
-47.62609232293131
 20
-30.48137087674925
 10
-48.54231000785193
 20
-30.40716575011957
  0
LWPOLYLINE
  5
BB
330
8E
100
AcDbEntity
  8
AM_9
100
AcDbPolyline
 90
        4
 70
     0
 43
0.0
 10
-50.60453300061363
 20
-26.83529075011957
 10
-50.22489202452772
 20
-26.03378516111149
 10
-49.80935068735556
 20
-25.20674219793952
 10
-49.42935310770797
 20
-24.49209637504597
  0
ELLIPSE
  5
BC
330
8E
100
AcDbEntity
  8
AM_9
100
AcDbEllipse
 10
-46.81980464478759
 20
-27.03142681507379
 30
0.0
 11
-1.785937499999997
 21
3.093334489142535
 31
0.0
210
0.0
220
0.0
230
1.0
 40
0.9063077870366506
 41
0.2422598057474037
 42
2.899949576591543
  0
LWPOLYLINE
  5
BD
330
8E
100
AcDbEntity
  8
AM_9
100
AcDbPolyline
 90
       20
 70
     0
 43
0.0
 10
-45.2794329506531
 20
-27.19837110492733
 10
-45.27872612257208
 20
-27.20150438215436
 10
-45.21672678900847
 20
-27.60888537934239
 10
-45.21386751026347
 20
-28.00775583264121
 10
-45.26814413676849
 20
-28.38772855020866
 10
-45.37625575084024
 20
-28.74006523368936
 10
-45.53458269590075
 20
-29.05802649292076
 10
-45.74047235734746
 20
-29.33666748315344
 10
-45.99336449578492
 20
-29.57164981083284
 10
-46.29418959665082
 20
-29.75680037523782
 10
-46.64029726148199
 20
-29.88199003826422
 10
-47.01406125834135
 20
-29.93625881663236
 10
-47.39792467252301
 20
-29.9180958123323
 10
-47.78018472662297
 20
-29.83087447116311
 10
-48.15201819198904
 20
-29.67865695589126
 10
-48.50479909582242
 20
-29.46584529821596
 10
-48.82958613357018
 20
-29.19793088130975
 10
-49.11757462787056
 20
-28.8819890049485
 10
-49.34852565592907
 20
-28.54738156843673
 10
-49.3730979584512
 20
-28.50557139703756
  0
LWPOLYLINE
  5
BE
330
8E
100
AcDbEntity
  8
AM_9
100
AcDbPolyline
 90
       20
 70
     0
 43
0.0
 10
-49.3730979584512
 20
-28.50557139703756
 10
-49.46093300530795
 20
-28.34248716534606
 10
-49.62557421228905
 20
-27.94850639623574
 10
-49.73253197837814
 20
-27.54225067947668
 10
-49.78007316938113
 20
-27.13591488169814
 10
-49.76880366483849
 20
-26.74073449940258
 10
-49.70111183667563
 20
-26.36674608225612
 10
-49.5804804355143
 20
-26.02221926628267
 10
-49.41041912136802
 20
-25.71340921635013
 10
-49.19314829445216
 20
-25.44495645936249
 10
-48.92868705983108
 20
-25.22138006302744
 10
-48.6162983657127
 20
-25.049722721749
 10
-48.26129475985947
 20
-24.94099481232324
 10
-47.88369234417792
 20
-24.90450289952912
 10
-47.49931914691953
 20
-24.93983062651398
 10
-47.11881560215054
 20
-25.04323507145221
 10
-46.75080717500762
 20
-25.21062373980164
 10
-46.40400630988901
 20
-25.43739739321978
 10
-46.08737769843665
 20
-25.71770844802028
 10
-45.99773061202102
 20
-25.81323166837619
  0
ELLIPSE
  5
BF
330
8E
100
AcDbEntity
  8
AM_9
100
AcDbEllipse
 10
-48.11522757507031
 20
-27.77933959258694
 30
0.0
 11
1.691562466580849
 21
-2.929872136294566
 31
0.0
210
0.0
220
0.0
230
1.0
 40
0.9063077870366503
 41
0.0
 42
6.283185307179586
  0
LINE
  5
C1
330
8E
100
AcDbEntity
  8
AM_5
100
AcDbLine
 10
-34.36243291753141
 20
-24.7426686467888
 30
0.0
 11
-30.54726453856972
 21
-22.37808578695018
 31
0.0
  0
LINE
  5
C2
330
8E
100
AcDbEntity
  8
AM_5
100
AcDbLine
 10
-34.98015488591093
 20
-25.81259448097358
 30
0.0
 11
-34.36243291753141
 21
-24.7426686467888
 31
0.0
  0
LINE
  5
C3
330
8E
100
AcDbEntity
  8
AM_5
100
AcDbLine
 10
-34.07029035995458
 20
-25.24867439956498
 30
0.0
 11
-38.90113862188238
 21
-16.88139976625024
 31
0.0
  0
LINE
  5
C4
330
8E
100
AcDbEntity
  8
AM_5
100
AcDbLine
 10
-38.60899606430555
 20
-17.38740551902641
 30
0.0
 11
-34.65362304885121
 21
-15.26566421304981
 31
0.0
  0
LINE
  5
C5
330
8E
100
AcDbEntity
  8
AM_5
100
AcDbLine
 10
-39.84444000106458
 20
-17.38740551902641
 30
0.0
 11
-38.60899606430555
 21
-17.38740551902641
 31
0.0
  0
ELLIPSE
  5
C6
330
8E
100
AcDbEntity
  8
AM_9
100
AcDbEllipse
 10
-46.35498699330883
 20
-26.76306421886845
 30
0.0
 11
-1.396999999999998
 21
2.419674978173727
 31
0.0
210
0.0
220
0.0
230
1.0
 40
0.9063077870366506
 41
0.0
 42
6.283185307179586
  0
LINE
  5
C9
330
8E
100
AcDbEntity
  8
AM_7
100
AcDbLine
 10
-49.8953371517283
 20
-25.72749999999998
 30
0.0
 11
-39.22733715172828
 21
-25.72749999999998
 31
0.0
  0
LINE
  5
CA
330
8E
100
AcDbEntity
  8
AM_7
100
AcDbLine
 10
-44.56133715172829
 20
-31.06149999999999
 30
0.0
 11
-44.56133715172829
 21
-20.39349999999997
 31
0.0
  0
LINE
  5
CC
330
8E
100
AcDbEntity
  8
AM_4
100
AcDbLine
 10
-38.55239612973496
 20
-28.67404114977728
 30
0.0
 11
-37.92315829565925
 21
-29.30327898385299
 31
0.0
  0
LINE
  5
CD
330
8E
100
AcDbEntity
  8
AM_4
100
AcDbLine
 10
-38.55239612973496
 20
-28.67404114977728
 30
0.0
 11
-44.10864612973496
 21
-19.0503338502227
 31
0.0
  0
LINE
  5
CE
330
8E
100
AcDbEntity
  8
AM_4
100
AcDbLine
 10
-44.33896316202897
 20
-18.19077898385299
 30
0.0
 11
-44.10864612973496
 21
-19.0503338502227
 31
0.0
  0
LINE
  5
CF
330
8E
100
AcDbEntity
  8
AM_4
100
AcDbLine
 10
-36.35269160412249
 20
-27.40404114977728
 30
0.0
 11
-41.9089416041225
 21
-17.7803338502227
 31
0.0
  0
LINE
  5
D0
330
8E
100
AcDbEntity
  8
AM_4
100
AcDbLine
 10
-41.9089416041225
 20
-17.7803338502227
 30
0.0
 11
-42.5381794381982
 21
-17.15109601614699
 31
0.0
  0
LINE
  5
D1
330
8E
100
AcDbEntity
  8
AM_4
100
AcDbLine
 10
-36.12237457182849
 20
-28.26359601614699
 30
0.0
 11
-36.35269160412249
 21
-27.40404114977728
 31
0.0
  0
ARC
  5
D2
330
8E
100
AcDbEntity
  8
AM_4
100
AcDbCircle
 10
-44.56133715172831
 20
-25.72749999999992
 30
0.0
 40
5.080000000000066
100
AcDbArc
 50
253.9267838334891
 51
299.9999999999998
  0
ARC
  5
D3
330
8E
100
AcDbEntity
  8
AM_4
100
AcDbCircle
 10
-44.56133715172827
 20
-25.72750000000001
 30
0.0
 40
5.080000000000017
100
AcDbArc
 50
120.0
 51
166.0581485240686
  0
LINE
  5
D4
330
8E
100
AcDbEntity
  8
AM_4
100
AcDbLine
 10
-39.95229744348774
 20
-17.20059094877504
 30
0.0
 11
-41.67081660412249
 21
-18.19277844877504
 31
0.0
  0
LINE
  5
D5
330
8E
100
AcDbEntity
  8
AM_4
100
AcDbLine
 10
-36.59081660412249
 20
-26.99159655122494
 30
0.0
 11
-34.87229744348775
 21
-25.99940905122494
 31
0.0
  0
LINE
  5
D6
330
8E
100
AcDbEntity
  8
AM_4
100
AcDbLine
 10
-45.96198197682999
 20
-23.30151199956541
 30
0.0
 11
-47.10133715172828
 21
-21.32809094877504
 31
0.0
  0
LINE
  5
D7
330
8E
100
AcDbEntity
  8
AM_4
100
AcDbLine
 10
-43.87052112973496
 20
-19.46277844877504
 30
0.0
 11
-47.10133715172828
 21
-21.32809094877504
 31
0.0
  0
LINE
  5
D8
330
8E
100
AcDbEntity
  8
AM_4
100
AcDbLine
 10
-42.02133715172829
 20
-30.12690905122494
 30
0.0
 11
-38.79052112973497
 21
-28.26159655122494
 31
0.0
  0
LINE
  5
D9
330
8E
100
AcDbEntity
  8
AM_4
100
AcDbLine
 10
-42.02133715172829
 20
-30.12690905122494
 30
0.0
 11
-43.16372894486439
 21
-28.14822842336351
 31
0.0
  0
LINE
  5
DA
330
8E
100
AcDbEntity
  8
AM_4
100
AcDbLine
 10
-44.33896316202897
 20
-18.19077898385299
 30
0.0
 11
-42.5381794381982
 21
-17.15109601614699
 31
0.0
  0
LWPOLYLINE
  5
DB
330
8E
100
AcDbEntity
  8
AM_4
100
AcDbPolyline
 90
        3
 70
     0
 43
0.0
 10
-43.73644795462361
 20
-19.69499999999999
 10
-44.08478845332817
 20
-18.97007281403005
 10
-44.33896316202897
 20
-18.19077898385299
  0
LWPOLYLINE
  5
DC
330
8E
100
AcDbEntity
  8
AM_4
100
AcDbPolyline
 90
        3
 70
     0
 43
0.0
 10
-41.53674342901113
 20
-18.42499999999999
 10
-41.18840293030657
 20
-19.14992718596993
 10
-40.93422822160577
 20
-19.92922101614699
  0
LWPOLYLINE
  5
DD
330
8E
100
AcDbEntity
  8
AM_4
100
AcDbPolyline
 90
        3
 70
     0
 43
0.0
 10
-42.5381794381982
 20
-17.15109601614699
 10
-41.99264659689059
 20
-17.75801041734186
 10
-41.53674342901113
 20
-18.42499999999999
  0
LWPOLYLINE
  5
DE
330
8E
100
AcDbEntity
  8
AM_4
100
AcDbPolyline
 90
        3
 70
     0
 43
0.0
 10
-42.73501194543654
 20
-20.96890398385299
 10
-43.28054478674415
 20
-20.36198958265811
 10
-43.73644795462361
 20
-19.69499999999999
  0
LINE
  5
DF
330
8E
100
AcDbEntity
  8
AM_4
100
AcDbLine
 10
-42.73501194543654
 20
-20.96890398385299
 30
0.0
 11
-40.93422822160577
 21
-19.92922101614699
 31
0.0
  0
LWPOLYLINE
  5
E0
330
8E
100
AcDbEntity
  8
AM_4
100
AcDbPolyline
 90
        3
 70
     0
 43
0.0
 10
-41.33052112973497
 20
-23.86218749999999
 10
-42.43927958128705
 20
-21.66325497268393
 10
-42.73501194543654
 20
-20.96890398385299
  0
LWPOLYLINE
  5
E1
330
8E
100
AcDbEntity
  8
AM_4
100
AcDbPolyline
 90
        3
 70
     0
 43
0.0
 10
-39.13081660412249
 20
-22.59218749999999
 10
-38.38148830126982
 20
-24.01164593596993
 10
-37.72632578842091
 20
-25.485471016147
  0
LWPOLYLINE
  5
E2
330
8E
100
AcDbEntity
  8
AM_4
100
AcDbPolyline
 90
        3
 70
     0
 43
0.0
 10
-40.93422822160577
 20
-19.92922101614699
 10
-40.48076880821007
 20
-20.53250825063716
 10
-39.13081660412249
 20
-22.59218749999999
  0
LWPOLYLINE
  5
E3
330
8E
100
AcDbEntity
  8
AM_4
100
AcDbPolyline
 90
        3
 70
     0
 43
0.0
 10
-39.52710951225168
 20
-26.52515398385299
 10
-40.47182720856488
 20
-25.22683113217642
 10
-41.33052112973497
 20
-23.86218749999999
  0
LINE
  5
E4
330
8E
100
AcDbEntity
  8
AM_4
100
AcDbLine
 10
-39.52710951225168
 20
-26.52515398385299
 30
0.0
 11
-37.72632578842091
 21
-25.485471016147
 31
0.0
  0
LWPOLYLINE
  5
E5
330
8E
100
AcDbEntity
  8
AM_4
100
AcDbPolyline
 90
        3
 70
     0
 43
0.0
 10
-38.92459430484632
 20
-28.02937499999999
 10
-39.27293480355088
 20
-27.30444781403005
 10
-39.52710951225168
 20
-26.52515398385299
  0
LWPOLYLINE
  5
E6
330
8E
100
AcDbEntity
  8
AM_4
100
AcDbPolyline
 90
        3
 70
     0
 43
0.0
 10
-37.92315829565925
 20
-29.30327898385299
 10
-38.46869113696687
 20
-28.69636458265812
 10
-38.92459430484632
 20
-28.02937499999999
  0
LINE
  5
E7
330
8E
100
AcDbEntity
  8
AM_4
100
AcDbLine
 10
-37.92315829565925
 20
-29.30327898385299
 30
0.0
 11
-36.12237457182849
 21
-28.26359601614699
 31
0.0
  0
LWPOLYLINE
  5
E8
330
8E
100
AcDbEntity
  8
AM_4
100
AcDbPolyline
 90
        3
 70
     0
 43
0.0
 10
-36.72488977923385
 20
-26.75937499999999
 10
-36.37654928052929
 20
-27.48430218596993
 10
-36.12237457182849
 20
-28.26359601614699
  0
LWPOLYLINE
  5
E9
330
8E
100
AcDbEntity
  8
AM_4
100
AcDbPolyline
 90
        3
 70
     0
 43
0.0
 10
-37.72632578842091
 20
-25.485471016147
 10
-37.1807929471133
 20
-26.09238541734187
 10
-36.72488977923385
 20
-26.75937499999999
  0
LINE
  5
EA
330
8E
100
AcDbEntity
  8
AM_4
100
AcDbLine
 10
-44.71175701256406
 20
-30.57684494714499
 30
0.0
 11
-45.92713725383886
 21
-30.56098506408687
 31
0.0
  0
LINE
  5
EB
330
8E
100
AcDbEntity
  8
AM_4
100
AcDbLine
 10
-49.42935310770797
 20
-24.49209637504597
 30
0.0
 11
-48.83620299808746
 21
-23.433094947145
 31
0.0
  0
LWPOLYLINE
  5
EC
330
8E
100
AcDbEntity
  8
AM_4
100
AcDbPolyline
 90
        3
 70
     0
 43
0.0
 10
-44.69946690892938
 20
-23.42599925250314
 10
-45.41224932813802
 20
-23.3586666125695
 10
-46.16886719102285
 20
-23.30656484729697
  0
LINE
  5
ED
330
8E
100
AcDbEntity
  8
AM_4
100
AcDbLine
 10
-46.16886719102285
 20
-23.30656484729697
 30
0.0
 11
-46.82949094028286
 21
-23.27773773910476
 31
0.0
  0
LWPOLYLINE
  5
EE
330
8E
100
AcDbEntity
  8
AM_4
100
AcDbPolyline
 90
        3
 70
     0
 43
0.0
 10
-46.82949094028286
 20
-23.27773773910476
 10
-47.41343782146577
 20
-23.26396339412862
 10
-48.53934694411101
 20
-23.26170502447112
  0
LINE
  5
EF
330
8E
100
AcDbEntity
  8
AM_4
100
AcDbLine
 10
-48.53934694411101
 20
-23.26170502447112
 30
0.0
 11
-48.83620299808746
 21
-23.433094947145
 31
0.0
  0
LINE
  5
F0
330
8E
100
AcDbEntity
  8
AM_4
100
AcDbLine
 10
-48.83620299808746
 20
-23.433094947145
 30
0.0
 11
-47.29430859176158
 21
-23.5461003353101
 31
0.0
  0
LWPOLYLINE
  5
F1
330
8E
100
AcDbEntity
  8
AM_4
100
AcDbPolyline
 90
        3
 70
     0
 43
0.0
 10
-44.41490095858762
 20
-30.40545502447112
 10
-43.98376942731615
 20
-29.66041542538192
 10
-43.57385769483791
 20
-28.91665993102581
  0
LINE
  5
F2
330
8E
100
AcDbEntity
  8
AM_4
100
AcDbLine
 10
-43.57385769483791
 20
-28.91665993102581
 30
0.0
 11
-43.26851082821999
 21
-28.33012942772721
 31
0.0
  0
LWPOLYLINE
  5
F3
330
8E
100
AcDbEntity
  8
AM_4
100
AcDbPolyline
 90
        3
 70
     0
 43
0.0
 10
-43.26851082821999
 20
-28.33012942772721
 10
-43.03572016917543
 20
-27.85910892482293
 10
-42.63724391616769
 20
-26.99787425250314
  0
LINE
  5
F4
330
8E
100
AcDbEntity
  8
AM_4
100
AcDbLine
 10
-44.03867534631664
 20
-29.18502252723111
 30
0.0
 11
-44.71175701256406
 21
-30.57684494714499
 31
0.0
  0
LINE
  5
F5
330
8E
100
AcDbEntity
  8
AM_4
100
AcDbLine
 10
-44.41490095858762
 20
-30.40545502447112
 30
0.0
 11
-44.71175701256406
 21
-30.57684494714499
 31
0.0
  0
LINE
  5
F6
330
8E
100
AcDbEntity
  8
AM_4
100
AcDbLine
 10
-42.94345740866653
 20
-27.17466669482685
 30
0.0
 11
-43.73332847969876
 21
-28.59849202393259
 31
0.0
  0
LINE
  5
F7
330
8E
100
AcDbEntity
  8
AM_4
100
AcDbLine
 10
-46.63368484250165
 20
-23.57492744350231
 30
0.0
 11
-45.00568040142823
 21
-23.60279169482685
 31
0.0
  0
LINE
  5
F8
330
8E
100
AcDbEntity
  8
AM_4
100
AcDbLine
 10
-42.63724391616769
 20
-26.99787425250314
 30
0.0
 11
-43.32837253044951
 21
-25.59509077583032
 31
0.0
  0
LINE
  5
F9
330
8E
100
AcDbEntity
  8
AM_4
100
AcDbLine
 10
-43.32837253044951
 20
-25.59509077583032
 30
0.0
 11
-43.83018508926252
 21
-24.72592592808982
 31
0.0
  0
LWPOLYLINE
  5
FA
330
8E
100
AcDbEntity
  8
AM_4
100
AcDbPolyline
 90
        3
 70
     0
 43
0.0
 10
-43.83018508926252
 20
-24.72592592808982
 10
-44.06510042877544
 20
-24.35364633553604
 10
-44.69946690892938
 20
-23.42599925250314
  0
LINE
  5
FB
330
8E
100
AcDbEntity
  8
AM_4
100
AcDbLine
 10
-44.69946690892938
 20
-23.42599925250314
 30
0.0
 11
-45.00568040142823
 21
-23.60279169482685
 31
0.0
  0
LINE
  5
FC
330
8E
100
AcDbEntity
  8
AM_4
100
AcDbLine
 10
-45.00568040142823
 20
-23.60279169482685
 30
0.0
 11
-44.29500274074131
 21
-24.99428852429532
 31
0.0
  0
LINE
  5
FD
330
8E
100
AcDbEntity
  8
AM_4
100
AcDbLine
 10
-43.79319018192828
 20
-25.86345337203564
 30
0.0
 11
-42.94345740866653
 21
-27.17466669482685
 31
0.0
  0
LINE
  5
FE
330
8E
100
AcDbEntity
  8
AM_4
100
AcDbLine
 10
-42.63724391616769
 20
-26.99787425250314
 30
0.0
 11
-42.94345740866653
 21
-27.17466669482685
 31
0.0
  0
LINE
  5
FF
330
8E
100
AcDbEntity
  8
AM_4
100
AcDbLine
 10
-47.29430859176158
 20
-23.5461003353101
 30
0.0
 11
-46.63368484250165
 21
-23.57492744350231
 31
0.0
  0
ELLIPSE
  5
100
330
8E
100
AcDbEntity
  8
AM_4
100
AcDbEllipse
 10
-46.81980464478759
 20
-27.03142681507381
 30
0.0
 11
-1.785937500000031
 21
3.093334489142499
 31
0.0
210
0.0
220
0.0
230
1.0
 40
0.9063077870366513
 41
2.89994957659153
 42
3.56556159428424
  0
ELLIPSE
  5
101
330
8E
100
AcDbEntity
  8
AM_4
100
AcDbEllipse
 10
-46.81980464478758
 20
-27.03142681507384
 30
0.0
 11
-1.785937499999982
 21
3.093334489142598
 31
0.0
210
0.0
220
0.0
230
1.0
 40
0.9063077870366495
 41
5.859216366485141
 42
6.525445112926993
  0
LINE
  5
102
330
8E
100
AcDbEntity
  8
AM_4
100
AcDbLine
 10
-43.73332847969876
 20
-28.59849202393259
 30
0.0
 11
-44.03867534631664
 21
-29.18502252723111
 31
0.0
  0
ELLIPSE
  5
103
330
8E
100
AcDbEntity
  8
AM_4
100
AcDbEllipse
 10
-46.81980464478757
 20
-27.03142681507379
 30
0.0
 11
-1.785937500000003
 21
3.093334489142521
 31
0.0
210
0.0
220
0.0
230
1.0
 40
0.9063077870366496
 41
3.764821264091928
 42
4.571432719802708
  0
LINE
  5
104
330
8E
100
AcDbEntity
  8
AM_4
100
AcDbLine
 10
-44.29500274074131
 20
-24.99428852429532
 30
0.0
 11
-43.79319018192828
 21
-25.86345337203564
 31
0.0
  0
ELLIPSE
  5
105
330
8E
100
AcDbEntity
  8
AM_4
100
AcDbEllipse
 10
-46.81980464478757
 20
-27.03142681507379
 30
0.0
 11
-1.785937500000018
 21
3.093334489142527
 31
0.0
210
0.0
220
0.0
230
1.0
 40
0.906307787036648
 41
4.853345240966664
 42
5.65995669667744
  0
LWPOLYLINE
  5
106
330
8E
100
AcDbEntity
  8
AM_4
100
AcDbPolyline
 90
        7
 70
     0
 43
0.0
 10
-51.62773787444782
 20
-27.04103281384096
 10
-51.65838578494185
 20
-27.26925400924312
 10
-51.67386035923932
 20
-27.77796672646126
 10
-51.61800892331805
 20
-28.28949659660432
 10
-51.4917642056735
 20
-28.79304684904098
 10
-51.29756280706086
 20
-29.27790843155343
 10
-51.16045072856571
 20
-29.53749999999999
  0
LWPOLYLINE
  5
107
330
8E
100
AcDbEntity
  8
AM_4
100
AcDbPolyline
 90
       34
 70
     0
 43
0.0
 10
-48.64300016278334
 20
-31.35289085946658
 10
-48.46106088798998
 20
-31.3807636300005
 10
-47.9653502590857
 20
-31.40501519906328
 10
-47.47720785183662
 20
-31.35385300685528
 10
-47.00725642346962
 20
-31.2288101130279
 10
-46.56547331063503
 20
-31.03306675189707
 10
-46.16096771250012
 20
-30.77122017139486
 10
-45.80192498981167
 20
-30.44910449301099
 10
-45.49553064896761
 20
-30.07364418400053
 10
-45.24779617907314
 20
-29.6525362128689
 10
-45.06368434384376
 20
-29.19427437393527
 10
-44.94703482908108
 20
-28.70811490931059
 10
-44.90043793005158
 20
-28.20399514997653
 10
-44.9251005758212
 20
-27.69237395688177
 10
-45.02075103595968
 20
-27.18400255083133
 10
-45.18560727912095
 20
-26.68966074815532
 10
-45.41640692092685
 20
-26.21989603038532
 10
-45.70847969574255
 20
-25.78478788163578
 10
-46.05581414615219
 20
-25.39376710541221
 10
-46.45116774010544
 20
-25.05538847136747
 10
-46.88620553006593
 20
-24.77712229357242
 10
-47.35160814847053
 20
-24.56518617857109
 10
-47.83724371395807
 20
-24.42433646402699
 10
-48.33240845027994
 20
-24.35767311280078
 10
-48.82614314171741
 20
-24.36649949131666
 10
-49.30760048094974
 20
-24.45028379550401
 10
-49.76640523958214
 20
-24.60674717531236
 10
-50.19293972720735
 20
-24.83205901066647
 10
-50.57851424648364
 20
-25.12107783689097
 10
-50.91532249304724
 20
-25.46743337137282
 10
-51.19672441955166
 20
-25.86386514234032
 10
-51.4171627625751
 20
-26.30232392754473
 10
-51.57215325108162
 20
-26.77397643928164
 10
-51.62773787444782
 20
-27.04103281384096
  0
ELLIPSE
  5
108
330
8E
100
AcDbEntity
  8
AM_4
100
AcDbEllipse
 10
-49.09741113703344
 20
-28.34640353647998
 30
0.0
 11
1.314229537202296
 21
-2.276312331242103
 31
0.0
210
0.0
220
0.0
230
1.0
 40
0.9063077870366485
 41
0.0
 42
6.283185307179586
  0
ELLIPSE
  5
109
330
8E
100
AcDbEntity
  8
AM_4
100
AcDbEllipse
 10
-48.38637211721733
 20
-27.93588496698483
 30
0.0
 11
-1.767186662107314
 21
3.060857085227933
 31
0.0
210
0.0
220
0.0
230
1.0
 40
0.9063077870366477
 41
0.0
 42
6.283185307179586
  0
ENDBLK
  5
91
330
8E
100
AcDbEntity
  8
0
100
AcDbBlockEnd
  0
BLOCK
  5
10C
330
10A
100
AcDbEntity
  8
0
100
AcDbBlockBegin
  2
3_129519_0_in_136249_0
 70
     2
 10
0.0
 20
0.0
 30
0.0
  3
3_129519_0_in_136249_0
  1

  0
ATTDEF
  5
10E
330
10A
100
AcDbEntity
  8
AM_6
100
AcDbText
 10
35.78378402289508
 20
30.78378402289507
 30
0.0
 40
0.5
  1
INS-GT-M B
100
AcDbAttributeDefinition
  3

  2
NN
 70
     8
280
     0
  0
ATTDEF
  5
10F
330
10A
100
AcDbEntity
  8
AM_6
100
AcDbText
 10
35.78378402289508
 20
30.28378402289507
 30
0.0
 40
0.5
  1
GT Normal Duty Bearing Inserts
100
AcDbAttributeDefinition
  3

  2
NT
 70
     8
280
     0
  0
ATTDEF
  5
110
330
10A
100
AcDbEntity
  8
AM_6
100
AcDbText
 10
35.78378402289508
 20
29.78378402289507
 30
0.0
 40
0.5
  1
129519
100
AcDbAttributeDefinition
  3

  2
NB
 70
     8
280
     0
  0
ATTDEF
  5
111
330
10A
100
AcDbEntity
  8
AM_6
100
AcDbText
 10
35.78378402289508
 20
29.28378402289507
 30
0.0
 40
0.5
  1
$PN.
100
AcDbAttributeDefinition
  3

  2
NBSYN
 70
     8
280
     0
  0
ATTDEF
  5
112
330
10A
100
AcDbEntity
  8
AM_6
100
AcDbText
 10
35.78378402289508
 20
28.78378402289507
 30
0.0
 40
0.5
  1
129519
100
AcDbAttributeDefinition
  3

  2
LINA
 70
     8
280
     0
  0
ATTDEF
  5
113
330
10A
100
AcDbEntity
  8
AM_6
100
AcDbText
 10
35.78378402289508
 20
28.28378402289507
 30
0.0
 40
0.5
  1
206
100
AcDbAttributeDefinition
  3

  2
SERIES
 70
     8
280
     0
  0
ATTDEF
  5
114
330
10A
100
AcDbEntity
  8
AM_6
100
AcDbText
 10
35.78378402289508
 20
27.78378402289507
 30
0.0
 40
0.5
  1
129519
100
AcDbAttributeDefinition
  3

  2
PN
 70
     8
280
     0
  0
ATTDEF
  5
115
330
10A
100
AcDbEntity
  8
AM_6
100
AcDbText
 10
35.78378402289508
 20
27.28378402289507
 30
0.0
 40
0.5
  1
INS-GT-06
100
AcDbAttributeDefinition
  3

  2
DESCRIPTION
 70
     8
280
     0
  0
ATTDEF
  5
116
330
10A
100
AcDbEntity
  8
AM_6
100
AcDbText
 10
35.78378402289508
 20
26.78378402289507
 30
0.0
 40
0.5
  1
40.9
100
AcDbAttributeDefinition
  3

  2
A
 70
     8
280
     0
  0
ATTDEF
  5
117
330
10A
100
AcDbEntity
  8
AM_6
100
AcDbText
 10
35.78378402289508
 20
26.28378402289507
 30
0.0
 40
0.5
  1
17.5
100
AcDbAttributeDefinition
  3

  2
C
 70
     8
280
     0
  0
ATTDEF
  5
118
330
10A
100
AcDbEntity
  8
AM_6
100
AcDbText
 10
35.78378402289508
 20
25.78378402289507
 30
0.0
 40
0.5
  1
62.0
100
AcDbAttributeDefinition
  3

  2
D
 70
     8
280
     0
  0
ATTDEF
  5
119
330
10A
100
AcDbEntity
  8
AM_6
100
AcDbText
 10
35.78378402289508
 20
25.28378402289507
 30
0.0
 40
0.5
  1
4.1
100
AcDbAttributeDefinition
  3

  2
J
 70
     8
280
     0
  0
ATTDEF
  5
11A
330
10A
100
AcDbEntity
  8
AM_6
100
AcDbText
 10
35.78378402289508
 20
24.78378402289507
 30
0.0
 40
0.5
  1
52.8
100
AcDbAttributeDefinition
  3

  2
L
 70
     8
280
     0
  0
ATTDEF
  5
11B
330
10A
100
AcDbEntity
  8
AM_6
100
AcDbText
 10
35.78378402289508
 20
24.28378402289507
 30
0.0
 40
0.5
  1
#10 - 32 x 1/4
100
AcDbAttributeDefinition
  3

  2
N
 70
     8
280
     0
  0
ATTDEF
  5
11C
330
10A
100
AcDbEntity
  8
AM_6
100
AcDbText
 10
35.78378402289508
 20
23.78378402289507
 30
0.0
 40
0.5
  1
13.2
100
AcDbAttributeDefinition
  3

  2
W
 70
     8
280
     0
  0
ATTDEF
  5
11D
330
10A
100
AcDbEntity
  8
AM_6
100
AcDbText
 10
35.78378402289508
 20
23.28378402289507
 30
0.0
 40
0.5
  1
28.7
100
AcDbAttributeDefinition
  3

  2
X
 70
     8
280
     0
  0
ATTDEF
  5
11E
330
10A
100
AcDbEntity
  8
AM_6
100
AcDbText
 10
35.78378402289508
 20
22.78378402289507
 30
0.0
 40
0.5
  1
27.7
100
AcDbAttributeDefinition
  3

  2
Y
 70
     8
280
     0
  0
ATTDEF
  5
11F
330
10A
100
AcDbEntity
  8
AM_6
100
AcDbText
 10
35.78378402289508
 20
22.28378402289507
 30
0.0
 40
0.5
  1
baldor
100
AcDbAttributeDefinition
  3

  2
COMPANY
 70
     8
280
     0
  0
CIRCLE
  5
120
330
10A
100
AcDbEntity
  8
AM_9
100
AcDbCircle
 10
0.0
 20
0.0
 30
0.0
 40
20.48593161845499
  0
CIRCLE
  5
121
330
10A
100
AcDbEntity
  8
AM_9
100
AcDbCircle
 10
0.0
 20
0.0
 30
0.0
 40
29.25
  0
CIRCLE
  5
122
330
10A
100
AcDbEntity
  8
AM_9
100
AcDbCircle
 10
0.0
 20
0.0
 30
0.0
 40
30.24253509716422
  0
CIRCLE
  5
123
330
10A
100
AcDbEntity
  8
AM_9
100
AcDbCircle
 10
0.0
 20
0.0
 30
0.0
 40
21.58095238095238
  0
CIRCLE
  5
124
330
10A
100
AcDbEntity
  8
AM_9
100
AcDbCircle
 10
0.0
 20
0.0
 30
0.0
 40
23.46666666666667
  0
CIRCLE
  5
125
330
10A
100
AcDbEntity
  8
AM_9
100
AcDbCircle
 10
0.0000000000000036
 20
0.0000000000000107
 30
0.0
 40
19.69523809523809
  0
CIRCLE
  5
126
330
10A
100
AcDbEntity
  8
AM_9
100
AcDbCircle
 10
0.0000000000000488
 20
-0.0000000000000675
 30
0.0
 40
22.76666666666675
  0
CIRCLE
  5
127
330
10A
100
AcDbEntity
  8
AM_4
100
AcDbCircle
 10
0.0
 20
0.0
 30
0.0
 40
30.78378402289507
  0
CIRCLE
  5
128
330
10A
100
AcDbEntity
  8
AM_4
100
AcDbCircle
 10
0.0
 20
0.0
 30
0.0
 40
30.61044722271896
  0
CIRCLE
  5
129
330
10A
100
AcDbEntity
  8
AM_4
100
AcDbCircle
 10
0.0
 20
0.0
 30
0.0
 40
30.41753509716422
  0
CIRCLE
  5
12A
330
10A
100
AcDbEntity
  8
AM_4
100
AcDbCircle
 10
0.0
 20
0.0
 30
0.0
 40
30.4130198653593
  0
CIRCLE
  5
12B
330
10A
100
AcDbEntity
  8
AM_4
100
AcDbCircle
 10
0.0
 20
0.0
 30
0.0
 40
29.4297130979997
  0
CIRCLE
  5
12C
330
10A
100
AcDbEntity
  8
AM_4
100
AcDbCircle
 10
0.0
 20
0.0
 30
0.0
 40
28.77802961806126
  0
ENDBLK
  5
10D
330
10A
100
AcDbEntity
  8
0
100
AcDbBlockEnd
  0
BLOCK
  5
12F
330
12D
100
AcDbEntity
  8
0
100
AcDbBlockBegin
  2
4_129945_0_in_136249_0
 70
     2
 10
0.0
 20
0.0
 30
0.0
  3
4_129945_0_in_136249_0
  1

  0
ATTDEF
  5
131
330
12D
100
AcDbEntity
  8
AM_6
100
AcDbText
 10
30.28635995947222
 20
25.39979515883224
 30
0.0
 40
0.5
  1
Grip Tight Normal Duty Adapter and Nut Metric Bore
100
AcDbAttributeDefinition
  3

  2
NN
 70
     8
280
     0
  0
ATTDEF
  5
132
330
12D
100
AcDbEntity
  8
AM_6
100
AcDbText
 10
30.28635995947222
 20
24.89979515883224
 30
0.0
 40
0.5
  1
GT and GTM Adapter & Lock Nut Assemblies
100
AcDbAttributeDefinition
  3

  2
NT
 70
     8
280
     0
  0
ATTDEF
  5
133
330
12D
100
AcDbEntity
  8
AM_6
100
AcDbText
 10
30.28635995947222
 20
24.39979515883224
 30
0.0
 40
0.5
  1
129945
100
AcDbAttributeDefinition
  3

  2
NB
 70
     8
280
     0
  0
ATTDEF
  5
134
330
12D
100
AcDbEntity
  8
AM_6
100
AcDbText
 10
30.28635995947222
 20
23.89979515883224
 30
0.0
 40
0.5
  1
$PN.
100
AcDbAttributeDefinition
  3

  2
NBSYN
 70
     8
280
     0
  0
ATTDEF
  5
135
330
12D
100
AcDbEntity
  8
AM_6
100
AcDbText
 10
30.28635995947222
 20
23.39979515883224
 30
0.0
 40
0.5
  1
129945
100
AcDbAttributeDefinition
  3

  2
LINA
 70
     8
280
     0
  0
ATTDEF
  5
136
330
12D
100
AcDbEntity
  8
AM_6
100
AcDbText
 10
30.28635995947222
 20
22.89979515883224
 30
0.0
 40
0.5
  1
206
100
AcDbAttributeDefinition
  3

  2
SERIES
 70
     8
280
     0
  0
ATTDEF
  5
137
330
12D
100
AcDbEntity
  8
AM_6
100
AcDbText
 10
30.28635995947222
 20
22.39979515883224
 30
0.0
 40
0.5
  1
30
100
AcDbAttributeDefinition
  3

  2
SS
 70
     8
280
     0
  0
ATTDEF
  5
138
330
12D
100
AcDbEntity
  8
AM_6
100
AcDbText
 10
30.28635995947222
 20
21.89979515883224
 30
0.0
 40
0.5
  1
129945
100
AcDbAttributeDefinition
  3

  2
PN
 70
     8
280
     0
  0
ATTDEF
  5
139
330
12D
100
AcDbEntity
  8
AM_6
100
AcDbText
 10
30.28635995947222
 20
21.39979515883224
 30
0.0
 40
0.5
  1
AN-GT-06-30M
100
AcDbAttributeDefinition
  3

  2
DESCRIPTION
 70
     8
280
     0
  0
ATTDEF
  5
13A
330
12D
100
AcDbEntity
  8
AM_6
100
AcDbText
 10
30.28635995947222
 20
20.89979515883224
 30
0.0
 40
0.5
  1
40.9
100
AcDbAttributeDefinition
  3

  2
A
 70
     8
280
     0
  0
ATTDEF
  5
13B
330
12D
100
AcDbEntity
  8
AM_6
100
AcDbText
 10
30.28635995947222
 20
20.39979515883224
 30
0.0
 40
0.5
  1
18.0
100
AcDbAttributeDefinition
  3

  2
C
 70
     8
280
     0
  0
ATTDEF
  5
13C
330
12D
100
AcDbEntity
  8
AM_6
100
AcDbText
 10
30.28635995947222
 20
19.89979515883224
 30
0.0
 40
0.5
  1
62.0
100
AcDbAttributeDefinition
  3

  2
D
 70
     8
280
     0
  0
ATTDEF
  5
13D
330
12D
100
AcDbEntity
  8
AM_6
100
AcDbText
 10
30.28635995947222
 20
19.39979515883224
 30
0.0
 40
0.5
  1
4.8
100
AcDbAttributeDefinition
  3

  2
J
 70
     8
280
     0
  0
ATTDEF
  5
13E
330
12D
100
AcDbEntity
  8
AM_6
100
AcDbText
 10
30.28635995947222
 20
18.89979515883224
 30
0.0
 40
0.5
  1
50.8
100
AcDbAttributeDefinition
  3

  2
L
 70
     8
280
     0
  0
ATTDEF
  5
13F
330
12D
100
AcDbEntity
  8
AM_6
100
AcDbText
 10
30.28635995947222
 20
18.39979515883224
 30
0.0
 40
0.5
  1
10 - 32 x 1/4
100
AcDbAttributeDefinition
  3

  2
N
 70
     8
280
     0
  0
ATTDEF
  5
140
330
12D
100
AcDbEntity
  8
AM_6
100
AcDbText
 10
30.28635995947222
 20
17.89979515883224
 30
0.0
 40
0.5
  1
13.5
100
AcDbAttributeDefinition
  3

  2
W
 70
     8
280
     0
  0
ATTDEF
  5
141
330
12D
100
AcDbEntity
  8
AM_6
100
AcDbText
 10
30.28635995947222
 20
17.39979515883224
 30
0.0
 40
0.5
  1
26.2
100
AcDbAttributeDefinition
  3

  2
X
 70
     8
280
     0
  0
ATTDEF
  5
142
330
12D
100
AcDbEntity
  8
AM_6
100
AcDbText
 10
30.28635995947222
 20
16.89979515883224
 30
0.0
 40
0.5
  1
27.4
100
AcDbAttributeDefinition
  3

  2
Y
 70
     8
280
     0
  0
ATTDEF
  5
143
330
12D
100
AcDbEntity
  8
AM_6
100
AcDbText
 10
30.28635995947222
 20
16.39979515883224
 30
0.0
 40
0.5
  1
baldor
100
AcDbAttributeDefinition
  3

  2
COMPANY
 70
     8
280
     0
  0
LINE
  5
144
330
12D
100
AcDbEntity
  8
AM_9
100
AcDbLine
 10
1.25
 20
18.94943254666444
 30
0.0
 11
1.25
 21
19.72416421191825
 31
0.0
  0
LINE
  5
145
330
12D
100
AcDbEntity
  8
AM_9
100
AcDbLine
 10
-1.25
 20
18.94943254666444
 30
0.0
 11
-1.25
 21
19.72416421191825
 31
0.0
  0
ARC
  5
146
330
12D
100
AcDbEntity
  8
AM_9
100
AcDbCircle
 10
0.0
 20
0.0000000000000018
 30
0.0
 40
19.76373329760136
100
AcDbArc
 50
93.62621567386442
 51
86.37378432613559
  0
CIRCLE
  5
147
330
12D
100
AcDbEntity
  8
AM_9
100
AcDbCircle
 10
0.0
 20
0.0
 30
0.0
 40
20.76349206349208
  0
CIRCLE
  5
148
330
12D
100
AcDbEntity
  8
AM_9
100
AcDbCircle
 10
0.0
 20
0.0
 30
0.0
 40
22.8317777777778
  0
LINE
  5
149
330
12D
100
AcDbEntity
  8
AM_9
100
AcDbLine
 10
-24.9682
 20
-1.981199999999999
 30
0.0
 11
-19.4818
 21
-1.981199999999999
 31
0.0
  0
LINE
  5
14A
330
12D
100
AcDbEntity
  8
AM_9
100
AcDbLine
 10
-19.4818
 20
1.981199999999999
 30
0.0
 11
-24.9682
 21
1.981199999999999
 31
0.0
  0
LINE
  5
14B
330
12D
100
AcDbEntity
  8
AM_9
100
AcDbLine
 10
-19.4818
 20
-1.981199999999999
 30
0.0
 11
-19.05
 21
-2.412999999999998
 31
0.0
  0
LINE
  5
14C
330
12D
100
AcDbEntity
  8
AM_9
100
AcDbLine
 10
-19.05
 20
2.412999999999998
 30
0.0
 11
-19.4818
 21
1.981199999999999
 31
0.0
  0
LINE
  5
14D
330
12D
100
AcDbEntity
  8
AM_9
100
AcDbLine
 10
-19.05
 20
2.412999999999998
 30
0.0
 11
-19.05
 21
-2.412999999999998
 31
0.0
  0
LINE
  5
14E
330
12D
100
AcDbEntity
  8
AM_9
100
AcDbLine
 10
-19.4818
 20
1.981199999999999
 30
0.0
 11
-19.4818
 21
-1.981199999999999
 31
0.0
  0
LINE
  5
14F
330
12D
100
AcDbEntity
  8
AM_9
100
AcDbLine
 10
-24.9682
 20
1.981199999999999
 30
0.0
 11
-25.28057159830409
 21
2.293571598304091
 31
0.0
  0
LINE
  5
150
330
12D
100
AcDbEntity
  8
AM_9
100
AcDbLine
 10
-25.28106001738229
 20
-2.294060017382291
 30
0.0
 11
-24.9682
 21
-1.981199999999999
 31
0.0
  0
LINE
  5
151
330
12D
100
AcDbEntity
  8
AM_9
100
AcDbLine
 10
-24.9682
 20
1.981199999999999
 30
0.0
 11
-24.9682
 21
-1.981199999999999
 31
0.0
  0
LWPOLYLINE
  5
152
330
12D
100
AcDbEntity
  8
AM_9
100
AcDbPolyline
 90
        6
 70
     0
 43
0.0
 10
-25.39634705778302
 20
0.4307622553522488
 10
-25.38643016692052
 20
0.830158647529539
 10
-25.35777478450607
 20
1.463987014378448
 10
-25.32445150031309
 20
1.957589387049899
 10
-25.30004655404916
 20
2.251142901493713
 10
-25.29492956924183
 20
2.307929393871379
  0
LINE
  5
153
330
12D
100
AcDbEntity
  8
AM_9
100
AcDbLine
 10
-25.39875568332902
 20
0.2514154700349621
 30
0.0
 11
-25.39634705778302
 21
0.4307622553522488
 31
0.0
  0
LINE
  5
154
330
12D
100
AcDbEntity
  8
AM_9
100
AcDbLine
 10
-25.39346566406778
 20
-0.5761089895249663
 30
0.0
 11
-25.39961675870456
 21
-0.1395296059434291
 31
0.0
  0
LWPOLYLINE
  5
155
330
12D
100
AcDbEntity
  8
AM_9
100
AcDbPolyline
 90
        5
 70
     0
 43
0.0
 10
-25.29492957582373
 20
-2.307929321733775
 10
-25.30067017167797
 20
-2.244123183776967
 10
-25.32735971175893
 20
-1.919596319847178
 10
-25.36358383371394
 20
-1.359637859933721
 10
-25.38425430422223
 20
-0.8942222422729157
  0
LINE
  5
156
330
12D
100
AcDbEntity
  8
AM_5
100
AcDbLine
 10
-25.28512272068302
 20
-2.412999999999998
 30
0.0
 11
-19.05
 21
-2.412999999999998
 31
0.0
  0
LINE
  5
157
330
12D
100
AcDbEntity
  8
AM_5
100
AcDbLine
 10
-25.28512272068302
 20
2.413000000000002
 30
0.0
 11
-19.05
 21
2.413000000000002
 31
0.0
  0
LINE
  5
158
330
12D
100
AcDbEntity
  8
AM_4
100
AcDbLine
 10
23.70666102220341
 20
-2.4
 30
0.0
 11
25.28635995947222
 21
-2.4
 31
0.0
  0
LINE
  5
159
330
12D
100
AcDbEntity
  8
AM_4
100
AcDbLine
 10
-10.56471901065345
 20
-23.09863009414059
 30
0.0
 11
-9.774869542019042
 21
-21.73057068413452
 31
0.0
  0
ARC
  5
15A
330
12D
100
AcDbEntity
  8
AM_4
100
AcDbCircle
 10
0.0000000000000027
 20
-0.0000000000000036
 30
0.0
 40
25.4
100
AcDbArc
 50
245.4218626924052
 51
354.5781373075948
  0
LINE
  5
15B
330
12D
100
AcDbEntity
  8
AM_4
100
AcDbLine
 10
-13.93179148018435
 20
-19.33057068413452
 30
0.0
 11
-14.72164094881876
 21
-20.6986300941406
 31
0.0
  0
LINE
  5
15C
330
12D
100
AcDbEntity
  8
AM_4
100
AcDbLine
 10
-14.72164094881877
 20
20.69863009414058
 30
0.0
 11
-13.93179148018436
 21
19.3305706841345
 31
0.0
  0
ARC
  5
15D
330
12D
100
AcDbEntity
  8
AM_4
100
AcDbCircle
 10
-0.0000000000000249
 20
0.0000000000000142
 30
0.0
 40
25.39999999999997
100
AcDbArc
 50
125.4218626924051
 51
179.1426289878451
  0
LINE
  5
15E
330
12D
100
AcDbEntity
  8
AM_4
100
AcDbLine
 10
-25.39715627272193
 20
0.3800700710933154
 30
0.0
 11
-25.39715627272193
 21
-0.3800700710933208
 31
0.0
  0
ARC
  5
15F
330
12D
100
AcDbEntity
  8
AM_4
100
AcDbCircle
 10
-0.0000000000000107
 20
-0.0000000000000098
 30
0.0
 40
25.39999999999999
100
AcDbArc
 50
180.8573710121545
 51
234.5781373075949
  0
LINE
  5
160
330
12D
100
AcDbEntity
  8
AM_4
100
AcDbLine
 10
-9.774869542019061
 20
21.73057068413451
 30
0.0
 11
-10.56471901065347
 21
23.09863009414059
 31
0.0
  0
LINE
  5
161
330
12D
100
AcDbEntity
  8
AM_4
100
AcDbLine
 10
25.28635995947222
 20
2.4
 30
0.0
 11
23.70666102220341
 21
2.4
 31
0.0
  0
ARC
  5
162
330
12D
100
AcDbEntity
  8
AM_4
100
AcDbCircle
 10
0.0000000000000036
 20
0.0000000000000036
 30
0.0
 40
25.4
100
AcDbArc
 50
5.421862692405255
 51
114.5781373075949
  0
LINE
  5
163
330
12D
100
AcDbEntity
  8
AM_4
100
AcDbLine
 10
1.25
 20
14.94782592887675
 30
0.0
 11
1.25
 21
18.94920634920635
 31
0.0
  0
LINE
  5
164
330
12D
100
AcDbEntity
  8
AM_4
100
AcDbLine
 10
-1.25
 20
14.94782592887675
 30
0.0
 11
-1.250000000000001
 21
18.94920634920635
 31
0.0
  0
LINE
  5
165
330
12D
100
AcDbEntity
  8
AM_4
100
AcDbLine
 10
-9.774869542019042
 20
-21.73057068413452
 30
0.0
 11
-13.93179148018435
 21
-19.33057068413452
 31
0.0
  0
LINE
  5
166
330
12D
100
AcDbEntity
  8
AM_4
100
AcDbLine
 10
-1.250000000000001
 20
18.94920634920635
 30
0.0
 11
1.25
 21
18.94920634920635
 31
0.0
  0
LINE
  5
167
330
12D
100
AcDbEntity
  8
AM_4
100
AcDbLine
 10
23.70666102220341
 20
2.4
 30
0.0
 11
23.70666102220341
 21
-2.4
 31
0.0
  0
ARC
  5
168
330
12D
100
AcDbEntity
  8
AM_4
100
AcDbCircle
 10
0.0000000000000071
 20
0.0000000000000142
 30
0.0
 40
24.67999999999999
100
AcDbArc
 50
5.580531856409805
 51
114.4194681435903
  0
LINE
  5
169
330
12D
100
AcDbEntity
  8
AM_4
100
AcDbLine
 10
-13.93179148018436
 20
19.3305706841345
 30
0.0
 11
-9.774869542019061
 21
21.73057068413451
 31
0.0
  0
ARC
  5
16A
330
12D
100
AcDbEntity
  8
AM_4
100
AcDbCircle
 10
0.0000000000000071
 20
-0.0000000000000018
 30
0.0
 40
24.68000000000001
100
AcDbArc
 50
125.5805318564098
 51
234.4194681435902
  0
ARC
  5
16B
330
12D
100
AcDbEntity
  8
AM_4
100
AcDbCircle
 10
0.0000000000000073
 20
-0.0000000000000071
 30
0.0
 40
24.67999999999999
100
AcDbArc
 50
245.5805318564098
 51
354.4194681435903
  0
ARC
  5
16C
330
12D
100
AcDbEntity
  8
AM_4
100
AcDbCircle
 10
0.0
 20
0.0000000000000022
 30
0.0
 40
18.94920634920635
100
AcDbArc
 50
93.78230977753398
 51
86.21769022246603
  0
ARC
  5
16D
330
12D
100
AcDbEntity
  8
AM_4
100
AcDbCircle
 10
0.0
 20
0.0000000000000011
 30
0.0
 40
15.0
100
AcDbArc
 50
94.78019184719916
 51
85.21980815280085
  0
ENDBLK
  5
130
330
12D
100
AcDbEntity
  8
0
100
AcDbBlockEnd
  0
BLOCK
  5
170
330
16E
100
AcDbEntity
  8
0
100
AcDbBlockBegin
  2
5_WSTU_GT_06_0_in_136249_0
 70
     2
 10
0.0
 20
0.0
 30
0.0
  3
5_WSTU_GT_06_0_in_136249_0
  1

  0
ATTDEF
  5
172
330
16E
100
AcDbEntity
  8
AM_6
100
AcDbText
 10
95.775
 20
52.40000000000001
 30
0.0
 40
0.5
  1
GTNWSTUB-M-b
100
AcDbAttributeDefinition
  3

  2
NN
 70
     8
280
     0
  0
ATTDEF
  5
173
330
16E
100
AcDbEntity
  8
AM_6
100
AcDbText
 10
95.775
 20
51.90000000000001
 30
0.0
 40
0.5
  1
Grip Tight Adapter Ball Bearings
100
AcDbAttributeDefinition
  3

  2
NT
 70
     8
280
     0
  0
ATTDEF
  5
174
330
16E
100
AcDbEntity
  8
AM_6
100
AcDbText
 10
95.775
 20
51.40000000000001
 30
0.0
 40
0.5
  1
WSTU-GT-06
100
AcDbAttributeDefinition
  3

  2
NB
 70
     8
280
     0
  0
ATTDEF
  5
175
330
16E
100
AcDbEntity
  8
AM_6
100
AcDbText
 10
95.775
 20
50.90000000000001
 30
0.0
 40
0.5
  1
$PN.$LUBE.
100
AcDbAttributeDefinition
  3

  2
NBSYN
 70
     8
280
     0
  0
ATTDEF
  5
176
330
16E
100
AcDbEntity
  8
AM_6
100
AcDbText
 10
95.775
 20
50.40000000000001
 30
0.0
 40
0.5
  1
WSTU-GT-06
100
AcDbAttributeDefinition
  3

  2
LINA
 70
     8
280
     0
  0
ATTDEF
  5
177
330
16E
100
AcDbEntity
  8
AM_6
100
AcDbText
 10
95.775
 20
49.90000000000001
 30
0.0
 40
0.5
  1
206
100
AcDbAttributeDefinition
  3

  2
SERIES
 70
     8
280
     0
  0
ATTDEF
  5
178
330
16E
100
AcDbEntity
  8
AM_6
100
AcDbText
 10
95.775
 20
49.40000000000001
 30
0.0
 40
0.5
  1
30
100
AcDbAttributeDefinition
  3

  2
SS
 70
     8
280
     0
  0
ATTDEF
  5
179
330
16E
100
AcDbEntity
  8
AM_6
100
AcDbText
 10
95.775
 20
48.90000000000001
 30
0.0
 40
0.5
  1
WSTU-GT-06
100
AcDbAttributeDefinition
  3

  2
PN
 70
     8
280
     0
  0
ATTDEF
  5
17A
330
16E
100
AcDbEntity
  8
AM_6
100
AcDbText
 10
95.775
 20
48.40000000000001
 30
0.0
 40
0.5
  1
WSTU-GT-06
100
AcDbAttributeDefinition
  3

  2
DESCRIPTION
 70
     8
280
     0
  0
ATTDEF
  5
17B
330
16E
100
AcDbEntity
  8
AM_6
100
AcDbText
 10
95.775
 20
47.90000000000001
 30
0.0
 40
0.5
  1
1.3
100
AcDbAttributeDefinition
  3

  2
WEIGHT
 70
     8
280
     0
  0
ATTDEF
  5
17C
330
16E
100
AcDbEntity
  8
AM_6
100
AcDbText
 10
95.775
 20
47.40000000000001
 30
0.0
 40
0.5
  1
62.0
100
AcDbAttributeDefinition
  3

  2
BOD
 70
     8
280
     0
  0
ATTDEF
  5
17D
330
16E
100
AcDbEntity
  8
AM_6
100
AcDbText
 10
95.775
 20
46.90000000000001
 30
0.0
 40
0.5
  1
40.9
100
AcDbAttributeDefinition
  3

  2
A
 70
     8
280
     0
  0
ATTDEF
  5
17E
330
16E
100
AcDbEntity
  8
AM_6
100
AcDbText
 10
95.775
 20
46.40000000000001
 30
0.0
 40
0.5
  1
111.1
100
AcDbAttributeDefinition
  3

  2
B
 70
     8
280
     0
  0
ATTDEF
  5
17F
330
16E
100
AcDbEntity
  8
AM_6
100
AcDbText
 10
95.775
 20
45.90000000000001
 30
0.0
 40
0.5
  1
13.5
100
AcDbAttributeDefinition
  3

  2
C
 70
     8
280
     0
  0
ATTDEF
  5
180
330
16E
100
AcDbEntity
  8
AM_6
100
AcDbText
 10
95.775
 20
45.40000000000001
 30
0.0
 40
0.5
  1
69.9
100
AcDbAttributeDefinition
  3

  2
E
 70
     8
280
     0
  0
ATTDEF
  5
181
330
16E
100
AcDbEntity
  8
AM_6
100
AcDbText
 10
95.775
 20
44.90000000000001
 30
0.0
 40
0.5
  1
19.1
100
AcDbAttributeDefinition
  3

  2
F
 70
     8
280
     0
  0
ATTDEF
  5
182
330
16E
100
AcDbEntity
  8
AM_6
100
AcDbText
 10
95.775
 20
44.40000000000001
 30
0.0
 40
0.5
  1
9.5
100
AcDbAttributeDefinition
  3

  2
G
 70
     8
280
     0
  0
ATTDEF
  5
183
330
16E
100
AcDbEntity
  8
AM_6
100
AcDbText
 10
95.775
 20
43.90000000000001
 30
0.0
 40
0.5
  1
15.9
100
AcDbAttributeDefinition
  3

  2
H
 70
     8
280
     0
  0
ATTDEF
  5
184
330
16E
100
AcDbEntity
  8
AM_6
100
AcDbText
 10
95.775
 20
43.40000000000001
 30
0.0
 40
0.5
  1
55.6
100
AcDbAttributeDefinition
  3

  2
J
 70
     8
280
     0
  0
ATTDEF
  5
185
330
16E
100
AcDbEntity
  8
AM_6
100
AcDbText
 10
95.775
 20
42.90000000000001
 30
0.0
 40
0.5
  1
36.5
100
AcDbAttributeDefinition
  3

  2
K
 70
     8
280
     0
  0
ATTDEF
  5
186
330
16E
100
AcDbEntity
  8
AM_6
100
AcDbText
 10
95.775
 20
42.40000000000001
 30
0.0
 40
0.5
  1
50.8
100
AcDbAttributeDefinition
  3

  2
L
 70
     8
280
     0
  0
ATTDEF
  5
187
330
16E
100
AcDbEntity
  8
AM_6
100
AcDbText
 10
95.775
 20
41.90000000000001
 30
0.0
 40
0.5
  1
88.9
100
AcDbAttributeDefinition
  3

  2
M
 70
     8
280
     0
  0
ATTDEF
  5
188
330
16E
100
AcDbEntity
  8
AM_6
100
AcDbText
 10
95.775
 20
41.40000000000001
 30
0.0
 40
0.5
  1
104.8
100
AcDbAttributeDefinition
  3

  2
N
 70
     8
280
     0
  0
ATTDEF
  5
189
330
16E
100
AcDbEntity
  8
AM_6
100
AcDbText
 10
95.775
 20
40.90000000000001
 30
0.0
 40
0.5
  1
13.5
100
AcDbAttributeDefinition
  3

  2
R
 70
     8
280
     0
  0
ATTDEF
  5
18A
330
16E
100
AcDbEntity
  8
AM_6
100
AcDbText
 10
95.775
 20
40.40000000000001
 30
0.0
 40
0.5
  1
27.4
100
AcDbAttributeDefinition
  3

  2
S
 70
     8
280
     0
  0
ATTDEF
  5
18B
330
16E
100
AcDbEntity
  8
AM_6
100
AcDbText
 10
95.775
 20
39.90000000000001
 30
0.0
 40
0.5
  1
41.3
100
AcDbAttributeDefinition
  3

  2
T
 70
     8
280
     0
  0
ATTDEF
  5
18C
330
16E
100
AcDbEntity
  8
AM_6
100
AcDbText
 10
95.775
 20
39.40000000000001
 30
0.0
 40
0.5
  1
26.2
100
AcDbAttributeDefinition
  3

  2
Z
 70
     8
280
     0
  0
ATTDEF
  5
18D
330
16E
100
AcDbEntity
  8
AM_6
100
AcDbText
 10
95.775
 20
38.90000000000001
 30
0.0
 40
0.5
  1
baldor
100
AcDbAttributeDefinition
  3

  2
COMPANY
 70
     8
280
     0
  0
LINE
  5
18E
330
16E
100
AcDbEntity
  8
AM_9
100
AcDbLine
 10
60.40000000000001
 20
-9.55
 30
0.0
 11
69.9
 21
-9.55
 31
0.0
  0
LINE
  5
18F
330
16E
100
AcDbEntity
  8
AM_9
100
AcDbLine
 10
69.9
 20
9.55
 30
0.0
 11
60.40000000000001
 21
9.55
 31
0.0
  0
LINE
  5
190
330
16E
100
AcDbEntity
  8
AM_7
100
AcDbLine
 10
-32.55
 20
0.0
 30
0.0
 11
32.55
 21
0.0
 31
0.0
  0
LINE
  5
191
330
16E
100
AcDbEntity
  8
AM_7
100
AcDbLine
 10
0.0
 20
-32.55
 30
0.0
 11
0.0
 21
32.55
 31
0.0
  0
LINE
  5
192
330
16E
100
AcDbEntity
  8
AM_7
100
AcDbLine
 10
50.625
 20
0.0
 30
0.0
 11
90.775
 21
0.0
 31
0.0
  0
LINE
  5
193
330
16E
100
AcDbEntity
  8
AM_7
100
AcDbLine
 10
-49.77876132341538
 20
-28.73978124999999
 30
0.0
 11
5.968134489917436
 21
3.445704054313719
 31
0.0
  0
LINE
  5
194
330
16E
100
AcDbEntity
  8
AM_4
100
AcDbLine
 10
-41.41229744348775
 20
-14.67179676972449
 30
0.0
 11
-33.41229744892679
 21
-28.52820322085483
 31
0.0
  0
ARC
  5
195
330
16E
100
AcDbEntity
  8
AM_4
100
AcDbCircle
 10
-31.68024663591889
 20
-27.52820323027553
 30
0.0
 40
1.99999999999998
100
AcDbArc
 50
209.9999999999997
 51
300.0000000000008
  0
ARC
  5
196
330
16E
100
AcDbEntity
  8
AM_4
100
AcDbCircle
 10
-39.6802466359189
 20
-13.67179676972449
 30
0.0
 40
1.999999999999985
100
AcDbArc
 50
119.9999999999993
 51
210.0000000000001
  0
LINE
  5
197
330
16E
100
AcDbEntity
  8
AM_4
100
AcDbLine
 10
-40.68024663591887
 20
-11.93974596215561
 30
0.0
 11
-30.68024663591887
 21
-29.26025403784438
 31
0.0
  0
LINE
  5
198
330
16E
100
AcDbEntity
  8
AM_4
100
AcDbLine
 10
-30.68024663591887
 20
-29.26025403784438
 30
0.0
 11
-29.62081103408119
 21
-28.64858860793432
 31
0.0
  0
LINE
  5
199
330
16E
100
AcDbEntity
  8
AM_4
100
AcDbLine
 10
-39.61826528974157
 20
-11.32661074606578
 30
0.0
 11
-40.68024663591887
 21
-11.93974596215561
 31
0.0
  0
LINE
  5
19A
330
16E
100
AcDbEntity
  8
AM_4
100
AcDbLine
 10
69.9
 20
-26.20999997630715
 30
0.0
 11
69.9
 21
26.21000000000002
 31
0.0
  0
LINE
  5
19B
330
16E
100
AcDbEntity
  8
AM_4
100
AcDbLine
 10
60.40000000000001
 20
-17.45499999999999
 30
0.0
 11
60.40000000000001
 21
17.455
 31
0.0
  0
LINE
  5
19C
330
16E
100
AcDbEntity
  8
AM_4
100
AcDbLine
 10
-28.60000000000001
 20
51.60500001184643
 30
0.0
 11
-28.60000000000001
 21
29.65602805501774
 31
0.0
  0
LINE
  5
19D
330
16E
100
AcDbEntity
  8
AM_4
100
AcDbLine
 10
-28.60000000000002
 20
-29.65602805501772
 30
0.0
 11
-28.6
 21
-51.60500000000001
 31
0.0
  0
LINE
  5
19E
330
16E
100
AcDbEntity
  8
AM_4
100
AcDbLine
 10
28.59999999999999
 20
-51.605
 30
0.0
 11
28.59999999999999
 21
-29.39
 31
0.0
  0
ARC
  5
19F
330
16E
100
AcDbEntity
  8
AM_4
100
AcDbCircle
 10
30.18999999999999
 20
-29.39
 30
0.0
 40
1.590000000000003
100
AcDbArc
 50
90.0
 51
180.0
  0
ARC
  5
1A0
330
16E
100
AcDbEntity
  8
AM_4
100
AcDbCircle
 10
0.0000000000000071
 20
0.0000000000000036
 30
0.0
 40
41.2
100
AcDbArc
 50
133.961492458667
 51
226.0385075413329
  0
ARC
  5
1A1
330
16E
100
AcDbEntity
  8
AM_4
100
AcDbCircle
 10
68.30999999999999
 20
-26.20999999999997
 30
0.0
 40
1.590000000000032
100
AcDbArc
 50
270.0
 51
0.0000008537736463
  0
CIRCLE
  5
1A2
330
16E
100
AcDbEntity
  8
AM_4
100
AcDbCircle
 10
0.0
 20
0.0
 30
0.0
 40
31.0
  0
ARC
  5
1A3
330
16E
100
AcDbEntity
  8
AM_4
100
AcDbCircle
 10
59.605
 20
-17.45499999999999
 30
0.0
 40
0.7950000000000124
100
AcDbArc
 50
270.0
 51
0.0000008537736463
  0
LINE
  5
1A4
330
16E
100
AcDbEntity
  8
AM_4
100
AcDbLine
 10
45.295
 20
-18.25
 30
0.0
 11
59.605
 21
-18.25
 31
0.0
  0
ARC
  5
1A5
330
16E
100
AcDbEntity
  8
AM_4
100
AcDbCircle
 10
45.295
 20
-17.45500000000001
 30
0.0
 40
0.7949999999999946
100
AcDbArc
 50
180.0
 51
270.0
  0
LINE
  5
1A6
330
16E
100
AcDbEntity
  8
AM_4
100
AcDbLine
 10
44.5
 20
17.455
 30
0.0
 11
44.50000000000001
 21
-17.455
 31
0.0
  0
ARC
  5
1A7
330
16E
100
AcDbEntity
  8
AM_4
100
AcDbCircle
 10
45.295
 20
17.455
 30
0.0
 40
0.7950000000000017
100
AcDbArc
 50
90.0
 51
180.0
  0
LINE
  5
1A8
330
16E
100
AcDbEntity
  8
AM_4
100
AcDbLine
 10
59.605
 20
18.25
 30
0.0
 11
45.29500000000001
 21
18.25
 31
0.0
  0
ARC
  5
1A9
330
16E
100
AcDbEntity
  8
AM_4
100
AcDbCircle
 10
59.605
 20
17.455
 30
0.0
 40
0.7950000000000017
100
AcDbArc
 50
0.0
 51
90.0
  0
ARC
  5
1AA
330
16E
100
AcDbEntity
  8
AM_4
100
AcDbCircle
 10
68.31000000000002
 20
26.21
 30
0.0
 40
1.589999999999989
100
AcDbArc
 50
0.0
 51
90.0
  0
LINE
  5
1AB
330
16E
100
AcDbEntity
  8
AM_4
100
AcDbLine
 10
68.31
 20
27.8
 30
0.0
 11
30.19
 21
27.8
 31
0.0
  0
ARC
  5
1AC
330
16E
100
AcDbEntity
  8
AM_4
100
AcDbCircle
 10
30.19
 20
29.39
 30
0.0
 40
1.589999999999996
100
AcDbArc
 50
179.9999991462263
 51
270.0
  0
LINE
  5
1AD
330
16E
100
AcDbEntity
  8
AM_4
100
AcDbLine
 10
30.18999999999999
 20
-27.8
 30
0.0
 11
68.31000000000002
 21
-27.8
 31
0.0
  0
LINE
  5
1AE
330
16E
100
AcDbEntity
  8
AM_4
100
AcDbLine
 10
-6.958292451179825
 20
48.48406659124042
 30
0.0
 11
-8.357725347000654
 21
48.48406659124042
 31
0.0
  0
LINE
  5
1AF
330
16E
100
AcDbEntity
  8
AM_4
100
AcDbLine
 10
-6.647307485140565
 20
48.41006495870015
 30
0.0
 11
-6.958292451179825
 21
48.48406659124042
 31
0.0
  0
LINE
  5
1B0
330
16E
100
AcDbEntity
  8
AM_4
100
AcDbLine
 10
-6.258575730220166
 20
46.33801943300026
 30
0.0
 11
-6.180829487440455
 21
46.63402595554006
 31
0.0
  0
LINE
  5
1B1
330
16E
100
AcDbEntity
  8
AM_4
100
AcDbLine
 10
-6.414068213241245
 20
46.11601460904044
 30
0.0
 11
-6.258575730220166
 21
46.33801943300026
 31
0.0
  0
LINE
  5
1B2
330
16E
100
AcDbEntity
  8
AM_4
100
AcDbLine
 10
-6.180829487440455
 20
46.63402595554006
 30
0.0
 11
-6.180829487440455
 21
47.74405034966043
 31
0.0
  0
LINE
  5
1B3
330
16E
100
AcDbEntity
  8
AM_4
100
AcDbLine
 10
-6.958292451179821
 20
45.89400964792035
 30
0.0
 11
-6.647307485140565
 21
45.96801128046061
 31
0.0
  0
LINE
  5
1B4
330
16E
100
AcDbEntity
  8
AM_4
100
AcDbLine
 10
-6.647307485140565
 20
45.96801128046061
 30
0.0
 11
-6.414068213241245
 21
46.11601460904044
 31
0.0
  0
LINE
  5
1B5
330
16E
100
AcDbEntity
  8
AM_4
100
AcDbLine
 10
-8.357725347000654
 20
48.48406659124042
 30
0.0
 11
-8.357725347000654
 21
45.89400964792035
 31
0.0
  0
LINE
  5
1B6
330
16E
100
AcDbEntity
  8
AM_4
100
AcDbLine
 10
-8.357725347000654
 20
45.89400964792035
 30
0.0
 11
-6.958292451179821
 21
45.89400964792035
 31
0.0
  0
LINE
  5
1B7
330
16E
100
AcDbEntity
  8
AM_4
100
AcDbLine
 10
-6.414068213241245
 20
48.26206169870046
 30
0.0
 11
-6.647307485140565
 21
48.41006495870015
 31
0.0
  0
LINE
  5
1B8
330
16E
100
AcDbEntity
  8
AM_4
100
AcDbLine
 10
-6.258575730220166
 20
48.04005680616051
 30
0.0
 11
-6.414068213241245
 21
48.26206169870046
 31
0.0
  0
LINE
  5
1B9
330
16E
100
AcDbEntity
  8
AM_4
100
AcDbLine
 10
-6.180829487440455
 20
47.74405034966043
 30
0.0
 11
-6.258575730220166
 21
48.04005680616051
 31
0.0
  0
LINE
  5
1BA
330
16E
100
AcDbEntity
  8
AM_4
100
AcDbLine
 10
-0.8940821894816531
 20
48.48406659124042
 30
0.0
 11
-0.8940821894816532
 21
45.89400964792035
 31
0.0
  0
LINE
  5
1BB
330
16E
100
AcDbEntity
  8
AM_4
100
AcDbLine
 10
0.5053509628790468
 20
48.48406659124042
 30
0.0
 11
-0.8940821894816531
 21
48.48406659124042
 31
0.0
  0
LINE
  5
1BC
330
16E
100
AcDbEntity
  8
AM_4
100
AcDbLine
 10
0.8163361168795378
 20
48.41006495870015
 30
0.0
 11
0.5053509628790468
 21
48.48406659124042
 31
0.0
  0
LINE
  5
1BD
330
16E
100
AcDbEntity
  8
AM_4
100
AcDbLine
 10
1.049574944279238
 20
48.26206169870046
 30
0.0
 11
0.8163361168795378
 21
48.41006495870015
 31
0.0
  0
LINE
  5
1BE
330
16E
100
AcDbEntity
  8
AM_4
100
AcDbLine
 10
1.205067564459168
 20
48.04005680616051
 30
0.0
 11
1.049574944279238
 21
48.26206169870046
 31
0.0
  0
LINE
  5
1BF
330
16E
100
AcDbEntity
  8
AM_4
100
AcDbLine
 10
1.282813807238818
 20
47.74405034966043
 30
0.0
 11
1.205067564459168
 21
48.04005680616051
 31
0.0
  0
LINE
  5
1C0
330
16E
100
AcDbEntity
  8
AM_4
100
AcDbLine
 10
1.282813807238818
 20
46.63402595554006
 30
0.0
 11
1.282813807238818
 21
47.74405034966043
 31
0.0
  0
LINE
  5
1C1
330
16E
100
AcDbEntity
  8
AM_4
100
AcDbLine
 10
1.205067564459168
 20
46.33801943300026
 30
0.0
 11
1.282813807238818
 21
46.63402595554006
 31
0.0
  0
LINE
  5
1C2
330
16E
100
AcDbEntity
  8
AM_4
100
AcDbLine
 10
1.049574944279238
 20
46.11601460904044
 30
0.0
 11
1.205067564459168
 21
46.33801943300026
 31
0.0
  0
LINE
  5
1C3
330
16E
100
AcDbEntity
  8
AM_4
100
AcDbLine
 10
0.8163361168795378
 20
45.96801128046061
 30
0.0
 11
1.049574944279238
 21
46.11601460904044
 31
0.0
  0
LINE
  5
1C4
330
16E
100
AcDbEntity
  8
AM_4
100
AcDbLine
 10
0.505350962879042
 20
45.89400964792035
 30
0.0
 11
0.8163361168795378
 21
45.96801128046061
 31
0.0
  0
LINE
  5
1C5
330
16E
100
AcDbEntity
  8
AM_4
100
AcDbLine
 10
-0.8940821894816532
 20
45.89400964792035
 30
0.0
 11
0.505350962879042
 21
45.89400964792035
 31
0.0
  0
LINE
  5
1C6
330
16E
100
AcDbEntity
  8
AM_4
100
AcDbLine
 10
-3.848441147400377
 20
45.89400964792035
 30
0.0
 11
-3.226470666680657
 21
45.89400964792035
 31
0.0
  0
LINE
  5
1C7
330
16E
100
AcDbEntity
  8
AM_4
100
AcDbLine
 10
-4.548157868361508
 20
48.04005680616051
 30
0.0
 11
-4.625904108601457
 21
47.74405034966043
 31
0.0
  0
LINE
  5
1C8
330
16E
100
AcDbEntity
  8
AM_4
100
AcDbLine
 10
-4.392664836700707
 20
48.26206169870046
 30
0.0
 11
-4.548157868361508
 21
48.04005680616051
 31
0.0
  0
LINE
  5
1C9
330
16E
100
AcDbEntity
  8
AM_4
100
AcDbLine
 10
-4.159426113441107
 20
48.41006495870015
 30
0.0
 11
-4.392664836700707
 21
48.26206169870046
 31
0.0
  0
LINE
  5
1CA
330
16E
100
AcDbEntity
  8
AM_4
100
AcDbLine
 10
-3.848441147400377
 20
48.48406659124042
 30
0.0
 11
-4.159426113441107
 21
48.41006495870015
 31
0.0
  0
LINE
  5
1CB
330
16E
100
AcDbEntity
  8
AM_4
100
AcDbLine
 10
-3.226470666680657
 20
48.48406659124042
 30
0.0
 11
-3.848441147400377
 21
48.48406659124042
 31
0.0
  0
LINE
  5
1CC
330
16E
100
AcDbEntity
  8
AM_4
100
AcDbLine
 10
-2.915485700639927
 20
48.41006495870015
 30
0.0
 11
-3.226470666680657
 21
48.48406659124042
 31
0.0
  0
LINE
  5
1CD
330
16E
100
AcDbEntity
  8
AM_4
100
AcDbLine
 10
-2.682246703061147
 20
48.26206169870046
 30
0.0
 11
-2.915485700639927
 21
48.41006495870015
 31
0.0
  0
LINE
  5
1CE
330
16E
100
AcDbEntity
  8
AM_4
100
AcDbLine
 10
-2.526754220040067
 20
48.04005680616051
 30
0.0
 11
-2.682246703061147
 21
48.26206169870046
 31
0.0
  0
LINE
  5
1CF
330
16E
100
AcDbEntity
  8
AM_4
100
AcDbLine
 10
-2.449007977260417
 20
47.74405034966043
 30
0.0
 11
-2.526754220040067
 21
48.04005680616051
 31
0.0
  0
LINE
  5
1D0
330
16E
100
AcDbEntity
  8
AM_4
100
AcDbLine
 10
-2.915485700639927
 20
45.96801128046061
 30
0.0
 11
-2.682246703061147
 21
46.11601460904044
 31
0.0
  0
LINE
  5
1D1
330
16E
100
AcDbEntity
  8
AM_4
100
AcDbLine
 10
-3.226470666680657
 20
45.89400964792035
 30
0.0
 11
-2.915485700639927
 21
45.96801128046061
 31
0.0
  0
LINE
  5
1D2
330
16E
100
AcDbEntity
  8
AM_4
100
AcDbLine
 10
-4.159426113441107
 20
45.96801128046061
 30
0.0
 11
-3.848441147400377
 21
45.89400964792035
 31
0.0
  0
LINE
  5
1D3
330
16E
100
AcDbEntity
  8
AM_4
100
AcDbLine
 10
-4.392664836700707
 20
46.11601460904044
 30
0.0
 11
-4.159426113441107
 21
45.96801128046061
 31
0.0
  0
LINE
  5
1D4
330
16E
100
AcDbEntity
  8
AM_4
100
AcDbLine
 10
-4.548157868361508
 20
46.33801943300026
 30
0.0
 11
-4.392664836700707
 21
46.11601460904044
 31
0.0
  0
LINE
  5
1D5
330
16E
100
AcDbEntity
  8
AM_4
100
AcDbLine
 10
-4.625904108601461
 20
46.63402595554006
 30
0.0
 11
-4.548157868361508
 21
46.33801943300026
 31
0.0
  0
LINE
  5
1D6
330
16E
100
AcDbEntity
  8
AM_4
100
AcDbLine
 10
-4.625904108601457
 20
47.74405034966043
 30
0.0
 11
-4.625904108601461
 21
46.63402595554006
 31
0.0
  0
LINE
  5
1D7
330
16E
100
AcDbEntity
  8
AM_4
100
AcDbLine
 10
-2.682246703061147
 20
46.11601460904044
 30
0.0
 11
-2.526754220040067
 21
46.33801943300026
 31
0.0
  0
LINE
  5
1D8
330
16E
100
AcDbEntity
  8
AM_4
100
AcDbLine
 10
-2.526754220040067
 20
46.33801943300026
 30
0.0
 11
-2.449007977260417
 21
46.63402595554006
 31
0.0
  0
LINE
  5
1D9
330
16E
100
AcDbEntity
  8
AM_4
100
AcDbLine
 10
-2.449007977260417
 20
46.63402595554006
 30
0.0
 11
-2.449007977260417
 21
47.74405034966043
 31
0.0
  0
LWPOLYLINE
  5
1DA
330
16E
100
AcDbEntity
  8
AM_4
100
AcDbPolyline
 90
       19
 70
     0
 43
0.0
 10
27.80499985109276
 20
-52.39999999999999
 10
27.87428866714378
 20
-52.39697479796104
 10
27.9430501546002
 20
-52.38792218950216
 10
28.01076099702316
 20
-52.37291107043983
 10
28.07690587401687
 20
-52.35205568445406
 10
28.14098138312806
 20
-52.32551475362504
 10
28.20249987104254
 20
-52.29349027046224
 10
28.2609931449214
 20
-52.25622596061942
 10
28.31601603563122
 20
-52.2140054279953
 10
28.36714978574997
 20
-52.16714999633661
 10
28.41400523656385
 20
-52.11601626377035
 10
28.45622578980005
 20
-52.06099338887675
 10
28.49349012155499
 20
-52.00250012895744
 10
28.5255146277632
 20
-51.94098165303964
 10
28.5520555825955
 20
-51.87690615387093
 10
28.57291099335976
 20
-51.81076128468985
 10
28.58792213778721
 20
-51.74305044789021
 10
28.5969747720048
 20
-51.67428896382498
 10
28.59999999999998
 20
-51.60500014890724
  0
LWPOLYLINE
  5
1DB
330
16E
100
AcDbEntity
  8
AM_4
100
AcDbPolyline
 90
       19
 70
     0
 43
0.0
 10
-28.6
 20
-51.60500000000002
 10
-28.59697478498294
 20
-51.67428881548441
 10
-28.5879221636447
 20
-51.74305030124523
 10
-28.57291103189981
 20
-51.81076114085653
 10
-28.55205563352479
 20
-51.87690601394392
 10
-28.52551469069413
 20
-51.94098151808387
 10
-28.49349019600862
 20
-52.00250000000001
 10
-28.45622587520974
 20
-52.0609932668991
 10
-28.41400533227958
 20
-52.11601614970081
 10
-28.3671498910433
 20
-52.16714989104332
 10
-28.31601614970079
 20
-52.2140053322796
 10
-28.26099326689907
 20
-52.25622587520976
 10
-28.20249999999999
 20
-52.29349019600865
 10
-28.14098151808384
 20
-52.32551469069415
 10
-28.07690601394389
 20
-52.35205563352481
 10
-28.01076114085649
 20
-52.37291103189983
 10
-27.9430503012452
 20
-52.38792216364472
 10
-27.87428881548437
 20
-52.39697478498294
 10
-27.80499999999999
 20
-52.40000000000001
  0
LINE
  5
1DC
330
16E
100
AcDbEntity
  8
AM_4
100
AcDbLine
 10
27.80499999999998
 20
-52.40000000000001
 30
0.0
 11
-27.805
 21
-52.40000000000001
 31
0.0
  0
LINE
  5
1DD
330
16E
100
AcDbEntity
  8
AM_4
100
AcDbLine
 10
28.59999999999999
 20
-51.4
 30
0.0
 11
-28.6
 21
-51.4
 31
0.0
  0
LINE
  5
1DE
330
16E
100
AcDbEntity
  8
AM_4
100
AcDbLine
 10
28.6
 20
-44.44999999999999
 30
0.0
 11
-28.59999999999997
 21
-44.44999999999999
 31
0.0
  0
LINE
  5
1DF
330
16E
100
AcDbEntity
  8
AM_4
100
AcDbLine
 10
28.59999999999999
 20
-41.44999999999999
 30
0.0
 11
-28.6
 21
-41.44999999999999
 31
0.0
  0
LINE
  5
1E0
330
16E
100
AcDbEntity
  8
AM_4
100
AcDbLine
 10
2.915485700639807
 20
48.04005680616051
 30
0.0
 11
3.070978455440347
 21
48.26206169870046
 31
0.0
  0
LINE
  5
1E1
330
16E
100
AcDbEntity
  8
AM_4
100
AcDbLine
 10
4.936889074639217
 20
48.04005680616051
 30
0.0
 11
5.403367072339277
 21
48.04005680616051
 31
0.0
  0
LINE
  5
1E2
330
16E
100
AcDbEntity
  8
AM_4
100
AcDbLine
 10
6.025337004419313
 20
45.45
 30
0.0
 11
8.824203342159535
 21
45.45
 31
0.0
  0
LINE
  5
1E3
330
16E
100
AcDbEntity
  8
AM_4
100
AcDbLine
 10
8.513218376120212
 20
47.07803570759975
 30
0.0
 11
8.513218376120212
 21
47.52204545711975
 31
0.0
  0
LINE
  5
1E4
330
16E
100
AcDbEntity
  8
AM_4
100
AcDbLine
 10
3.304217181239658
 20
45.96801128046061
 30
0.0
 11
3.070978455440347
 21
46.11601460904044
 31
0.0
  0
LINE
  5
1E5
330
16E
100
AcDbEntity
  8
AM_4
100
AcDbLine
 10
6.491814999579723
 20
47.52204545711975
 30
0.0
 11
6.491814999579723
 21
48.48406659124042
 31
0.0
  0
LINE
  5
1E6
330
16E
100
AcDbEntity
  8
AM_4
100
AcDbLine
 10
6.491814999579723
 20
48.48406659124042
 30
0.0
 11
8.824203342159535
 21
48.48406659124042
 31
0.0
  0
LINE
  5
1E7
330
16E
100
AcDbEntity
  8
AM_4
100
AcDbLine
 10
8.824203342159535
 20
48.48406659124042
 30
0.0
 11
8.824203342159539
 21
48.92807637632032
 31
0.0
  0
LINE
  5
1E8
330
16E
100
AcDbEntity
  8
AM_4
100
AcDbLine
 10
8.824203342159539
 20
48.92807637632032
 30
0.0
 11
6.025337004419314
 21
48.92807637632032
 31
0.0
  0
LINE
  5
1E9
330
16E
100
AcDbEntity
  8
AM_4
100
AcDbLine
 10
1.205067564459168
 20
45.67200489253995
 30
0.0
 11
1.516052667660178
 21
45.96801128046061
 31
0.0
  0
LINE
  5
1EA
330
16E
100
AcDbEntity
  8
AM_4
100
AcDbLine
 10
3.070978455440347
 20
48.26206169870046
 30
0.0
 11
3.304217181239658
 21
48.41006495870015
 31
0.0
  0
LINE
  5
1EB
330
16E
100
AcDbEntity
  8
AM_4
100
AcDbLine
 10
6.491814999579723
 20
45.89400964792035
 30
0.0
 11
6.491814999579723
 21
47.07803570759975
 31
0.0
  0
LINE
  5
1EC
330
16E
100
AcDbEntity
  8
AM_4
100
AcDbLine
 10
-6.958292451179825
 20
48.92807637632032
 30
0.0
 11
-8.824203342159585
 21
48.92807637632032
 31
0.0
  0
LINE
  5
1ED
330
16E
100
AcDbEntity
  8
AM_4
100
AcDbLine
 10
-8.824203342159585
 20
48.92807637632032
 30
0.0
 11
-8.824203342159585
 21
45.45
 31
0.0
  0
LINE
  5
1EE
330
16E
100
AcDbEntity
  8
AM_4
100
AcDbLine
 10
-8.824203342159585
 20
45.45
 30
0.0
 11
-6.958292451179825
 21
45.45
 31
0.0
  0
LINE
  5
1EF
330
16E
100
AcDbEntity
  8
AM_4
100
AcDbLine
 10
3.070978455440347
 20
46.11601460904044
 30
0.0
 11
2.915485700639807
 21
46.33801943300026
 31
0.0
  0
LINE
  5
1F0
330
16E
100
AcDbEntity
  8
AM_4
100
AcDbLine
 10
2.915485700639807
 20
46.33801943300026
 30
0.0
 11
2.837739457858728
 21
46.63402595554006
 31
0.0
  0
LINE
  5
1F1
330
16E
100
AcDbEntity
  8
AM_4
100
AcDbLine
 10
2.837739457858728
 20
46.63402595554006
 30
0.0
 11
2.837739457858728
 21
47.74405034966043
 31
0.0
  0
LINE
  5
1F2
330
16E
100
AcDbEntity
  8
AM_4
100
AcDbLine
 10
2.837739457858728
 20
47.74405034966043
 30
0.0
 11
2.915485700639807
 21
48.04005680616051
 31
0.0
  0
LINE
  5
1F3
330
16E
100
AcDbEntity
  8
AM_4
100
AcDbLine
 10
-5.792098281159775
 20
46.26401780300041
 30
0.0
 11
-5.714352038381545
 21
46.63402595554006
 31
0.0
  0
LINE
  5
1F4
330
16E
100
AcDbEntity
  8
AM_4
100
AcDbLine
 10
-5.714352038381545
 20
46.63402595554006
 30
0.0
 11
-5.714352038381545
 21
47.74405034966043
 31
0.0
  0
LINE
  5
1F5
330
16E
100
AcDbEntity
  8
AM_4
100
AcDbLine
 10
3.304217181239658
 20
48.41006495870015
 30
0.0
 11
3.615202421599518
 21
48.48406659124042
 31
0.0
  0
LINE
  5
1F6
330
16E
100
AcDbEntity
  8
AM_4
100
AcDbLine
 10
8.513218376120212
 20
47.52204545711975
 30
0.0
 11
6.491814999579723
 21
47.52204545711975
 31
0.0
  0
LINE
  5
1F7
330
16E
100
AcDbEntity
  8
AM_4
100
AcDbLine
 10
4.859142834399277
 20
48.26206169870046
 30
0.0
 11
4.936889074639217
 21
48.04005680616051
 31
0.0
  0
LINE
  5
1F8
330
16E
100
AcDbEntity
  8
AM_4
100
AcDbLine
 10
5.325620829559618
 20
48.41006495870015
 30
0.0
 11
5.014635317418877
 21
48.70607148378037
 31
0.0
  0
LINE
  5
1F9
330
16E
100
AcDbEntity
  8
AM_4
100
AcDbLine
 10
5.014635317418877
 20
48.70607148378037
 30
0.0
 11
4.703650351379618
 21
48.85407474378006
 31
0.0
  0
LINE
  5
1FA
330
16E
100
AcDbEntity
  8
AM_4
100
AcDbLine
 10
4.703650351379618
 20
48.85407474378006
 30
0.0
 11
4.314918868238637
 21
48.92807637632032
 31
0.0
  0
LINE
  5
1FB
330
16E
100
AcDbEntity
  8
AM_4
100
AcDbLine
 10
1.671545287838618
 20
46.26401780300041
 30
0.0
 11
1.749291528078628
 21
46.63402595554006
 31
0.0
  0
LINE
  5
1FC
330
16E
100
AcDbEntity
  8
AM_4
100
AcDbLine
 10
2.915485700639807
 20
48.70607148378037
 30
0.0
 11
2.604500734599082
 21
48.41006495870016
 31
0.0
  0
LINE
  5
1FD
330
16E
100
AcDbEntity
  8
AM_4
100
AcDbLine
 10
2.604500734599082
 20
48.41006495870016
 30
0.0
 11
2.449008114419137
 21
48.11405843616036
 31
0.0
  0
LINE
  5
1FE
330
16E
100
AcDbEntity
  8
AM_4
100
AcDbLine
 10
6.025337004419314
 20
48.92807637632032
 30
0.0
 11
6.025337004419313
 21
45.45
 31
0.0
  0
LINE
  5
1FF
330
16E
100
AcDbEntity
  8
AM_4
100
AcDbLine
 10
2.915485700639807
 20
45.67200489253995
 30
0.0
 11
3.226470940999658
 21
45.52400162999984
 31
0.0
  0
LINE
  5
200
330
16E
100
AcDbEntity
  8
AM_4
100
AcDbLine
 10
2.449008114419137
 20
48.11405843616036
 30
0.0
 11
2.371261871639487
 21
47.74405034966043
 31
0.0
  0
LINE
  5
201
330
16E
100
AcDbEntity
  8
AM_4
100
AcDbLine
 10
3.226470940999658
 20
48.85407474378006
 30
0.0
 11
2.915485700639807
 21
48.70607148378037
 31
0.0
  0
LINE
  5
202
330
16E
100
AcDbEntity
  8
AM_4
100
AcDbLine
 10
3.615202421599518
 20
48.92807637632032
 30
0.0
 11
3.226470940999658
 21
48.85407474378006
 31
0.0
  0
LINE
  5
203
330
16E
100
AcDbEntity
  8
AM_4
100
AcDbLine
 10
4.314918868238637
 20
48.92807637632032
 30
0.0
 11
3.615202421599518
 21
48.92807637632032
 31
0.0
  0
LINE
  5
204
330
16E
100
AcDbEntity
  8
AM_4
100
AcDbLine
 10
5.403367072339277
 20
48.04005680616051
 30
0.0
 11
5.325620829559618
 21
48.41006495870015
 31
0.0
  0
LINE
  5
205
330
16E
100
AcDbEntity
  8
AM_4
100
AcDbLine
 10
4.625904108598488
 20
48.41006495870015
 30
0.0
 11
4.859142834399277
 21
48.26206169870046
 31
0.0
  0
LINE
  5
206
330
16E
100
AcDbEntity
  8
AM_4
100
AcDbLine
 10
4.314918868238637
 20
48.48406659124042
 30
0.0
 11
4.625904108598488
 21
48.41006495870015
 31
0.0
  0
LINE
  5
207
330
16E
100
AcDbEntity
  8
AM_4
100
AcDbLine
 10
3.615202421599518
 20
48.48406659124042
 30
0.0
 11
4.314918868238637
 21
48.48406659124042
 31
0.0
  0
LINE
  5
208
330
16E
100
AcDbEntity
  8
AM_4
100
AcDbLine
 10
3.615202421599518
 20
45.89400964792035
 30
0.0
 11
3.304217181239658
 21
45.96801128046061
 31
0.0
  0
LINE
  5
209
330
16E
100
AcDbEntity
  8
AM_4
100
AcDbLine
 10
4.314918868238637
 20
45.89400964792035
 30
0.0
 11
3.615202421599518
 21
45.89400964792035
 31
0.0
  0
LINE
  5
20A
330
16E
100
AcDbEntity
  8
AM_4
100
AcDbLine
 10
4.625904108598488
 20
45.96801128046061
 30
0.0
 11
4.314918868238637
 21
45.89400964792035
 31
0.0
  0
LINE
  5
20B
330
16E
100
AcDbEntity
  8
AM_4
100
AcDbLine
 10
4.859142834399277
 20
46.11601460904044
 30
0.0
 11
4.625904108598488
 21
45.96801128046061
 31
0.0
  0
LINE
  5
20C
330
16E
100
AcDbEntity
  8
AM_4
100
AcDbLine
 10
4.936889074639217
 20
46.33801943300026
 30
0.0
 11
4.859142834399277
 21
46.11601460904044
 31
0.0
  0
LINE
  5
20D
330
16E
100
AcDbEntity
  8
AM_4
100
AcDbLine
 10
4.936889074639217
 20
46.93003246284032
 30
0.0
 11
4.936889074639217
 21
46.33801943300026
 31
0.0
  0
LINE
  5
20E
330
16E
100
AcDbEntity
  8
AM_4
100
AcDbLine
 10
4.237172627998687
 20
46.93003246284032
 30
0.0
 11
4.936889074639217
 21
46.93003246284032
 31
0.0
  0
LINE
  5
20F
330
16E
100
AcDbEntity
  8
AM_4
100
AcDbLine
 10
4.237172627998687
 20
47.37404221490002
 30
0.0
 11
4.237172627998687
 21
46.93003246284032
 31
0.0
  0
LINE
  5
210
330
16E
100
AcDbEntity
  8
AM_4
100
AcDbLine
 10
5.403367072339277
 20
47.37404221490002
 30
0.0
 11
4.237172627998687
 21
47.37404221490002
 31
0.0
  0
LINE
  5
211
330
16E
100
AcDbEntity
  8
AM_4
100
AcDbLine
 10
5.403367072339277
 20
46.26401780300041
 30
0.0
 11
5.403367072339277
 21
47.37404221490002
 31
0.0
  0
LINE
  5
212
330
16E
100
AcDbEntity
  8
AM_4
100
AcDbLine
 10
5.325620829559618
 20
45.96801128046061
 30
0.0
 11
5.403367072339277
 21
46.26401780300041
 31
0.0
  0
LINE
  5
213
330
16E
100
AcDbEntity
  8
AM_4
100
AcDbLine
 10
5.014635317418877
 20
45.67200489253995
 30
0.0
 11
5.325620829559618
 21
45.96801128046061
 31
0.0
  0
LINE
  5
214
330
16E
100
AcDbEntity
  8
AM_4
100
AcDbLine
 10
4.703650351379618
 20
45.52400162999984
 30
0.0
 11
5.014635317418877
 21
45.67200489253995
 31
0.0
  0
LINE
  5
215
330
16E
100
AcDbEntity
  8
AM_4
100
AcDbLine
 10
4.314918868238637
 20
45.45
 30
0.0
 11
4.703650351379618
 21
45.52400162999984
 31
0.0
  0
LINE
  5
216
330
16E
100
AcDbEntity
  8
AM_4
100
AcDbLine
 10
3.615202421599518
 20
45.45
 30
0.0
 11
4.314918868238637
 21
45.45
 31
0.0
  0
LINE
  5
217
330
16E
100
AcDbEntity
  8
AM_4
100
AcDbLine
 10
3.226470940999658
 20
45.52400162999984
 30
0.0
 11
3.615202421599518
 21
45.45
 31
0.0
  0
LINE
  5
218
330
16E
100
AcDbEntity
  8
AM_4
100
AcDbLine
 10
2.604500734599067
 20
45.96801128046061
 30
0.0
 11
2.915485700639807
 21
45.67200489253995
 31
0.0
  0
LINE
  5
219
330
16E
100
AcDbEntity
  8
AM_4
100
AcDbLine
 10
2.449008114419137
 20
46.26401780300041
 30
0.0
 11
2.604500734599067
 21
45.96801128046061
 31
0.0
  0
LINE
  5
21A
330
16E
100
AcDbEntity
  8
AM_4
100
AcDbLine
 10
2.371261871639487
 20
46.63402595554006
 30
0.0
 11
2.449008114419137
 21
46.26401780300041
 31
0.0
  0
LINE
  5
21B
330
16E
100
AcDbEntity
  8
AM_4
100
AcDbLine
 10
2.371261871639487
 20
47.74405034966043
 30
0.0
 11
2.371261871639487
 21
46.63402595554006
 31
0.0
  0
LINE
  5
21C
330
16E
100
AcDbEntity
  8
AM_4
100
AcDbLine
 10
-5.014635317420417
 20
48.11405843616036
 30
0.0
 11
-5.092381557660427
 21
47.74405034966043
 31
0.0
  0
LINE
  5
21D
330
16E
100
AcDbEntity
  8
AM_4
100
AcDbLine
 10
-4.859142834400764
 20
48.41006495870015
 30
0.0
 11
-5.014635317420417
 21
48.11405843616036
 31
0.0
  0
LINE
  5
21E
330
16E
100
AcDbEntity
  8
AM_4
100
AcDbLine
 10
-4.548157868361508
 20
48.70607148378037
 30
0.0
 11
-4.859142834400764
 21
48.41006495870015
 31
0.0
  0
LINE
  5
21F
330
16E
100
AcDbEntity
  8
AM_4
100
AcDbLine
 10
-4.237172353681058
 20
48.85407474378006
 30
0.0
 11
-4.548157868361508
 21
48.70607148378037
 31
0.0
  0
LINE
  5
220
330
16E
100
AcDbEntity
  8
AM_4
100
AcDbLine
 10
-3.848441147400377
 20
48.92807637632032
 30
0.0
 11
-4.237172353681058
 21
48.85407474378006
 31
0.0
  0
LINE
  5
221
330
16E
100
AcDbEntity
  8
AM_4
100
AcDbLine
 10
-3.226470666680657
 20
48.92807637632032
 30
0.0
 11
-3.848441147400377
 21
48.92807637632032
 31
0.0
  0
LINE
  5
222
330
16E
100
AcDbEntity
  8
AM_4
100
AcDbLine
 10
-2.837739186080807
 20
48.85407474378006
 30
0.0
 11
-3.226470666680657
 21
48.92807637632032
 31
0.0
  0
LINE
  5
223
330
16E
100
AcDbEntity
  8
AM_4
100
AcDbLine
 10
-2.526754220040067
 20
48.70607148378037
 30
0.0
 11
-2.837739186080807
 21
48.85407474378006
 31
0.0
  0
LINE
  5
224
330
16E
100
AcDbEntity
  8
AM_4
100
AcDbLine
 10
-2.215768979680217
 20
48.41006495870015
 30
0.0
 11
-2.526754220040067
 21
48.70607148378037
 31
0.0
  0
LINE
  5
225
330
16E
100
AcDbEntity
  8
AM_4
100
AcDbLine
 10
-2.060276496660557
 20
48.11405843616036
 30
0.0
 11
-2.215768979680217
 21
48.41006495870015
 31
0.0
  0
LINE
  5
226
330
16E
100
AcDbEntity
  8
AM_4
100
AcDbLine
 10
-1.982530253880907
 20
47.74405034966043
 30
0.0
 11
-2.060276496660557
 21
48.11405843616036
 31
0.0
  0
LINE
  5
227
330
16E
100
AcDbEntity
  8
AM_4
100
AcDbLine
 10
-1.982530253880907
 20
46.63402595554006
 30
0.0
 11
-1.982530253880907
 21
47.74405034966043
 31
0.0
  0
LINE
  5
228
330
16E
100
AcDbEntity
  8
AM_4
100
AcDbLine
 10
-2.060276496660557
 20
46.26401780300041
 30
0.0
 11
-1.982530253880907
 21
46.63402595554006
 31
0.0
  0
LINE
  5
229
330
16E
100
AcDbEntity
  8
AM_4
100
AcDbLine
 10
-2.215768979680217
 20
45.96801128046061
 30
0.0
 11
-2.060276496660557
 21
46.26401780300041
 31
0.0
  0
LINE
  5
22A
330
16E
100
AcDbEntity
  8
AM_4
100
AcDbLine
 10
-2.526754220040067
 20
45.67200489253995
 30
0.0
 11
-2.215768979680217
 21
45.96801128046061
 31
0.0
  0
LINE
  5
22B
330
16E
100
AcDbEntity
  8
AM_4
100
AcDbLine
 10
-2.837739186080807
 20
45.52400162999984
 30
0.0
 11
-2.526754220040067
 21
45.67200489253995
 31
0.0
  0
LINE
  5
22C
330
16E
100
AcDbEntity
  8
AM_4
100
AcDbLine
 10
-3.226470666680657
 20
45.45
 30
0.0
 11
-2.837739186080807
 21
45.52400162999984
 31
0.0
  0
LINE
  5
22D
330
16E
100
AcDbEntity
  8
AM_4
100
AcDbLine
 10
-3.848441147400377
 20
45.45
 30
0.0
 11
-3.226470666680657
 21
45.45
 31
0.0
  0
LINE
  5
22E
330
16E
100
AcDbEntity
  8
AM_4
100
AcDbLine
 10
-4.237172353681058
 20
45.52400162999984
 30
0.0
 11
-3.848441147400377
 21
45.45
 31
0.0
  0
LINE
  5
22F
330
16E
100
AcDbEntity
  8
AM_4
100
AcDbLine
 10
-4.548157868361508
 20
45.67200489253995
 30
0.0
 11
-4.237172353681058
 21
45.52400162999984
 31
0.0
  0
LINE
  5
230
330
16E
100
AcDbEntity
  8
AM_4
100
AcDbLine
 10
-4.859142834400767
 20
45.96801128046061
 30
0.0
 11
-4.548157868361508
 21
45.67200489253995
 31
0.0
  0
LINE
  5
231
330
16E
100
AcDbEntity
  8
AM_4
100
AcDbLine
 10
-5.014635317420417
 20
46.26401780300041
 30
0.0
 11
-4.859142834400767
 21
45.96801128046061
 31
0.0
  0
LINE
  5
232
330
16E
100
AcDbEntity
  8
AM_4
100
AcDbLine
 10
-5.092381557660427
 20
46.63402595554006
 30
0.0
 11
-5.014635317420417
 21
46.26401780300041
 31
0.0
  0
LINE
  5
233
330
16E
100
AcDbEntity
  8
AM_4
100
AcDbLine
 10
-5.092381557660427
 20
47.74405034966043
 30
0.0
 11
-5.092381557660427
 21
46.63402595554006
 31
0.0
  0
LINE
  5
234
330
16E
100
AcDbEntity
  8
AM_4
100
AcDbLine
 10
-6.569561242360855
 20
48.85407474378006
 30
0.0
 11
-6.958292451179825
 21
48.92807637632032
 31
0.0
  0
LINE
  5
235
330
16E
100
AcDbEntity
  8
AM_4
100
AcDbLine
 10
-6.258575730220166
 20
48.70607148378037
 30
0.0
 11
-6.569561242360855
 21
48.85407474378006
 31
0.0
  0
LINE
  5
236
330
16E
100
AcDbEntity
  8
AM_4
100
AcDbLine
 10
-5.947590764180855
 20
48.41006495870015
 30
0.0
 11
-6.258575730220166
 21
48.70607148378037
 31
0.0
  0
LINE
  5
237
330
16E
100
AcDbEntity
  8
AM_4
100
AcDbLine
 10
-5.792098281159775
 20
48.11405843616036
 30
0.0
 11
-5.947590764180855
 21
48.41006495870015
 31
0.0
  0
LINE
  5
238
330
16E
100
AcDbEntity
  8
AM_4
100
AcDbLine
 10
-5.714352038381545
 20
47.74405034966043
 30
0.0
 11
-5.792098281159775
 21
48.11405843616036
 31
0.0
  0
LINE
  5
239
330
16E
100
AcDbEntity
  8
AM_4
100
AcDbLine
 10
-5.947590764180855
 20
45.96801128046061
 30
0.0
 11
-5.792098281159775
 21
46.26401780300041
 31
0.0
  0
LINE
  5
23A
330
16E
100
AcDbEntity
  8
AM_4
100
AcDbLine
 10
-6.258575730220166
 20
45.67200489253995
 30
0.0
 11
-5.947590764180855
 21
45.96801128046061
 31
0.0
  0
LINE
  5
23B
330
16E
100
AcDbEntity
  8
AM_4
100
AcDbLine
 10
-6.569561242360854
 20
45.52400162999984
 30
0.0
 11
-6.258575730220166
 21
45.67200489253995
 31
0.0
  0
LINE
  5
23C
330
16E
100
AcDbEntity
  8
AM_4
100
AcDbLine
 10
-6.958292451179825
 20
45.45
 30
0.0
 11
-6.569561242360854
 21
45.52400162999984
 31
0.0
  0
LINE
  5
23D
330
16E
100
AcDbEntity
  8
AM_4
100
AcDbLine
 10
-1.360559912859692
 20
48.92807637632032
 30
0.0
 11
-1.360559912859692
 21
45.45
 31
0.0
  0
LINE
  5
23E
330
16E
100
AcDbEntity
  8
AM_4
100
AcDbLine
 10
0.505350962879042
 20
48.92807637632032
 30
0.0
 11
-1.360559912859692
 21
48.92807637632032
 31
0.0
  0
LINE
  5
23F
330
16E
100
AcDbEntity
  8
AM_4
100
AcDbLine
 10
0.8940823926794198
 20
48.85407474378006
 30
0.0
 11
0.505350962879042
 21
48.92807637632032
 31
0.0
  0
LINE
  5
240
330
16E
100
AcDbEntity
  8
AM_4
100
AcDbLine
 10
1.205067564459168
 20
48.70607148378037
 30
0.0
 11
0.8940823926794198
 21
48.85407474378006
 31
0.0
  0
LINE
  5
241
330
16E
100
AcDbEntity
  8
AM_4
100
AcDbLine
 10
1.516052667660178
 20
48.41006495870015
 30
0.0
 11
1.205067564459168
 21
48.70607148378037
 31
0.0
  0
LINE
  5
242
330
16E
100
AcDbEntity
  8
AM_4
100
AcDbLine
 10
1.671545287838618
 20
48.11405843616036
 30
0.0
 11
1.516052667660178
 21
48.41006495870015
 31
0.0
  0
LINE
  5
243
330
16E
100
AcDbEntity
  8
AM_4
100
AcDbLine
 10
1.749291528078628
 20
47.74405034966043
 30
0.0
 11
1.671545287838618
 21
48.11405843616036
 31
0.0
  0
LINE
  5
244
330
16E
100
AcDbEntity
  8
AM_4
100
AcDbLine
 10
1.749291528078628
 20
46.63402595554006
 30
0.0
 11
1.749291528078628
 21
47.74405034966043
 31
0.0
  0
LINE
  5
245
330
16E
100
AcDbEntity
  8
AM_4
100
AcDbLine
 10
1.516052667660178
 20
45.96801128046061
 30
0.0
 11
1.671545287838618
 21
46.26401780300041
 31
0.0
  0
LINE
  5
246
330
16E
100
AcDbEntity
  8
AM_4
100
AcDbLine
 10
0.8940823926794198
 20
45.52400162999984
 30
0.0
 11
1.205067564459168
 21
45.67200489253995
 31
0.0
  0
LINE
  5
247
330
16E
100
AcDbEntity
  8
AM_4
100
AcDbLine
 10
0.5053509628790466
 20
45.45
 30
0.0
 11
0.8940823926794198
 21
45.52400162999984
 31
0.0
  0
LINE
  5
248
330
16E
100
AcDbEntity
  8
AM_4
100
AcDbLine
 10
-1.360559912859692
 20
45.45
 30
0.0
 11
0.5053509628790466
 21
45.45
 31
0.0
  0
LINE
  5
249
330
16E
100
AcDbEntity
  8
AM_4
100
AcDbLine
 10
6.491814999579723
 20
47.07803570759975
 30
0.0
 11
8.513218376120212
 21
47.07803570759975
 31
0.0
  0
LINE
  5
24A
330
16E
100
AcDbEntity
  8
AM_4
100
AcDbLine
 10
8.824203342159535
 20
45.89400964792035
 30
0.0
 11
6.491814999579723
 21
45.89400964792035
 31
0.0
  0
LINE
  5
24B
330
16E
100
AcDbEntity
  8
AM_4
100
AcDbLine
 10
8.824203342159535
 20
45.45
 30
0.0
 11
8.824203342159535
 21
45.89400964792035
 31
0.0
  0
LINE
  5
24C
330
16E
100
AcDbEntity
  8
AM_4
100
AcDbLine
 10
28.60000000000003
 20
44.45
 30
0.0
 11
-28.6
 21
44.45
 31
0.0
  0
LINE
  5
24D
330
16E
100
AcDbEntity
  8
AM_4
100
AcDbLine
 10
28.6
 20
41.45
 30
0.0
 11
-28.59999999999994
 21
41.45
 31
0.0
  0
LINE
  5
24E
330
16E
100
AcDbEntity
  8
AM_4
100
AcDbLine
 10
28.6
 20
29.39
 30
0.0
 11
28.6
 21
51.605
 31
0.0
  0
LWPOLYLINE
  5
24F
330
16E
100
AcDbEntity
  8
AM_4
100
AcDbPolyline
 90
       19
 70
     0
 43
0.0
 10
-27.80500012977106
 20
52.40000000000001
 10
-27.87428894476163
 20
52.39697477367265
 10
-27.94305042904476
 20
52.3879221411102
 10
-28.01076126620572
 20
52.37291099831259
 10
-28.07690613588881
 20
52.35205558914049
 10
-28.14098163569638
 20
52.32551463585052
 10
-28.20250011238504
 20
52.2934901311231
 10
-28.26099337320131
 20
52.25622580077613
 10
-28.3160162491112
 20
52.21400524886436
 10
-28.3671499828053
 20
52.16714979928131
 10
-28.41400541569481
 20
52.1160160502904
 10
-28.45622594964337
 20
52.06099316059686
 10
-28.49349026089416
 20
52.00249988761497
 10
-28.52551474553776
 20
51.94098140047134
 10
-28.55205567790911
 20
51.876905891999
 10
-28.57291106548703
 20
51.81076101550729
 10
-28.58792218617921
 20
51.74305017344567
 10
-28.59697479629323
 20
51.67428868620715
 10
-28.60000000000001
 20
51.60500001184643
  0
LINE
  5
250
330
16E
100
AcDbEntity
  8
AM_4
100
AcDbLine
 10
28.60000000000002
 20
51.4
 30
0.0
 11
-28.59999999999997
 21
51.4
 31
0.0
  0
LWPOLYLINE
  5
251
330
16E
100
AcDbEntity
  8
AM_4
100
AcDbPolyline
 90
       19
 70
     0
 43
0.0
 10
28.6
 20
51.605
 10
28.59697478498294
 20
51.6742888154844
 10
28.5879221636447
 20
51.74305030124521
 10
28.57291103189981
 20
51.81076114085651
 10
28.55205563352479
 20
51.87690601394391
 10
28.52551469069413
 20
51.94098151808386
 10
28.49349019600862
 20
52.0025
 10
28.45622587520974
 20
52.06099326689909
 10
28.41400533227958
 20
52.1160161497008
 10
28.3671498910433
 20
52.1671498910433
 10
28.31601614970079
 20
52.21400533227958
 10
28.26099326689907
 20
52.25622587520975
 10
28.20249999999999
 20
52.29349019600863
 10
28.14098151808384
 20
52.32551469069413
 10
28.07690601394389
 20
52.3520556335248
 10
28.01076114085649
 20
52.37291103189981
 10
27.9430503012452
 20
52.3879221636447
 10
27.87428881548437
 20
52.39697478498293
 10
27.80499999999999
 20
52.4
  0
LINE
  5
252
330
16E
100
AcDbEntity
  8
AM_4
100
AcDbLine
 10
27.805
 20
52.4
 30
0.0
 11
-27.805
 21
52.40000000000001
 31
0.0
  0
LINE
  5
253
330
16E
100
AcDbEntity
  8
AM_4
100
AcDbLine
 10
69.90000000000002
 20
-16.18461846939865
 30
0.0
 11
60.40000000000002
 21
-16.18461846939865
 31
0.0
  0
LINE
  5
254
330
16E
100
AcDbEntity
  8
AM_4
100
AcDbLine
 10
69.90000000000002
 20
16.18461846939865
 30
0.0
 11
60.40000000000001
 21
16.18461846939865
 31
0.0
  0
ENDBLK
  5
171
330
16E
100
AcDbEntity
  8
0
100
AcDbBlockEnd
  0
ENDSEC
  0
SECTION
  2
ENTITIES
  0
INSERT
  5
6F
330
1F
100
AcDbEntity
  8
0
100
AcDbBlockReference
  2
1_136249_0
 10
0.0
 20
0.0
 30
0.0
  0
POINT
  5
256
330
1F
100
AcDbEntity
  8
ConnectionPoints
100
AcDbPoint
 10
0.0
 20
0.0
 30
0.0
  0
POINT
  5
257
330
1F
100
AcDbEntity
  8
ConnectionPoints
100
AcDbPoint
 10
0.0
 20
0.0
 30
0.0
  0
POINT
  5
258
330
1F
100
AcDbEntity
  8
ConnectionPoints
100
AcDbPoint
 10
0.0
 20
0.0
 30
-13.5
  0
POINT
  5
259
330
1F
100
AcDbEntity
  8
ConnectionPoints
100
AcDbPoint
 10
0.0
 20
0.0
 30
0.0
  0
POINT
  5
25A
330
1F
100
AcDbEntity
  8
ConnectionPoints
100
AcDbPoint
 10
0.0
 20
0.0
 30
0.0
  0
POINT
  5
25B
330
1F
100
AcDbEntity
  8
ConnectionPoints
100
AcDbPoint
 10
-37.41229744348774
 20
-21.59999999999999
 30
0.0
  0
POINT
  5
25C
330
1F
100
AcDbEntity
  8
ConnectionPoints
100
AcDbPoint
 10
0.0
 20
0.0
 30
13.5
  0
ENDSEC
  0
SECTION
  2
OBJECTS
  0
DICTIONARY
  5
C
330
0
100
AcDbDictionary
281
     1
  3
ACAD_DETAILVIEWSTYLE
350
264
  3
ACAD_GROUP
350
D
  3
ACAD_LAYOUT
350
1A
  3
ACAD_MATERIAL
350
43
  3
ACAD_MLEADERSTYLE
350
6B
  3
ACAD_MLINESTYLE
350
17
  3
ACAD_PLOTSETTINGS
350
19
  3
ACAD_PLOTSTYLENAME
350
E
  3
ACAD_SCALELIST
350
47
  3
ACAD_SECTIONVIEWSTYLE
350
265
  3
ACAD_TABLESTYLE
350
69
  3
ACAD_VISUALSTYLE
350
2A
  3
ACDB_RECOMPOSE_DATA
350
261
  3
AcDbVariableDictionary
350
25D
  0
SUN
  5
6D
330
29
100
AcDbSun
 90
        1
290
     0
 63
     7
421
 16777215
 40
1.0
291
     1
 91
  2455826
 92
 54000000
292
     0
 70
     2
 71
   256
280
     1
  0
DICTIONARY
  5
264
102
{ACAD_REACTORS
330
C
102
}
330
C
100
AcDbDictionary
281
     1
  0
DICTIONARY
  5
D
102
{ACAD_REACTORS
330
C
102
}
330
C
100
AcDbDictionary
281
     1
  0
DICTIONARY
  5
1A
102
{ACAD_REACTORS
330
C
102
}
330
C
100
AcDbDictionary
281
     1
  3
Layout1
350
1E
  3
Layout2
350
26
  3
Model
350
22
  0
DICTIONARY
  5
43
102
{ACAD_REACTORS
330
C
102
}
330
C
100
AcDbDictionary
281
     1
  3
ByBlock
350
45
  3
ByLayer
350
44
  3
Global
350
46
  0
DICTIONARY
  5
6B
102
{ACAD_REACTORS
330
C
102
}
330
C
100
AcDbDictionary
281
     1
  3
Standard
350
6C
  0
DICTIONARY
  5
17
102
{ACAD_REACTORS
330
C
102
}
330
C
100
AcDbDictionary
281
     1
  3
Standard
350
18
  0
DICTIONARY
  5
19
102
{ACAD_REACTORS
330
C
102
}
330
C
100
AcDbDictionary
281
     1
  0
ACDBDICTIONARYWDFLT
  5
E
102
{ACAD_REACTORS
330
C
102
}
330
C
100
AcDbDictionary
281
     1
  3
Normal
350
F
100
AcDbDictionaryWithDefault
340
F
  0
DICTIONARY
  5
47
102
{ACAD_REACTORS
330
C
102
}
330
C
100
AcDbDictionary
281
     1
  3
A0
350
48
  3
A1
350
49
  3
A2
350
4A
  3
A3
350
4B
  3
A4
350
4C
  3
A5
350
4D
  3
A6
350
4E
  3
A7
350
4F
  3
A8
350
50
  3
A9
350
51
  3
B0
350
52
  3
B1
350
53
  3
B2
350
54
  3
B3
350
55
  3
B4
350
56
  3
B5
350
57
  3
B6
350
58
  3
B7
350
59
  3
B8
350
5A
  3
B9
350
5B
  3
C0
350
5C
  3
C1
350
5D
  3
C2
350
5E
  3
C3
350
5F
  3
C4
350
60
  3
C5
350
61
  3
C6
350
62
  3
C7
350
63
  3
C8
350
64
  3
C9
350
65
  3
D0
350
66
  3
D1
350
67
  3
D2
350
68
  0
DICTIONARY
  5
265
102
{ACAD_REACTORS
330
C
102
}
330
C
100
AcDbDictionary
281
     1
  0
DICTIONARY
  5
69
102
{ACAD_REACTORS
330
C
102
}
330
C
100
AcDbDictionary
281
     1
  3
Standard
350
6A
  0
DICTIONARY
  5
2A
102
{ACAD_REACTORS
330
C
102
}
330
C
100
AcDbDictionary
281
     1
  3
2dWireframe
350
2F
  3
Basic
350
32
  3
Brighten
350
36
  3
ColorChange
350
3A
  3
Conceptual
350
34
  3
Dim
350
35
  3
EdgeColorOff
350
3D
  3
Facepattern
350
39
  3
Flat
350
2B
  3
FlatWithEdges
350
2C
  3
Gouraud
350
2D
  3
GouraudWithEdges
350
2E
  3
Hidden
350
31
  3
JitterOff
350
3B
  3
Linepattern
350
38
  3
OverhangOff
350
3C
  3
Realistic
350
33
  3
Shaded
350
42
  3
Shaded with edges
350
41
  3
Shades of Gray
350
3E
  3
Sketchy
350
3F
  3
Thicken
350
37
  3
Wireframe
350
30
  3
X-Ray
350
40
  0
XRECORD
  5
261
102
{ACAD_REACTORS
330
C
102
}
330
C
100
AcDbXrecord
280
     1
 90
        1
330
6A
  0
DICTIONARY
  5
25D
102
{ACAD_REACTORS
330
C
102
}
330
C
100
AcDbDictionary
281
     1
  3
CANNOSCALE
350
25E
  3
CMLEADERSTYLE
350
263
  3
CTABLESTYLE
350
262
  0
LAYOUT
  5
1E
102
{ACAD_REACTORS
330
1A
102
}
330
1A
100
AcDbPlotSettings
  1

  2
none_device
  4

  6

 40
0.0
 41
0.0
 42
0.0
 43
0.0
 44
0.0
 45
0.0
 46
0.0
 47
0.0
 48
0.0
 49
0.0
140
0.0
141
0.0
142
1.0
143
1.0
 70
   688
 72
     1
 73
     0
 74
     5
  7

 75
    16
 76
     0
 77
     2
 78
   300
147
1.0
148
0.0
149
0.0
100
AcDbLayout
  1
Layout1
 70
     1
 71
     1
 10
0.0
 20
0.0
 11
420.0
 21
297.0
 12
0.0
 22
0.0
 32
0.0
 14
1.000000000000000E+20
 24
1.000000000000000E+20
 34
1.000000000000000E+20
 15
-1.000000000000000E+20
 25
-1.000000000000000E+20
 35
-1.000000000000000E+20
146
0.0
 13
0.0
 23
0.0
 33
0.0
 16
1.0
 26
0.0
 36
0.0
 17
0.0
 27
1.0
 37
0.0
 76
     0
330
1B
  0
LAYOUT
  5
26
102
{ACAD_REACTORS
330
1A
102
}
330
1A
100
AcDbPlotSettings
  1

  2
none_device
  4

  6

 40
0.0
 41
0.0
 42
0.0
 43
0.0
 44
0.0
 45
0.0
 46
0.0
 47
0.0
 48
0.0
 49
0.0
140
0.0
141
0.0
142
1.0
143
1.0
 70
   688
 72
     1
 73
     0
 74
     5
  7

 75
    16
 76
     0
 77
     2
 78
   300
147
1.0
148
0.0
149
0.0
100
AcDbLayout
  1
Layout2
 70
     1
 71
     2
 10
0.0
 20
0.0
 11
0.0
 21
0.0
 12
0.0
 22
0.0
 32
0.0
 14
0.0
 24
0.0
 34
0.0
 15
0.0
 25
0.0
 35
0.0
146
0.0
 13
0.0
 23
0.0
 33
0.0
 16
1.0
 26
0.0
 36
0.0
 17
0.0
 27
1.0
 37
0.0
 76
     0
330
23
  0
LAYOUT
  5
22
102
{ACAD_REACTORS
330
1A
102
}
330
1A
100
AcDbPlotSettings
  1

  2
none_device
  4
Letter_(8.50_x_11.00_Inches)
  6

 40
6.35
 41
6.35
 42
6.35000508
 43
6.35000508
 44
215.9
 45
279.4
 46
0.0
 47
0.0
 48
0.0
 49
0.0
140
0.0
141
0.0
142
1.0
143
1.0
 70
  1712
 72
     1
 73
     0
 74
     0
  7

 75
     0
 76
     0
 77
     2
 78
   300
147
1.0
148
0.0
149
0.0
100
AcDbLayout
  1
Model
 70
     1
 71
     0
 10
0.0
 20
0.0
 11
420.0
 21
297.0
 12
0.0
 22
0.0
 32
0.0
 14
1.000000000000000E+20
 24
1.000000000000000E+20
 34
1.000000000000000E+20
 15
-1.000000000000000E+20
 25
-1.000000000000000E+20
 35
-1.000000000000000E+20
146
0.0
 13
0.0
 23
0.0
 33
0.0
 16
1.0
 26
0.0
 36
0.0
 17
0.0
 27
1.0
 37
0.0
 76
     0
330
1F
331
29
  0
MATERIAL
  5
45
102
{ACAD_REACTORS
330
43
102
}
330
43
100
AcDbMaterial
  1
ByBlock
 72
     1
 94
      127
  0
MATERIAL
  5
44
102
{ACAD_REACTORS
330
43
102
}
330
43
100
AcDbMaterial
  1
ByLayer
 72
     1
 94
      127
  0
MATERIAL
  5
46
102
{ACAD_REACTORS
330
43
102
}
330
43
100
AcDbMaterial
  1
Global
 72
     1
 94
      127
  0
MLEADERSTYLE
  5
6C
102
{ACAD_REACTORS
330
6B
102
}
330
6B
100
AcDbMLeaderStyle
179
     2
170
     2
171
     1
172
     0
 90
        2
 40
0.0
 41
0.0
173
     1
 91
-1056964608
340
14
 92
       -2
290
     1
 42
2.0
291
     1
 43
8.0
  3
Standard
341
0
 44
4.0
300

342
11
174
     1
178
     6
175
     1
176
     0
 93
-1056964608
 45
4.0
292
     0
297
     0
 46
4.0
343
0
 94
-1056964608
 47
1.0
 49
1.0
140
1.0
293
     1
141
0.0
294
     1
177
     0
142
1.0
295
     0
296
     0
143
3.75
271
     0
272
     9
273
     9
298
     0
  0
MLINESTYLE
  5
18
102
{ACAD_REACTORS
330
17
102
}
330
17
100
AcDbMlineStyle
  2
Standard
 70
     0
  3

 62
   256
 51
90.0
 52
90.0
 71
     2
 49
0.5
 62
   256
  6
BYLAYER
 49
-0.5
 62
   256
  6
BYLAYER
  0
ACDBPLACEHOLDER
  5
F
102
{ACAD_REACTORS
330
E
102
}
330
E
  0
SCALE
  5
48
102
{ACAD_REACTORS
330
47
102
}
330
47
100
AcDbScale
 70
     0
300
1:1
140
1.0
141
1.0
290
     1
  0
SCALE
  5
49
102
{ACAD_REACTORS
330
47
102
}
330
47
100
AcDbScale
 70
     0
300
1:2
140
1.0
141
2.0
290
     0
  0
SCALE
  5
4A
102
{ACAD_REACTORS
330
47
102
}
330
47
100
AcDbScale
 70
     0
300
1:4
140
1.0
141
4.0
290
     0
  0
SCALE
  5
4B
102
{ACAD_REACTORS
330
47
102
}
330
47
100
AcDbScale
 70
     0
300
1:5
140
1.0
141
5.0
290
     0
  0
SCALE
  5
4C
102
{ACAD_REACTORS
330
47
102
}
330
47
100
AcDbScale
 70
     0
300
1:8
140
1.0
141
8.0
290
     0
  0
SCALE
  5
4D
102
{ACAD_REACTORS
330
47
102
}
330
47
100
AcDbScale
 70
     0
300
1:10
140
1.0
141
10.0
290
     0
  0
SCALE
  5
4E
102
{ACAD_REACTORS
330
47
102
}
330
47
100
AcDbScale
 70
     0
300
1:16
140
1.0
141
16.0
290
     0
  0
SCALE
  5
4F
102
{ACAD_REACTORS
330
47
102
}
330
47
100
AcDbScale
 70
     0
300
1:20
140
1.0
141
20.0
290
     0
  0
SCALE
  5
50
102
{ACAD_REACTORS
330
47
102
}
330
47
100
AcDbScale
 70
     0
300
1:30
140
1.0
141
30.0
290
     0
  0
SCALE
  5
51
102
{ACAD_REACTORS
330
47
102
}
330
47
100
AcDbScale
 70
     0
300
1:40
140
1.0
141
40.0
290
     0
  0
SCALE
  5
52
102
{ACAD_REACTORS
330
47
102
}
330
47
100
AcDbScale
 70
     0
300
1:50
140
1.0
141
50.0
290
     0
  0
SCALE
  5
53
102
{ACAD_REACTORS
330
47
102
}
330
47
100
AcDbScale
 70
     0
300
1:100
140
1.0
141
100.0
290
     0
  0
SCALE
  5
54
102
{ACAD_REACTORS
330
47
102
}
330
47
100
AcDbScale
 70
     0
300
2:1
140
2.0
141
1.0
290
     0
  0
SCALE
  5
55
102
{ACAD_REACTORS
330
47
102
}
330
47
100
AcDbScale
 70
     0
300
4:1
140
4.0
141
1.0
290
     0
  0
SCALE
  5
56
102
{ACAD_REACTORS
330
47
102
}
330
47
100
AcDbScale
 70
     0
300
8:1
140
8.0
141
1.0
290
     0
  0
SCALE
  5
57
102
{ACAD_REACTORS
330
47
102
}
330
47
100
AcDbScale
 70
     0
300
10:1
140
10.0
141
1.0
290
     0
  0
SCALE
  5
58
102
{ACAD_REACTORS
330
47
102
}
330
47
100
AcDbScale
 70
     0
300
100:1
140
100.0
141
1.0
290
     0
  0
SCALE
  5
59
102
{ACAD_REACTORS
330
47
102
}
330
47
100
AcDbScale
 70
     0
300
1/128" = 1'-0"
140
0.0078125
141
12.0
290
     0
  0
SCALE
  5
5A
102
{ACAD_REACTORS
330
47
102
}
330
47
100
AcDbScale
 70
     0
300
1/64" = 1'-0"
140
0.015625
141
12.0
290
     0
  0
SCALE
  5
5B
102
{ACAD_REACTORS
330
47
102
}
330
47
100
AcDbScale
 70
     0
300
1/32" = 1'-0"
140
0.03125
141
12.0
290
     0
  0
SCALE
  5
5C
102
{ACAD_REACTORS
330
47
102
}
330
47
100
AcDbScale
 70
     0
300
1/16" = 1'-0"
140
0.0625
141
12.0
290
     0
  0
SCALE
  5
5D
102
{ACAD_REACTORS
330
47
102
}
330
47
100
AcDbScale
 70
     0
300
3/32" = 1'-0"
140
0.09375
141
12.0
290
     0
  0
SCALE
  5
5E
102
{ACAD_REACTORS
330
47
102
}
330
47
100
AcDbScale
 70
     0
300
1/8" = 1'-0"
140
0.125
141
12.0
290
     0
  0
SCALE
  5
5F
102
{ACAD_REACTORS
330
47
102
}
330
47
100
AcDbScale
 70
     0
300
3/16" = 1'-0"
140
0.1875
141
12.0
290
     0
  0
SCALE
  5
60
102
{ACAD_REACTORS
330
47
102
}
330
47
100
AcDbScale
 70
     0
300
1/4" = 1'-0"
140
0.25
141
12.0
290
     0
  0
SCALE
  5
61
102
{ACAD_REACTORS
330
47
102
}
330
47
100
AcDbScale
 70
     0
300
3/8" = 1'-0"
140
0.375
141
12.0
290
     0
  0
SCALE
  5
62
102
{ACAD_REACTORS
330
47
102
}
330
47
100
AcDbScale
 70
     0
300
1/2" = 1'-0"
140
0.5
141
12.0
290
     0
  0
SCALE
  5
63
102
{ACAD_REACTORS
330
47
102
}
330
47
100
AcDbScale
 70
     0
300
3/4" = 1'-0"
140
0.75
141
12.0
290
     0
  0
SCALE
  5
64
102
{ACAD_REACTORS
330
47
102
}
330
47
100
AcDbScale
 70
     0
300
1" = 1'-0"
140
1.0
141
12.0
290
     0
  0
SCALE
  5
65
102
{ACAD_REACTORS
330
47
102
}
330
47
100
AcDbScale
 70
     0
300
1-1/2" = 1'-0"
140
1.5
141
12.0
290
     0
  0
SCALE
  5
66
102
{ACAD_REACTORS
330
47
102
}
330
47
100
AcDbScale
 70
     0
300
3" = 1'-0"
140
3.0
141
12.0
290
     0
  0
SCALE
  5
67
102
{ACAD_REACTORS
330
47
102
}
330
47
100
AcDbScale
 70
     0
300
6" = 1'-0"
140
6.0
141
12.0
290
     0
  0
SCALE
  5
68
102
{ACAD_REACTORS
330
47
102
}
330
47
100
AcDbScale
 70
     0
300
1'-0" = 1'-0"
140
12.0
141
12.0
290
     0
  0
TABLESTYLE
  5
6A
102
{ACAD_REACTORS
330
69
102
}
102
{ACAD_XDICTIONARY
360
25F
102
}
330
69
100
AcDbTableStyle
  3
Standard
 70
     0
 71
     0
 40
0.06
 41
0.06
280
     0
281
     0
  7
Standard
140
4.5
170
     2
 62
     0
 63
   257
283
     0
 90
        4
 91
        0
  1

274
    -2
284
     1
 64
     0
275
    -2
285
     1
 65
     0
276
    -2
286
     1
 66
     0
277
    -2
287
     1
 67
     0
278
    -2
288
     1
 68
     0
279
    -2
289
     1
 69
     0
  7
Standard
140
6.0
170
     5
 62
     0
 63
   257
283
     0
 90
        4
 91
        0
  1

274
    -2
284
     1
 64
     0
275
    -2
285
     1
 65
     0
276
    -2
286
     1
 66
     0
277
    -2
287
     1
 67
     0
278
    -2
288
     1
 68
     0
279
    -2
289
     1
 69
     0
  7
Standard
140
4.5
170
     5
 62
     0
 63
   257
283
     0
 90
        4
 91
        0
  1

274
    -2
284
     1
 64
     0
275
    -2
285
     1
 65
     0
276
    -2
286
     1
 66
     0
277
    -2
287
     1
 67
     0
278
    -2
288
     1
 68
     0
279
    -2
289
     1
 69
     0
  0
VISUALSTYLE
  5
2F
102
{ACAD_REACTORS
330
2A
102
}
330
2A
100
AcDbVisualStyle
  2
2dWireframe
 70
     4
177
     3
291
     0
 70
    58
 90
        0
176
     1
 90
        2
176
     1
 90
        0
176
     1
 90
        0
176
     1
 40
0.6
176
     1
 40
30.0
176
     1
 62
     7
420
 16777215
176
     1
 90
        1
176
     1
 90
        4
176
     1
 62
     7
176
     1
 62
   257
176
     1
 90
        1
176
     1
 90
        1
176
     1
 40
1.0
176
     1
 90
        0
176
     1
 62
   257
176
     1
 40
1.0
176
     1
 90
        1
176
     1
 90
        6
176
     1
 90
        2
176
     1
 62
     7
176
     1
 90
        5
176
     1
 90
        0
176
     1
 90
        0
176
     1
290
     0
176
     1
 90
        1
176
     1
 40
0.0
176
     1
 90
        0
176
     1
290
     1
176
     1
290
     1
176
     1
290
     0
176
     1
290
     0
176
     1
290
     0
176
     1
290
     0
176
     1
290
     0
176
     1
290
     0
176
     1
290
     0
176
     1
 90
       50
176
     1
 40
0.0
176
     1
 40
1.0
176
     1
 90
        0
176
     1
 62
    18
420
        0
176
     1
 90
       50
176
     1
 90
        3
176
     1
 62
     5
420
      255
176
     1
290
     0
176
     1
 90
       50
176
     1
 90
       50
176
     1
 90
       50
176
     1
290
     0
176
     1
 90
       50
176
     1
 62
   256
176
     0
 40
1.0
176
     0
 90
        2
176
     1
  1
strokes_ogs.tif
176
     1
290
     0
176
     1
 40
1.0
176
     1
 40
1.0
176
     1
  0
VISUALSTYLE
  5
32
102
{ACAD_REACTORS
330
2A
102
}
330
2A
100
AcDbVisualStyle
  2
Basic
 70
     7
177
     3
291
     1
 70
    58
 90
        1
176
     1
 90
        0
176
     1
 90
        1
176
     1
 90
        0
176
     1
 40
0.6
176
     1
 40
30.0
176
     1
 62
     7
420
 16777215
176
     1
 90
        0
176
     1
 90
        4
176
     1
 62
     7
176
     1
 62
   257
176
     1
 90
        1
176
     1
 90
        1
176
     1
 40
1.0
176
     1
 90
        8
176
     1
 62
     7
176
     1
 40
1.0
176
     1
 90
        1
176
     1
 90
        6
176
     1
 90
        2
176
     1
 62
     7
176
     1
 90
        5
176
     1
 90
        0
176
     1
 90
        0
176
     1
290
     0
176
     1
 90
        1
176
     1
 40
0.0
176
     1
 90
        0
176
     1
290
     0
176
     1
290
     1
176
     1
290
     1
176
     1
290
     0
176
     1
290
     0
176
     1
290
     0
176
     1
290
     0
176
     1
290
     0
176
     1
290
     0
176
     1
 90
       50
176
     1
 40
0.0
176
     1
 40
1.0
176
     1
 90
        0
176
     1
 62
    18
420
        0
176
     1
 90
       50
176
     1
 90
        3
176
     1
 62
     5
420
      255
176
     1
290
     0
176
     1
 90
       50
176
     1
 90
       50
176
     1
 90
       50
176
     1
290
     0
176
     1
 90
       50
176
     1
 62
   256
176
     0
 40
1.0
176
     0
 90
        2
176
     1
  1
strokes_ogs.tif
176
     1
290
     0
176
     1
 40
1.0
176
     1
 40
1.0
176
     1
  0
VISUALSTYLE
  5
36
102
{ACAD_REACTORS
330
2A
102
}
330
2A
100
AcDbVisualStyle
  2
Brighten
 70
    12
177
     3
291
     1
 70
    58
 90
        2
176
     1
 90
        2
176
     1
 90
        0
176
     1
 90
        0
176
     1
 40
0.6
176
     1
 40
30.0
176
     1
 62
     7
420
 16777215
176
     1
 90
        1
176
     1
 90
        4
176
     1
 62
     7
176
     1
 62
   257
176
     1
 90
        1
176
     1
 90
        1
176
     1
 40
1.0
176
     1
 90
        8
176
     1
 62
     7
176
     1
 40
1.0
176
     1
 90
        1
176
     1
 90
        6
176
     1
 90
        2
176
     1
 62
     7
176
     1
 90
        5
176
     1
 90
        0
176
     1
 90
        0
176
     1
290
     0
176
     1
 90
        1
176
     1
 40
50.0
176
     1
 90
        0
176
     1
290
     0
176
     1
290
     1
176
     1
290
     1
176
     1
290
     0
176
     1
290
     0
176
     1
290
     0
176
     1
290
     0
176
     1
290
     0
176
     1
290
     0
176
     1
 90
       50
176
     1
 40
0.0
176
     1
 40
1.0
176
     1
 90
        0
176
     1
 62
    18
420
        0
176
     1
 90
       50
176
     1
 90
        3
176
     1
 62
     5
420
      255
176
     1
290
     0
176
     1
 90
       50
176
     1
 90
       50
176
     1
 90
       50
176
     1
290
     0
176
     1
 90
       50
176
     1
 62
   256
176
     0
 40
1.0
176
     0
 90
        2
176
     1
  1
strokes_ogs.tif
176
     1
290
     0
176
     1
 40
1.0
176
     1
 40
1.0
176
     1
  0
VISUALSTYLE
  5
3A
102
{ACAD_REACTORS
330
2A
102
}
330
2A
100
AcDbVisualStyle
  2
ColorChange
 70
    16
177
     3
291
     1
 70
    58
 90
        2
176
     1
 90
        2
176
     1
 90
        3
176
     1
 90
        0
176
     1
 40
0.6
176
     1
 40
30.0
176
     1
 62
     8
420
  8421504
176
     1
 90
        1
176
     1
 90
        4
176
     1
 62
     7
176
     1
 62
   257
176
     1
 90
        1
176
     1
 90
        1
176
     1
 40
1.0
176
     1
 90
        8
176
     1
 62
     8
420
  8421504
176
     1
 40
1.0
176
     1
 90
        1
176
     1
 90
        6
176
     1
 90
        2
176
     1
 62
     7
176
     1
 90
        5
176
     1
 90
        0
176
     1
 90
        0
176
     1
290
     0
176
     1
 90
        1
176
     1
 40
0.0
176
     1
 90
        0
176
     1
290
     0
176
     1
290
     1
176
     1
290
     1
176
     1
290
     0
176
     1
290
     0
176
     1
290
     0
176
     1
290
     0
176
     1
290
     0
176
     1
290
     0
176
     1
 90
       50
176
     1
 40
0.0
176
     1
 40
1.0
176
     1
 90
        0
176
     1
 62
    18
420
        0
176
     1
 90
       50
176
     1
 90
        3
176
     1
 62
     5
420
      255
176
     1
290
     0
176
     1
 90
       50
176
     1
 90
       50
176
     1
 90
       50
176
     1
290
     0
176
     1
 90
       50
176
     1
 62
   256
176
     0
 40
1.0
176
     0
 90
        2
176
     1
  1
strokes_ogs.tif
176
     1
290
     0
176
     1
 40
1.0
176
     1
 40
1.0
176
     1
  0
VISUALSTYLE
  5
34
102
{ACAD_REACTORS
330
2A
102
}
330
2A
100
AcDbVisualStyle
  2
Conceptual
 70
     9
177
     3
291
     0
 70
    58
 90
        3
176
     1
 90
        2
176
     1
 90
        0
176
     1
 90
        0
176
     1
 40
0.6
176
     1
 40
30.0
176
     1
 62
     7
420
 16777215
176
     1
 90
        2
176
     1
 90
        2
176
     1
 62
     7
176
     1
 62
   257
176
     1
 90
        1
176
     1
 90
        1
176
     1
 40
179.0
176
     1
 90
        8
176
     1
 62
     7
176
     1
 40
1.0
176
     1
 90
        1
176
     1
 90
        6
176
     1
 90
        2
176
     1
 62
     7
176
     1
 90
        3
176
     1
 90
        0
176
     1
 90
        0
176
     1
290
     0
176
     1
 90
        1
176
     1
 40
0.0
176
     1
 90
        0
176
     1
290
     0
176
     1
290
     1
176
     1
290
     1
176
     1
290
     0
176
     1
290
     0
176
     1
290
     0
176
     1
290
     0
176
     1
290
     0
176
     1
290
     0
176
     1
 90
       50
176
     1
 40
0.0
176
     1
 40
1.0
176
     1
 90
        0
176
     1
 62
    18
420
        0
176
     1
 90
       50
176
     1
 90
        3
176
     1
 62
     5
420
      255
176
     1
290
     0
176
     1
 90
       50
176
     1
 90
       50
176
     1
 90
       50
176
     1
290
     0
176
     1
 90
       50
176
     1
 62
   256
176
     0
 40
1.0
176
     0
 90
        2
176
     1
  1
strokes_ogs.tif
176
     1
290
     0
176
     1
 40
1.0
176
     1
 40
1.0
176
     1
  0
VISUALSTYLE
  5
35
102
{ACAD_REACTORS
330
2A
102
}
330
2A
100
AcDbVisualStyle
  2
Dim
 70
    11
177
     3
291
     1
 70
    58
 90
        2
176
     1
 90
        2
176
     1
 90
        0
176
     1
 90
        0
176
     1
 40
0.6
176
     1
 40
30.0
176
     1
 62
     7
420
 16777215
176
     1
 90
        1
176
     1
 90
        4
176
     1
 62
     7
176
     1
 62
   257
176
     1
 90
        1
176
     1
 90
        1
176
     1
 40
1.0
176
     1
 90
        8
176
     1
 62
     7
176
     1
 40
1.0
176
     1
 90
        1
176
     1
 90
        6
176
     1
 90
        2
176
     1
 62
     7
176
     1
 90
        5
176
     1
 90
        0
176
     1
 90
        0
176
     1
290
     0
176
     1
 90
        1
176
     1
 40
-50.0
176
     1
 90
        0
176
     1
290
     0
176
     1
290
     1
176
     1
290
     1
176
     1
290
     0
176
     1
290
     0
176
     1
290
     0
176
     1
290
     0
176
     1
290
     0
176
     1
290
     0
176
     1
 90
       50
176
     1
 40
0.0
176
     1
 40
1.0
176
     1
 90
        0
176
     1
 62
    18
420
        0
176
     1
 90
       50
176
     1
 90
        3
176
     1
 62
     5
420
      255
176
     1
290
     0
176
     1
 90
       50
176
     1
 90
       50
176
     1
 90
       50
176
     1
290
     0
176
     1
 90
       50
176
     1
 62
   256
176
     0
 40
1.0
176
     0
 90
        2
176
     1
  1
strokes_ogs.tif
176
     1
290
     0
176
     1
 40
1.0
176
     1
 40
1.0
176
     1
  0
VISUALSTYLE
  5
3D
102
{ACAD_REACTORS
330
2A
102
}
330
2A
100
AcDbVisualStyle
  2
EdgeColorOff
 70
    22
177
     3
291
     1
 70
    58
 90
        2
176
     0
 90
        2
176
     0
 90
        0
176
     0
 90
        0
176
     0
 40
0.6
176
     0
 40
30.0
176
     0
 62
     7
420
 16777215
176
     0
 90
        1
176
     0
 90
        4
176
     0
 62
     7
176
     0
 62
   257
176
     0
 90
        1
176
     0
 90
        1
176
     0
 40
1.0
176
     0
 90
        8
176
     2
 62
     7
176
     0
 40
1.0
176
     0
 90
        1
176
     0
 90
        6
176
     0
 90
        2
176
     0
 62
     7
176
     0
 90
        5
176
     0
 90
        0
176
     0
 90
        0
176
     0
290
     0
176
     0
 90
        1
176
     0
 40
0.0
176
     0
 90
        0
176
     0
290
     0
176
     0
290
     1
176
     0
290
     1
176
     0
290
     0
176
     0
290
     0
176
     0
290
     0
176
     0
290
     0
176
     0
290
     0
176
     0
290
     0
176
     0
 90
       50
176
     0
 40
0.0
176
     0
 40
1.0
176
     0
 90
        0
176
     0
 62
    18
420
        0
176
     0
 90
       50
176
     0
 90
        3
176
     0
 62
     5
420
      255
176
     0
290
     0
176
     0
 90
       50
176
     0
 90
       50
176
     0
 90
       50
176
     0
290
     0
176
     0
 90
       50
176
     0
 62
   256
176
     0
 40
1.0
176
     0
 90
        2
176
     0
  1
strokes_ogs.tif
176
     0
290
     0
176
     0
 40
1.0
176
     0
 40
1.0
176
     0
  0
VISUALSTYLE
  5
39
102
{ACAD_REACTORS
330
2A
102
}
330
2A
100
AcDbVisualStyle
  2
Facepattern
 70
    15
177
     3
291
     1
 70
    58
 90
        2
176
     1
 90
        2
176
     1
 90
        0
176
     1
 90
        0
176
     1
 40
0.6
176
     1
 40
30.0
176
     1
 62
     7
420
 16777215
176
     1
 90
        1
176
     1
 90
        4
176
     1
 62
     7
176
     1
 62
   257
176
     1
 90
        1
176
     1
 90
        1
176
     1
 40
1.0
176
     1
 90
        8
176
     1
 62
     7
176
     1
 40
1.0
176
     1
 90
        1
176
     1
 90
        6
176
     1
 90
        2
176
     1
 62
     7
176
     1
 90
        5
176
     1
 90
        0
176
     1
 90
        0
176
     1
290
     0
176
     1
 90
        1
176
     1
 40
0.0
176
     1
 90
        0
176
     1
290
     0
176
     1
290
     1
176
     1
290
     1
176
     1
290
     0
176
     1
290
     0
176
     1
290
     0
176
     1
290
     0
176
     1
290
     0
176
     1
290
     0
176
     1
 90
       50
176
     1
 40
0.0
176
     1
 40
1.0
176
     1
 90
        0
176
     1
 62
    18
420
        0
176
     1
 90
       50
176
     1
 90
        3
176
     1
 62
     5
420
      255
176
     1
290
     0
176
     1
 90
       50
176
     1
 90
       50
176
     1
 90
       50
176
     1
290
     0
176
     1
 90
       50
176
     1
 62
   256
176
     0
 40
1.0
176
     0
 90
        2
176
     1
  1
strokes_ogs.tif
176
     1
290
     0
176
     1
 40
1.0
176
     1
 40
1.0
176
     1
  0
VISUALSTYLE
  5
2B
102
{ACAD_REACTORS
330
2A
102
}
330
2A
100
AcDbVisualStyle
  2
Flat
 70
     0
177
     3
291
     1
 70
    58
 90
        2
176
     1
 90
        1
176
     1
 90
        1
176
     1
 90
        2
176
     1
 40
0.6
176
     1
 40
30.0
176
     1
 62
     7
420
 16777215
176
     1
 90
        0
176
     1
 90
        0
176
     1
 62
     7
176
     1
 62
   257
176
     1
 90
        1
176
     1
 90
        1
176
     1
 40
1.0
176
     1
 90
        8
176
     1
 62
     7
176
     1
 40
1.0
176
     1
 90
        1
176
     1
 90
        6
176
     1
 90
        2
176
     1
 62
     7
176
     1
 90
        5
176
     1
 90
        0
176
     1
 90
        0
176
     1
290
     0
176
     1
 90
       13
176
     1
 40
0.0
176
     1
 90
        0
176
     1
290
     0
176
     1
290
     1
176
     1
290
     1
176
     1
290
     0
176
     1
290
     0
176
     1
290
     0
176
     1
290
     0
176
     1
290
     0
176
     1
290
     0
176
     1
 90
       50
176
     1
 40
0.0
176
     1
 40
1.0
176
     1
 90
        0
176
     1
 62
    18
420
        0
176
     1
 90
       50
176
     1
 90
        3
176
     1
 62
     5
420
      255
176
     1
290
     0
176
     1
 90
       50
176
     1
 90
       50
176
     1
 90
       50
176
     1
290
     0
176
     1
 90
       50
176
     1
 62
   256
176
     0
 40
1.0
176
     0
 90
        2
176
     1
  1
strokes_ogs.tif
176
     1
290
     0
176
     1
 40
1.0
176
     1
 40
1.0
176
     1
  0
VISUALSTYLE
  5
2C
102
{ACAD_REACTORS
330
2A
102
}
330
2A
100
AcDbVisualStyle
  2
FlatWithEdges
 70
     1
177
     3
291
     1
 70
    58
 90
        2
176
     1
 90
        1
176
     1
 90
        1
176
     1
 90
        2
176
     1
 40
0.6
176
     1
 40
30.0
176
     1
 62
     7
420
 16777215
176
     1
 90
        1
176
     1
 90
        0
176
     1
 62
     7
176
     1
 62
   257
176
     1
 90
        1
176
     1
 90
        1
176
     1
 40
1.0
176
     1
 90
        0
176
     1
 62
   257
176
     1
 40
1.0
176
     1
 90
        1
176
     1
 90
        6
176
     1
 90
        2
176
     1
 62
     7
176
     1
 90
        5
176
     1
 90
        0
176
     1
 90
        0
176
     1
290
     0
176
     1
 90
       13
176
     1
 40
0.0
176
     1
 90
        0
176
     1
290
     0
176
     1
290
     1
176
     1
290
     1
176
     1
290
     0
176
     1
290
     0
176
     1
290
     0
176
     1
290
     0
176
     1
290
     0
176
     1
290
     0
176
     1
 90
       50
176
     1
 40
0.0
176
     1
 40
1.0
176
     1
 90
        0
176
     1
 62
    18
420
        0
176
     1
 90
       50
176
     1
 90
        3
176
     1
 62
     5
420
      255
176
     1
290
     0
176
     1
 90
       50
176
     1
 90
       50
176
     1
 90
       50
176
     1
290
     0
176
     1
 90
       50
176
     1
 62
   256
176
     0
 40
1.0
176
     0
 90
        2
176
     1
  1
strokes_ogs.tif
176
     1
290
     0
176
     1
 40
1.0
176
     1
 40
1.0
176
     1
  0
VISUALSTYLE
  5
2D
102
{ACAD_REACTORS
330
2A
102
}
330
2A
100
AcDbVisualStyle
  2
Gouraud
 70
     2
177
     3
291
     1
 70
    58
 90
        2
176
     1
 90
        2
176
     1
 90
        1
176
     1
 90
        2
176
     1
 40
0.6
176
     1
 40
30.0
176
     1
 62
     7
420
 16777215
176
     1
 90
        0
176
     1
 90
        0
176
     1
 62
     7
176
     1
 62
   257
176
     1
 90
        1
176
     1
 90
        1
176
     1
 40
1.0
176
     1
 90
        0
176
     1
 62
     7
176
     1
 40
1.0
176
     1
 90
        1
176
     1
 90
        6
176
     1
 90
        2
176
     1
 62
     7
176
     1
 90
        5
176
     1
 90
        0
176
     1
 90
        0
176
     1
290
     0
176
     1
 90
       13
176
     1
 40
0.0
176
     1
 90
        0
176
     1
290
     0
176
     1
290
     1
176
     1
290
     1
176
     1
290
     0
176
     1
290
     0
176
     1
290
     0
176
     1
290
     0
176
     1
290
     0
176
     1
290
     0
176
     1
 90
       50
176
     1
 40
0.0
176
     1
 40
1.0
176
     1
 90
        0
176
     1
 62
    18
420
        0
176
     1
 90
       50
176
     1
 90
        3
176
     1
 62
     5
420
      255
176
     1
290
     0
176
     1
 90
       50
176
     1
 90
       50
176
     1
 90
       50
176
     1
290
     0
176
     1
 90
       50
176
     1
 62
   256
176
     0
 40
1.0
176
     0
 90
        2
176
     1
  1
strokes_ogs.tif
176
     1
290
     0
176
     1
 40
1.0
176
     1
 40
1.0
176
     1
  0
VISUALSTYLE
  5
2E
102
{ACAD_REACTORS
330
2A
102
}
330
2A
100
AcDbVisualStyle
  2
GouraudWithEdges
 70
     3
177
     3
291
     1
 70
    58
 90
        2
176
     1
 90
        2
176
     1
 90
        1
176
     1
 90
        2
176
     1
 40
0.6
176
     1
 40
30.0
176
     1
 62
     7
420
 16777215
176
     1
 90
        1
176
     1
 90
        0
176
     1
 62
     7
176
     1
 62
   257
176
     1
 90
        1
176
     1
 90
        1
176
     1
 40
1.0
176
     1
 90
        0
176
     1
 62
   257
176
     1
 40
1.0
176
     1
 90
        1
176
     1
 90
        6
176
     1
 90
        2
176
     1
 62
     7
176
     1
 90
        5
176
     1
 90
        0
176
     1
 90
        0
176
     1
290
     0
176
     1
 90
       13
176
     1
 40
0.0
176
     1
 90
        0
176
     1
290
     0
176
     1
290
     1
176
     1
290
     1
176
     1
290
     0
176
     1
290
     0
176
     1
290
     0
176
     1
290
     0
176
     1
290
     0
176
     1
290
     0
176
     1
 90
       50
176
     1
 40
0.0
176
     1
 40
1.0
176
     1
 90
        0
176
     1
 62
    18
420
        0
176
     1
 90
       50
176
     1
 90
        3
176
     1
 62
     5
420
      255
176
     1
290
     0
176
     1
 90
       50
176
     1
 90
       50
176
     1
 90
       50
176
     1
290
     0
176
     1
 90
       50
176
     1
 62
   256
176
     0
 40
1.0
176
     0
 90
        2
176
     1
  1
strokes_ogs.tif
176
     1
290
     0
176
     1
 40
1.0
176
     1
 40
1.0
176
     1
  0
VISUALSTYLE
  5
31
102
{ACAD_REACTORS
330
2A
102
}
330
2A
100
AcDbVisualStyle
  2
Hidden
 70
     6
177
     3
291
     0
 70
    58
 90
        1
176
     1
 90
        2
176
     1
 90
        2
176
     1
 90
        0
176
     1
 40
0.6
176
     1
 40
30.0
176
     1
 62
     7
420
 16777215
176
     1
 90
        2
176
     1
 90
        2
176
     1
 62
     7
176
     1
 62
   257
176
     1
 90
        2
176
     1
 90
        1
176
     1
 40
40.0
176
     1
 90
        0
176
     1
 62
   257
176
     1
 40
1.0
176
     1
 90
        1
176
     1
 90
        6
176
     1
 90
        2
176
     1
 62
     7
176
     1
 90
        3
176
     1
 90
        0
176
     1
 90
        0
176
     1
290
     0
176
     1
 90
        1
176
     1
 40
0.0
176
     1
 90
        0
176
     1
290
     0
176
     1
290
     1
176
     1
290
     1
176
     1
290
     0
176
     1
290
     0
176
     1
290
     0
176
     1
290
     0
176
     1
290
     0
176
     1
290
     0
176
     1
 90
       50
176
     1
 40
0.0
176
     1
 40
1.0
176
     1
 90
        0
176
     1
 62
    18
420
        0
176
     1
 90
       50
176
     1
 90
        3
176
     1
 62
     5
420
      255
176
     1
290
     0
176
     1
 90
       50
176
     1
 90
       50
176
     1
 90
       50
176
     1
290
     0
176
     1
 90
       50
176
     1
 62
   256
176
     0
 40
1.0
176
     0
 90
        2
176
     1
  1
strokes_ogs.tif
176
     1
290
     0
176
     1
 40
1.0
176
     1
 40
1.0
176
     1
  0
VISUALSTYLE
  5
3B
102
{ACAD_REACTORS
330
2A
102
}
330
2A
100
AcDbVisualStyle
  2
JitterOff
 70
    20
177
     3
291
     1
 70
    58
 90
        2
176
     0
 90
        2
176
     0
 90
        0
176
     0
 90
        0
176
     0
 40
0.6
176
     0
 40
30.0
176
     0
 62
     7
420
 16777215
176
     0
 90
        1
176
     0
 90
        4
176
     0
 62
     7
176
     0
 62
   257
176
     0
 90
        1
176
     0
 90
        1
176
     0
 40
1.0
176
     0
 90
       10
176
     2
 62
     7
176
     0
 40
1.0
176
     0
 90
        1
176
     0
 90
        6
176
     0
 90
        2
176
     0
 62
     7
176
     0
 90
        5
176
     0
 90
        0
176
     0
 90
        0
176
     0
290
     0
176
     0
 90
        1
176
     0
 40
0.0
176
     0
 90
        0
176
     0
290
     0
176
     0
290
     1
176
     0
290
     1
176
     0
290
     0
176
     0
290
     0
176
     0
290
     0
176
     0
290
     0
176
     0
290
     0
176
     0
290
     0
176
     0
 90
       50
176
     0
 40
0.0
176
     0
 40
1.0
176
     0
 90
        0
176
     0
 62
    18
420
        0
176
     0
 90
       50
176
     0
 90
        3
176
     0
 62
     5
420
      255
176
     0
290
     0
176
     0
 90
       50
176
     0
 90
       50
176
     0
 90
       50
176
     0
290
     0
176
     0
 90
       50
176
     0
 62
   256
176
     0
 40
1.0
176
     0
 90
        2
176
     0
  1
strokes_ogs.tif
176
     0
290
     0
176
     0
 40
1.0
176
     0
 40
1.0
176
     0
  0
VISUALSTYLE
  5
38
102
{ACAD_REACTORS
330
2A
102
}
330
2A
100
AcDbVisualStyle
  2
Linepattern
 70
    14
177
     3
291
     1
 70
    58
 90
        2
176
     1
 90
        2
176
     1
 90
        0
176
     1
 90
        0
176
     1
 40
0.6
176
     1
 40
30.0
176
     1
 62
     7
420
 16777215
176
     1
 90
        1
176
     1
 90
        4
176
     1
 62
     7
176
     1
 62
   257
176
     1
 90
        7
176
     1
 90
        7
176
     1
 40
1.0
176
     1
 90
        8
176
     1
 62
     7
176
     1
 40
1.0
176
     1
 90
        1
176
     1
 90
        6
176
     1
 90
        2
176
     1
 62
     7
176
     1
 90
        5
176
     1
 90
        0
176
     1
 90
        0
176
     1
290
     0
176
     1
 90
        1
176
     1
 40
0.0
176
     1
 90
        0
176
     1
290
     0
176
     1
290
     1
176
     1
290
     1
176
     1
290
     0
176
     1
290
     0
176
     1
290
     0
176
     1
290
     0
176
     1
290
     0
176
     1
290
     0
176
     1
 90
       50
176
     1
 40
0.0
176
     1
 40
1.0
176
     1
 90
        0
176
     1
 62
    18
420
        0
176
     1
 90
       50
176
     1
 90
        3
176
     1
 62
     5
420
      255
176
     1
290
     0
176
     1
 90
       50
176
     1
 90
       50
176
     1
 90
       50
176
     1
290
     0
176
     1
 90
       50
176
     1
 62
   256
176
     0
 40
1.0
176
     0
 90
        2
176
     1
  1
strokes_ogs.tif
176
     1
290
     0
176
     1
 40
1.0
176
     1
 40
1.0
176
     1
  0
VISUALSTYLE
  5
3C
102
{ACAD_REACTORS
330
2A
102
}
330
2A
100
AcDbVisualStyle
  2
OverhangOff
 70
    21
177
     3
291
     1
 70
    58
 90
        2
176
     0
 90
        2
176
     0
 90
        0
176
     0
 90
        0
176
     0
 40
0.6
176
     0
 40
30.0
176
     0
 62
     7
420
 16777215
176
     0
 90
        1
176
     0
 90
        4
176
     0
 62
     7
176
     0
 62
   257
176
     0
 90
        1
176
     0
 90
        1
176
     0
 40
1.0
176
     0
 90
        9
176
     2
 62
     7
176
     0
 40
1.0
176
     0
 90
        1
176
     0
 90
        6
176
     0
 90
        2
176
     0
 62
     7
176
     0
 90
        5
176
     0
 90
        0
176
     0
 90
        0
176
     0
290
     0
176
     0
 90
        1
176
     0
 40
0.0
176
     0
 90
        0
176
     0
290
     0
176
     0
290
     1
176
     0
290
     1
176
     0
290
     0
176
     0
290
     0
176
     0
290
     0
176
     0
290
     0
176
     0
290
     0
176
     0
290
     0
176
     0
 90
       50
176
     0
 40
0.0
176
     0
 40
1.0
176
     0
 90
        0
176
     0
 62
    18
420
        0
176
     0
 90
       50
176
     0
 90
        3
176
     0
 62
     5
420
      255
176
     0
290
     0
176
     0
 90
       50
176
     0
 90
       50
176
     0
 90
       50
176
     0
290
     0
176
     0
 90
       50
176
     0
 62
   256
176
     0
 40
1.0
176
     0
 90
        2
176
     0
  1
strokes_ogs.tif
176
     0
290
     0
176
     0
 40
1.0
176
     0
 40
1.0
176
     0
  0
VISUALSTYLE
  5
33
102
{ACAD_REACTORS
330
2A
102
}
330
2A
100
AcDbVisualStyle
  2
Realistic
 70
     8
177
     3
291
     0
 70
    58
 90
        2
176
     1
 90
        3
176
     1
 90
        0
176
     1
 90
        2
176
     1
 40
0.6
176
     1
 40
30.0
176
     1
 62
     7
420
 16777215
176
     1
 90
        0
176
     1
 90
        0
176
     1
 62
     7
176
     1
 62
   257
176
     1
 90
        1
176
     1
 90
        1
176
     1
 40
1.0
176
     1
 90
        8
176
     1
 62
   257
176
     1
 40
1.0
176
     1
 90
        1
176
     1
 90
        6
176
     1
 90
        2
176
     1
 62
     7
176
     1
 90
        3
176
     1
 90
        0
176
     1
 90
        0
176
     1
290
     0
176
     1
 90
       13
176
     1
 40
0.0
176
     1
 90
        0
176
     1
290
     0
176
     1
290
     1
176
     1
290
     1
176
     1
290
     0
176
     1
290
     0
176
     1
290
     0
176
     1
290
     0
176
     1
290
     0
176
     1
290
     0
176
     1
 90
       50
176
     1
 40
0.0
176
     1
 40
1.0
176
     1
 90
        0
176
     1
 62
    18
420
        0
176
     1
 90
       50
176
     1
 90
        3
176
     1
 62
     5
420
      255
176
     1
290
     0
176
     1
 90
       50
176
     1
 90
       50
176
     1
 90
       50
176
     1
290
     0
176
     1
 90
       50
176
     1
 62
   256
176
     0
 40
1.0
176
     0
 90
        2
176
     1
  1
strokes_ogs.tif
176
     1
290
     0
176
     1
 40
1.0
176
     1
 40
1.0
176
     1
  0
VISUALSTYLE
  5
42
102
{ACAD_REACTORS
330
2A
102
}
330
2A
100
AcDbVisualStyle
  2
Shaded
 70
    27
177
     3
291
     0
 70
    58
 90
        2
176
     1
 90
        2
176
     1
 90
        1
176
     1
 90
        2
176
     1
 40
0.6
176
     1
 40
30.0
176
     1
 62
     7
420
 16777215
176
     1
 90
        0
176
     1
 90
        4
176
     1
 62
     7
176
     1
 62
   257
176
     1
 90
        1
176
     1
 90
        1
176
     1
 40
1.0
176
     1
 90
        8
176
     1
 62
   257
176
     1
 40
1.0
176
     1
 90
        1
176
     1
 90
        6
176
     1
 90
        2
176
     1
 62
     8
420
  7895160
176
     1
 90
        3
176
     1
 90
        0
176
     1
 90
        0
176
     1
290
     0
176
     1
 90
        5
176
     1
 40
0.0
176
     1
 90
        0
176
     1
290
     0
176
     1
290
     1
176
     1
290
     1
176
     1
290
     0
176
     1
290
     0
176
     1
290
     0
176
     1
290
     0
176
     1
290
     0
176
     1
290
     0
176
     1
 90
       50
176
     1
 40
0.0
176
     1
 40
1.0
176
     1
 90
        0
176
     1
 62
    18
420
        0
176
     1
 90
       50
176
     1
 90
        3
176
     1
 62
     5
420
      255
176
     1
290
     0
176
     1
 90
       50
176
     1
 90
       50
176
     1
 90
       50
176
     1
290
     0
176
     1
 90
       50
176
     1
 62
   256
176
     0
 40
1.0
176
     0
 90
        2
176
     1
  1
strokes_ogs.tif
176
     1
290
     0
176
     1
 40
1.0
176
     1
 40
1.0
176
     1
  0
VISUALSTYLE
  5
41
102
{ACAD_REACTORS
330
2A
102
}
330
2A
100
AcDbVisualStyle
  2
Shaded with edges
 70
    26
177
     3
291
     0
 70
    58
 90
        2
176
     1
 90
        2
176
     1
 90
        1
176
     1
 90
        2
176
     1
 40
0.6
176
     1
 40
30.0
176
     1
 62
     7
420
 16777215
176
     1
 90
        1
176
     1
 90
       10
176
     1
 62
     7
176
     1
 62
   257
176
     1
 90
        2
176
     1
 90
        1
176
     1
 40
1.0
176
     1
 90
        8
176
     1
 62
   257
176
     1
 40
1.0
176
     1
 90
        1
176
     1
 90
        6
176
     1
 90
        2
176
     1
 62
     7
176
     1
 90
        3
176
     1
 90
        0
176
     1
 90
        0
176
     1
290
     0
176
     1
 90
        5
176
     1
 40
0.0
176
     1
 90
        0
176
     1
290
     0
176
     1
290
     1
176
     1
290
     1
176
     1
290
     0
176
     1
290
     0
176
     1
290
     0
176
     1
290
     0
176
     1
290
     0
176
     1
290
     0
176
     1
 90
       50
176
     1
 40
0.0
176
     1
 40
1.0
176
     1
 90
        0
176
     1
 62
    18
420
        0
176
     1
 90
       50
176
     1
 90
        3
176
     1
 62
     5
420
      255
176
     1
290
     0
176
     1
 90
       50
176
     1
 90
       50
176
     1
 90
       50
176
     1
290
     0
176
     1
 90
       50
176
     1
 62
   256
176
     0
 40
1.0
176
     0
 90
        2
176
     1
  1
strokes_ogs.tif
176
     1
290
     0
176
     1
 40
1.0
176
     1
 40
1.0
176
     1
  0
VISUALSTYLE
  5
3E
102
{ACAD_REACTORS
330
2A
102
}
330
2A
100
AcDbVisualStyle
  2
Shades of Gray
 70
    23
177
     3
291
     0
 70
    58
 90
        2
176
     1
 90
        2
176
     1
 90
        3
176
     1
 90
        0
176
     1
 40
0.6
176
     1
 40
30.0
176
     1
 62
     7
420
 16777215
176
     1
 90
        2
176
     1
 90
        2
176
     1
 62
     7
176
     1
 62
     7
176
     1
 90
        1
176
     1
 90
        1
176
     1
 40
40.0
176
     1
 90
        8
176
     1
 62
     7
176
     1
 40
1.0
176
     1
 90
        1
176
     1
 90
        6
176
     1
 90
        2
176
     1
 62
     7
176
     1
 90
        3
176
     1
 90
        0
176
     1
 90
        0
176
     1
290
     0
176
     1
 90
        1
176
     1
 40
0.0
176
     1
 90
        0
176
     1
290
     0
176
     1
290
     1
176
     1
290
     1
176
     1
290
     0
176
     1
290
     0
176
     1
290
     0
176
     1
290
     0
176
     1
290
     0
176
     1
290
     0
176
     1
 90
       50
176
     1
 40
0.0
176
     1
 40
1.0
176
     1
 90
        0
176
     1
 62
    18
420
        0
176
     1
 90
       50
176
     1
 90
        3
176
     1
 62
     5
420
      255
176
     1
290
     0
176
     1
 90
       50
176
     1
 90
       50
176
     1
 90
       50
176
     1
290
     0
176
     1
 90
       50
176
     1
 62
   256
176
     0
 40
1.0
176
     0
 90
        2
176
     1
  1
strokes_ogs.tif
176
     1
290
     0
176
     1
 40
1.0
176
     1
 40
1.0
176
     1
  0
VISUALSTYLE
  5
3F
102
{ACAD_REACTORS
330
2A
102
}
330
2A
100
AcDbVisualStyle
  2
Sketchy
 70
    24
177
     3
291
     0
 70
    58
 90
        1
176
     1
 90
        2
176
     1
 90
        2
176
     1
 90
        0
176
     1
 40
0.6
176
     1
 40
30.0
176
     1
 62
     7
420
 16777215
176
     1
 90
        2
176
     1
 90
        2
176
     1
 62
     7
176
     1
 62
     7
176
     1
 90
        1
176
     1
 90
        1
176
     1
 40
40.0
176
     1
 90
       11
176
     1
 62
     7
176
     1
 40
1.0
176
     1
 90
        1
176
     1
 90
        6
176
     1
 90
        2
176
     1
 62
     7
176
     1
 90
        6
176
     1
 90
        0
176
     1
 90
        0
176
     1
290
     0
176
     1
 90
        1
176
     1
 40
0.0
176
     1
 90
        0
176
     1
290
     0
176
     1
290
     1
176
     1
290
     1
176
     1
290
     0
176
     1
290
     0
176
     1
290
     0
176
     1
290
     0
176
     1
290
     0
176
     1
290
     0
176
     1
 90
       50
176
     1
 40
0.0
176
     1
 40
1.0
176
     1
 90
        0
176
     1
 62
    18
420
        0
176
     1
 90
       50
176
     1
 90
        3
176
     1
 62
     5
420
      255
176
     1
290
     0
176
     1
 90
       50
176
     1
 90
       50
176
     1
 90
       50
176
     1
290
     0
176
     1
 90
       50
176
     1
 62
   256
176
     0
 40
1.0
176
     0
 90
        2
176
     1
  1
strokes_ogs.tif
176
     1
290
     0
176
     1
 40
1.0
176
     1
 40
1.0
176
     1
  0
VISUALSTYLE
  5
37
102
{ACAD_REACTORS
330
2A
102
}
330
2A
100
AcDbVisualStyle
  2
Thicken
 70
    13
177
     3
291
     1
 70
    58
 90
        2
176
     1
 90
        2
176
     1
 90
        0
176
     1
 90
        0
176
     1
 40
0.6
176
     1
 40
30.0
176
     1
 62
     7
420
 16777215
176
     1
 90
        1
176
     1
 90
        4
176
     1
 62
     7
176
     1
 62
   257
176
     1
 90
        1
176
     1
 90
        1
176
     1
 40
1.0
176
     1
 90
       12
176
     1
 62
     7
176
     1
 40
1.0
176
     1
 90
        1
176
     1
 90
        6
176
     1
 90
        2
176
     1
 62
     7
176
     1
 90
        5
176
     1
 90
        0
176
     1
 90
        0
176
     1
290
     0
176
     1
 90
        1
176
     1
 40
0.0
176
     1
 90
        0
176
     1
290
     0
176
     1
290
     1
176
     1
290
     1
176
     1
290
     0
176
     1
290
     0
176
     1
290
     0
176
     1
290
     0
176
     1
290
     0
176
     1
290
     0
176
     1
 90
       50
176
     1
 40
0.0
176
     1
 40
1.0
176
     1
 90
        0
176
     1
 62
    18
420
        0
176
     1
 90
       50
176
     1
 90
        3
176
     1
 62
     5
420
      255
176
     1
290
     0
176
     1
 90
       50
176
     1
 90
       50
176
     1
 90
       50
176
     1
290
     0
176
     1
 90
       50
176
     1
 62
   256
176
     0
 40
1.0
176
     0
 90
        2
176
     1
  1
strokes_ogs.tif
176
     1
290
     0
176
     1
 40
1.0
176
     1
 40
1.0
176
     1
  0
VISUALSTYLE
  5
30
102
{ACAD_REACTORS
330
2A
102
}
330
2A
100
AcDbVisualStyle
  2
Wireframe
 70
     5
177
     3
291
     0
 70
    58
 90
        0
176
     1
 90
        2
176
     1
 90
        0
176
     1
 90
        0
176
     1
 40
0.6
176
     1
 40
30.0
176
     1
 62
     7
420
 16777215
176
     1
 90
        1
176
     1
 90
        4
176
     1
 62
     7
176
     1
 62
   257
176
     1
 90
        1
176
     1
 90
        1
176
     1
 40
1.0
176
     1
 90
        0
176
     1
 62
   257
176
     1
 40
1.0
176
     1
 90
        1
176
     1
 90
        6
176
     1
 90
        2
176
     1
 62
     7
176
     1
 90
        3
176
     1
 90
        0
176
     1
 90
        0
176
     1
290
     0
176
     1
 90
        1
176
     1
 40
0.0
176
     1
 90
        0
176
     1
290
     0
176
     1
290
     1
176
     1
290
     1
176
     1
290
     0
176
     1
290
     0
176
     1
290
     0
176
     1
290
     0
176
     1
290
     0
176
     1
290
     0
176
     1
 90
       50
176
     1
 40
0.0
176
     1
 40
1.0
176
     1
 90
        0
176
     1
 62
    18
420
        0
176
     1
 90
       50
176
     1
 90
        3
176
     1
 62
     5
420
      255
176
     1
290
     0
176
     1
 90
       50
176
     1
 90
       50
176
     1
 90
       50
176
     1
290
     0
176
     1
 90
       50
176
     1
 62
   256
176
     0
 40
1.0
176
     0
 90
        2
176
     1
  1
strokes_ogs.tif
176
     1
290
     0
176
     1
 40
1.0
176
     1
 40
1.0
176
     1
  0
VISUALSTYLE
  5
40
102
{ACAD_REACTORS
330
2A
102
}
330
2A
100
AcDbVisualStyle
  2
X-Ray
 70
    25
177
     3
291
     0
 70
    58
 90
        2
176
     1
 90
        2
176
     1
 90
        1
176
     1
 90
        1
176
     1
 40
0.5
176
     1
 40
30.0
176
     1
 62
     7
420
 16777215
176
     1
 90
        1
176
     1
 90
        0
176
     1
 62
     7
176
     1
 62
   257
176
     1
 90
        1
176
     1
 90
        1
176
     1
 40
1.0
176
     1
 90
        8
176
     1
 62
     7
176
     1
 40
1.0
176
     1
 90
        1
176
     1
 90
        6
176
     1
 90
        2
176
     1
 62
     7
176
     1
 90
        3
176
     1
 90
        0
176
     1
 90
        0
176
     1
290
     0
176
     1
 90
       13
176
     1
 40
0.0
176
     1
 90
        0
176
     1
290
     0
176
     1
290
     1
176
     1
290
     1
176
     1
290
     0
176
     1
290
     0
176
     1
290
     0
176
     1
290
     0
176
     1
290
     0
176
     1
290
     0
176
     1
 90
       50
176
     1
 40
0.0
176
     1
 40
1.0
176
     1
 90
        0
176
     1
 62
    18
420
        0
176
     1
 90
       50
176
     1
 90
        3
176
     1
 62
     5
420
      255
176
     1
290
     0
176
     1
 90
       50
176
     1
 90
       50
176
     1
 90
       50
176
     1
290
     0
176
     1
 90
       50
176
     1
 62
   256
176
     0
 40
1.0
176
     0
 90
        2
176
     1
  1
strokes_ogs.tif
176
     1
290
     0
176
     1
 40
1.0
176
     1
 40
1.0
176
     1
  0
DICTIONARYVAR
  5
25E
102
{ACAD_REACTORS
330
25D
102
}
330
25D
100
DictionaryVariables
280
     0
  1
1:1
  0
DICTIONARYVAR
  5
263
102
{ACAD_REACTORS
330
25D
102
}
330
25D
100
DictionaryVariables
280
     0
  1
Standard
  0
DICTIONARYVAR
  5
262
102
{ACAD_REACTORS
330
25D
102
}
330
25D
100
DictionaryVariables
280
     0
  1
Standard
  0
DICTIONARY
  5
25F
330
6A
100
AcDbDictionary
280
     1
281
     1
  3
ACAD_ROUNDTRIP_2008_TABLESTYLE_CELLSTYLEMAP
360
260
  0
CELLSTYLEMAP
  5
260
102
{ACAD_REACTORS
330
25F
102
}
330
25F
100
AcDbCellStyleMap
 90
        3
300
CELLSTYLE
  1
TABLEFORMAT_BEGIN
 90
        5
170
     1
 91
        0
 92
    32768
 62
   257
 93
        1
300
CONTENTFORMAT
  1
CONTENTFORMAT_BEGIN
 90
        0
 91
        0
 92
        4
 93
        0
300

 40
0.0
140
1.0
 94
        5
 62
     0
340
11
144
6.0
309
CONTENTFORMAT_END
171
     1
301
MARGIN
  1
CELLMARGIN_BEGIN
 40
1.5
 40
1.5
 40
1.5
 40
1.5
 40
1.5
 40
1.5
309
CELLMARGIN_END
 94
        6
 95
        1
302
GRIDFORMAT
  1
GRIDFORMAT_BEGIN
 90
        0
 91
        1
 62
     0
 92
       -2
340
14
 93
        0
 40
0.045
309
GRIDFORMAT_END
 95
        2
302
GRIDFORMAT
  1
GRIDFORMAT_BEGIN
 90
        0
 91
        1
 62
     0
 92
       -2
340
14
 93
        0
 40
0.045
309
GRIDFORMAT_END
 95
        4
302
GRIDFORMAT
  1
GRIDFORMAT_BEGIN
 90
        0
 91
        1
 62
     0
 92
       -2
340
14
 93
        0
 40
0.045
309
GRIDFORMAT_END
 95
        8
302
GRIDFORMAT
  1
GRIDFORMAT_BEGIN
 90
        0
 91
        1
 62
     0
 92
       -2
340
14
 93
        0
 40
0.045
309
GRIDFORMAT_END
 95
       16
302
GRIDFORMAT
  1
GRIDFORMAT_BEGIN
 90
        0
 91
        1
 62
     0
 92
       -2
340
14
 93
        0
 40
0.045
309
GRIDFORMAT_END
 95
       32
302
GRIDFORMAT
  1
GRIDFORMAT_BEGIN
 90
        0
 91
        1
 62
     0
 92
       -2
340
14
 93
        0
 40
0.045
309
GRIDFORMAT_END
309
TABLEFORMAT_END
  1
CELLSTYLE_BEGIN
 90
        1
 91
        1
300
_TITLE
309
CELLSTYLE_END
300
CELLSTYLE
  1
TABLEFORMAT_BEGIN
 90
        5
170
     1
 91
        0
 92
        0
 62
   257
 93
        1
300
CONTENTFORMAT
  1
CONTENTFORMAT_BEGIN
 90
        0
 91
        0
 92
        4
 93
        0
300

 40
0.0
140
1.0
 94
        5
 62
     0
340
11
144
4.5
309
CONTENTFORMAT_END
171
     1
301
MARGIN
  1
CELLMARGIN_BEGIN
 40
1.5
 40
1.5
 40
1.5
 40
1.5
 40
1.5
 40
1.5
309
CELLMARGIN_END
 94
        6
 95
        1
302
GRIDFORMAT
  1
GRIDFORMAT_BEGIN
 90
        0
 91
        1
 62
     0
 92
       -2
340
14
 93
        0
 40
0.045
309
GRIDFORMAT_END
 95
        2
302
GRIDFORMAT
  1
GRIDFORMAT_BEGIN
 90
        0
 91
        1
 62
     0
 92
       -2
340
14
 93
        0
 40
0.045
309
GRIDFORMAT_END
 95
        4
302
GRIDFORMAT
  1
GRIDFORMAT_BEGIN
 90
        0
 91
        1
 62
     0
 92
       -2
340
14
 93
        0
 40
0.045
309
GRIDFORMAT_END
 95
        8
302
GRIDFORMAT
  1
GRIDFORMAT_BEGIN
 90
        0
 91
        1
 62
     0
 92
       -2
340
14
 93
        0
 40
0.045
309
GRIDFORMAT_END
 95
       16
302
GRIDFORMAT
  1
GRIDFORMAT_BEGIN
 90
        0
 91
        1
 62
     0
 92
       -2
340
14
 93
        0
 40
0.045
309
GRIDFORMAT_END
 95
       32
302
GRIDFORMAT
  1
GRIDFORMAT_BEGIN
 90
        0
 91
        1
 62
     0
 92
       -2
340
14
 93
        0
 40
0.045
309
GRIDFORMAT_END
309
TABLEFORMAT_END
  1
CELLSTYLE_BEGIN
 90
        2
 91
        1
300
_HEADER
309
CELLSTYLE_END
300
CELLSTYLE
  1
TABLEFORMAT_BEGIN
 90
        5
170
     1
 91
        0
 92
        0
 62
   257
 93
        1
300
CONTENTFORMAT
  1
CONTENTFORMAT_BEGIN
 90
        0
 91
        0
 92
        4
 93
        0
300

 40
0.0
140
1.0
 94
        2
 62
     0
340
11
144
4.5
309
CONTENTFORMAT_END
171
     1
301
MARGIN
  1
CELLMARGIN_BEGIN
 40
1.5
 40
1.5
 40
1.5
 40
1.5
 40
1.5
 40
1.5
309
CELLMARGIN_END
 94
        6
 95
        1
302
GRIDFORMAT
  1
GRIDFORMAT_BEGIN
 90
        0
 91
        1
 62
     0
 92
       -2
340
14
 93
        0
 40
0.045
309
GRIDFORMAT_END
 95
        2
302
GRIDFORMAT
  1
GRIDFORMAT_BEGIN
 90
        0
 91
        1
 62
     0
 92
       -2
340
14
 93
        0
 40
0.045
309
GRIDFORMAT_END
 95
        4
302
GRIDFORMAT
  1
GRIDFORMAT_BEGIN
 90
        0
 91
        1
 62
     0
 92
       -2
340
14
 93
        0
 40
0.045
309
GRIDFORMAT_END
 95
        8
302
GRIDFORMAT
  1
GRIDFORMAT_BEGIN
 90
        0
 91
        1
 62
     0
 92
       -2
340
14
 93
        0
 40
0.045
309
GRIDFORMAT_END
 95
       16
302
GRIDFORMAT
  1
GRIDFORMAT_BEGIN
 90
        0
 91
        1
 62
     0
 92
       -2
340
14
 93
        0
 40
0.045
309
GRIDFORMAT_END
 95
       32
302
GRIDFORMAT
  1
GRIDFORMAT_BEGIN
 90
        0
 91
        1
 62
     0
 92
       -2
340
14
 93
        0
 40
0.045
309
GRIDFORMAT_END
309
TABLEFORMAT_END
  1
CELLSTYLE_BEGIN
 90
        3
 91
        2
300
_DATA
309
CELLSTYLE_END
  0
ENDSEC
  0
EOF