0
SECTION
  2
HEADER
  9
$ACADVER
  1
AC1027
  9
$ACADMAINTVER
 70
     8
  9
$DWGCODEPAGE
  3
ANSI_1252
  9
$REQUIREDVERSIONS
160
                 0
  9
$COMMENTS
  1
File was created by Cadenas
  9
$CUSTOMPROPERTYTAG
  1
NN
  9
$CUSTOMPROPERTY
  1
Grip Tight Medium Duty Wide Slot Take Up Inch Bore
  9
$CUSTOMPROPERTYTAG
  1
NT
  9
$CUSTOMPROPERTY
  1
GT Wide Slot Take-Up Bearings -(Medium Duty)
  9
$CUSTOMPROPERTYTAG
  1
NB
  9
$CUSTOMPROPERTY
  1
136181
  9
$CUSTOMPROPERTYTAG
  1
NBSYN
  9
$CUSTOMPROPERTY
  1
$PN.$LUBE.
  9
$CUSTOMPROPERTYTAG
  1
LINA
  9
$CUSTOMPROPERTY
  1
136181
  9
$CUSTOMPROPERTYTAG
  1
SERIES
  9
$CUSTOMPROPERTY
  1
214
  9
$CUSTOMPROPERTYTAG
  1
SS
  9
$CUSTOMPROPERTY
  1
2-7/16
  9
$CUSTOMPROPERTYTAG
  1
PN
  9
$CUSTOMPROPERTY
  1
136181
  9
$CUSTOMPROPERTYTAG
  1
DESCRIPTION
  9
$CUSTOMPROPERTY
  1
WSTU-GTM-207
  9
$CUSTOMPROPERTYTAG
  1
A
  9
$CUSTOMPROPERTY
  1
2-25/64
  9
$CUSTOMPROPERTYTAG
  1
B
  9
$CUSTOMPROPERTY
  1
8-9/16
  9
$CUSTOMPROPERTYTAG
  1
C
  9
$CUSTOMPROPERTY
  1
1.047/1.077
  9
$CUSTOMPROPERTYTAG
  1
D
  9
$CUSTOMPROPERTY
  1
4-3/4
  9
$CUSTOMPROPERTYTAG
  1
E
  9
$CUSTOMPROPERTY
  1
5-3/8
  9
$CUSTOMPROPERTYTAG
  1
F
  9
$CUSTOMPROPERTY
  1
1-1/2
  9
$CUSTOMPROPERTYTAG
  1
G
  9
$CUSTOMPROPERTY
  1
13/16
  9
$CUSTOMPROPERTYTAG
  1
H
  9
$CUSTOMPROPERTY
  1
1-1/4
  9
$CUSTOMPROPERTYTAG
  1
J
  9
$CUSTOMPROPERTY
  1
4-3/8
  9
$CUSTOMPROPERTYTAG
  1
K
  9
$CUSTOMPROPERTY
  1
2-3/4
  9
$CUSTOMPROPERTYTAG
  1
L
  9
$CUSTOMPROPERTY
  1
3-13/16
  9
$CUSTOMPROPERTYTAG
  1
M
  9
$CUSTOMPROPERTY
  1
5.923/5.953
  9
$CUSTOMPROPERTYTAG
  1
N
  9
$CUSTOMPROPERTY
  1
6-9/16
  9
$CUSTOMPROPERTYTAG
  1
R
  9
$CUSTOMPROPERTY
  1
7/8
  9
$CUSTOMPROPERTYTAG
  1
S
  9
$CUSTOMPROPERTY
  1
1-33/64
  9
$CUSTOMPROPERTYTAG
  1
T
  9
$CUSTOMPROPERTY
  1
2-3/4
  9
$CUSTOMPROPERTYTAG
  1
Z
  9
$CUSTOMPROPERTY
  1
1-15/32
  9
$CUSTOMPROPERTYTAG
  1
COMPANY
  9
$CUSTOMPROPERTY
  1
baldor
  9
$INSBASE
 10
0.0
 20
0.0
 30
0.0
  9
$EXTMIN
 10
1.000000000000000E+20
 20
1.000000000000000E+20
 30
1.000000000000000E+20
  9
$EXTMAX
 10
-1.000000000000000E+20
 20
-1.000000000000000E+20
 30
-1.000000000000000E+20
  9
$LIMMIN
 10
0.0
 20
0.0
  9
$LIMMAX
 10
12.0
 20
9.0
  9
$ORTHOMODE
 70
     0
  9
$REGENMODE
 70
     1
  9
$FILLMODE
 70
     1
  9
$QTEXTMODE
 70
     0
  9
$MIRRTEXT
 70
     1
  9
$LTSCALE
 40
1.0
  9
$ATTMODE
 70
     1
  9
$TEXTSIZE
 40
0.2
  9
$TRACEWID
 40
0.05
  9
$TEXTSTYLE
  7
Standard
  9
$CLAYER
  8
0
  9
$CELTYPE
  6
ByLayer
  9
$CECOLOR
 62
   256
  9
$CELTSCALE
 40
1.0
  9
$DISPSILH
 70
     0
  9
$DIMSCALE
 40
1.0
  9
$DIMASZ
 40
0.18
  9
$DIMEXO
 40
0.0625
  9
$DIMDLI
 40
0.38
  9
$DIMRND
 40
0.0
  9
$DIMDLE
 40
0.0
  9
$DIMEXE
 40
0.18
  9
$DIMTP
 40
0.0
  9
$DIMTM
 40
0.0
  9
$DIMTXT
 40
0.18
  9
$DIMCEN
 40
0.09
  9
$DIMTSZ
 40
0.0
  9
$DIMTOL
 70
     0
  9
$DIMLIM
 70
     0
  9
$DIMTIH
 70
     1
  9
$DIMTOH
 70
     1
  9
$DIMSE1
 70
     0
  9
$DIMSE2
 70
     0
  9
$DIMTAD
 70
     0
  9
$DIMZIN
 70
     0
  9
$DIMBLK
  1

  9
$DIMASO
 70
     1
  9
$DIMSHO
 70
     1
  9
$DIMPOST
  1

  9
$DIMAPOST
  1

  9
$DIMALT
 70
     0
  9
$DIMALTD
 70
     2
  9
$DIMALTF
 40
25.4
  9
$DIMLFAC
 40
1.0
  9
$DIMTOFL
 70
     0
  9
$DIMTVP
 40
0.0
  9
$DIMTIX
 70
     0
  9
$DIMSOXD
 70
     0
  9
$DIMSAH
 70
     0
  9
$DIMBLK1
  1

  9
$DIMBLK2
  1

  9
$DIMSTYLE
  2
Standard
  9
$DIMCLRD
 70
     0
  9
$DIMCLRE
 70
     0
  9
$DIMCLRT
 70
     0
  9
$DIMTFAC
 40
1.0
  9
$DIMGAP
 40
0.09
  9
$DIMJUST
 70
     0
  9
$DIMSD1
 70
     0
  9
$DIMSD2
 70
     0
  9
$DIMTOLJ
 70
     1
  9
$DIMTZIN
 70
     0
  9
$DIMALTZ
 70
     0
  9
$DIMALTTZ
 70
     0
  9
$DIMUPT
 70
     0
  9
$DIMDEC
 70
     4
  9
$DIMTDEC
 70
     4
  9
$DIMALTU
 70
     2
  9
$DIMALTTD
 70
     2
  9
$DIMTXSTY
  7
Standard
  9
$DIMAUNIT
 70
     0
  9
$DIMADEC
 70
     0
  9
$DIMALTRND
 40
0.0
  9
$DIMAZIN
 70
     0
  9
$DIMDSEP
 70
    46
  9
$DIMATFIT
 70
     3
  9
$DIMFRAC
 70
     0
  9
$DIMLDRBLK
  1

  9
$DIMLUNIT
 70
     2
  9
$DIMLWD
 70
    -2
  9
$DIMLWE
 70
    -2
  9
$DIMTMOVE
 70
     0
  9
$DIMFXL
 40
1.0
  9
$DIMFXLON
 70
     0
  9
$DIMJOGANG
 40
0.7853981633974483
  9
$DIMTFILL
 70
     0
  9
$DIMTFILLCLR
 70
     0
  9
$DIMARCSYM
 70
     0
  9
$DIMLTYPE
  6

  9
$DIMLTEX1
  6

  9
$DIMLTEX2
  6

  9
$DIMTXTDIRECTION
 70
     0
  9
$LUNITS
 70
     2
  9
$LUPREC
 70
     4
  9
$SKETCHINC
 40
0.1
  9
$FILLETRAD
 40
0.5
  9
$AUNITS
 70
     0
  9
$AUPREC
 70
     0
  9
$MENU
  1
.
  9
$ELEVATION
 40
0.0
  9
$PELEVATION
 40
0.0
  9
$THICKNESS
 40
0.0
  9
$LIMCHECK
 70
     0
  9
$CHAMFERA
 40
0.0
  9
$CHAMFERB
 40
0.0
  9
$CHAMFERC
 40
0.0
  9
$CHAMFERD
 40
0.0
  9
$SKPOLY
 70
     0
  9
$TDCREATE
 40
2458168.993056042
  9
$TDUCREATE
 40
2458168.951389375
  9
$TDUPDATE
 40
2458168.993056227
  9
$TDUUPDATE
 40
2458168.95138956
  9
$TDINDWG
 40
0.0000000116
  9
$TDUSRTIMER
 40
0.0000000116
  9
$USRTIMER
 70
     1
  9
$ANGBASE
 50
0.0
  9
$ANGDIR
 70
     0
  9
$PDMODE
 70
     0
  9
$PDSIZE
 40
0.0
  9
$PLINEWID
 40
0.0
  9
$SPLFRAME
 70
     0
  9
$SPLINETYPE
 70
     6
  9
$SPLINESEGS
 70
     8
  9
$HANDSEED
  5
229
  9
$SURFTAB1
 70
     6
  9
$SURFTAB2
 70
     6
  9
$SURFTYPE
 70
     6
  9
$SURFU
 70
     6
  9
$SURFV
 70
     6
  9
$UCSBASE
  2

  9
$UCSNAME
  2

  9
$UCSORG
 10
0.0
 20
0.0
 30
0.0
  9
$UCSXDIR
 10
1.0
 20
0.0
 30
0.0
  9
$UCSYDIR
 10
0.0
 20
1.0
 30
0.0
  9
$UCSORTHOREF
  2

  9
$UCSORTHOVIEW
 70
     0
  9
$UCSORGTOP
 10
0.0
 20
0.0
 30
0.0
  9
$UCSORGBOTTOM
 10
0.0
 20
0.0
 30
0.0
  9
$UCSORGLEFT
 10
0.0
 20
0.0
 30
0.0
  9
$UCSORGRIGHT
 10
0.0
 20
0.0
 30
0.0
  9
$UCSORGFRONT
 10
0.0
 20
0.0
 30
0.0
  9
$UCSORGBACK
 10
0.0
 20
0.0
 30
0.0
  9
$PUCSBASE
  2

  9
$PUCSNAME
  2

  9
$PUCSORG
 10
0.0
 20
0.0
 30
0.0
  9
$PUCSXDIR
 10
1.0
 20
0.0
 30
0.0
  9
$PUCSYDIR
 10
0.0
 20
1.0
 30
0.0
  9
$PUCSORTHOREF
  2

  9
$PUCSORTHOVIEW
 70
     0
  9
$PUCSORGTOP
 10
0.0
 20
0.0
 30
0.0
  9
$PUCSORGBOTTOM
 10
0.0
 20
0.0
 30
0.0
  9
$PUCSORGLEFT
 10
0.0
 20
0.0
 30
0.0
  9
$PUCSORGRIGHT
 10
0.0
 20
0.0
 30
0.0
  9
$PUCSORGFRONT
 10
0.0
 20
0.0
 30
0.0
  9
$PUCSORGBACK
 10
0.0
 20
0.0
 30
0.0
  9
$USERI1
 70
     0
  9
$USERI2
 70
     0
  9
$USERI3
 70
     0
  9
$USERI4
 70
     0
  9
$USERI5
 70
     0
  9
$USERR1
 40
0.0
  9
$USERR2
 40
0.0
  9
$USERR3
 40
0.0
  9
$USERR4
 40
0.0
  9
$USERR5
 40
0.0
  9
$WORLDVIEW
 70
     1
  9
$SHADEDGE
 70
     3
  9
$SHADEDIF
 70
    70
  9
$TILEMODE
 70
     1
  9
$MAXACTVP
 70
    64
  9
$PINSBASE
 10
0.0
 20
0.0
 30
0.0
  9
$PLIMCHECK
 70
     0
  9
$PEXTMIN
 10
1.000000000000000E+20
 20
1.000000000000000E+20
 30
1.000000000000000E+20
  9
$PEXTMAX
 10
-1.000000000000000E+20
 20
-1.000000000000000E+20
 30
-1.000000000000000E+20
  9
$PLIMMIN
 10
0.0
 20
0.0
  9
$PLIMMAX
 10
12.0
 20
9.0
  9
$UNITMODE
 70
     0
  9
$VISRETAIN
 70
     1
  9
$PLINEGEN
 70
     0
  9
$PSLTSCALE
 70
     1
  9
$TREEDEPTH
 70
  3020
  9
$CMLSTYLE
  2
Standard
  9
$CMLJUST
 70
     0
  9
$CMLSCALE
 40
1.0
  9
$PROXYGRAPHICS
 70
     1
  9
$MEASUREMENT
 70
     0
  9
$CELWEIGHT
370
    -1
  9
$ENDCAPS
280
     0
  9
$JOINSTYLE
280
     0
  9
$LWDISPLAY
290
     0
  9
$INSUNITS
 70
     1
  9
$HYPERLINKBASE
  1

  9
$STYLESHEET
  1

  9
$XEDIT
290
     1
  9
$CEPSNTYPE
380
     0
  9
$PSTYLEMODE
290
     1
  9
$FINGERPRINTGUID
  2
{3067A78D-8E04-4C49-84C8-BE2495CBE7A6}
  9
$VERSIONGUID
  2
{FAEB1C32-E019-11D5-929B-00C0DF256EC4}
  9
$EXTNAMES
290
     1
  9
$PSVPSCALE
 40
0.0
  9
$OLESTARTUP
290
     0
  9
$SORTENTS
280
   127
  9
$INDEXCTL
280
     0
  9
$HIDETEXT
280
     1
  9
$XCLIPFRAME
280
     2
  9
$HALOGAP
280
     0
  9
$OBSCOLOR
 70
   257
  9
$OBSLTYPE
280
     0
  9
$INTERSECTIONDISPLAY
280
     0
  9
$INTERSECTIONCOLOR
 70
   257
  9
$DIMASSOC
280
     2
  9
$PROJECTNAME
  1

  9
$CAMERADISPLAY
290
     0
  9
$LENSLENGTH
 40
50.0
  9
$CAMERAHEIGHT
 40
0.0
  9
$STEPSPERSEC
 40
2.0
  9
$STEPSIZE
 40
6.0
  9
$3DDWFPREC
 40
2.0
  9
$PSOLWIDTH
 40
0.25
  9
$PSOLHEIGHT
 40
4.0
  9
$LOFTANG1
 40
1.570796326794897
  9
$LOFTANG2
 40
1.570796326794897
  9
$LOFTMAG1
 40
0.0
  9
$LOFTMAG2
 40
0.0
  9
$LOFTPARAM
 70
     7
  9
$LOFTNORMALS
280
     1
  9
$LATITUDE
 40
37.795
  9
$LONGITUDE
 40
-122.394
  9
$NORTHDIRECTION
 40
0.0
  9
$TIMEZONE
 70
 -8000
  9
$LIGHTGLYPHDISPLAY
280
     1
  9
$TILEMODELIGHTSYNCH
280
     1
  9
$CMATERIAL
347
44
  9
$SOLIDHIST
280
     0
  9
$SHOWHIST
280
     1
  9
$DWFFRAME
280
     2
  9
$DGNFRAME
280
     2
  9
$REALWORLDSCALE
290
     1
  9
$INTERFERECOLOR
 62
   256
  9
$CSHADOW
280
     0
  9
$SHADOWPLANELOCATION
 40
0.0
  0
ENDSEC
  0
SECTION
  2
CLASSES
  0
CLASS
  1
ACDBDICTIONARYWDFLT
  2
AcDbDictionaryWithDefault
  3
ObjectDBX Classes
 90
        0
 91
        4
280
     0
281
     0
  0
CLASS
  1
VISUALSTYLE
  2
AcDbVisualStyle
  3
ObjectDBX Classes
 90
     4095
 91
        4
280
     0
281
     0
  0
CLASS
  1
MATERIAL
  2
AcDbMaterial
  3
ObjectDBX Classes
 90
     1153
 91
        4
280
     0
281
     0
  0
CLASS
  1
SCALE
  2
AcDbScale
  3
ObjectDBX Classes
 90
     1153
 91
        4
280
     0
281
     0
  0
CLASS
  1
TABLESTYLE
  2
AcDbTableStyle
  3
ObjectDBX Classes
 90
     4095
 91
        4
280
     0
281
     0
  0
CLASS
  1
MLEADERSTYLE
  2
AcDbMLeaderStyle
  3
ACDB_MLEADERSTYLE_CLASS
 90
     4095
 91
        4
280
     0
281
     0
  0
CLASS
  1
SUN
  2
AcDbSun
  3
SCENEOE
 90
     1153
 91
        4
280
     0
281
     0
  0
CLASS
  1
DICTIONARYVAR
  2
AcDbDictionaryVar
  3
ObjectDBX Classes
 90
        0
 91
        4
280
     0
281
     0
  0
CLASS
  1
CELLSTYLEMAP
  2
AcDbCellStyleMap
  3
ObjectDBX Classes
 90
     1152
 91
        4
280
     0
281
     0
  0
ENDSEC
  0
SECTION
  2
TABLES
  0
TABLE
  2
VPORT
  5
8
330
0
100
AcDbSymbolTable
 70
     1
  0
VPORT
  5
29
330
8
100
AcDbSymbolTableRecord
100
AcDbViewportTableRecord
  2
*Active
 70
     0
 10
0.0
 20
0.0
 11
1.0
 21
1.0
 12
-0.0703138709068298
 22
0.0
 13
0.0
 23
0.0
 14
0.5
 24
0.5
 15
0.5
 25
0.5
 16
0.0
 26
0.0
 36
1.0
 17
0.0
 27
0.0
 37
0.0
 40
6.693736612500001
 41
0.8404766398272102
 42
50.0
 43
0.0
 44
0.0
 50
0.0
 51
0.0
 71
     0
 72
   100
 73
     1
 74
     3
 75
     0
 76
     0
 77
     0
 78
     0
281
     0
 65
     1
110
0.0
120
0.0
130
0.0
111
1.0
121
0.0
131
0.0
112
0.0
122
1.0
132
0.0
 79
     0
146
0.0
348
2F
 60
     3
 61
     5
292
     1
282
     1
141
0.0
142
0.0
 63
   250
361
6D
  0
ENDTAB
  0
TABLE
  2
LTYPE
  5
5
330
0
100
AcDbSymbolTable
 70
     3
  0
LTYPE
  5
14
330
5
100
AcDbSymbolTableRecord
100
AcDbLinetypeTableRecord
  2
ByBlock
 70
     0
  3

 72
    65
 73
     0
 40
0.0
  0
LTYPE
  5
15
330
5
100
AcDbSymbolTableRecord
100
AcDbLinetypeTableRecord
  2
ByLayer
 70
     0
  3

 72
    65
 73
     0
 40
0.0
  0
LTYPE
  5
16
330
5
100
AcDbSymbolTableRecord
100
AcDbLinetypeTableRecord
  2
Continuous
 70
     0
  3
Solid line
 72
    65
 73
     0
 40
0.0
  0
LTYPE
  5
9F
330
5
100
AcDbSymbolTableRecord
100
AcDbLinetypeTableRecord
  2
Dashed
 70
     0
  3

 72
    65
 73
     2
 40
2.0
 49
1.0
 74
     0
 49
-1.0
 74
     0
  0
LTYPE
  5
18D
330
5
100
AcDbSymbolTableRecord
100
AcDbLinetypeTableRecord
  2
Center
 70
     0
  3

 72
    65
 73
     4
 40
1.5
 49
0.45
 74
     0
 49
-0.5
 74
     0
 49
0.05
 74
     0
 49
-0.5
 74
     0
  0
ENDTAB
  0
TABLE
  2
LAYER
  5
2
330
0
100
AcDbSymbolTable
 70
     7
  0
LAYER
  5
10
330
2
100
AcDbSymbolTableRecord
100
AcDbLayerTableRecord
  2
0
 70
     0
 62
     7
  6
Continuous
370
    -3
390
F
347
46
348
0
  0
LAYER
  5
72
330
2
100
AcDbSymbolTableRecord
100
AcDbLayerTableRecord
  2
AM_6
 70
     0
 62
    -2
  6
Continuous
370
    35
390
F
347
46
348
0
  0
LAYER
  5
A0
330
2
100
AcDbSymbolTableRecord
100
AcDbLayerTableRecord
  2
AM_9
 70
     0
 62
     6
  6
Dashed
370
    25
390
F
347
46
348
0
  0
LAYER
  5
18E
330
2
100
AcDbSymbolTableRecord
100
AcDbLayerTableRecord
  2
AM_7
 70
     0
 62
     7
  6
Center
370
    25
390
F
347
46
348
0
  0
LAYER
  5
190
330
2
100
AcDbSymbolTableRecord
100
AcDbLayerTableRecord
  2
AM_4
 70
     0
 62
     7
  6
Continuous
370
    50
390
F
347
46
348
0
  0
LAYER
  5
1A1
330
2
100
AcDbSymbolTableRecord
100
AcDbLayerTableRecord
  2
AM_5
 70
     0
 62
     3
  6
Continuous
370
    25
390
F
347
46
348
0
  0
LAYER
  5
217
330
2
100
AcDbSymbolTableRecord
100
AcDbLayerTableRecord
  2
ConnectionPoints
 70
     0
 62
     7
  6
Continuous
370
    50
390
F
347
46
348
0
  0
ENDTAB
  0
TABLE
  2
STYLE
  5
3
330
0
100
AcDbSymbolTable
 70
     1
  0
STYLE
  5
11
330
3
100
AcDbSymbolTableRecord
100
AcDbTextStyleTableRecord
  2
Standard
 70
     0
 40
0.0
 41
1.0
 50
0.0
 71
     0
 42
0.2
  3
txt
  4

  0
ENDTAB
  0
TABLE
  2
VIEW
  5
6
330
0
100
AcDbSymbolTable
 70
     0
  0
ENDTAB
  0
TABLE
  2
UCS
  5
7
330
0
100
AcDbSymbolTable
 70
     0
  0
ENDTAB
  0
TABLE
  2
APPID
  5
9
330
0
100
AcDbSymbolTable
 70
     1
  0
APPID
  5
12
330
9
100
AcDbSymbolTableRecord
100
AcDbRegAppTableRecord
  2
ACAD
 70
     0
  0
ENDTAB
  0
TABLE
  2
DIMSTYLE
  5
A
330
0
100
AcDbSymbolTable
 70
     1
100
AcDbDimStyleTable
  0
DIMSTYLE
105
27
330
A
100
AcDbSymbolTableRecord
100
AcDbDimStyleTableRecord
  2
Standard
 70
     0
178
     0
340
11
  0
ENDTAB
  0
TABLE
  2
BLOCK_RECORD
  5
1
330
0
100
AcDbSymbolTable
 70
     6
  0
BLOCK_RECORD
  5
1F
330
1
100
AcDbSymbolTableRecord
100
AcDbBlockTableRecord
  2
*Model_Space
340
22
 70
     0
280
     1
281
     0
  0
BLOCK_RECORD
  5
1B
330
1
100
AcDbSymbolTableRecord
100
AcDbBlockTableRecord
  2
*Paper_Space
340
1E
 70
     0
280
     1
281
     0
  0
BLOCK_RECORD
  5
23
330
1
100
AcDbSymbolTableRecord
100
AcDbBlockTableRecord
  2
*Paper_Space0
340
26
 70
     0
280
     1
281
     0
  0
BLOCK_RECORD
  5
6E
330
1
100
AcDbSymbolTableRecord
100
AcDbBlockTableRecord
  2
1_136181_2
340
0
102
{BLKREFS
331
6F
102
}
 70
     0
280
     1
281
     0
  0
BLOCK_RECORD
  5
8E
330
1
100
AcDbSymbolTableRecord
100
AcDbBlockTableRecord
  2
2_405016_Inch_0_in_136181_2
340
0
102
{BLKREFS
331
8F
102
}
 70
     0
280
     1
281
     0
  0
BLOCK_RECORD
  5
108
330
1
100
AcDbSymbolTableRecord
100
AcDbBlockTableRecord
  2
3_129526I_0_in_136181_2
340
0
102
{BLKREFS
331
109
102
}
 70
     0
280
     1
281
     0
  0
BLOCK_RECORD
  5
14B
330
1
100
AcDbSymbolTableRecord
100
AcDbBlockTableRecord
  2
4_129935_0_in_136181_2
340
0
102
{BLKREFS
331
14C
102
}
 70
     0
280
     1
281
     0
  0
BLOCK_RECORD
  5
1A3
330
1
100
AcDbSymbolTableRecord
100
AcDbBlockTableRecord
  2
5_WSTU_GT_14I_0_in_136181_2
340
0
102
{BLKREFS
331
1A4
102
}
 70
     0
280
     1
281
     0
  0
ENDTAB
  0
ENDSEC
  0
SECTION
  2
BLOCKS
  0
BLOCK
  5
20
330
1F
100
AcDbEntity
  8
0
100
AcDbBlockBegin
  2
*Model_Space
 70
     0
 10
0.0
 20
0.0
 30
0.0
  3
*Model_Space
  1

  0
ENDBLK
  5
21
330
1F
100
AcDbEntity
  8
0
100
AcDbBlockEnd
  0
BLOCK
  5
1C
330
1B
100
AcDbEntity
 67
     1
  8
0
100
AcDbBlockBegin
  2
*Paper_Space
 70
     0
 10
0.0
 20
0.0
 30
0.0
  3
*Paper_Space
  1

  0
ENDBLK
  5
1D
330
1B
100
AcDbEntity
 67
     1
  8
0
100
AcDbBlockEnd
  0
BLOCK
  5
24
330
23
100
AcDbEntity
  8
0
100
AcDbBlockBegin
  2
*Paper_Space0
 70
     0
 10
0.0
 20
0.0
 30
0.0
  3
*Paper_Space0
  1

  0
ENDBLK
  5
25
330
23
100
AcDbEntity
  8
0
100
AcDbBlockEnd
  0
BLOCK
  5
70
330
6E
100
AcDbEntity
  8
0
100
AcDbBlockBegin
  2
1_136181_2
 70
     2
 10
0.0
 20
0.0
 30
0.0
  3
1_136181_2
  1

  0
ATTDEF
  5
73
330
6E
100
AcDbEntity
  8
AM_6
100
AcDbText
 10
7.687494587898255
 20
3.2812434375
 30
0.0
 40
0.5
  1
Grip Tight Medium Duty Wide Slot Take Up Inch Bore
100
AcDbAttributeDefinition
  3

  2
NN
 70
     8
280
     0
  0
ATTDEF
  5
74
330
6E
100
AcDbEntity
  8
AM_6
100
AcDbText
 10
7.687494587898255
 20
2.7812434375
 30
0.0
 40
0.5
  1
GT Wide Slot Take-Up Bearings -(Medium Duty)
100
AcDbAttributeDefinition
  3

  2
NT
 70
     8
280
     0
  0
ATTDEF
  5
75
330
6E
100
AcDbEntity
  8
AM_6
100
AcDbText
 10
7.687494587898255
 20
2.2812434375
 30
0.0
 40
0.5
  1
136181
100
AcDbAttributeDefinition
  3

  2
NB
 70
     8
280
     0
  0
ATTDEF
  5
76
330
6E
100
AcDbEntity
  8
AM_6
100
AcDbText
 10
7.687494587898255
 20
1.7812434375
 30
0.0
 40
0.5
  1
$PN.$LUBE.
100
AcDbAttributeDefinition
  3

  2
NBSYN
 70
     8
280
     0
  0
ATTDEF
  5
77
330
6E
100
AcDbEntity
  8
AM_6
100
AcDbText
 10
7.687494587898255
 20
1.2812434375
 30
0.0
 40
0.5
  1
136181
100
AcDbAttributeDefinition
  3

  2
LINA
 70
     8
280
     0
  0
ATTDEF
  5
78
330
6E
100
AcDbEntity
  8
AM_6
100
AcDbText
 10
7.687494587898255
 20
0.7812434375000001
 30
0.0
 40
0.5
  1
214
100
AcDbAttributeDefinition
  3

  2
SERIES
 70
     8
280
     0
  0
ATTDEF
  5
79
330
6E
100
AcDbEntity
  8
AM_6
100
AcDbText
 10
7.687494587898255
 20
0.2812434375000001
 30
0.0
 40
0.5
  1
2-7/16
100
AcDbAttributeDefinition
  3

  2
SS
 70
     8
280
     0
  0
ATTDEF
  5
7A
330
6E
100
AcDbEntity
  8
AM_6
100
AcDbText
 10
7.687494587898255
 20
-0.2187565624999999
 30
0.0
 40
0.5
  1
136181
100
AcDbAttributeDefinition
  3

  2
PN
 70
     8
280
     0
  0
ATTDEF
  5
7B
330
6E
100
AcDbEntity
  8
AM_6
100
AcDbText
 10
7.687494587898255
 20
-0.7187565624999999
 30
0.0
 40
0.5
  1
WSTU-GTM-207
100
AcDbAttributeDefinition
  3

  2
DESCRIPTION
 70
     8
280
     0
  0
ATTDEF
  5
7C
330
6E
100
AcDbEntity
  8
AM_6
100
AcDbText
 10
7.687494587898255
 20
-1.2187565625
 30
0.0
 40
0.5
  1
2-25/64
100
AcDbAttributeDefinition
  3

  2
A
 70
     8
280
     0
  0
ATTDEF
  5
7D
330
6E
100
AcDbEntity
  8
AM_6
100
AcDbText
 10
7.687494587898255
 20
-1.7187565625
 30
0.0
 40
0.5
  1
8-9/16
100
AcDbAttributeDefinition
  3

  2
B
 70
     8
280
     0
  0
ATTDEF
  5
7E
330
6E
100
AcDbEntity
  8
AM_6
100
AcDbText
 10
7.687494587898255
 20
-2.2187565625
 30
0.0
 40
0.5
  1
1.047/1.077
100
AcDbAttributeDefinition
  3

  2
C
 70
     8
280
     0
  0
ATTDEF
  5
7F
330
6E
100
AcDbEntity
  8
AM_6
100
AcDbText
 10
7.687494587898255
 20
-2.7187565625
 30
0.0
 40
0.5
  1
4-3/4
100
AcDbAttributeDefinition
  3

  2
D
 70
     8
280
     0
  0
ATTDEF
  5
80
330
6E
100
AcDbEntity
  8
AM_6
100
AcDbText
 10
7.687494587898255
 20
-3.2187565625
 30
0.0
 40
0.5
  1
5-3/8
100
AcDbAttributeDefinition
  3

  2
E
 70
     8
280
     0
  0
ATTDEF
  5
81
330
6E
100
AcDbEntity
  8
AM_6
100
AcDbText
 10
7.687494587898255
 20
-3.7187565625
 30
0.0
 40
0.5
  1
1-1/2
100
AcDbAttributeDefinition
  3

  2
F
 70
     8
280
     0
  0
ATTDEF
  5
82
330
6E
100
AcDbEntity
  8
AM_6
100
AcDbText
 10
7.687494587898255
 20
-4.218756562499999
 30
0.0
 40
0.5
  1
13/16
100
AcDbAttributeDefinition
  3

  2
G
 70
     8
280
     0
  0
ATTDEF
  5
83
330
6E
100
AcDbEntity
  8
AM_6
100
AcDbText
 10
7.687494587898255
 20
-4.718756562499999
 30
0.0
 40
0.5
  1
1-1/4
100
AcDbAttributeDefinition
  3

  2
H
 70
     8
280
     0
  0
ATTDEF
  5
84
330
6E
100
AcDbEntity
  8
AM_6
100
AcDbText
 10
7.687494587898255
 20
-5.218756562499999
 30
0.0
 40
0.5
  1
4-3/8
100
AcDbAttributeDefinition
  3

  2
J
 70
     8
280
     0
  0
ATTDEF
  5
85
330
6E
100
AcDbEntity
  8
AM_6
100
AcDbText
 10
7.687494587898255
 20
-5.718756562499999
 30
0.0
 40
0.5
  1
2-3/4
100
AcDbAttributeDefinition
  3

  2
K
 70
     8
280
     0
  0
ATTDEF
  5
86
330
6E
100
AcDbEntity
  8
AM_6
100
AcDbText
 10
7.687494587898255
 20
-6.218756562499999
 30
0.0
 40
0.5
  1
3-13/16
100
AcDbAttributeDefinition
  3

  2
L
 70
     8
280
     0
  0
ATTDEF
  5
87
330
6E
100
AcDbEntity
  8
AM_6
100
AcDbText
 10
7.687494587898255
 20
-6.718756562499999
 30
0.0
 40
0.5
  1
5.923/5.953
100
AcDbAttributeDefinition
  3

  2
M
 70
     8
280
     0
  0
ATTDEF
  5
88
330
6E
100
AcDbEntity
  8
AM_6
100
AcDbText
 10
7.687494587898255
 20
-7.218756562499999
 30
0.0
 40
0.5
  1
6-9/16
100
AcDbAttributeDefinition
  3

  2
N
 70
     8
280
     0
  0
ATTDEF
  5
89
330
6E
100
AcDbEntity
  8
AM_6
100
AcDbText
 10
7.687494587898255
 20
-7.718756562499999
 30
0.0
 40
0.5
  1
7/8
100
AcDbAttributeDefinition
  3

  2
R
 70
     8
280
     0
  0
ATTDEF
  5
8A
330
6E
100
AcDbEntity
  8
AM_6
100
AcDbText
 10
7.687494587898255
 20
-8.2187565625
 30
0.0
 40
0.5
  1
1-33/64
100
AcDbAttributeDefinition
  3

  2
S
 70
     8
280
     0
  0
ATTDEF
  5
8B
330
6E
100
AcDbEntity
  8
AM_6
100
AcDbText
 10
7.687494587898255
 20
-8.7187565625
 30
0.0
 40
0.5
  1
2-3/4
100
AcDbAttributeDefinition
  3

  2
T
 70
     8
280
     0
  0
ATTDEF
  5
8C
330
6E
100
AcDbEntity
  8
AM_6
100
AcDbText
 10
7.687494587898255
 20
-9.2187565625
 30
0.0
 40
0.5
  1
1-15/32
100
AcDbAttributeDefinition
  3

  2
Z
 70
     8
280
     0
  0
ATTDEF
  5
8D
330
6E
100
AcDbEntity
  8
AM_6
100
AcDbText
 10
7.687494587898255
 20
-9.7187565625
 30
0.0
 40
0.5
  1
baldor
100
AcDbAttributeDefinition
  3

  2
COMPANY
 70
     8
280
     0
  0
INSERT
  5
8F
330
6E
100
AcDbEntity
  8
0
100
AcDbBlockReference
  2
2_405016_Inch_0_in_136181_2
 10
0.0
 20
0.0
 30
0.0
  0
INSERT
  5
109
330
6E
100
AcDbEntity
  8
0
100
AcDbBlockReference
  2
3_129526I_0_in_136181_2
 10
0.0
 20
0.0
 30
0.0
  0
INSERT
  5
14C
330
6E
100
AcDbEntity
  8
0
100
AcDbBlockReference
  2
4_129935_0_in_136181_2
 10
0.0
 20
0.0
 30
0.0
  0
INSERT
  5
1A4
330
6E
100
AcDbEntity
  8
0
100
AcDbBlockReference
  2
5_WSTU_GT_14I_0_in_136181_2
 10
0.0
 20
0.0
 30
0.0
  0
ENDBLK
  5
71
330
6E
100
AcDbEntity
  8
0
100
AcDbBlockEnd
  0
BLOCK
  5
90
330
8E
100
AcDbEntity
  8
0
100
AcDbBlockBegin
  2
2_405016_Inch_0_in_136181_2
 70
     2
 10
0.0
 20
0.0
 30
0.0
  3
2_405016_Inch_0_in_136181_2
  1

  0
ATTDEF
  5
92
330
8E
100
AcDbEntity
  8
AM_6
100
AcDbText
 10
5.218750000001078
 20
-1.38567569835516
 30
0.0
 40
0.5
  1
405016 -Inch
100
AcDbAttributeDefinition
  3

  2
NN
 70
     8
280
     0
  0
ATTDEF
  5
93
330
8E
100
AcDbEntity
  8
AM_6
100
AcDbText
 10
5.218750000001078
 20
-1.88567569835516
 30
0.0
 40
0.5
  1
Grease Fitting
100
AcDbAttributeDefinition
  3

  2
NT
 70
     8
280
     0
  0
ATTDEF
  5
94
330
8E
100
AcDbEntity
  8
AM_6
100
AcDbText
 10
5.218750000001078
 20
-2.38567569835516
 30
0.0
 40
0.5
  1
405016-Inch
100
AcDbAttributeDefinition
  3

  2
NB
 70
     8
280
     0
  0
ATTDEF
  5
95
330
8E
100
AcDbEntity
  8
AM_6
100
AcDbText
 10
5.218750000001078
 20
-2.88567569835516
 30
0.0
 40
0.5
  1
$MN.-Inch
100
AcDbAttributeDefinition
  3

  2
NBSYN
 70
     8
280
     0
  0
ATTDEF
  5
96
330
8E
100
AcDbEntity
  8
AM_6
100
AcDbText
 10
5.218750000001078
 20
-3.38567569835516
 30
0.0
 40
0.5
  1
405016
100
AcDbAttributeDefinition
  3

  2
LINA
 70
     8
280
     0
  0
ATTDEF
  5
97
330
8E
100
AcDbEntity
  8
AM_6
100
AcDbText
 10
5.218750000001078
 20
-3.88567569835516
 30
0.0
 40
0.5
  1
405016
100
AcDbAttributeDefinition
  3

  2
MN
 70
     8
280
     0
  0
ATTDEF
  5
98
330
8E
100
AcDbEntity
  8
AM_6
100
AcDbText
 10
5.218750000001078
 20
-4.38567569835516
 30
0.0
 40
0.5
  1
7/16 HEX
100
AcDbAttributeDefinition
  3

  2
H
 70
     8
280
     0
  0
ATTDEF
  5
99
330
8E
100
AcDbEntity
  8
AM_6
100
AcDbText
 10
5.218750000001078
 20
-4.88567569835516
 30
0.0
 40
0.5
  1
0.383
100
AcDbAttributeDefinition
  3

  2
NDR
 70
     8
280
     0
  0
ATTDEF
  5
9A
330
8E
100
AcDbEntity
  8
AM_6
100
AcDbText
 10
5.218750000001078
 20
-5.38567569835516
 30
0.0
 40
0.5
  1
0.337
100
AcDbAttributeDefinition
  3

  2
KDR
 70
     8
280
     0
  0
ATTDEF
  5
9B
330
8E
100
AcDbEntity
  8
AM_6
100
AcDbText
 10
5.218750000001078
 20
-5.88567569835516
 30
0.0
 40
0.5
  1
0.1575
100
AcDbAttributeDefinition
  3

  2
BZE
 70
     8
280
     0
  0
ATTDEF
  5
9C
330
8E
100
AcDbEntity
  8
AM_6
100
AcDbText
 10
5.218750000001078
 20
-6.38567569835516
 30
0.0
 40
0.5
  1
0.4375
100
AcDbAttributeDefinition
  3

  2
HEX
 70
     8
280
     0
  0
ATTDEF
  5
9D
330
8E
100
AcDbEntity
  8
AM_6
100
AcDbText
 10
5.218750000001078
 20
-6.88567569835516
 30
0.0
 40
0.5
  1
0.281250
100
AcDbAttributeDefinition
  3

  2
HEX2
 70
     8
280
     0
  0
ATTDEF
  5
9E
330
8E
100
AcDbEntity
  8
AM_6
100
AcDbText
 10
5.218750000001078
 20
-7.38567569835516
 30
0.0
 40
0.5
  1
baldor
100
AcDbAttributeDefinition
  3

  2
COMPANY
 70
     8
280
     0
  0
LWPOLYLINE
  5
A1
330
8E
100
AcDbEntity
  8
AM_9
100
AcDbPolyline
 90
        5
 70
     0
 43
0.0
 10
-0.1791093260592888
 20
-1.990488809059826
 10
-0.1842540823997056
 20
-1.957420119967152
 10
-0.1862220679364952
 20
-1.923062409178915
 10
-0.1844124966919383
 20
-1.886876446285356
 10
-0.1791093260592888
 20
-1.849863809059826
  0
LINE
  5
A2
330
8E
100
AcDbEntity
  8
AM_9
100
AcDbLine
 10
-0.1510741298357572
 20
-1.84332729571137
 30
0.0
 11
-0.1791093260592888
 21
-1.849863809059826
 31
0.0
  0
LWPOLYLINE
  5
A3
330
8E
100
AcDbEntity
  8
AM_9
100
AcDbPolyline
 90
        5
 70
     0
 43
0.0
 10
-0.1791093260592888
 20
-1.849863809059826
 10
-0.198835512140694
 20
-1.818438517736611
 10
-0.2156330920108726
 20
-1.785747724328328
 10
-0.2290462109660022
 20
-1.751256153690794
 10
-0.2389369657326278
 20
-1.715919092407283
  0
LINE
  5
A4
330
8E
100
AcDbEntity
  8
AM_9
100
AcDbLine
 10
-0.2099962668917055
 20
-1.709171457656344
 30
0.0
 11
-0.2389369657326278
 21
-1.715919092407283
 31
0.0
  0
LINE
  5
A5
330
8E
100
AcDbEntity
  8
AM_9
100
AcDbLine
 10
-0.2389369657326278
 20
-1.715919092407283
 30
0.0
 11
-0.2711532636537958
 21
-1.720368123437406
 31
0.0
  0
LWPOLYLINE
  5
A6
330
8E
100
AcDbEntity
  8
AM_9
100
AcDbPolyline
 90
        3
 70
     0
 43
0.0
 10
-0.2813919000363601
 20
-1.721503048956784
 10
-0.2911775952746244
 20
-1.72230559349426
 10
-0.2987675689889719
 20
-1.722600066725467
  0
LWPOLYLINE
  5
A7
330
8E
100
AcDbEntity
  8
AM_9
100
AcDbPolyline
 90
        5
 70
     0
 43
0.0
 10
-0.2389369657326278
 20
-1.997169092407284
 10
-0.2295338871417797
 20
-1.99674806213629
 10
-0.2166871171046322
 20
-1.995552555641742
 10
-0.1996402057054679
 20
-1.993426787031713
 10
-0.1791093260592888
 20
-1.990488809059826
  0
LINE
  5
A8
330
8E
100
AcDbEntity
  8
AM_9
100
AcDbLine
 10
-0.1510741298357572
 20
-1.98395229571137
 30
0.0
 11
-0.1791093260592888
 21
-1.990488809059826
 31
0.0
  0
LINE
  5
A9
330
8E
100
AcDbEntity
  8
AM_9
100
AcDbLine
 10
-0.452415808934145
 20
-2.010004016496842
 30
0.0
 11
-0.377466453400095
 21
-2.028530662014441
 31
0.0
  0
LINE
  5
AA
330
8E
100
AcDbEntity
  8
AM_9
100
AcDbLine
 10
-0.4395859245204076
 20
-1.762099390582633
 30
0.0
 11
-0.4986131040655764
 21
-1.811863178260487
 31
0.0
  0
LWPOLYLINE
  5
AB
330
8E
100
AcDbEntity
  8
AM_9
100
AcDbPolyline
 90
        3
 70
     0
 43
0.0
 10
-0.2689146070947223
 20
-1.715639734350518
 10
-0.2512755937295761
 20
-1.712988843014547
 10
-0.2360765106845276
 20
-1.710937592413266
  0
LWPOLYLINE
  5
AC
330
8E
100
AcDbEntity
  8
AM_9
100
AcDbPolyline
 90
       10
 70
     0
 43
0.0
 10
-0.3767959983448246
 20
-1.767843796671692
 10
-0.3795248449422867
 20
-1.765459854365564
 10
-0.3883477303723807
 20
-1.759183932403488
 10
-0.3970788935720732
 20
-1.754988811992115
 10
-0.4058290752508563
 20
-1.752658725738986
 10
-0.4145977068525179
 20
-1.752145586023471
 10
-0.424036277573166
 20
-1.753702485974736
 10
-0.4324742256508095
 20
-1.757200217124229
 10
-0.4397739738945842
 20
-1.76225879235589
 10
-0.4406003225723655
 20
-1.762980125571485
  0
LWPOLYLINE
  5
AD
330
8E
100
AcDbEntity
  8
AM_9
100
AcDbPolyline
 90
       10
 70
     0
 43
0.0
 10
-0.3787857026438616
 20
-2.028183829008608
 10
-0.3770684330862348
 20
-2.028627165322661
 10
-0.3682948380828837
 20
-2.029802995412083
 10
-0.3595939836589295
 20
-2.029146072063154
 10
-0.3507179381396728
 20
-2.026435073713673
 10
-0.3429280817435323
 20
-2.022006123572166
 10
-0.3362427289610406
 20
-2.016156105422772
 10
-0.3305095199419341
 20
-2.008920613287353
 10
-0.3255989239451146
 20
-2.000087660626891
 10
-0.3247442267926894
 20
-1.998174317211111
  0
LWPOLYLINE
  5
AE
330
8E
100
AcDbEntity
  8
AM_9
100
AcDbPolyline
 90
        4
 70
     0
 43
0.0
 10
-0.0000000000000002
 20
-1.509528700151693
 10
0.0544416102741494
 20
-1.540076042662265
 10
0.0818700010907649
 20
-1.554690219638269
 10
0.1093749999999998
 20
-1.56875
  0
LWPOLYLINE
  5
AF
330
8E
100
AcDbEntity
  8
AM_9
100
AcDbPolyline
 90
        4
 70
     0
 43
0.0
 10
-0.1093750000000001
 20
-1.56875
 10
-0.0820312500000001
 20
-1.554774417998001
 10
-0.0546875000000001
 20
-1.540209559607483
 10
-0.0000000000000002
 20
-1.509528700151693
  0
LWPOLYLINE
  5
B0
330
8E
100
AcDbEntity
  8
AM_9
100
AcDbPolyline
 90
        6
 70
     0
 43
0.0
 10
-0.1510741298357572
 20
-1.98395229571137
 10
-0.1564222384464444
 20
-1.983896258798399
 10
-0.1639940363880806
 20
-1.984335121917566
 10
-0.1744063212866124
 20
-1.985396289109958
 10
-0.1876759562813859
 20
-1.987113121169831
 10
-0.2099962668917055
 20
-1.990421457656344
  0
LWPOLYLINE
  5
B1
330
8E
100
AcDbEntity
  8
AM_9
100
AcDbPolyline
 90
        3
 70
     0
 43
0.0
 10
-0.1428824704276321
 20
-1.890065933954416
 10
-0.1427138007556464
 20
-1.892117212109331
 10
-0.1419585098156051
 20
-1.911519408754154
  0
LWPOLYLINE
  5
B2
330
8E
100
AcDbEntity
  8
AM_9
100
AcDbPolyline
 90
        3
 70
     0
 43
0.0
 10
-0.1510741298357572
 20
-1.84332729571137
 10
-0.1458778226760521
 20
-1.867260622598914
 10
-0.1428824704276321
 20
-1.890065933954416
  0
LWPOLYLINE
  5
B3
330
8E
100
AcDbEntity
  8
AM_9
100
AcDbPolyline
 90
        3
 70
     0
 43
0.0
 10
-0.1810175080358803
 20
-1.754329256546669
 10
-0.1805491420332304
 20
-1.755206884363538
 10
-0.1765789831125444
 20
-1.762955855542361
  0
LWPOLYLINE
  5
B4
330
8E
100
AcDbEntity
  8
AM_9
100
AcDbPolyline
 90
        3
 70
     0
 43
0.0
 10
-0.2099962668917055
 20
-1.709171457656344
 10
-0.194357301502906
 20
-1.731742854288234
 10
-0.1810175080358803
 20
-1.754329256546669
  0
LWPOLYLINE
  5
B5
330
8E
100
AcDbEntity
  8
AM_9
100
AcDbPolyline
 90
        4
 70
     0
 43
0.0
 10
-0.2258378743019628
 20
-1.709802666893888
 10
-0.2189176876709016
 20
-1.709260369847584
 10
-0.2138633349839129
 20
-1.7090809118622
 10
-0.2099962668917055
 20
-1.709171457656344
  0
LWPOLYLINE
  5
B6
330
8E
100
AcDbEntity
  8
AM_9
100
AcDbPolyline
 90
        5
 70
     0
 43
0.0
 10
-0.1420218581172627
 20
-1.917181560552766
 10
-0.1420496512545707
 20
-1.918316312422038
 10
-0.1441228263802216
 20
-1.945345324422914
 10
-0.1470795994472238
 20
-1.96458829813727
 10
-0.1510741298357572
 20
-1.98395229571137
  0
LINE
  5
B7
330
8E
100
AcDbEntity
  8
AM_9
100
AcDbLine
 10
-0.1419585098156051
 20
-1.911519408754154
 30
0.0
 11
-0.1420218581172627
 21
-1.917181560552766
 31
0.0
  0
LWPOLYLINE
  5
B8
330
8E
100
AcDbEntity
  8
AM_9
100
AcDbPolyline
 90
        3
 70
     0
 43
0.0
 10
-0.1597802368934126
 20
-1.80582940319878
 10
-0.1549033058439657
 20
-1.824357171961479
 10
-0.1510741298357572
 20
-1.84332729571137
  0
LWPOLYLINE
  5
B9
330
8E
100
AcDbEntity
  8
AM_9
100
AcDbPolyline
 90
        3
 70
     0
 43
0.0
 10
-0.1765789831125444
 20
-1.762955855542361
 10
-0.168899767719981
 20
-1.779960167846305
 10
-0.1684053449137645
 20
-1.781172588811272
  0
ELLIPSE
  5
BA
330
8E
100
AcDbEntity
  8
AM_9
100
AcDbEllipse
 10
-0.2013892028241863
 20
-1.84702024483734
 30
0.0
 11
-0.03193085011438221
 21
0.1369518580960916
 31
0.0
210
0.0
220
0.0
230
1.0
 40
0.3659981507706609
 41
2.150416404658174
 42
6.13994693963692
  0
LWPOLYLINE
  5
BB
330
8E
100
AcDbEntity
  8
AM_9
100
AcDbPolyline
 90
        3
 70
     0
 43
0.0
 10
-0.3055458577949632
 20
-1.811602494962034
 10
-0.3030753670497809
 20
-1.837672855181632
 10
-0.2987675689889719
 20
-1.863225066725467
  0
LWPOLYLINE
  5
BC
330
8E
100
AcDbEntity
  8
AM_9
100
AcDbPolyline
 90
        4
 70
     0
 43
0.0
 10
-0.260230468443121
 20
-1.766817949924796
 10
-0.2616913382589204
 20
-1.7521612730526
 10
-0.2647402074337708
 20
-1.73370477011276
 10
-0.2689146070947223
 20
-1.715639734350518
  0
LINE
  5
BD
330
8E
100
AcDbEntity
  8
AM_9
100
AcDbLine
 10
-0.2689146070947223
 20
-1.715639734350518
 30
0.0
 11
-0.2987675689889719
 21
-1.722600066725467
 31
0.0
  0
LWPOLYLINE
  5
BE
330
8E
100
AcDbEntity
  8
AM_9
100
AcDbPolyline
 90
        3
 70
     0
 43
0.0
 10
-0.2987675689889719
 20
-1.722600066725467
 10
-0.3030606061861224
 20
-1.750044122408012
 10
-0.3055458577949632
 20
-1.77738340646832
  0
LINE
  5
BF
330
8E
100
AcDbEntity
  8
AM_9
100
AcDbLine
 10
-0.2711532636537958
 20
-1.720368123437406
 30
0.0
 11
-0.2813919000363601
 21
-1.721503048956784
 31
0.0
  0
ELLIPSE
  5
C0
330
8E
100
AcDbEntity
  8
AM_9
100
AcDbEllipse
 10
-0.2467045921760208
 20
-1.857585701380858
 30
0.0
 11
-0.0319308501143827
 21
0.1369518580960943
 31
0.0
210
0.0
220
0.0
230
1.0
 40
0.3659981507706672
 41
2.150416404658199
 42
6.139946939636895
  0
ELLIPSE
  5
C1
330
8E
100
AcDbEntity
  8
AM_9
100
AcDbEllipse
 10
-0.2467045921760224
 20
-1.857585701380858
 30
0.0
 11
-0.03193085011438183
 21
0.1369518580960912
 31
0.0
210
0.0
220
0.0
230
1.0
 40
0.3659981507706651
 41
1.202401067454659
 42
1.951156734850515
  0
LWPOLYLINE
  5
C2
330
8E
100
AcDbEntity
  8
AM_9
100
AcDbPolyline
 90
        3
 70
     0
 43
0.0
 10
-0.3055458577949632
 20
-1.77738340646832
 10
-0.3064767622622303
 20
-1.794619806845232
 10
-0.3055458577949632
 20
-1.811602494962034
  0
ELLIPSE
  5
C3
330
8E
100
AcDbEntity
  8
AM_9
100
AcDbEllipse
 10
-0.2467045921760267
 20
-1.857585701380853
 30
0.0
 11
-0.03193085011437884
 21
0.1369518580960871
 31
0.0
210
0.0
220
0.0
230
1.0
 40
0.3659981507706518
 41
0.0560213022649609
 42
0.8626327579757862
  0
LWPOLYLINE
  5
C4
330
8E
100
AcDbEntity
  8
AM_9
100
AcDbPolyline
 90
       14
 70
     0
 43
0.0
 10
-0.3250147427142146
 20
-1.998795223459058
 10
-0.3249161341983984
 20
-1.998583235929458
 10
-0.3238306268744421
 20
-1.996648981900165
 10
-0.321232130662053
 20
-1.993026399735969
 10
-0.3167284702879263
 20
-1.9882004137165
 10
-0.3099905514541211
 20
-1.982813988808677
 10
-0.3009726808828707
 20
-1.977742175224578
 10
-0.2902355711166554
 20
-1.973973585123445
 10
-0.2789437149347719
 20
-1.972176274837122
 10
-0.2684013166482548
 20
-1.972362279326062
 10
-0.2596120670440709
 20
-1.973972646353085
 10
-0.2530561814651098
 20
-1.976203256986168
 10
-0.2487393924947468
 20
-1.978320810299277
 10
-0.2463957470922536
 20
-1.979809465511374
  0
LWPOLYLINE
  5
C5
330
8E
100
AcDbEntity
  8
AM_9
100
AcDbPolyline
 90
        4
 70
     0
 43
0.0
 10
-0.2457249882508971
 20
-1.980321960916105
 10
-0.2457274506082358
 20
-1.980319833772018
 10
-0.2464929325813824
 20
-1.979581074439564
 10
-0.2472477799196712
 20
-1.978783001979886
  0
LWPOLYLINE
  5
C6
330
8E
100
AcDbEntity
  8
AM_9
100
AcDbPolyline
 90
        3
 70
     0
 43
0.0
 10
-0.300731147148413
 20
-1.748915520142407
 10
-0.3001809630685969
 20
-1.747256002115264
 10
-0.3001080482840256
 20
-1.747072263717043
  0
LWPOLYLINE
  5
C7
330
8E
100
AcDbEntity
  8
AM_9
100
AcDbPolyline
 90
       14
 70
     0
 43
0.0
 10
-0.3002772366897274
 20
-1.747429936662691
 10
-0.3015231745932861
 20
-1.749588099680314
 10
-0.3043300060131838
 20
-1.753383124121105
 10
-0.3090874956497255
 20
-1.758314564804039
 10
-0.3161060482869671
 20
-1.763714109311036
 10
-0.3253745318910193
 20
-1.768680193535626
 10
-0.3362474489943364
 20
-1.772235677791195
 10
-0.3475172057674625
 20
-1.773781954690395
 10
-0.3578901864575862
 20
-1.773387057775248
 10
-0.3664267336621669
 20
-1.771658535544776
 10
-0.3727059544813447
 20
-1.769406673878193
 10
-0.376769411663269
 20
-1.767341614441101
 10
-0.3788969994192795
 20
-1.765954197382362
 10
-0.3793664691943859
 20
-1.765592117111017
  0
LINE
  5
C8
330
8E
100
AcDbEntity
  8
AM_9
100
AcDbLine
 10
-0.177120771554662
 20
-1.728411692407327
 30
0.0
 11
-0.2263662233581053
 21
-1.739893458059951
 31
0.0
  0
LINE
  5
C9
330
8E
100
AcDbEntity
  8
AM_9
100
AcDbLine
 10
-0.1764121822902711
 20
-1.95414703161473
 30
0.0
 11
-0.1343592486638227
 21
-1.944342229115782
 31
0.0
  0
LWPOLYLINE
  5
CA
330
8E
100
AcDbEntity
  8
AM_9
100
AcDbPolyline
 90
       20
 70
     0
 43
0.0
 10
-0.1343659249938089
 20
-1.94434378540361
 10
-0.1293028157827818
 20
-1.941740967168627
 10
-0.1247141396218193
 20
-1.936167196040507
 10
-0.1208880884981782
 20
-1.927547239076489
 10
-0.118154598914599
 20
-1.916630991490922
 10
-0.1164278875396129
 20
-1.903086212655024
 10
-0.1158549073091555
 20
-1.888080271317741
 10
-0.1164156227038169
 20
-1.871158286749774
 10
-0.1180609686233503
 20
-1.853754703027538
 10
-0.1208367673933813
 20
-1.835357393511457
 10
-0.1245107513506024
 20
-1.817497455120003
 10
-0.1291842652280563
 20
-1.799672481606625
 10
-0.134472979061152
 20
-1.7833460564441
 10
-0.140518627090196
 20
-1.768078872764631
 10
-0.1468270783017122
 20
-1.755120478489193
 10
-0.1535654953592166
 20
-1.744131372029879
 10
-0.1601799433259584
 20
-1.736018942862664
 10
-0.1668493358980662
 20
-1.730570477436415
 10
-0.1731116383367607
 20
-1.728230939756072
 10
-0.1748074365153155
 20
-1.728129437631596
  0
LINE
  5
CB
330
8E
100
AcDbEntity
  8
AM_9
100
AcDbLine
 10
-0.1771125901748265
 20
-1.728409785344162
 30
0.0
 11
-0.1790373738502115
 21
-1.729054054033761
 31
0.0
  0
LWPOLYLINE
  5
CC
330
8E
100
AcDbEntity
  8
AM_9
100
AcDbPolyline
 90
        3
 70
     0
 43
0.0
 10
-0.2689146070947223
 20
-1.856264734350518
 10
-0.2634308483997529
 20
-1.828640958955647
 10
-0.2602304684431306
 20
-1.801037038418517
  0
LWPOLYLINE
  5
CD
330
8E
100
AcDbEntity
  8
AM_9
100
AcDbPolyline
 90
        5
 70
     0
 43
0.0
 10
-0.179037373850178
 20
-1.883445945966246
 10
-0.1733931390117468
 20
-1.898959976006311
 10
-0.1670729780242512
 20
-1.91310797563067
 10
-0.1606047421316797
 20
-1.924705943415793
 10
-0.1545958864820512
 20
-1.933136150330647
  0
ARC
  5
CE
330
8E
100
AcDbEntity
  8
AM_9
100
AcDbCircle
 10
0.0000000000000001
 20
-1.80625
 30
0.0
 40
0.1999999999999995
100
AcDbArc
 50
219.3449993852325
 51
0.0
  0
LWPOLYLINE
  5
CF
330
8E
100
AcDbEntity
  8
AM_9
100
AcDbPolyline
 90
        6
 70
     0
 43
0.0
 10
-0.1545958864820512
 20
-1.933136150330647
 10
-0.1538031670974778
 20
-1.934084802540261
 10
-0.1472336073736394
 20
-1.940462011960484
 10
-0.1407130262602578
 20
-1.944011709638181
 10
-0.1347930597680668
 20
-1.944434256104104
 10
-0.1343659249938089
 20
-1.94434378540361
  0
LINE
  5
D0
330
8E
100
AcDbEntity
  8
AM_9
100
AcDbLine
 10
-0.2360765106845276
 20
-1.710937592413266
 30
0.0
 11
-0.2258378743019628
 21
-1.709802666893888
 31
0.0
  0
ELLIPSE
  5
D1
330
8E
100
AcDbEntity
  8
AM_9
100
AcDbEllipse
 10
-0.2013892028241878
 20
-1.847020244837346
 30
0.0
 11
-0.03193085011438302
 21
0.1369518580961
 31
0.0
210
0.0
220
0.0
230
1.0
 40
0.3659981507705642
 41
0.0560213022650222
 42
0.8626327579757226
  0
LINE
  5
D2
330
8E
100
AcDbEntity
  8
AM_9
100
AcDbLine
 10
-0.2602304684431306
 20
-1.801037038418517
 30
0.0
 11
-0.260230468443121
 21
-1.766817949924796
 31
0.0
  0
ELLIPSE
  5
D3
330
8E
100
AcDbEntity
  8
AM_9
100
AcDbEllipse
 10
-0.2013892028241857
 20
-1.847020244837341
 30
0.0
 11
-0.03193085011438376
 21
0.1369518580960982
 31
0.0
210
0.0
220
0.0
230
1.0
 40
0.3659981507706729
 41
1.144545279139748
 42
1.951156734850479
  0
LWPOLYLINE
  5
D4
330
8E
100
AcDbEntity
  8
AM_9
100
AcDbPolyline
 90
        3
 70
     0
 43
0.0
 10
-0.2099962668917055
 20
-1.990421457656344
 10
-0.2163479371246914
 20
-1.961089189975666
 10
-0.225837874301963
 20
-1.931807477599441
  0
LINE
  5
D5
330
8E
100
AcDbEntity
  8
AM_9
100
AcDbLine
 10
-0.225837874301963
 20
-1.931807477599441
 30
0.0
 11
-0.2360765106845278
 21
-1.908715725501071
 31
0.0
  0
LWPOLYLINE
  5
D6
330
8E
100
AcDbEntity
  8
AM_9
100
AcDbPolyline
 90
        4
 70
     0
 43
0.0
 10
-0.2360765106845278
 20
-1.908715725501071
 10
-0.2462091938631852
 20
-1.890171611213501
 10
-0.2570505402207575
 20
-1.873034690571682
 10
-0.2689146070947223
 20
-1.856264734350518
  0
LINE
  5
D7
330
8E
100
AcDbEntity
  8
AM_9
100
AcDbLine
 10
-0.2689146070947223
 20
-1.856264734350518
 30
0.0
 11
-0.2987675689889719
 21
-1.863225066725467
 31
0.0
  0
LWPOLYLINE
  5
D8
330
8E
100
AcDbEntity
  8
AM_9
100
AcDbPolyline
 90
        3
 70
     0
 43
0.0
 10
-0.2987675689889719
 20
-1.863225066725467
 10
-0.2912216284034026
 20
-1.891326183495197
 10
-0.2813919000363601
 20
-1.919281182044589
  0
LINE
  5
D9
330
8E
100
AcDbEntity
  8
AM_9
100
AcDbLine
 10
-0.2813919000363601
 20
-1.919281182044589
 30
0.0
 11
-0.2711532636537958
 21
-1.942372934142958
 31
0.0
  0
LWPOLYLINE
  5
DA
330
8E
100
AcDbEntity
  8
AM_9
100
AcDbPolyline
 90
        3
 70
     0
 43
0.0
 10
-0.2711532636537958
 20
-1.942372934142958
 10
-0.2561815527589922
 20
-1.970077936735335
 10
-0.2389369657326278
 20
-1.997169092407284
  0
LINE
  5
DB
330
8E
100
AcDbEntity
  8
AM_9
100
AcDbLine
 10
-0.2099962668917055
 20
-1.990421457656344
 30
0.0
 11
-0.2389369657326278
 21
-1.997169092407284
 31
0.0
  0
LWPOLYLINE
  5
DC
330
8E
100
AcDbEntity
  8
AM_9
100
AcDbPolyline
 90
        4
 70
     0
 43
0.0
 10
0.1058251145169867
 20
-1.51698020212018
 10
0.0820312499999998
 20
-1.505381832001999
 10
0.0546874999999998
 20
-1.492602940392517
 10
-0.0000000000000002
 20
-1.468596299848307
  0
LINE
  5
DD
330
8E
100
AcDbEntity
  8
AM_9
100
AcDbLine
 10
0.1093749999999998
 20
-1.51875
 30
0.0
 11
0.1058251145169867
 21
-1.51698020212018
 31
0.0
  0
LWPOLYLINE
  5
DE
330
8E
100
AcDbEntity
  8
AM_9
100
AcDbPolyline
 90
        4
 70
     0
 43
0.0
 10
-0.0000000000000002
 20
-1.468596299848307
 10
-0.0544416102741498
 20
-1.492490567611885
 10
-0.0818700010907652
 20
-1.505304781452496
 10
-0.1093750000000002
 20
-1.51875
  0
LWPOLYLINE
  5
DF
330
8E
100
AcDbEntity
  8
AM_9
100
AcDbPolyline
 90
        4
 70
     0
 43
0.0
 10
0.1093749999999998
 20
-1.56875
 10
0.1367187499999998
 20
-1.582118167998
 10
0.1640624999999998
 20
-1.594897059607483
 10
0.2187499999999998
 20
-1.618903700151693
  0
LWPOLYLINE
  5
E0
330
8E
100
AcDbEntity
  8
AM_9
100
AcDbPolyline
 90
        4
 70
     0
 43
0.0
 10
-0.2187500000000002
 20
-1.618903700151693
 10
-0.1643083897258505
 20
-1.595009432388115
 10
-0.136879998909235
 20
-1.582195218547504
 10
-0.1093750000000001
 20
-1.56875
  0
LINE
  5
E1
330
8E
100
AcDbEntity
  8
AM_9
100
AcDbLine
 10
-0.0000000000000002
 20
-1.509528700151693
 30
0.0
 11
-0.0000000000000002
 21
-1.468596299848307
 31
0.0
  0
LWPOLYLINE
  5
E2
330
8E
100
AcDbEntity
  8
AM_9
100
AcDbPolyline
 90
        4
 70
     0
 43
0.0
 10
0.2187499999999998
 20
-1.577971299848307
 10
0.1643083897258502
 20
-1.547423957337735
 10
0.1368799989092347
 20
-1.532809780361731
 10
0.1093749999999998
 20
-1.51875
  0
LWPOLYLINE
  5
E3
330
8E
100
AcDbEntity
  8
AM_9
100
AcDbPolyline
 90
        4
 70
     0
 43
0.0
 10
-0.1128823366152103
 20
-1.520508690586473
 10
-0.1367187500000001
 20
-1.532725582001999
 10
-0.1640625000000001
 20
-1.547290440392517
 10
-0.2187500000000002
 20
-1.577971299848307
  0
LINE
  5
E4
330
8E
100
AcDbEntity
  8
AM_9
100
AcDbLine
 10
-0.1093750000000002
 20
-1.51875
 30
0.0
 11
-0.1128823366152103
 21
-1.520508690586473
 31
0.0
  0
ELLIPSE
  5
E5
330
8E
100
AcDbEntity
  8
AM_9
100
AcDbEllipse
 10
-0.0000000000000001
 20
-1.80625
 30
0.0
 11
-0.2
 21
2.449293598294707E-17
 31
0.0
210
0.0
220
0.0
230
1.0
 40
0.8660254037844384
 41
0.461946020566967
 42
5.821239286612622
  0
LWPOLYLINE
  5
E6
330
8E
100
AcDbEntity
  8
AM_9
100
AcDbPolyline
 90
        3
 70
     0
 43
0.0
 10
-0.1987196988350282
 20
-1.806572804079838
 10
-0.1994144431868156
 20
-1.799707633207593
 10
-0.199999999969953
 20
-1.78600755900097
  0
LWPOLYLINE
  5
E7
330
8E
100
AcDbEntity
  8
AM_9
100
AcDbPolyline
 90
        6
 70
     0
 43
0.0
 10
-0.1790373738501785
 20
-1.883445945966246
 10
-0.1842628795203942
 20
-1.867451216295605
 10
-0.1891729979031394
 20
-1.851394458256412
 10
-0.1936098952159725
 20
-1.834627825105295
 10
-0.1971856748420372
 20
-1.817179808725254
 10
-0.1987196988350282
 20
-1.806572804079838
  0
LINE
  5
E8
330
8E
100
AcDbEntity
  8
AM_9
100
AcDbLine
 10
-0.2000000000000001
 20
-1.7328125
 30
0.0
 11
-0.2000000000000001
 21
-1.786096885409147
 31
0.0
  0
LINE
  5
E9
330
8E
100
AcDbEntity
  8
AM_9
100
AcDbLine
 10
0.1999999999999998
 20
-1.80625
 30
0.0
 11
0.1999999999999998
 21
-1.7328125
 31
0.0
  0
LWPOLYLINE
  5
EA
330
8E
100
AcDbEntity
  8
AM_9
100
AcDbPolyline
 90
        6
 70
     0
 43
0.0
 10
-0.1986022251100831
 20
-1.766656498599934
 10
-0.196164942998426
 20
-1.755297828583382
 10
-0.1920694300574959
 20
-1.744245849846331
 10
-0.1870948030566196
 20
-1.735976804053058
 10
-0.1815005947613931
 20
-1.730453487144151
 10
-0.1790373738501785
 20
-1.729054054033754
  0
LWPOLYLINE
  5
EB
330
8E
100
AcDbEntity
  8
AM_9
100
AcDbPolyline
 90
        4
 70
     0
 43
0.0
 10
-0.199999999969953
 20
-1.78600755900097
 10
-0.1999786710855129
 20
-1.783497492794572
 10
-0.1988321115509054
 20
-1.768227046299115
 10
-0.1986022251100831
 20
-1.766656498599934
  0
LWPOLYLINE
  5
EC
330
8E
100
AcDbEntity
  8
AM_9
100
AcDbPolyline
 90
        4
 70
     0
 43
0.0
 10
0.1093749999999998
 20
-1.896875
 10
0.0820312499999998
 20
-1.910243167998
 10
0.0546874999999998
 20
-1.923022059607483
 10
-0.0000000000000002
 20
-1.947028700151693
  0
LINE
  5
ED
330
8E
100
AcDbEntity
  8
AM_9
100
AcDbLine
 10
0.1128839577551258
 20
-1.89511549420016
 30
0.0
 11
0.1093749999999998
 21
-1.896875
 31
0.0
  0
LWPOLYLINE
  5
EE
330
8E
100
AcDbEntity
  8
AM_9
100
AcDbPolyline
 90
        4
 70
     0
 43
0.0
 10
0.2187499999999998
 20
-1.837653700151693
 10
0.1643083897258502
 20
-1.868201042662265
 10
0.1368799989092347
 20
-1.882815219638269
 10
0.1128839577551258
 20
-1.89511549420016
  0
LINE
  5
EF
330
8E
100
AcDbEntity
  8
AM_9
100
AcDbLine
 10
0.2187499999999998
 20
-1.837653700151693
 30
0.0
 11
0.2187499999999998
 21
-1.577971299848307
 31
0.0
  0
LWPOLYLINE
  5
F0
330
8E
100
AcDbEntity
  8
AM_9
100
AcDbPolyline
 90
        4
 70
     0
 43
0.0
 10
0.1093749999999998
 20
-1.846875
 10
0.1367187499999998
 20
-1.833506832001999
 10
0.1640624999999998
 20
-1.820727940392517
 10
0.2187499999999998
 20
-1.796721299848307
  0
LWPOLYLINE
  5
F1
330
8E
100
AcDbEntity
  8
AM_9
100
AcDbPolyline
 90
        4
 70
     0
 43
0.0
 10
-0.0000000000000002
 20
-1.906096299848307
 10
0.0544416102741494
 20
-1.875548957337735
 10
0.0818700010907649
 20
-1.860934780361731
 10
0.1093749999999998
 20
-1.846875
  0
LINE
  5
F2
330
8E
100
AcDbEntity
  8
AM_9
100
AcDbLine
 10
-0.2187500000000002
 20
-1.837653700151693
 30
0.0
 11
-0.2187500000000002
 21
-1.577971299848307
 31
0.0
  0
LWPOLYLINE
  5
F3
330
8E
100
AcDbEntity
  8
AM_9
100
AcDbPolyline
 90
        4
 70
     0
 43
0.0
 10
-0.1093750000000001
 20
-1.896875
 10
-0.1367187500000001
 20
-1.882899417998
 10
-0.1640625000000001
 20
-1.868334559607483
 10
-0.2187500000000002
 20
-1.837653700151693
  0
LINE
  5
F4
330
8E
100
AcDbEntity
  8
AM_9
100
AcDbLine
 10
-0.1058232022118748
 20
-1.898645748488349
 30
0.0
 11
-0.1093750000000001
 21
-1.896875
 31
0.0
  0
LWPOLYLINE
  5
F5
330
8E
100
AcDbEntity
  8
AM_9
100
AcDbPolyline
 90
        4
 70
     0
 43
0.0
 10
-0.0000000000000002
 20
-1.947028700151693
 10
-0.0544416102741497
 20
-1.923134432388115
 10
-0.0818700010907653
 20
-1.910320218547504
 10
-0.1058232022118748
 20
-1.898645748488349
  0
LINE
  5
F6
330
8E
100
AcDbEntity
  8
AM_9
100
AcDbLine
 10
-0.0000000000000002
 20
-1.947028700151693
 30
0.0
 11
-0.0000000000000002
 21
-1.906096299848307
 31
0.0
  0
LWPOLYLINE
  5
F7
330
8E
100
AcDbEntity
  8
AM_9
100
AcDbPolyline
 90
        4
 70
     0
 43
0.0
 10
-0.1093750000000002
 20
-1.846875
 10
-0.0820312500000002
 20
-1.860850582002
 10
-0.0546875000000002
 20
-1.875415440392517
 10
-0.0000000000000002
 20
-1.906096299848307
  0
LWPOLYLINE
  5
F8
330
8E
100
AcDbEntity
  8
AM_9
100
AcDbPolyline
 90
        4
 70
     0
 43
0.0
 10
-0.2187500000000002
 20
-1.796721299848307
 10
-0.1643083897258506
 20
-1.820615567611885
 10
-0.1368799989092351
 20
-1.833429781452496
 10
-0.1093750000000002
 20
-1.846875
  0
LINE
  5
F9
330
8E
100
AcDbEntity
  8
AM_9
100
AcDbLine
 10
-0.2000000000000001
 20
-1.64375
 30
0.0
 11
-0.2000000000000001
 21
-1.6828125
 31
0.0
  0
LINE
  5
FA
330
8E
100
AcDbEntity
  8
AM_9
100
AcDbLine
 10
0.1999999999999998
 20
-1.6828125
 30
0.0
 11
0.1999999999999998
 21
-1.64375
 31
0.0
  0
LINE
  5
FB
330
8E
100
AcDbEntity
  8
AM_9
100
AcDbLine
 10
-0.1851454569549802
 20
-1.537559912570727
 30
0.0
 11
-0.1912304659644925
 21
-1.634772462287446
 31
0.0
  0
LINE
  5
FC
330
8E
100
AcDbEntity
  8
AM_9
100
AcDbLine
 10
0.1912304659644921
 20
-1.634772462287446
 30
0.0
 11
0.1851454569549799
 21
-1.537559912570727
 31
0.0
  0
ELLIPSE
  5
FD
330
8E
100
AcDbEntity
  8
AM_9
100
AcDbEllipse
 10
-0.0000000000000002
 20
-1.534375
 30
0.0
 11
0.1616637258772237
 21
0.0
 31
0.0
210
0.0
220
0.0
230
1.0
 40
0.8660254037844384
 41
0.0
 42
6.283185307179586
  0
ELLIPSE
  5
FE
330
8E
100
AcDbEntity
  8
AM_9
100
AcDbEllipse
 10
-0.4687499999999988
 20
-1.909356438444096
 30
0.0
 11
-0.02349716402074493
 21
0.1007796617096737
 31
0.0
210
0.0
220
0.0
230
1.0
 40
0.3659981507706653
 41
0.0
 42
6.283185307179586
  0
ELLIPSE
  5
FF
330
8E
100
AcDbEntity
  8
AM_9
100
AcDbEllipse
 10
-0.3729962569746644
 20
-1.887031086609234
 30
0.0
 11
-0.03024351534849252
 21
0.1297148559307584
 31
0.0
210
0.0
220
0.0
230
1.0
 40
0.3659981507706664
 41
0.0
 42
6.283185307179586
  0
ELLIPSE
  5
100
330
8E
100
AcDbEntity
  8
AM_9
100
AcDbEllipse
 10
-0.2013892028241882
 20
-1.847020244837341
 30
0.0
 11
-0.02497702053391707
 21
0.1071267867773893
 31
0.0
210
0.0
220
0.0
230
1.0
 40
0.365998150770668
 41
0.0
 42
6.283185307179586
  0
ELLIPSE
  5
101
330
8E
100
AcDbEntity
  8
AM_9
100
AcDbEllipse
 10
-0.0000000000000003
 20
-1.7328125
 30
0.0
 11
-0.1999999999999998
 21
2.449293598294704E-17
 31
0.0
210
0.0
220
0.0
230
1.0
 40
0.866025403784437
 41
0.0
 42
6.283185307179586
  0
ELLIPSE
  5
102
330
8E
100
AcDbEntity
  8
AM_9
100
AcDbEllipse
 10
-0.0000000000011384
 20
-1.732812499997136
 30
0.0
 11
-0.2187500000022167
 21
2.678914873161982E-17
 31
0.0
210
0.0
220
0.0
230
1.0
 40
0.8660254037892203
 41
0.0
 42
6.283185307179586
  0
ELLIPSE
  5
103
330
8E
100
AcDbEntity
  8
AM_9
100
AcDbEllipse
 10
-0.0000000000000002
 20
-1.6828125
 30
0.0
 11
-0.2187500000000009
 21
3.259629037943337E-9
 31
0.0
210
0.0
220
0.0
230
1.0
 40
0.8660254037844314
 41
0.0
 42
6.283185307179586
  0
ELLIPSE
  5
104
330
8E
100
AcDbEntity
  8
AM_9
100
AcDbEllipse
 10
-0.0000000000000002
 20
-1.6828125
 30
0.0
 11
-0.2
 21
2.449293598294706E-17
 31
0.0
210
0.0
220
0.0
230
1.0
 40
0.8660254037844384
 41
0.0
 42
6.283185307179586
  0
ELLIPSE
  5
105
330
8E
100
AcDbEntity
  8
AM_9
100
AcDbEllipse
 10
-0.0000000000000002
 20
-1.64375
 30
0.0
 11
-0.2
 21
2.449293598294707E-17
 31
0.0
210
0.0
220
0.0
230
1.0
 40
0.8660254037844384
 41
0.0
 42
6.283185307179586
  0
ELLIPSE
  5
106
330
8E
100
AcDbEntity
  8
AM_9
100
AcDbEllipse
 10
-0.0000000000000002
 20
-1.64375
 30
0.0
 11
-0.1915112338502295
 21
2.345336195354438E-17
 31
0.0
210
0.0
220
0.0
230
1.0
 40
0.8660254037844359
 41
0.0
 42
6.283185307179586
  0
ELLIPSE
  5
107
330
8E
100
AcDbEntity
  8
AM_9
100
AcDbEllipse
 10
-0.0000000000000002
 20
-1.546251782423881
 30
0.0
 11
-0.1854172907249858
 21
2.762932959926596E-9
 31
0.0
210
0.0
220
0.0
230
1.0
 40
0.8660254037844282
 41
0.0
 42
6.283185307179586
  0
ENDBLK
  5
91
330
8E
100
AcDbEntity
  8
0
100
AcDbBlockEnd
  0
BLOCK
  5
10A
330
108
100
AcDbEntity
  8
0
100
AcDbBlockBegin
  2
3_129526I_0_in_136181_2
 70
     2
 10
0.0
 20
0.0
 30
0.0
  3
3_129526I_0_in_136181_2
  1

  0
ATTDEF
  5
10C
330
108
100
AcDbEntity
  8
AM_6
100
AcDbText
 10
5.756
 20
2.459930687657697
 30
0.0
 40
0.5
  1
INS-GT B
100
AcDbAttributeDefinition
  3

  2
NN
 70
     8
280
     0
  0
ATTDEF
  5
10D
330
108
100
AcDbEntity
  8
AM_6
100
AcDbText
 10
5.756
 20
1.959930687657697
 30
0.0
 40
0.5
  1
GT Normal Duty Bearing Inserts
100
AcDbAttributeDefinition
  3

  2
NT
 70
     8
280
     0
  0
ATTDEF
  5
10E
330
108
100
AcDbEntity
  8
AM_6
100
AcDbText
 10
5.756
 20
1.459930687657697
 30
0.0
 40
0.5
  1
129526I
100
AcDbAttributeDefinition
  3

  2
NB
 70
     8
280
     0
  0
ATTDEF
  5
10F
330
108
100
AcDbEntity
  8
AM_6
100
AcDbText
 10
5.756
 20
0.9599306876576965
 30
0.0
 40
0.5
  1
$PN.I
100
AcDbAttributeDefinition
  3

  2
NBSYN
 70
     8
280
     0
  0
ATTDEF
  5
110
330
108
100
AcDbEntity
  8
AM_6
100
AcDbText
 10
5.756
 20
0.4599306876576965
 30
0.0
 40
0.5
  1
129526
100
AcDbAttributeDefinition
  3

  2
LINA
 70
     8
280
     0
  0
ATTDEF
  5
111
330
108
100
AcDbEntity
  8
AM_6
100
AcDbText
 10
5.756
 20
-0.0400693123423035
 30
0.0
 40
0.5
  1
214
100
AcDbAttributeDefinition
  3

  2
SERIES
 70
     8
280
     0
  0
ATTDEF
  5
112
330
108
100
AcDbEntity
  8
AM_6
100
AcDbText
 10
5.756
 20
-0.5400693123423035
 30
0.0
 40
0.5
  1
129526
100
AcDbAttributeDefinition
  3

  2
PN
 70
     8
280
     0
  0
ATTDEF
  5
113
330
108
100
AcDbEntity
  8
AM_6
100
AcDbText
 10
5.756
 20
-1.040069312342303
 30
0.0
 40
0.5
  1
INS-GT-14
100
AcDbAttributeDefinition
  3

  2
DESCRIPTION
 70
     8
280
     0
  0
ATTDEF
  5
114
330
108
100
AcDbEntity
  8
AM_6
100
AcDbText
 10
5.756
 20
-1.540069312342303
 30
0.0
 40
0.5
  1
2.39
100
AcDbAttributeDefinition
  3

  2
A
 70
     8
280
     0
  0
ATTDEF
  5
115
330
108
100
AcDbEntity
  8
AM_6
100
AcDbText
 10
5.756
 20
-2.040069312342303
 30
0.0
 40
0.5
  1
1.10
100
AcDbAttributeDefinition
  3

  2
C
 70
     8
280
     0
  0
ATTDEF
  5
116
330
108
100
AcDbEntity
  8
AM_6
100
AcDbText
 10
5.756
 20
-2.540069312342303
 30
0.0
 40
0.5
  1
4.9213
100
AcDbAttributeDefinition
  3

  2
D
 70
     8
280
     0
  0
ATTDEF
  5
117
330
108
100
AcDbEntity
  8
AM_6
100
AcDbText
 10
5.756
 20
-3.040069312342303
 30
0.0
 40
0.5
  1
0.26
100
AcDbAttributeDefinition
  3

  2
J
 70
     8
280
     0
  0
ATTDEF
  5
118
330
108
100
AcDbEntity
  8
AM_6
100
AcDbText
 10
5.756
 20
-3.540069312342303
 30
0.0
 40
0.5
  1
4.00
100
AcDbAttributeDefinition
  3

  2
L
 70
     8
280
     0
  0
ATTDEF
  5
119
330
108
100
AcDbEntity
  8
AM_6
100
AcDbText
 10
5.756
 20
-4.040069312342304
 30
0.0
 40
0.5
  1
#10 - 32 x 1/4
100
AcDbAttributeDefinition
  3

  2
N
 70
     8
280
     0
  0
ATTDEF
  5
11A
330
108
100
AcDbEntity
  8
AM_6
100
AcDbText
 10
5.756
 20
-4.540069312342304
 30
0.0
 40
0.5
  1
0.84000
100
AcDbAttributeDefinition
  3

  2
W
 70
     8
280
     0
  0
ATTDEF
  5
11B
330
108
100
AcDbEntity
  8
AM_6
100
AcDbText
 10
5.756
 20
-5.040069312342304
 30
0.0
 40
0.5
  1
1.58
100
AcDbAttributeDefinition
  3

  2
X
 70
     8
280
     0
  0
ATTDEF
  5
11C
330
108
100
AcDbEntity
  8
AM_6
100
AcDbText
 10
5.756
 20
-5.540069312342304
 30
0.0
 40
0.5
  1
1.55
100
AcDbAttributeDefinition
  3

  2
Y
 70
     8
280
     0
  0
ATTDEF
  5
11D
330
108
100
AcDbEntity
  8
AM_6
100
AcDbText
 10
5.756
 20
-6.040069312342304
 30
0.0
 40
0.5
  1
baldor
100
AcDbAttributeDefinition
  3

  2
COMPANY
 70
     8
280
     0
  0
LINE
  5
11E
330
108
100
AcDbEntity
  8
AM_9
100
AcDbLine
 10
-1.184998996697993
 20
-1.492063377777778
 30
0.0
 11
-0.5924989966979934
 21
-1.492063377777778
 31
0.0
  0
LINE
  5
11F
330
108
100
AcDbEntity
  8
AM_9
100
AcDbLine
 10
-0.5924989966979934
 20
1.492063377777778
 30
0.0
 11
-1.184998996697993
 21
1.492063377777778
 31
0.0
  0
LINE
  5
120
330
108
100
AcDbEntity
  8
AM_9
100
AcDbLine
 10
-0.5924989966979934
 20
1.492063377777778
 30
0.0
 11
-0.5924989966979934
 21
-1.492063377777778
 31
0.0
  0
LINE
  5
121
330
108
100
AcDbEntity
  8
AM_9
100
AcDbLine
 10
-0.5924989966979934
 20
-1.492063377777778
 30
0.0
 11
0.7559999999999999
 21
-1.539154000401321
 31
0.0
  0
LINE
  5
122
330
108
100
AcDbEntity
  8
AM_9
100
AcDbLine
 10
0.7559999999999999
 20
1.539154000401321
 30
0.0
 11
-0.5924989966979934
 21
1.492063377777778
 31
0.0
  0
LINE
  5
123
330
108
100
AcDbEntity
  8
AM_9
100
AcDbLine
 10
-0.9874989966979935
 20
-1.634920577777778
 30
0.0
 11
-0.7899989966979934
 21
-1.634920577777778
 31
0.0
  0
LINE
  5
124
330
108
100
AcDbEntity
  8
AM_9
100
AcDbLine
 10
-0.7899989966979934
 20
1.634920577777778
 30
0.0
 11
-0.9874989966979935
 21
1.634920577777778
 31
0.0
  0
LINE
  5
125
330
108
100
AcDbEntity
  8
AM_9
100
AcDbLine
 10
-0.9874989966979935
 20
1.777777777777778
 30
0.0
 11
-0.9874989966979935
 21
-1.777777777777778
 31
0.0
  0
LINE
  5
126
330
108
100
AcDbEntity
  8
AM_9
100
AcDbLine
 10
-1.140998996697993
 20
-1.777777777777778
 30
0.0
 11
-0.9874989966979935
 21
-1.777777777777778
 31
0.0
  0
LINE
  5
127
330
108
100
AcDbEntity
  8
AM_9
100
AcDbLine
 10
-0.9874989966979935
 20
1.777777777777778
 30
0.0
 11
-1.140998996697993
 21
1.777777777777778
 31
0.0
  0
LINE
  5
128
330
108
100
AcDbEntity
  8
AM_9
100
AcDbLine
 10
-0.7899989966979934
 20
1.777777777777778
 30
0.0
 11
-0.7899989966979934
 21
-1.777777777777778
 31
0.0
  0
LINE
  5
129
330
108
100
AcDbEntity
  8
AM_9
100
AcDbLine
 10
-0.7899989966979934
 20
-1.777777777777778
 30
0.0
 11
-0.55
 21
-1.777777777777778
 31
0.0
  0
LINE
  5
12A
330
108
100
AcDbEntity
  8
AM_9
100
AcDbLine
 10
-0.55
 20
1.777777777777778
 30
0.0
 11
-0.7899989966979934
 21
1.777777777777778
 31
0.0
  0
LINE
  5
12B
330
108
100
AcDbEntity
  8
AM_9
100
AcDbLine
 10
-1.184998996697993
 20
1.733777777777778
 30
0.0
 11
-1.184998996697993
 21
-1.733777777777778
 31
0.0
  0
LINE
  5
12C
330
108
100
AcDbEntity
  8
AM_9
100
AcDbLine
 10
-1.140998996697993
 20
1.777777777777778
 30
0.0
 11
-1.140998996697993
 21
-1.777777777777778
 31
0.0
  0
LINE
  5
12D
330
108
100
AcDbEntity
  8
AM_9
100
AcDbLine
 10
-1.184998996697993
 20
-1.733777777777778
 30
0.0
 11
-1.140998996697993
 21
-1.777777777777778
 31
0.0
  0
LINE
  5
12E
330
108
100
AcDbEntity
  8
AM_9
100
AcDbLine
 10
-1.140998996697993
 20
1.777777777777778
 30
0.0
 11
-1.184998996697993
 21
1.733777777777778
 31
0.0
  0
LINE
  5
12F
330
108
100
AcDbEntity
  8
AM_9
100
AcDbLine
 10
0.7559999999999999
 20
1.733777777777778
 30
0.0
 11
0.7559999999999999
 21
-1.733777777777778
 31
0.0
  0
LINE
  5
130
330
108
100
AcDbEntity
  8
AM_9
100
AcDbLine
 10
0.7559999999999999
 20
1.733777777777778
 30
0.0
 11
0.712
 21
1.777777777777778
 31
0.0
  0
LINE
  5
131
330
108
100
AcDbEntity
  8
AM_9
100
AcDbLine
 10
0.712
 20
-1.777777777777778
 30
0.0
 11
0.7559999999999999
 21
-1.733777777777778
 31
0.0
  0
LINE
  5
132
330
108
100
AcDbEntity
  8
AM_9
100
AcDbLine
 10
0.712
 20
1.777777777777778
 30
0.0
 11
0.712
 21
-1.777777777777778
 31
0.0
  0
LINE
  5
133
330
108
100
AcDbEntity
  8
AM_9
100
AcDbLine
 10
0.55
 20
-1.777777777777778
 30
0.0
 11
0.712
 21
-1.777777777777778
 31
0.0
  0
LINE
  5
134
330
108
100
AcDbEntity
  8
AM_9
100
AcDbLine
 10
0.712
 20
1.777777777777778
 30
0.0
 11
0.55
 21
1.777777777777778
 31
0.0
  0
LINE
  5
135
330
108
100
AcDbEntity
  8
AM_9
100
AcDbLine
 10
-0.3120000000000003
 20
-2.35065
 30
0.0
 11
-0.2079999999999999
 21
-2.35065
 31
0.0
  0
LINE
  5
136
330
108
100
AcDbEntity
  8
AM_9
100
AcDbLine
 10
-0.2079999999999999
 20
2.35065
 30
0.0
 11
-0.3120000000000003
 21
2.35065
 31
0.0
  0
LINE
  5
137
330
108
100
AcDbEntity
  8
AM_9
100
AcDbLine
 10
0.55
 20
2.320983290278137
 30
0.0
 11
0.55
 21
-2.320983290273529
 31
0.0
  0
ARC
  5
138
330
108
100
AcDbEntity
  8
AM_9
100
AcDbCircle
 10
0.5060000000000016
 20
-2.320983290278138
 30
0.0
 40
0.0439999999999988
100
AcDbArc
 50
291.4124745227546
 51
0.0000008537736463
  0
ARC
  5
139
330
108
100
AcDbEntity
  8
AM_9
100
AcDbCircle
 10
0.5060000000000016
 20
2.320983290278138
 30
0.0
 40
0.0439999999999985
100
AcDbArc
 50
0.0000008537736463
 51
68.58752547724531
  0
LINE
  5
13A
330
108
100
AcDbEntity
  8
AM_9
100
AcDbLine
 10
-0.5499999999999997
 20
2.320983290278137
 30
0.0
 11
-0.5499999999999997
 21
-2.320983290273529
 31
0.0
  0
ARC
  5
13B
330
108
100
AcDbEntity
  8
AM_9
100
AcDbCircle
 10
-0.5060000000000003
 20
-2.320983290278137
 30
0.0
 40
0.0439999999999995
100
AcDbArc
 50
180.0
 51
248.5875329531162
  0
ARC
  5
13C
330
108
100
AcDbEntity
  8
AM_9
100
AcDbCircle
 10
-0.5060000000000003
 20
2.320983290278137
 30
0.0
 40
0.0439999999999997
100
AcDbArc
 50
111.4124670468838
 51
180.0
  0
LINE
  5
13D
330
108
100
AcDbEntity
  8
AM_9
100
AcDbLine
 10
-0.5220634920634921
 20
2.361946251874268
 30
0.0
 11
-0.5220634920634921
 21
-2.361946251874268
 31
0.0
  0
ARC
  5
13E
330
108
100
AcDbEntity
  8
AM_9
100
AcDbCircle
 10
0.0000000000000278
 20
-1.030649999999897
 30
0.0
 40
1.430000000000107
100
AcDbArc
 50
248.5875329531164
 51
256.8427089383239
  0
ARC
  5
13F
330
108
100
AcDbEntity
  8
AM_9
100
AcDbCircle
 10
0.0000000000000279
 20
1.030649999999896
 30
0.0
 40
1.430000000000107
100
AcDbArc
 50
103.1572910616762
 51
111.4124670468836
  0
LINE
  5
140
330
108
100
AcDbEntity
  8
AM_9
100
AcDbLine
 10
-0.3255038783223923
 20
2.423110852303246
 30
0.0
 11
-0.3255038783223923
 21
-2.423110852303246
 31
0.0
  0
LINE
  5
141
330
108
100
AcDbEntity
  8
AM_9
100
AcDbLine
 10
-0.3120000000000003
 20
2.412399615523739
 30
0.0
 11
-0.3120000000000003
 21
-2.412399615519817
 31
0.0
  0
ARC
  5
142
330
108
100
AcDbEntity
  8
AM_9
100
AcDbCircle
 10
-0.3229999999999998
 20
-2.41239961552374
 30
0.0
 40
0.0109999999999994
100
AcDbArc
 50
256.8426964465196
 51
0.0
  0
ARC
  5
143
330
108
100
AcDbEntity
  8
AM_9
100
AcDbCircle
 10
-0.3229999999999998
 20
2.41239961552374
 30
0.0
 40
0.0109999999999996
100
AcDbArc
 50
0.0
 51
103.1573035534804
  0
LINE
  5
144
330
108
100
AcDbEntity
  8
AM_9
100
AcDbLine
 10
-0.2079999999999999
 20
2.435908695045152
 30
0.0
 11
-0.2079999999999999
 21
-2.435908695044974
 31
0.0
  0
ARC
  5
145
330
108
100
AcDbEntity
  8
AM_9
100
AcDbCircle
 10
-0.197000000000001
 20
-2.435908695045152
 30
0.0
 40
0.0109999999999989
100
AcDbArc
 50
180.0
 51
262.0198415691616
  0
ARC
  5
146
330
108
100
AcDbEntity
  8
AM_9
100
AcDbCircle
 10
-0.197000000000001
 20
2.435908695045152
 30
0.0
 40
0.0109999999999988
100
AcDbArc
 50
97.98015843083843
 51
180.0
  0
LINE
  5
147
330
108
100
AcDbEntity
  8
AM_9
100
AcDbLine
 10
-0.1985271317829456
 20
2.446802173301315
 30
0.0
 11
-0.1985271317829456
 21
-2.446802173301315
 31
0.0
  0
LINE
  5
148
330
108
100
AcDbEntity
  8
AM_9
100
AcDbLine
 10
0.5220634974082812
 20
2.361946249778327
 30
0.0
 11
0.5220634974082812
 21
-2.361946249778327
 31
0.0
  0
ARC
  5
149
330
108
100
AcDbEntity
  8
AM_9
100
AcDbCircle
 10
0.0000000000000023
 20
-1.03065
 30
0.0
 40
1.43
100
AcDbArc
 50
262.0198415691564
 51
291.4124672769108
  0
ARC
  5
14A
330
108
100
AcDbEntity
  8
AM_9
100
AcDbCircle
 10
-0.0000000000000042
 20
1.030649999999945
 30
0.0
 40
1.430000000000054
100
AcDbArc
 50
68.58753272308978
 51
97.980158430843
  0
ENDBLK
  5
10B
330
108
100
AcDbEntity
  8
0
100
AcDbBlockEnd
  0
BLOCK
  5
14D
330
14B
100
AcDbEntity
  8
0
100
AcDbBlockBegin
  2
4_129935_0_in_136181_2
 70
     2
 10
0.0
 20
0.0
 30
0.0
  3
4_129935_0_in_136181_2
  1

  0
ATTDEF
  5
14F
330
14B
100
AcDbEntity
  8
AM_6
100
AcDbText
 10
5.875
 20
1.90625
 30
0.0
 40
0.5
  1
Grip Tight Normal Duty Adapter and Nut Inch Bore
100
AcDbAttributeDefinition
  3

  2
NN
 70
     8
280
     0
  0
ATTDEF
  5
150
330
14B
100
AcDbEntity
  8
AM_6
100
AcDbText
 10
5.875
 20
1.40625
 30
0.0
 40
0.5
  1
GT and GTM Adapter & Lock Nut Assemblies
100
AcDbAttributeDefinition
  3

  2
NT
 70
     8
280
     0
  0
ATTDEF
  5
151
330
14B
100
AcDbEntity
  8
AM_6
100
AcDbText
 10
5.875
 20
0.90625
 30
0.0
 40
0.5
  1
129935
100
AcDbAttributeDefinition
  3

  2
NB
 70
     8
280
     0
  0
ATTDEF
  5
152
330
14B
100
AcDbEntity
  8
AM_6
100
AcDbText
 10
5.875
 20
0.40625
 30
0.0
 40
0.5
  1
$PN.
100
AcDbAttributeDefinition
  3

  2
NBSYN
 70
     8
280
     0
  0
ATTDEF
  5
153
330
14B
100
AcDbEntity
  8
AM_6
100
AcDbText
 10
5.875
 20
-0.09375
 30
0.0
 40
0.5
  1
129935
100
AcDbAttributeDefinition
  3

  2
LINA
 70
     8
280
     0
  0
ATTDEF
  5
154
330
14B
100
AcDbEntity
  8
AM_6
100
AcDbText
 10
5.875
 20
-0.59375
 30
0.0
 40
0.5
  1
214
100
AcDbAttributeDefinition
  3

  2
SERIES
 70
     8
280
     0
  0
ATTDEF
  5
155
330
14B
100
AcDbEntity
  8
AM_6
100
AcDbText
 10
5.875
 20
-1.09375
 30
0.0
 40
0.5
  1
2-7/16
100
AcDbAttributeDefinition
  3

  2
SS
 70
     8
280
     0
  0
ATTDEF
  5
156
330
14B
100
AcDbEntity
  8
AM_6
100
AcDbText
 10
5.875
 20
-1.59375
 30
0.0
 40
0.5
  1
129935
100
AcDbAttributeDefinition
  3

  2
PN
 70
     8
280
     0
  0
ATTDEF
  5
157
330
14B
100
AcDbEntity
  8
AM_6
100
AcDbText
 10
5.875
 20
-2.09375
 30
0.0
 40
0.5
  1
AN-GTM-14-207
100
AcDbAttributeDefinition
  3

  2
DESCRIPTION
 70
     8
280
     0
  0
ATTDEF
  5
158
330
14B
100
AcDbEntity
  8
AM_6
100
AcDbText
 10
5.875
 20
-2.59375
 30
0.0
 40
0.5
  1
2-25/64
100
AcDbAttributeDefinition
  3

  2
A
 70
     8
280
     0
  0
ATTDEF
  5
159
330
14B
100
AcDbEntity
  8
AM_6
100
AcDbText
 10
5.875
 20
-3.09375
 30
0.0
 40
0.5
  1
1.1020
100
AcDbAttributeDefinition
  3

  2
C
 70
     8
280
     0
  0
ATTDEF
  5
15A
330
14B
100
AcDbEntity
  8
AM_6
100
AcDbText
 10
5.875
 20
-3.59375
 30
0.0
 40
0.5
  1
4.9213
100
AcDbAttributeDefinition
  3

  2
D
 70
     8
280
     0
  0
ATTDEF
  5
15B
330
14B
100
AcDbEntity
  8
AM_6
100
AcDbText
 10
5.875
 20
-4.09375
 30
0.0
 40
0.5
  1
0.265
100
AcDbAttributeDefinition
  3

  2
J
 70
     8
280
     0
  0
ATTDEF
  5
15C
330
14B
100
AcDbEntity
  8
AM_6
100
AcDbText
 10
5.875
 20
-4.59375
 30
0.0
 40
0.5
  1
3-13/16
100
AcDbAttributeDefinition
  3

  2
L
 70
     8
280
     0
  0
ATTDEF
  5
15D
330
14B
100
AcDbEntity
  8
AM_6
100
AcDbText
 10
5.875
 20
-5.09375
 30
0.0
 40
0.5
  1
10 - 32 x 1/4
100
AcDbAttributeDefinition
  3

  2
N
 70
     8
280
     0
  0
ATTDEF
  5
15E
330
14B
100
AcDbEntity
  8
AM_6
100
AcDbText
 10
5.875
 20
-5.59375
 30
0.0
 40
0.5
  1
7/8
100
AcDbAttributeDefinition
  3

  2
W
 70
     8
280
     0
  0
ATTDEF
  5
15F
330
14B
100
AcDbEntity
  8
AM_6
100
AcDbText
 10
5.875
 20
-6.09375
 30
0.0
 40
0.5
  1
1-15/32
100
AcDbAttributeDefinition
  3

  2
X
 70
     8
280
     0
  0
ATTDEF
  5
160
330
14B
100
AcDbEntity
  8
AM_6
100
AcDbText
 10
5.875
 20
-6.59375
 30
0.0
 40
0.5
  1
1-33/64
100
AcDbAttributeDefinition
  3

  2
Y
 70
     8
280
     0
  0
ATTDEF
  5
161
330
14B
100
AcDbEntity
  8
AM_6
100
AcDbText
 10
5.875
 20
-7.09375
 30
0.0
 40
0.5
  1
baldor
100
AcDbAttributeDefinition
  3

  2
COMPANY
 70
     8
280
     0
  0
LWPOLYLINE
  5
162
330
14B
100
AcDbEntity
  8
AM_9
100
AcDbPolyline
 90
       11
 70
     0
 43
0.0
 10
-1.239292166719961
 20
0.0498011912203361
 10
-1.248172664565059
 20
0.061329061197409
 10
-1.259532636509998
 20
0.071969516599307
 10
-1.272475722349269
 20
0.0806188984558608
 10
-1.287004437331862
 20
0.0871621405745569
 10
-1.302409999778346
 20
0.0912417587435774
 10
-1.318578934318109
 20
0.0927298449683191
 10
-1.334771464092104
 20
0.0915242492179693
 10
-1.350647919638998
 20
0.0875786476475798
 10
-1.365635478657348
 20
0.0810273462090893
 10
-1.385725456415217
 20
0.0664153771604151
  0
LWPOLYLINE
  5
163
330
14B
100
AcDbEntity
  8
AM_9
100
AcDbPolyline
 90
       12
 70
     0
 43
0.0
 10
-1.401079187989015
 20
-0.0473957012056373
 10
-1.394332568643928
 20
-0.0570193837130126
 10
-1.383799384370167
 20
-0.0681972924091818
 10
-1.371309257086826
 20
-0.077674475260794
 10
-1.357439654403239
 20
-0.0849910957495256
 10
-1.342206895257088
 20
-0.0900265351736897
 10
-1.326352641660254
 20
-0.0924957289493568
 10
-1.310055479519767
 20
-0.0922807142765648
 10
-1.294021116485599
 20
-0.0893628637065741
 10
-1.278661106295596
 20
-0.0837547185915009
 10
-1.264467952355159
 20
-0.0756404264664436
 10
-1.252055695958211
 20
-0.0653777331466884
  0
LINE
  5
164
330
14B
100
AcDbEntity
  8
AM_9
100
AcDbLine
 10
-1.385725456415217
 20
0.0664153771604151
 30
0.0
 11
-1.400837231782275
 21
0.0477906269858616
 31
0.0
  0
LINE
  5
165
330
14B
100
AcDbEntity
  8
AM_9
100
AcDbLine
 10
-1.42467
 20
-0.1325
 30
0.0
 11
-1.42467
 21
0.1325
 31
0.0
  0
LINE
  5
166
330
14B
100
AcDbEntity
  8
AM_9
100
AcDbLine
 10
-0.734375
 20
1.47455325135347
 30
0.0
 11
-1.46875
 21
1.47455325135347
 31
0.0
  0
LINE
  5
167
330
14B
100
AcDbEntity
  8
AM_9
100
AcDbLine
 10
-0.7343750000000002
 20
1.54234896934413
 30
0.0
 11
-0.778455
 21
1.580618121427759
 31
0.0
  0
LINE
  5
168
330
14B
100
AcDbEntity
  8
AM_9
100
AcDbLine
 10
-0.778455
 20
1.580618121427759
 30
0.0
 11
-1.42467
 21
1.580618121427759
 31
0.0
  0
LINE
  5
169
330
14B
100
AcDbEntity
  8
AM_9
100
AcDbLine
 10
-1.42467
 20
1.580618121427759
 30
0.0
 11
-1.46875
 21
1.54234896934413
 31
0.0
  0
LINE
  5
16A
330
14B
100
AcDbEntity
  8
AM_9
100
AcDbLine
 10
-0.734375
 20
-1.474553251353472
 30
0.0
 11
-1.46875
 21
-1.474553251353472
 31
0.0
  0
LINE
  5
16B
330
14B
100
AcDbEntity
  8
AM_9
100
AcDbLine
 10
-1.46875
 20
-1.542348969344131
 30
0.0
 11
-1.42467
 21
-1.58061812142776
 31
0.0
  0
LINE
  5
16C
330
14B
100
AcDbEntity
  8
AM_9
100
AcDbLine
 10
-1.42467
 20
-1.58061812142776
 30
0.0
 11
-0.778455
 21
-1.58061812142776
 31
0.0
  0
LINE
  5
16D
330
14B
100
AcDbEntity
  8
AM_9
100
AcDbLine
 10
-0.778455
 20
-1.58061812142776
 30
0.0
 11
-0.7343750000000001
 21
-1.54234896934413
 31
0.0
  0
LINE
  5
16E
330
14B
100
AcDbEntity
  8
AM_9
100
AcDbLine
 10
-0.734375
 20
1.60705325135347
 30
0.0
 11
-1.46875
 21
1.60705325135347
 31
0.0
  0
LINE
  5
16F
330
14B
100
AcDbEntity
  8
AM_9
100
AcDbLine
 10
-0.734375
 20
-1.607053251353471
 30
0.0
 11
-1.46875
 21
-1.607053251353471
 31
0.0
  0
LINE
  5
170
330
14B
100
AcDbEntity
  8
AM_9
100
AcDbLine
 10
-0.5507812499999999
 20
1.421243776512588
 30
0.0
 11
-1.46875
 21
1.422123015873016
 31
0.0
  0
LINE
  5
171
330
14B
100
AcDbEntity
  8
AM_9
100
AcDbLine
 10
0.875
 20
1.217723927045864
 30
0.0
 11
-1.515625
 21
1.217723927045864
 31
0.0
  0
LINE
  5
172
330
14B
100
AcDbEntity
  8
AM_9
100
AcDbLine
 10
-1.515625
 20
-1.21875
 30
0.0
 11
0.8749999999999998
 21
-1.21875
 31
0.0
  0
LINE
  5
173
330
14B
100
AcDbEntity
  8
AM_9
100
AcDbLine
 10
-1.1015625
 20
-1.422123015873016
 30
0.0
 11
-0.5507812499999999
 21
-1.422123015873016
 31
0.0
  0
LINE
  5
174
330
14B
100
AcDbEntity
  8
AM_9
100
AcDbLine
 10
-0.5507812499999999
 20
1.421243776512588
 30
0.0
 11
0.831250874088332
 21
1.46953427752052
 31
0.0
  0
LINE
  5
175
330
14B
100
AcDbEntity
  8
AM_9
100
AcDbLine
 10
-0.5507812499999999
 20
1.421243776512588
 30
0.0
 11
-0.5507812499999999
 21
-1.422123015873016
 31
0.0
  0
LINE
  5
176
330
14B
100
AcDbEntity
  8
AM_9
100
AcDbLine
 10
0.875
 20
1.060656606780706
 30
0.0
 11
0.875
 21
-1.060656606780706
 31
0.0
  0
LINE
  5
177
330
14B
100
AcDbEntity
  8
AM_9
100
AcDbLine
 10
-0.5499999999999995
 20
-1.422150297724181
 30
0.0
 11
0.8312508750000006
 21
-1.470384641140331
 31
0.0
  0
LINE
  5
178
330
14B
100
AcDbEntity
  8
AM_9
100
AcDbLine
 10
-0.9179687500000001
 20
-1.558283730158731
 30
0.0
 11
-0.7343750000000001
 21
-1.558283730158731
 31
0.0
  0
LINE
  5
179
330
14B
100
AcDbEntity
  8
AM_9
100
AcDbLine
 10
-0.7343750000000001
 20
1.558283730158731
 30
0.0
 11
-0.9179687500000001
 21
1.558283730158731
 31
0.0
  0
LINE
  5
17A
330
14B
100
AcDbEntity
  8
AM_9
100
AcDbLine
 10
-0.9179687500000001
 20
1.694444444444444
 30
0.0
 11
-0.9179687500000001
 21
-1.694444444444444
 31
0.0
  0
LINE
  5
17B
330
14B
100
AcDbEntity
  8
AM_9
100
AcDbLine
 10
-1.1015625
 20
1.694444444444444
 30
0.0
 11
-1.1015625
 21
-1.694444444444444
 31
0.0
  0
LINE
  5
17C
330
14B
100
AcDbEntity
  8
AM_9
100
AcDbLine
 10
-1.1015625
 20
-1.694444444444444
 30
0.0
 11
-0.9179687500000001
 21
-1.694444444444444
 31
0.0
  0
LINE
  5
17D
330
14B
100
AcDbEntity
  8
AM_9
100
AcDbLine
 10
-0.9179687500000001
 20
1.694444444444444
 30
0.0
 11
-1.1015625
 21
1.694444444444444
 31
0.0
  0
LINE
  5
17E
330
14B
100
AcDbEntity
  8
AM_9
100
AcDbLine
 10
-0.778455
 20
1.713118121427759
 30
0.0
 11
-0.7343750000000002
 21
1.67484896934413
 31
0.0
  0
LINE
  5
17F
330
14B
100
AcDbEntity
  8
AM_9
100
AcDbLine
 10
-0.7343750000000001
 20
1.862169999999999
 30
0.0
 11
-0.778455
 21
1.906249999999999
 31
0.0
  0
LINE
  5
180
330
14B
100
AcDbEntity
  8
AM_9
100
AcDbLine
 10
-0.7343750000000001
 20
1.862169999999999
 30
0.0
 11
-0.7343750000000001
 21
-1.862169999999999
 31
0.0
  0
LINE
  5
181
330
14B
100
AcDbEntity
  8
AM_9
100
AcDbLine
 10
-0.7343750000000001
 20
-1.67484896934413
 30
0.0
 11
-0.778455
 21
-1.71311812142776
 31
0.0
  0
LINE
  5
182
330
14B
100
AcDbEntity
  8
AM_9
100
AcDbLine
 10
-0.778455
 20
-1.906249999999999
 30
0.0
 11
-0.7343750000000001
 21
-1.862169999999999
 31
0.0
  0
LINE
  5
183
330
14B
100
AcDbEntity
  8
AM_9
100
AcDbLine
 10
-1.42467
 20
-1.71311812142776
 30
0.0
 11
-1.46875
 21
-1.674848969344131
 31
0.0
  0
LINE
  5
184
330
14B
100
AcDbEntity
  8
AM_9
100
AcDbLine
 10
-1.36859825643158
 20
-0.1325
 30
0.0
 11
-0.734375
 21
-0.1325
 31
0.0
  0
LINE
  5
185
330
14B
100
AcDbEntity
  8
AM_9
100
AcDbLine
 10
-0.778455
 20
-1.71311812142776
 30
0.0
 11
-1.42467
 21
-1.71311812142776
 31
0.0
  0
LINE
  5
186
330
14B
100
AcDbEntity
  8
AM_9
100
AcDbLine
 10
-0.8312508749999995
 20
-1.906249999999999
 30
0.0
 11
-0.778455
 21
-1.906249999999999
 31
0.0
  0
LINE
  5
187
330
14B
100
AcDbEntity
  8
AM_9
100
AcDbLine
 10
-0.7343749999999999
 20
0.1325
 30
0.0
 11
-1.36859825643158
 21
0.1325
 31
0.0
  0
LINE
  5
188
330
14B
100
AcDbEntity
  8
AM_9
100
AcDbLine
 10
-1.42467
 20
1.71311812142776
 30
0.0
 11
-0.778455
 21
1.713118121427759
 31
0.0
  0
LINE
  5
189
330
14B
100
AcDbEntity
  8
AM_9
100
AcDbLine
 10
-0.778455
 20
1.906249999999999
 30
0.0
 11
-0.8312508749999995
 21
1.906249999999999
 31
0.0
  0
LINE
  5
18A
330
14B
100
AcDbEntity
  8
AM_9
100
AcDbLine
 10
-0.778455
 20
1.906249999999999
 30
0.0
 11
-0.778455
 21
-1.906249999999999
 31
0.0
  0
LINE
  5
18B
330
14B
100
AcDbEntity
  8
AM_9
100
AcDbLine
 10
-1.46875
 20
1.674848969344131
 30
0.0
 11
-1.42467
 21
1.71311812142776
 31
0.0
  0
CIRCLE
  5
18C
330
14B
100
AcDbEntity
  8
AM_9
100
AcDbCircle
 10
-1.319427316590466
 20
-0.0000000000000001
 30
0.0
 40
0.0724499999999998
  0
LINE
  5
18F
330
14B
100
AcDbEntity
  8
AM_7
100
AcDbLine
 10
-1.319427316590466
 20
-0.0997499999999999
 30
0.0
 11
-1.319427316590466
 21
0.0997499999999999
 31
0.0
  0
LINE
  5
191
330
14B
100
AcDbEntity
  8
AM_4
100
AcDbLine
 10
-1.515625
 20
1.421243776512588
 30
0.0
 11
-1.515625
 21
-1.422123015873017
 31
0.0
  0
LINE
  5
192
330
14B
100
AcDbEntity
  8
AM_4
100
AcDbLine
 10
-1.515625
 20
1.421243776512588
 30
0.0
 11
-1.46875
 21
1.421243776512588
 31
0.0
  0
LINE
  5
193
330
14B
100
AcDbEntity
  8
AM_4
100
AcDbLine
 10
-1.515625
 20
-1.422123015873017
 30
0.0
 11
-1.46875
 21
-1.422123015873017
 31
0.0
  0
LINE
  5
194
330
14B
100
AcDbEntity
  8
AM_4
100
AcDbLine
 10
0.831250874088332
 20
1.46953427752052
 30
0.0
 11
0.875
 21
1.47106291379619
 31
0.0
  0
LINE
  5
195
330
14B
100
AcDbEntity
  8
AM_4
100
AcDbLine
 10
0.875
 20
-1.060656606780706
 30
0.0
 11
0.875
 21
-1.471912394249922
 31
0.0
  0
LINE
  5
196
330
14B
100
AcDbEntity
  8
AM_4
100
AcDbLine
 10
0.875
 20
1.47106291379619
 30
0.0
 11
0.875
 21
1.060656606780706
 31
0.0
  0
LINE
  5
197
330
14B
100
AcDbEntity
  8
AM_4
100
AcDbLine
 10
0.8312508750000006
 20
-1.470384641140331
 30
0.0
 11
0.875
 21
-1.471912394249922
 31
0.0
  0
LINE
  5
198
330
14B
100
AcDbEntity
  8
AM_4
100
AcDbLine
 10
-1.46875
 20
-0.1325
 30
0.0
 11
-1.36859825643158
 21
-0.1325
 31
0.0
  0
LINE
  5
199
330
14B
100
AcDbEntity
  8
AM_4
100
AcDbLine
 10
-1.46875
 20
1.86217
 30
0.0
 11
-1.46875
 21
-1.86217
 31
0.0
  0
LINE
  5
19A
330
14B
100
AcDbEntity
  8
AM_4
100
AcDbLine
 10
-1.46875
 20
-1.86217
 30
0.0
 11
-1.42467
 21
-1.90625
 31
0.0
  0
LINE
  5
19B
330
14B
100
AcDbEntity
  8
AM_4
100
AcDbLine
 10
-1.42467
 20
-0.1325
 30
0.0
 11
-1.42467
 21
-1.906249999999999
 31
0.0
  0
LINE
  5
19C
330
14B
100
AcDbEntity
  8
AM_4
100
AcDbLine
 10
-1.42467
 20
-1.906249999999999
 30
0.0
 11
-0.8312508749999995
 21
-1.906249999999999
 31
0.0
  0
LINE
  5
19D
330
14B
100
AcDbEntity
  8
AM_4
100
AcDbLine
 10
-1.36859825643158
 20
0.1325
 30
0.0
 11
-1.46875
 21
0.1325
 31
0.0
  0
LINE
  5
19E
330
14B
100
AcDbEntity
  8
AM_4
100
AcDbLine
 10
-0.8312508749999995
 20
1.906249999999999
 30
0.0
 11
-1.42467
 21
1.906249999999999
 31
0.0
  0
LINE
  5
19F
330
14B
100
AcDbEntity
  8
AM_4
100
AcDbLine
 10
-1.42467
 20
1.90625
 30
0.0
 11
-1.46875
 21
1.86217
 31
0.0
  0
LINE
  5
1A0
330
14B
100
AcDbEntity
  8
AM_4
100
AcDbLine
 10
-1.42467
 20
1.90625
 30
0.0
 11
-1.42467
 21
0.1325
 31
0.0
  0
ARC
  5
1A2
330
14B
100
AcDbEntity
  8
AM_5
100
AcDbCircle
 10
-1.319427316590467
 20
0.0000000000000002
 30
0.0
 40
0.0949999999999999
100
AcDbArc
 50
74.99999999999979
 51
14.99999999999982
  0
ENDBLK
  5
14E
330
14B
100
AcDbEntity
  8
0
100
AcDbBlockEnd
  0
BLOCK
  5
1A5
330
1A3
100
AcDbEntity
  8
0
100
AcDbBlockBegin
  2
5_WSTU_GT_14I_0_in_136181_2
 70
     2
 10
0.0
 20
0.0
 30
0.0
  3
5_WSTU_GT_14I_0_in_136181_2
  1

  0
ATTDEF
  5
1A7
330
1A3
100
AcDbEntity
  8
AM_6
100
AcDbText
 10
7.687494587898255
 20
3.2812434375
 30
0.0
 40
0.5
  1
GTMMDWSTUB-Ib
100
AcDbAttributeDefinition
  3

  2
NN
 70
     8
280
     0
  0
ATTDEF
  5
1A8
330
1A3
100
AcDbEntity
  8
AM_6
100
AcDbText
 10
7.687494587898255
 20
2.7812434375
 30
0.0
 40
0.5
  1
Grip Tight Adapter Ball Bearings
100
AcDbAttributeDefinition
  3

  2
NT
 70
     8
280
     0
  0
ATTDEF
  5
1A9
330
1A3
100
AcDbEntity
  8
AM_6
100
AcDbText
 10
7.687494587898255
 20
2.2812434375
 30
0.0
 40
0.5
  1
WSTU-GT-14I
100
AcDbAttributeDefinition
  3

  2
NB
 70
     8
280
     0
  0
ATTDEF
  5
1AA
330
1A3
100
AcDbEntity
  8
AM_6
100
AcDbText
 10
7.687494587898255
 20
1.7812434375
 30
0.0
 40
0.5
  1
$PN.$LUBE.I
100
AcDbAttributeDefinition
  3

  2
NBSYN
 70
     8
280
     0
  0
ATTDEF
  5
1AB
330
1A3
100
AcDbEntity
  8
AM_6
100
AcDbText
 10
7.687494587898255
 20
1.2812434375
 30
0.0
 40
0.5
  1
WSTU-GT-14
100
AcDbAttributeDefinition
  3

  2
LINA
 70
     8
280
     0
  0
ATTDEF
  5
1AC
330
1A3
100
AcDbEntity
  8
AM_6
100
AcDbText
 10
7.687494587898255
 20
0.7812434375000001
 30
0.0
 40
0.5
  1
214
100
AcDbAttributeDefinition
  3

  2
SERIES
 70
     8
280
     0
  0
ATTDEF
  5
1AD
330
1A3
100
AcDbEntity
  8
AM_6
100
AcDbText
 10
7.687494587898255
 20
0.2812434375000001
 30
0.0
 40
0.5
  1
WSTU-GT-14
100
AcDbAttributeDefinition
  3

  2
PN
 70
     8
280
     0
  0
ATTDEF
  5
1AE
330
1A3
100
AcDbEntity
  8
AM_6
100
AcDbText
 10
7.687494587898255
 20
-0.2187565624999999
 30
0.0
 40
0.5
  1
WSTU-GT-14
100
AcDbAttributeDefinition
  3

  2
DESCRIPTION
 70
     8
280
     0
  0
ATTDEF
  5
1AF
330
1A3
100
AcDbEntity
  8
AM_6
100
AcDbText
 10
7.687494587898255
 20
-0.7187565624999999
 30
0.0
 40
0.5
  1
19.4
100
AcDbAttributeDefinition
  3

  2
WEIGHT
 70
     8
280
     0
  0
ATTDEF
  5
1B0
330
1A3
100
AcDbEntity
  8
AM_6
100
AcDbText
 10
7.687494587898255
 20
-1.2187565625
 30
0.0
 40
0.5
  1
125.0
100
AcDbAttributeDefinition
  3

  2
BOD
 70
     8
280
     0
  0
ATTDEF
  5
1B1
330
1A3
100
AcDbEntity
  8
AM_6
100
AcDbText
 10
7.687494587898255
 20
-1.7187565625
 30
0.0
 40
0.5
  1
2-25/64
100
AcDbAttributeDefinition
  3

  2
A
 70
     8
280
     0
  0
ATTDEF
  5
1B2
330
1A3
100
AcDbEntity
  8
AM_6
100
AcDbText
 10
7.687494587898255
 20
-2.2187565625
 30
0.0
 40
0.5
  1
8-9/16
100
AcDbAttributeDefinition
  3

  2
B
 70
     8
280
     0
  0
ATTDEF
  5
1B3
330
1A3
100
AcDbEntity
  8
AM_6
100
AcDbText
 10
7.687494587898255
 20
-2.7187565625
 30
0.0
 40
0.5
  1
1.047 / 1.077
100
AcDbAttributeDefinition
  3

  2
C
 70
     8
280
     0
  0
ATTDEF
  5
1B4
330
1A3
100
AcDbEntity
  8
AM_6
100
AcDbText
 10
7.687494587898255
 20
-3.2187565625
 30
0.0
 40
0.5
  1
5-3/8
100
AcDbAttributeDefinition
  3

  2
E
 70
     8
280
     0
  0
ATTDEF
  5
1B5
330
1A3
100
AcDbEntity
  8
AM_6
100
AcDbText
 10
7.687494587898255
 20
-3.7187565625
 30
0.0
 40
0.5
  1
1-1/2
100
AcDbAttributeDefinition
  3

  2
F
 70
     8
280
     0
  0
ATTDEF
  5
1B6
330
1A3
100
AcDbEntity
  8
AM_6
100
AcDbText
 10
7.687494587898255
 20
-4.218756562499999
 30
0.0
 40
0.5
  1
13/16
100
AcDbAttributeDefinition
  3

  2
G
 70
     8
280
     0
  0
ATTDEF
  5
1B7
330
1A3
100
AcDbEntity
  8
AM_6
100
AcDbText
 10
7.687494587898255
 20
-4.718756562499999
 30
0.0
 40
0.5
  1
1-1/4
100
AcDbAttributeDefinition
  3

  2
H
 70
     8
280
     0
  0
ATTDEF
  5
1B8
330
1A3
100
AcDbEntity
  8
AM_6
100
AcDbText
 10
7.687494587898255
 20
-5.218756562499999
 30
0.0
 40
0.5
  1
4-3/8
100
AcDbAttributeDefinition
  3

  2
J
 70
     8
280
     0
  0
ATTDEF
  5
1B9
330
1A3
100
AcDbEntity
  8
AM_6
100
AcDbText
 10
7.687494587898255
 20
-5.718756562499999
 30
0.0
 40
0.5
  1
2-3/4
100
AcDbAttributeDefinition
  3

  2
K
 70
     8
280
     0
  0
ATTDEF
  5
1BA
330
1A3
100
AcDbEntity
  8
AM_6
100
AcDbText
 10
7.687494587898255
 20
-6.218756562499999
 30
0.0
 40
0.5
  1
3-13/16
100
AcDbAttributeDefinition
  3

  2
L
 70
     8
280
     0
  0
ATTDEF
  5
1BB
330
1A3
100
AcDbEntity
  8
AM_6
100
AcDbText
 10
7.687494587898255
 20
-6.718756562499999
 30
0.0
 40
0.5
  1
5.923 / 5.953
100
AcDbAttributeDefinition
  3

  2
M
 70
     8
280
     0
  0
ATTDEF
  5
1BC
330
1A3
100
AcDbEntity
  8
AM_6
100
AcDbText
 10
7.687494587898255
 20
-7.218756562499999
 30
0.0
 40
0.5
  1
6-9/16
100
AcDbAttributeDefinition
  3

  2
N
 70
     8
280
     0
  0
ATTDEF
  5
1BD
330
1A3
100
AcDbEntity
  8
AM_6
100
AcDbText
 10
7.687494587898255
 20
-7.718756562499999
 30
0.0
 40
0.5
  1
7/8
100
AcDbAttributeDefinition
  3

  2
R
 70
     8
280
     0
  0
ATTDEF
  5
1BE
330
1A3
100
AcDbEntity
  8
AM_6
100
AcDbText
 10
7.687494587898255
 20
-8.2187565625
 30
0.0
 40
0.5
  1
1-33/64
100
AcDbAttributeDefinition
  3

  2
S
 70
     8
280
     0
  0
ATTDEF
  5
1BF
330
1A3
100
AcDbEntity
  8
AM_6
100
AcDbText
 10
7.687494587898255
 20
-8.7187565625
 30
0.0
 40
0.5
  1
2-3/4
100
AcDbAttributeDefinition
  3

  2
T
 70
     8
280
     0
  0
ATTDEF
  5
1C0
330
1A3
100
AcDbEntity
  8
AM_6
100
AcDbText
 10
7.687494587898255
 20
-9.2187565625
 30
0.0
 40
0.5
  1
1-15/32
100
AcDbAttributeDefinition
  3

  2
Z
 70
     8
280
     0
  0
ATTDEF
  5
1C1
330
1A3
100
AcDbEntity
  8
AM_6
100
AcDbText
 10
7.687494587898255
 20
-9.7187565625
 30
0.0
 40
0.5
  1
baldor
100
AcDbAttributeDefinition
  3

  2
COMPANY
 70
     8
280
     0
  0
LWPOLYLINE
  5
1C2
330
1A3
100
AcDbEntity
  8
AM_9
100
AcDbPolyline
 90
        4
 70
     0
 43
0.0
 10
0.4308867062890711
 20
-1.480056849444233
 10
0.4379576601471763
 20
-1.503357680601956
 10
0.4469681029767235
 20
-1.548452211548709
 10
0.4499999999999997
 20
-1.593750000000001
  0
LWPOLYLINE
  5
1C3
330
1A3
100
AcDbEntity
  8
AM_9
100
AcDbPolyline
 90
       25
 70
     0
 43
0.0
 10
-0.4324043788805588
 20
-1.484620514263454
 10
-0.4254187494923446
 20
-1.465111591767513
 10
-0.4064655619637187
 20
-1.423665961320483
 10
-0.3825907027705943
 20
-1.384175560083225
 10
-0.3537536595762001
 20
-1.346848621347743
 10
-0.3204275586016988
 20
-1.312320805199949
 10
-0.283225935582362
 20
-1.281289747919943
 10
-0.2421272004229413
 20
-1.25397518249166
 10
-0.1978188930742623
 20
-1.230885857023903
 10
-0.1511303669922855
 20
-1.212520311243281
 10
-0.1026327796768504
 20
-1.199219639902843
 10
-0.0526658456337514
 20
-1.191011456416834
 10
-0.0021841536223094
 20
-1.188081248190945
 10
0.0478777059466856
 20
-1.190505871598095
 10
0.0974929501742571
 20
-1.198121625855893
 10
0.1457298035099813
 20
-1.210759253998687
 10
0.1920856618798786
 20
-1.228320455127194
 10
0.2361904060157592
 20
-1.250522800706226
 10
0.2772384142575001
 20
-1.276897655289319
 10
0.3151217418446071
 20
-1.307471839464798
 10
0.3491726742126002
 20
-1.341632702355741
 10
0.3787610780618057
 20
-1.378684445015919
 10
0.4036436663768099
 20
-1.418437887079879
 10
0.4235041600786585
 20
-1.460275215181565
 10
0.4308867062890711
 20
-1.480056849444233
  0
LWPOLYLINE
  5
1C4
330
1A3
100
AcDbEntity
  8
AM_9
100
AcDbPolyline
 90
        4
 70
     0
 43
0.0
 10
-0.4500000000000001
 20
-1.593750000000001
 10
-0.4472556146899291
 20
-1.550649441758326
 10
-0.4390924075733389
 20
-1.507705011280297
 10
-0.4324043788805588
 20
-1.484620514263454
  0
ELLIPSE
  5
1C5
330
1A3
100
AcDbEntity
  8
AM_9
100
AcDbEllipse
 10
-0.0000000000000002
 20
-1.64375
 30
0.0
 11
-0.3499999999999998
 21
4.286263797015734E-17
 31
0.0
210
0.0
220
0.0
230
1.0
 40
0.8660254037844388
 41
0.0
 42
6.283185307179586
  0
ELLIPSE
  5
1C6
330
1A3
100
AcDbEntity
  8
AM_9
100
AcDbEllipse
 10
0.0000000000000037
 20
-1.59375
 30
0.0
 11
0.4500000000000037
 21
6.705522537231502E-9
 31
0.0
210
0.0
220
0.0
230
1.0
 40
0.8660254037844332
 41
2.857892433971258
 42
3.141592638688632
  0
ELLIPSE
  5
1C7
330
1A3
100
AcDbEntity
  8
AM_9
100
AcDbEllipse
 10
0.0
 20
-1.59375
 30
0.0
 11
0.4499999999999998
 21
0.0
 31
0.0
210
0.0
220
0.0
230
1.0
 40
0.8660254037844397
 41
0.0
 42
2.857892450840607
  0
LINE
  5
1C8
330
1A3
100
AcDbEntity
  8
AM_9
100
AcDbLine
 10
0.4499981108195751
 20
-1.594920321701458
 30
0.0
 11
0.449999891729112
 21
-1.593469827938739
 31
0.0
  0
LWPOLYLINE
  5
1C9
330
1A3
100
AcDbEntity
  8
AM_9
100
AcDbPolyline
 90
       46
 70
     0
 43
0.0
 10
-0.4499860465959566
 20
-1.596930575180836
 10
-0.4494578971130933
 20
-1.613568777070188
 10
-0.4469147861098947
 20
-1.640962135292561
 10
-0.4423054291620767
 20
-1.668114584427333
 10
-0.4356535065372644
 20
-1.694907041607678
 10
-0.4269898079530361
 20
-1.721222283195334
 10
-0.416352291341005
 20
-1.746944820018698
 10
-0.4037863106249647
 20
-1.771960858206638
 10
-0.3893449601774144
 20
-1.796158399312392
 10
-0.3730894654613812
 20
-1.819427517823585
 10
-0.355089539603008
 20
-1.841660830500753
 10
-0.3354236269985316
 20
-1.862754144795475
 10
-0.3141789686049105
 20
-1.882607247217709
 10
-0.291451447689088
 20
-1.901124771990314
 10
-0.2673452051684317
 20
-1.918217079891091
 10
-0.2419720441795483
 20
-1.933801078844483
 10
-0.2154506681149354
 20
-1.94780093061622
 10
-0.1879058108555147
 20
-1.960148608284142
 10
-0.1594673209980614
 20
-1.970784292044439
 10
-0.1302692550813784
 20
-1.979656611641423
 10
-0.1004490215689636
 20
-1.98672275905063
 10
-0.0701466015583539
 20
-1.991948503759914
 10
-0.0395038571064845
 20
-1.995308145581714
 10
-0.0086639256653438
 20
-1.996784437938701
 10
0.0222293099167743
 20
-1.996368509824518
 10
0.0530314636420757
 20
-1.994059832922499
 10
0.0835977127394798
 20
-1.989866335110683
 10
0.1137845803554871
 20
-1.983804304282105
 10
0.1434495520468243
 20
-1.975898471755253
 10
0.1724515581697314
 20
-1.966182152161791
 10
0.2006515258677974
 20
-1.954697411679335
 10
0.2279130235725278
 20
-1.941495241697502
 10
0.2541030161203269
 20
-1.926635705286631
 10
0.2790927390831274
 20
-1.91018801480988
 10
0.3027586863976476
 20
-1.892230492824526
 10
0.3249836864165163
 20
-1.872850367742542
 10
0.3456580203331286
 20
-1.852143363067011
 10
0.3646805175263476
 20
-1.830213055677885
 10
0.3819595497628015
 20
-1.807170003657157
 10
0.3974138450283158
 20
-1.783130673849548
 10
0.4109730545104602
 20
-1.758216227892806
 10
0.4225780318866961
 20
-1.732551246389079
 10
0.4321808179323963
 20
-1.706262479353806
 10
0.4397443586305225
 20
-1.679477705448349
 10
0.4452420145256819
 20
-1.652324764804474
 10
0.4474010354457341
 20
-1.637094181925276
  0
LINE
  5
1CA
330
1A3
100
AcDbEntity
  8
AM_9
100
AcDbLine
 10
-0.4499995643191927
 20
-1.594312021734167
 30
0.0
 11
-0.4499860465959566
 21
-1.596930575180836
 31
0.0
  0
LWPOLYLINE
  5
1CB
330
1A3
100
AcDbEntity
  8
AM_9
100
AcDbPolyline
 90
       29
 70
     0
 43
0.0
 10
0.4499999999999998
 20
-1.593750000000001
 10
0.4471591760681321
 20
-1.636989530157218
 10
0.4387460715044289
 20
-1.679433287230449
 10
0.4249247371567403
 20
-1.720302393022825
 10
0.4057655402430592
 20
-1.759204086664058
 10
0.3815242988431233
 20
-1.795871453905522
 10
0.3526549084210234
 20
-1.829686175421378
 10
0.3191483456405608
 20
-1.860537913597014
 10
0.2815371546536393
 20
-1.888037300324965
 10
0.2405149039629364
 20
-1.911741373547208
 10
0.1962165430992578
 20
-1.931516400743171
 10
0.1492683759854274
 20
-1.947169381257248
 10
0.100557800264169
 20
-1.958445298747598
 10
0.0508673189887597
 20
-1.965179340460154
 10
0.0003693817612277
 20
-1.967472280302637
 10
-0.0499727535687507
 20
-1.965286517427936
 10
-0.0993063434231355
 20
-1.958645626301238
 10
-0.1475482884161702
 20
-1.947650976423394
 10
-0.1938029267646439
 20
-1.932478232253084
 10
-0.2377620503795665
 20
-1.913100791315331
 10
-0.2788926791497978
 20
-1.889744492957101
 10
-0.3164446348703353
 20
-1.862778999137672
 10
-0.3503042022015524
 20
-1.832054065655374
 10
-0.3798616318907192
 20
-1.798056574386432
 10
-0.4045616810351454
 20
-1.761354425640298
 10
-0.4241034378310412
 20
-1.722172845490055
 10
-0.438352315000742
 20
-1.680888369730417
 10
-0.4470287250264187
 20
-1.638250999264821
 10
-0.4500000000000001
 20
-1.593750000000001
  0
ELLIPSE
  5
1CC
330
1A3
100
AcDbEntity
  8
AM_9
100
AcDbEllipse
 10
-0.0000000000000001
 20
-1.59375
 30
0.0
 11
0.4499999999999998
 21
0.0
 31
0.0
210
0.0
220
0.0
230
1.0
 40
0.8660254037844392
 41
3.492760615949875
 42
5.934238975379905
  0
LINE
  5
1CD
330
1A3
100
AcDbEntity
  8
AM_9
100
AcDbLine
 10
-0.831250875
 20
-2.125918918961869
 30
0.0
 11
0.8312508750000002
 21
-2.125918918961869
 31
0.0
  0
LINE
  5
1CE
330
1A3
100
AcDbEntity
  8
AM_9
100
AcDbLine
 10
-0.831250875
 20
2.125918918961869
 30
0.0
 11
0.8312508750000002
 21
2.125918918961869
 31
0.0
  0
LINE
  5
1CF
330
1A3
100
AcDbEntity
  8
AM_9
100
AcDbLine
 10
-0.9625000000000001
 20
3.105754080631634
 30
0.0
 11
-0.7875
 21
3.105754080631634
 31
0.0
  0
LINE
  5
1D0
330
1A3
100
AcDbEntity
  8
AM_9
100
AcDbLine
 10
-0.9625000000000001
 20
3.047485201869613
 30
0.0
 11
-0.7875
 21
3.047485201869613
 31
0.0
  0
LINE
  5
1D1
330
1A3
100
AcDbEntity
  8
AM_9
100
AcDbLine
 10
-0.9625000000000001
 20
3.091186862266132
 30
0.0
 11
-0.7875
 21
3.091186862266132
 31
0.0
  0
LINE
  5
1D2
330
1A3
100
AcDbEntity
  8
AM_9
100
AcDbLine
 10
-0.9625000000000001
 20
3.003783544173094
 30
0.0
 11
-0.7875
 21
3.003783544173094
 31
0.0
  0
LINE
  5
1D3
330
1A3
100
AcDbEntity
  8
AM_9
100
AcDbLine
 10
-0.9625000000000001
 20
3.134888522662622
 30
0.0
 11
-0.7875
 21
3.134888522662622
 31
0.0
  0
LINE
  5
1D4
330
1A3
100
AcDbEntity
  8
AM_9
100
AcDbLine
 10
-0.9625000000000001
 20
3.059138978062024
 30
0.0
 11
-0.7875
 21
3.059138978062024
 31
0.0
  0
LINE
  5
1D5
330
1A3
100
AcDbEntity
  8
AM_9
100
AcDbLine
 10
-0.9625000000000001
 20
3.111580969077837
 30
0.0
 11
-0.7875
 21
3.111580969077837
 31
0.0
  0
LINE
  5
1D6
330
1A3
100
AcDbEntity
  8
AM_9
100
AcDbLine
 10
-0.9625000000000001
 20
3.027091095157922
 30
0.0
 11
-0.7875
 21
3.027091095157922
 31
0.0
  0
LINE
  5
1D7
330
1A3
100
AcDbEntity
  8
AM_9
100
AcDbLine
 10
-0.9625000000000001
 20
3.035831425077221
 30
0.0
 11
-0.7875
 21
3.035831425077221
 31
0.0
  0
LINE
  5
1D8
330
1A3
100
AcDbEntity
  8
AM_9
100
AcDbLine
 10
-0.9625000000000001
 20
3.129061634316434
 30
0.0
 11
-0.7875
 21
3.129061634316434
 31
0.0
  0
LINE
  5
1D9
330
1A3
100
AcDbEntity
  8
AM_9
100
AcDbLine
 10
-0.9625000000000001
 20
3.009610432619298
 30
0.0
 11
-0.7875
 21
3.009610432619298
 31
0.0
  0
LINE
  5
1DA
330
1A3
100
AcDbEntity
  8
AM_9
100
AcDbLine
 10
-0.9625000000000001
 20
3.117407857424026
 30
0.0
 11
-0.7875
 21
3.117407857424026
 31
0.0
  0
LINE
  5
1DB
330
1A3
100
AcDbEntity
  8
AM_9
100
AcDbLine
 10
-0.9625000000000001
 20
3.021264204111735
 30
0.0
 11
-0.7875
 21
3.021264204111735
 31
0.0
  0
LINE
  5
1DC
330
1A3
100
AcDbEntity
  8
AM_9
100
AcDbLine
 10
-0.9625000000000001
 20
3.102840636458539
 30
0.0
 11
-0.7875
 21
3.102840636458539
 31
0.0
  0
LINE
  5
1DD
330
1A3
100
AcDbEntity
  8
AM_9
100
AcDbLine
 10
-0.9625000000000001
 20
3.032917980904127
 30
0.0
 11
-0.7875
 21
3.032917980904127
 31
0.0
  0
LINE
  5
1DE
330
1A3
100
AcDbEntity
  8
AM_9
100
AcDbLine
 10
-0.9625000000000001
 20
3.076619642000614
 30
0.0
 11
-0.7875
 21
3.076619642000614
 31
0.0
  0
LINE
  5
1DF
330
1A3
100
AcDbEntity
  8
AM_9
100
AcDbLine
 10
-0.9625000000000001
 20
3.064965865808202
 30
0.0
 11
-0.7875
 21
3.064965865808202
 31
0.0
  0
LINE
  5
1E0
330
1A3
100
AcDbEntity
  8
AM_9
100
AcDbLine
 10
-0.9625000000000001
 20
3.082446529646805
 30
0.0
 11
-0.7875
 21
3.082446529646805
 31
0.0
  0
LINE
  5
1E1
330
1A3
100
AcDbEntity
  8
AM_9
100
AcDbLine
 10
-0.9625000000000001
 20
3.137801966935732
 30
0.0
 11
-0.7875
 21
3.137801966935732
 31
0.0
  0
LINE
  5
1E2
330
1A3
100
AcDbEntity
  8
AM_9
100
AcDbLine
 10
-0.7875
 20
3.0008701
 30
0.0
 11
-0.7875
 21
3.137801966935732
 31
0.0
  0
LINE
  5
1E3
330
1A3
100
AcDbEntity
  8
AM_9
100
AcDbLine
 10
-0.9625000000000001
 20
3.0008701
 30
0.0
 11
-0.7875
 21
3.0008701
 31
0.0
  0
LINE
  5
1E4
330
1A3
100
AcDbEntity
  8
AM_9
100
AcDbLine
 10
-0.9625000000000001
 20
3.018350759838625
 30
0.0
 11
-0.7875
 21
3.018350759838625
 31
0.0
  0
LINE
  5
1E5
330
1A3
100
AcDbEntity
  8
AM_9
100
AcDbLine
 10
-0.9625000000000001
 20
3.120321301697135
 30
0.0
 11
-0.7875
 21
3.120321301697135
 31
0.0
  0
LINE
  5
1E6
330
1A3
100
AcDbEntity
  8
AM_9
100
AcDbLine
 10
-0.8312508749999997
 20
-2.46065
 30
0.0
 11
0.8312508749999997
 21
-2.46065
 31
0.0
  0
LINE
  5
1E7
330
1A3
100
AcDbEntity
  8
AM_9
100
AcDbLine
 10
0.8312508749999997
 20
2.46065
 30
0.0
 11
-0.8312508749999997
 21
2.46065
 31
0.0
  0
LINE
  5
1E8
330
1A3
100
AcDbEntity
  8
AM_9
100
AcDbLine
 10
-0.8312508750000002
 20
1.095280521290914
 30
0.0
 11
-0.8312508750000002
 21
-1.095280521290914
 31
0.0
  0
LINE
  5
1E9
330
1A3
100
AcDbEntity
  8
AM_9
100
AcDbLine
 10
0.8312508750000001
 20
-1.095280521290914
 30
0.0
 11
0.8312508749999988
 21
1.095280521290914
 31
0.0
  0
LINE
  5
1EA
330
1A3
100
AcDbEntity
  8
AM_9
100
AcDbLine
 10
-0.8312508750000001
 20
-1.312500000000001
 30
0.0
 11
0.831250874999999
 21
-1.312500000000001
 31
0.0
  0
LINE
  5
1EB
330
1A3
100
AcDbEntity
  8
AM_9
100
AcDbLine
 10
-0.8312508750000001
 20
-1.375
 30
0.0
 11
0.831250874999999
 21
-1.375
 31
0.0
  0
LINE
  5
1EC
330
1A3
100
AcDbEntity
  8
AM_9
100
AcDbLine
 10
-0.8312508750000001
 20
1.375
 30
0.0
 11
0.831250874999999
 21
1.375
 31
0.0
  0
LINE
  5
1ED
330
1A3
100
AcDbEntity
  8
AM_9
100
AcDbLine
 10
-0.8312508750000001
 20
1.3125
 30
0.0
 11
0.831250874999999
 21
1.3125
 31
0.0
  0
LINE
  5
1EE
330
1A3
100
AcDbEntity
  8
AM_7
100
AcDbLine
 10
0.0000000000000003
 20
-0.787498425
 30
0.0
 11
0.0000000000000003
 21
0.787498425
 31
0.0
  0
LINE
  5
1EF
330
1A3
100
AcDbEntity
  8
AM_7
100
AcDbLine
 10
2.687494587898255
 20
0.0
 30
0.0
 11
-2.828122329711915
 21
0.0
 31
0.0
  0
LINE
  5
1F0
330
1A3
100
AcDbEntity
  8
AM_4
100
AcDbLine
 10
0.9625000000000004
 20
3.2418733375
 30
0.0
 11
0.9625000000000004
 21
2.9614934375
 31
0.0
  0
LINE
  5
1F1
330
1A3
100
AcDbEntity
  8
AM_4
100
AcDbLine
 10
0.5234989530000002
 20
2.9614934375
 30
0.0
 11
0.5234989530000004
 21
3.2812434375
 31
0.0
  0
LINE
  5
1F2
330
1A3
100
AcDbEntity
  8
AM_4
100
AcDbLine
 10
0.9231299000000001
 20
3.281243437499999
 30
0.0
 11
0.9624999999999999
 21
3.241873337499999
 31
0.0
  0
LINE
  5
1F3
330
1A3
100
AcDbEntity
  8
AM_4
100
AcDbLine
 10
0.5234989530000004
 20
3.2812434375
 30
0.0
 11
0.9231299000000004
 21
3.2812434375
 31
0.0
  0
LINE
  5
1F4
330
1A3
100
AcDbEntity
  8
AM_4
100
AcDbLine
 10
-0.9625
 20
2.9614934375
 30
0.0
 11
-0.9624999999999998
 21
3.2418733375
 31
0.0
  0
LINE
  5
1F5
330
1A3
100
AcDbEntity
  8
AM_4
100
AcDbLine
 10
0.9625000000000004
 20
2.9614934375
 30
0.0
 11
0.8312508750000001
 21
2.8433834375
 31
0.0
  0
LINE
  5
1F6
330
1A3
100
AcDbEntity
  8
AM_4
100
AcDbLine
 10
0.5234989530000004
 20
3.21875
 30
0.0
 11
0.9625
 21
3.21875
 31
0.0
  0
LINE
  5
1F7
330
1A3
100
AcDbEntity
  8
AM_4
100
AcDbLine
 10
-0.5234989529999999
 20
2.9614934375
 30
0.0
 11
0.5234989530000002
 21
2.9614934375
 31
0.0
  0
LINE
  5
1F8
330
1A3
100
AcDbEntity
  8
AM_4
100
AcDbLine
 10
-0.523498953
 20
3.2812434375
 30
0.0
 11
-0.5234989529999999
 21
2.9614934375
 31
0.0
  0
LINE
  5
1F9
330
1A3
100
AcDbEntity
  8
AM_4
100
AcDbLine
 10
-0.8312508749999997
 20
2.8433834375
 30
0.0
 11
-0.9625
 21
2.9614934375
 31
0.0
  0
LINE
  5
1FA
330
1A3
100
AcDbEntity
  8
AM_4
100
AcDbLine
 10
-0.9231299000000001
 20
3.2812434375
 30
0.0
 11
-0.523498953
 21
3.2812434375
 31
0.0
  0
LINE
  5
1FB
330
1A3
100
AcDbEntity
  8
AM_4
100
AcDbLine
 10
-0.9625
 20
3.2418733375
 30
0.0
 11
-0.9231299000000002
 21
3.2812434375
 31
0.0
  0
LINE
  5
1FC
330
1A3
100
AcDbEntity
  8
AM_4
100
AcDbLine
 10
-0.9624999999999998
 20
3.21875
 30
0.0
 11
-0.523498953
 21
3.21875
 31
0.0
  0
LINE
  5
1FD
330
1A3
100
AcDbEntity
  8
AM_4
100
AcDbLine
 10
-0.9625
 20
-3.2418733375
 30
0.0
 11
-0.9625
 21
-2.9614934375
 31
0.0
  0
LINE
  5
1FE
330
1A3
100
AcDbEntity
  8
AM_4
100
AcDbLine
 10
-0.9231299000000001
 20
-3.2812434375
 30
0.0
 11
-0.9624999999999999
 21
-3.2418733375
 31
0.0
  0
LINE
  5
1FF
330
1A3
100
AcDbEntity
  8
AM_4
100
AcDbLine
 10
-0.523498953
 20
-3.2812434375
 30
0.0
 11
-0.9231299000000002
 21
-3.2812434375
 31
0.0
  0
LINE
  5
200
330
1A3
100
AcDbEntity
  8
AM_4
100
AcDbLine
 10
-0.5234989529999999
 20
-2.9614934375
 30
0.0
 11
-0.523498953
 21
-3.2812434375
 31
0.0
  0
LINE
  5
201
330
1A3
100
AcDbEntity
  8
AM_4
100
AcDbLine
 10
0.5234989530000004
 20
-3.2812434375
 30
0.0
 11
0.5234989530000002
 21
-2.9614934375
 31
0.0
  0
LINE
  5
202
330
1A3
100
AcDbEntity
  8
AM_4
100
AcDbLine
 10
0.9625000000000004
 20
-2.9614934375
 30
0.0
 11
0.9625
 21
-3.2418733375
 31
0.0
  0
LINE
  5
203
330
1A3
100
AcDbEntity
  8
AM_4
100
AcDbLine
 10
0.9231299000000003
 20
-3.2812434375
 30
0.0
 11
0.5234989530000004
 21
-3.2812434375
 31
0.0
  0
LINE
  5
204
330
1A3
100
AcDbEntity
  8
AM_4
100
AcDbLine
 10
0.9625000000000004
 20
-3.2418733375
 30
0.0
 11
0.9231299000000004
 21
-3.2812434375
 31
0.0
  0
LINE
  5
205
330
1A3
100
AcDbEntity
  8
AM_4
100
AcDbLine
 10
-0.9625
 20
-2.9614934375
 30
0.0
 11
-0.8312508749999997
 21
-2.843383437500003
 31
0.0
  0
LINE
  5
206
330
1A3
100
AcDbEntity
  8
AM_4
100
AcDbLine
 10
-0.9624999999999998
 20
-3.218749999999999
 30
0.0
 11
-0.523498953
 21
-3.218749999999999
 31
0.0
  0
LINE
  5
207
330
1A3
100
AcDbEntity
  8
AM_4
100
AcDbLine
 10
0.5234989530000002
 20
-2.9614934375
 30
0.0
 11
-0.5234989529999999
 21
-2.9614934375
 31
0.0
  0
LINE
  5
208
330
1A3
100
AcDbEntity
  8
AM_4
100
AcDbLine
 10
0.5234989530000004
 20
-3.218749999999999
 30
0.0
 11
0.9625
 21
-3.218749999999999
 31
0.0
  0
LINE
  5
209
330
1A3
100
AcDbEntity
  8
AM_4
100
AcDbLine
 10
0.8312508750000001
 20
-2.8433834375
 30
0.0
 11
0.9625000000000004
 21
-2.9614934375
 31
0.0
  0
LINE
  5
20A
330
1A3
100
AcDbEntity
  8
AM_4
100
AcDbLine
 10
-0.8312508749999996
 20
2.312500000000001
 30
0.0
 11
0.8312508750000005
 21
2.312500000000001
 31
0.0
  0
LINE
  5
20B
330
1A3
100
AcDbEntity
  8
AM_4
100
AcDbLine
 10
-0.8312508749999996
 20
-2.3125
 30
0.0
 11
0.8312508750000005
 21
-2.3125
 31
0.0
  0
ARC
  5
20C
330
1A3
100
AcDbEntity
  8
AM_4
100
AcDbCircle
 10
0.0000000000000013
 20
-0.0000000000000001
 30
0.0
 40
1.374997250000001
100
AcDbArc
 50
127.1962729592903
 51
232.8037270407097
  0
ARC
  5
20D
330
1A3
100
AcDbEntity
  8
AM_4
100
AcDbCircle
 10
0.0000000000000002
 20
0.0000000000000001
 30
0.0
 40
1.37499725
100
AcDbArc
 50
307.1962729592902
 51
52.80372704070975
  0
LINE
  5
20E
330
1A3
100
AcDbEntity
  8
AM_4
100
AcDbLine
 10
-0.8312508749999996
 20
1.095280521290914
 30
0.0
 11
-0.8312508749999997
 21
2.8433834375
 31
0.0
  0
LINE
  5
20F
330
1A3
100
AcDbEntity
  8
AM_4
100
AcDbLine
 10
-0.8312508749999997
 20
-2.843383437500003
 30
0.0
 11
-0.8312508749999996
 21
-1.095280521290914
 31
0.0
  0
LINE
  5
210
330
1A3
100
AcDbEntity
  8
AM_4
100
AcDbLine
 10
0.8312508750000001
 20
-1.095280521290914
 30
0.0
 11
0.8312508750000001
 21
-2.8433834375
 31
0.0
  0
LINE
  5
211
330
1A3
100
AcDbEntity
  8
AM_4
100
AcDbLine
 10
0.8312508750000001
 20
2.8433834375
 30
0.0
 11
0.8312508750000002
 21
1.095280521290914
 31
0.0
  0
CIRCLE
  5
212
330
1A3
100
AcDbEntity
  8
AM_4
100
AcDbCircle
 10
0.0000000000000003
 20
0.0
 30
0.0
 40
0.7499985
  0
LINE
  5
213
330
1A3
100
AcDbEntity
  8
AM_4
100
AcDbLine
 10
-0.8312508749999995
 20
-2.1875
 30
0.0
 11
0.8312508750000006
 21
-2.1875
 31
0.0
  0
LINE
  5
214
330
1A3
100
AcDbEntity
  8
AM_4
100
AcDbLine
 10
-0.8312508749999995
 20
-2.062499999999998
 30
0.0
 11
0.8312508750000006
 21
-2.062499999999998
 31
0.0
  0
LINE
  5
215
330
1A3
100
AcDbEntity
  8
AM_4
100
AcDbLine
 10
-0.8312508749999995
 20
2.0625
 30
0.0
 11
0.8312508750000006
 21
2.0625
 31
0.0
  0
LINE
  5
216
330
1A3
100
AcDbEntity
  8
AM_4
100
AcDbLine
 10
-0.8312508749999995
 20
2.1875
 30
0.0
 11
0.8312508750000006
 21
2.1875
 31
0.0
  0
ENDBLK
  5
1A6
330
1A3
100
AcDbEntity
  8
0
100
AcDbBlockEnd
  0
ENDSEC
  0
SECTION
  2
ENTITIES
  0
INSERT
  5
6F
330
1F
100
AcDbEntity
  8
0
100
AcDbBlockReference
  2
1_136181_2
 10
0.0
 20
0.0
 30
0.0
  0
POINT
  5
218
330
1F
100
AcDbEntity
  8
ConnectionPoints
100
AcDbPoint
 10
0.0
 20
0.0
 30
0.0
  0
POINT
  5
219
330
1F
100
AcDbEntity
  8
ConnectionPoints
100
AcDbPoint
 10
0.0
 20
0.0
 30
0.0
  0
POINT
  5
21A
330
1F
100
AcDbEntity
  8
ConnectionPoints
100
AcDbPoint
 10
0.875
 20
0.0
 30
-0.0000000000000001
  0
POINT
  5
21B
330
1F
100
AcDbEntity
  8
ConnectionPoints
100
AcDbPoint
 10
0.0
 20
0.0
 30
0.0
  0
POINT
  5
21C
330
1F
100
AcDbEntity
  8
ConnectionPoints
100
AcDbPoint
 10
0.0
 20
0.0
 30
0.0
  0
POINT
  5
21D
330
1F
100
AcDbEntity
  8
ConnectionPoints
100
AcDbPoint
 10
0.0
 20
0.0
 30
0.0
  0
POINT
  5
21E
330
1F
100
AcDbEntity
  8
ConnectionPoints
100
AcDbPoint
 10
-0.0000000000000002
 20
-1.64375
 30
-2.847058514941343
  0
POINT
  5
21F
330
1F
100
AcDbEntity
  8
ConnectionPoints
100
AcDbPoint
 10
-0.875
 20
0.0
 30
0.0000000000000001
  0
ENDSEC
  0
SECTION
  2
OBJECTS
  0
DICTIONARY
  5
C
330
0
100
AcDbDictionary
281
     1
  3
ACAD_DETAILVIEWSTYLE
350
227
  3
ACAD_GROUP
350
D
  3
ACAD_LAYOUT
350
1A
  3
ACAD_MATERIAL
350
43
  3
ACAD_MLEADERSTYLE
350
6B
  3
ACAD_MLINESTYLE
350
17
  3
ACAD_PLOTSETTINGS
350
19
  3
ACAD_PLOTSTYLENAME
350
E
  3
ACAD_SCALELIST
350
47
  3
ACAD_SECTIONVIEWSTYLE
350
228
  3
ACAD_TABLESTYLE
350
69
  3
ACAD_VISUALSTYLE
350
2A
  3
ACDB_RECOMPOSE_DATA
350
224
  3
AcDbVariableDictionary
350
220
  0
SUN
  5
6D
330
29
100
AcDbSun
 90
        1
290
     0
 63
     7
421
 16777215
 40
1.0
291
     1
 91
  2455826
 92
 54000000
292
     0
 70
     2
 71
   256
280
     1
  0
DICTIONARY
  5
227
102
{ACAD_REACTORS
330
C
102
}
330
C
100
AcDbDictionary
281
     1
  0
DICTIONARY
  5
D
102
{ACAD_REACTORS
330
C
102
}
330
C
100
AcDbDictionary
281
     1
  0
DICTIONARY
  5
1A
102
{ACAD_REACTORS
330
C
102
}
330
C
100
AcDbDictionary
281
     1
  3
Layout1
350
1E
  3
Layout2
350
26
  3
Model
350
22
  0
DICTIONARY
  5
43
102
{ACAD_REACTORS
330
C
102
}
330
C
100
AcDbDictionary
281
     1
  3
ByBlock
350
45
  3
ByLayer
350
44
  3
Global
350
46
  0
DICTIONARY
  5
6B
102
{ACAD_REACTORS
330
C
102
}
330
C
100
AcDbDictionary
281
     1
  3
Standard
350
6C
  0
DICTIONARY
  5
17
102
{ACAD_REACTORS
330
C
102
}
330
C
100
AcDbDictionary
281
     1
  3
Standard
350
18
  0
DICTIONARY
  5
19
102
{ACAD_REACTORS
330
C
102
}
330
C
100
AcDbDictionary
281
     1
  0
ACDBDICTIONARYWDFLT
  5
E
102
{ACAD_REACTORS
330
C
102
}
330
C
100
AcDbDictionary
281
     1
  3
Normal
350
F
100
AcDbDictionaryWithDefault
340
F
  0
DICTIONARY
  5
47
102
{ACAD_REACTORS
330
C
102
}
330
C
100
AcDbDictionary
281
     1
  3
A0
350
48
  3
A1
350
49
  3
A2
350
4A
  3
A3
350
4B
  3
A4
350
4C
  3
A5
350
4D
  3
A6
350
4E
  3
A7
350
4F
  3
A8
350
50
  3
A9
350
51
  3
B0
350
52
  3
B1
350
53
  3
B2
350
54
  3
B3
350
55
  3
B4
350
56
  3
B5
350
57
  3
B6
350
58
  3
B7
350
59
  3
B8
350
5A
  3
B9
350
5B
  3
C0
350
5C
  3
C1
350
5D
  3
C2
350
5E
  3
C3
350
5F
  3
C4
350
60
  3
C5
350
61
  3
C6
350
62
  3
C7
350
63
  3
C8
350
64
  3
C9
350
65
  3
D0
350
66
  3
D1
350
67
  3
D2
350
68
  0
DICTIONARY
  5
228
102
{ACAD_REACTORS
330
C
102
}
330
C
100
AcDbDictionary
281
     1
  0
DICTIONARY
  5
69
102
{ACAD_REACTORS
330
C
102
}
330
C
100
AcDbDictionary
281
     1
  3
Standard
350
6A
  0
DICTIONARY
  5
2A
102
{ACAD_REACTORS
330
C
102
}
330
C
100
AcDbDictionary
281
     1
  3
2dWireframe
350
2F
  3
Basic
350
32
  3
Brighten
350
36
  3
ColorChange
350
3A
  3
Conceptual
350
34
  3
Dim
350
35
  3
EdgeColorOff
350
3D
  3
Facepattern
350
39
  3
Flat
350
2B
  3
FlatWithEdges
350
2C
  3
Gouraud
350
2D
  3
GouraudWithEdges
350
2E
  3
Hidden
350
31
  3
JitterOff
350
3B
  3
Linepattern
350
38
  3
OverhangOff
350
3C
  3
Realistic
350
33
  3
Shaded
350
42
  3
Shaded with edges
350
41
  3
Shades of Gray
350
3E
  3
Sketchy
350
3F
  3
Thicken
350
37
  3
Wireframe
350
30
  3
X-Ray
350
40
  0
XRECORD
  5
224
102
{ACAD_REACTORS
330
C
102
}
330
C
100
AcDbXrecord
280
     1
 90
        1
330
6A
  0
DICTIONARY
  5
220
102
{ACAD_REACTORS
330
C
102
}
330
C
100
AcDbDictionary
281
     1
  3
CANNOSCALE
350
221
  3
CMLEADERSTYLE
350
226
  3
CTABLESTYLE
350
225
  0
LAYOUT
  5
1E
102
{ACAD_REACTORS
330
1A
102
}
330
1A
100
AcDbPlotSettings
  1

  2
none_device
  4

  6

 40
0.0
 41
0.0
 42
0.0
 43
0.0
 44
0.0
 45
0.0
 46
0.0
 47
0.0
 48
0.0
 49
0.0
140
0.0
141
0.0
142
1.0
143
1.0
 70
   688
 72
     0
 73
     0
 74
     5
  7

 75
    16
 76
     0
 77
     2
 78
   300
147
1.0
148
0.0
149
0.0
100
AcDbLayout
  1
Layout1
 70
     1
 71
     1
 10
0.0
 20
0.0
 11
12.0
 21
9.0
 12
0.0
 22
0.0
 32
0.0
 14
1.000000000000000E+20
 24
1.000000000000000E+20
 34
1.000000000000000E+20
 15
-1.000000000000000E+20
 25
-1.000000000000000E+20
 35
-1.000000000000000E+20
146
0.0
 13
0.0
 23
0.0
 33
0.0
 16
1.0
 26
0.0
 36
0.0
 17
0.0
 27
1.0
 37
0.0
 76
     0
330
1B
  0
LAYOUT
  5
26
102
{ACAD_REACTORS
330
1A
102
}
330
1A
100
AcDbPlotSettings
  1

  2
none_device
  4

  6

 40
0.0
 41
0.0
 42
0.0
 43
0.0
 44
0.0
 45
0.0
 46
0.0
 47
0.0
 48
0.0
 49
0.0
140
0.0
141
0.0
142
1.0
143
1.0
 70
   688
 72
     0
 73
     0
 74
     5
  7

 75
    16
 76
     0
 77
     2
 78
   300
147
1.0
148
0.0
149
0.0
100
AcDbLayout
  1
Layout2
 70
     1
 71
     2
 10
0.0
 20
0.0
 11
0.0
 21
0.0
 12
0.0
 22
0.0
 32
0.0
 14
0.0
 24
0.0
 34
0.0
 15
0.0
 25
0.0
 35
0.0
146
0.0
 13
0.0
 23
0.0
 33
0.0
 16
1.0
 26
0.0
 36
0.0
 17
0.0
 27
1.0
 37
0.0
 76
     0
330
23
  0
LAYOUT
  5
22
102
{ACAD_REACTORS
330
1A
102
}
330
1A
100
AcDbPlotSettings
  1

  2
none_device
  4
Letter_(8.50_x_11.00_Inches)
  6

 40
6.35
 41
6.35
 42
6.35000508
 43
6.35000508
 44
215.9
 45
279.4
 46
0.0
 47
0.0
 48
0.0
 49
0.0
140
0.0
141
0.0
142
1.0
143
1.0
 70
  1712
 72
     0
 73
     0
 74
     0
  7

 75
     0
 76
     0
 77
     2
 78
   300
147
1.0
148
0.0
149
0.0
100
AcDbLayout
  1
Model
 70
     1
 71
     0
 10
0.0
 20
0.0
 11
12.0
 21
9.0
 12
0.0
 22
0.0
 32
0.0
 14
1.000000000000000E+20
 24
1.000000000000000E+20
 34
1.000000000000000E+20
 15
-1.000000000000000E+20
 25
-1.000000000000000E+20
 35
-1.000000000000000E+20
146
0.0
 13
0.0
 23
0.0
 33
0.0
 16
1.0
 26
0.0
 36
0.0
 17
0.0
 27
1.0
 37
0.0
 76
     0
330
1F
331
29
  0
MATERIAL
  5
45
102
{ACAD_REACTORS
330
43
102
}
330
43
100
AcDbMaterial
  1
ByBlock
 72
     1
 94
      127
  0
MATERIAL
  5
44
102
{ACAD_REACTORS
330
43
102
}
330
43
100
AcDbMaterial
  1
ByLayer
 72
     1
 94
      127
  0
MATERIAL
  5
46
102
{ACAD_REACTORS
330
43
102
}
330
43
100
AcDbMaterial
  1
Global
 72
     1
 94
      127
  0
MLEADERSTYLE
  5
6C
102
{ACAD_REACTORS
330
6B
102
}
330
6B
100
AcDbMLeaderStyle
179
     2
170
     2
171
     1
172
     0
 90
        2
 40
0.0
 41
0.0
173
     1
 91
-1056964608
340
14
 92
       -2
290
     1
 42
0.09
291
     1
 43
0.36
  3
Standard
341
0
 44
0.18
300

342
11
174
     1
178
     6
175
     1
176
     0
 93
-1056964608
 45
0.18
292
     0
297
     0
 46
0.18
343
0
 94
-1056964608
 47
1.0
 49
1.0
140
1.0
293
     1
141
0.0
294
     1
177
     0
142
1.0
295
     0
296
     0
143
0.125
271
     0
272
     9
273
     9
298
     0
  0
MLINESTYLE
  5
18
102
{ACAD_REACTORS
330
17
102
}
330
17
100
AcDbMlineStyle
  2
Standard
 70
     0
  3

 62
   256
 51
90.0
 52
90.0
 71
     2
 49
0.5
 62
   256
  6
BYLAYER
 49
-0.5
 62
   256
  6
BYLAYER
  0
ACDBPLACEHOLDER
  5
F
102
{ACAD_REACTORS
330
E
102
}
330
E
  0
SCALE
  5
48
102
{ACAD_REACTORS
330
47
102
}
330
47
100
AcDbScale
 70
     0
300
1:1
140
1.0
141
1.0
290
     1
  0
SCALE
  5
49
102
{ACAD_REACTORS
330
47
102
}
330
47
100
AcDbScale
 70
     0
300
1:2
140
1.0
141
2.0
290
     0
  0
SCALE
  5
4A
102
{ACAD_REACTORS
330
47
102
}
330
47
100
AcDbScale
 70
     0
300
1:4
140
1.0
141
4.0
290
     0
  0
SCALE
  5
4B
102
{ACAD_REACTORS
330
47
102
}
330
47
100
AcDbScale
 70
     0
300
1:5
140
1.0
141
5.0
290
     0
  0
SCALE
  5
4C
102
{ACAD_REACTORS
330
47
102
}
330
47
100
AcDbScale
 70
     0
300
1:8
140
1.0
141
8.0
290
     0
  0
SCALE
  5
4D
102
{ACAD_REACTORS
330
47
102
}
330
47
100
AcDbScale
 70
     0
300
1:10
140
1.0
141
10.0
290
     0
  0
SCALE
  5
4E
102
{ACAD_REACTORS
330
47
102
}
330
47
100
AcDbScale
 70
     0
300
1:16
140
1.0
141
16.0
290
     0
  0
SCALE
  5
4F
102
{ACAD_REACTORS
330
47
102
}
330
47
100
AcDbScale
 70
     0
300
1:20
140
1.0
141
20.0
290
     0
  0
SCALE
  5
50
102
{ACAD_REACTORS
330
47
102
}
330
47
100
AcDbScale
 70
     0
300
1:30
140
1.0
141
30.0
290
     0
  0
SCALE
  5
51
102
{ACAD_REACTORS
330
47
102
}
330
47
100
AcDbScale
 70
     0
300
1:40
140
1.0
141
40.0
290
     0
  0
SCALE
  5
52
102
{ACAD_REACTORS
330
47
102
}
330
47
100
AcDbScale
 70
     0
300
1:50
140
1.0
141
50.0
290
     0
  0
SCALE
  5
53
102
{ACAD_REACTORS
330
47
102
}
330
47
100
AcDbScale
 70
     0
300
1:100
140
1.0
141
100.0
290
     0
  0
SCALE
  5
54
102
{ACAD_REACTORS
330
47
102
}
330
47
100
AcDbScale
 70
     0
300
2:1
140
2.0
141
1.0
290
     0
  0
SCALE
  5
55
102
{ACAD_REACTORS
330
47
102
}
330
47
100
AcDbScale
 70
     0
300
4:1
140
4.0
141
1.0
290
     0
  0
SCALE
  5
56
102
{ACAD_REACTORS
330
47
102
}
330
47
100
AcDbScale
 70
     0
300
8:1
140
8.0
141
1.0
290
     0
  0
SCALE
  5
57
102
{ACAD_REACTORS
330
47
102
}
330
47
100
AcDbScale
 70
     0
300
10:1
140
10.0
141
1.0
290
     0
  0
SCALE
  5
58
102
{ACAD_REACTORS
330
47
102
}
330
47
100
AcDbScale
 70
     0
300
100:1
140
100.0
141
1.0
290
     0
  0
SCALE
  5
59
102
{ACAD_REACTORS
330
47
102
}
330
47
100
AcDbScale
 70
     0
300
1/128" = 1'-0"
140
0.0078125
141
12.0
290
     0
  0
SCALE
  5
5A
102
{ACAD_REACTORS
330
47
102
}
330
47
100
AcDbScale
 70
     0
300
1/64" = 1'-0"
140
0.015625
141
12.0
290
     0
  0
SCALE
  5
5B
102
{ACAD_REACTORS
330
47
102
}
330
47
100
AcDbScale
 70
     0
300
1/32" = 1'-0"
140
0.03125
141
12.0
290
     0
  0
SCALE
  5
5C
102
{ACAD_REACTORS
330
47
102
}
330
47
100
AcDbScale
 70
     0
300
1/16" = 1'-0"
140
0.0625
141
12.0
290
     0
  0
SCALE
  5
5D
102
{ACAD_REACTORS
330
47
102
}
330
47
100
AcDbScale
 70
     0
300
3/32" = 1'-0"
140
0.09375
141
12.0
290
     0
  0
SCALE
  5
5E
102
{ACAD_REACTORS
330
47
102
}
330
47
100
AcDbScale
 70
     0
300
1/8" = 1'-0"
140
0.125
141
12.0
290
     0
  0
SCALE
  5
5F
102
{ACAD_REACTORS
330
47
102
}
330
47
100
AcDbScale
 70
     0
300
3/16" = 1'-0"
140
0.1875
141
12.0
290
     0
  0
SCALE
  5
60
102
{ACAD_REACTORS
330
47
102
}
330
47
100
AcDbScale
 70
     0
300
1/4" = 1'-0"
140
0.25
141
12.0
290
     0
  0
SCALE
  5
61
102
{ACAD_REACTORS
330
47
102
}
330
47
100
AcDbScale
 70
     0
300
3/8" = 1'-0"
140
0.375
141
12.0
290
     0
  0
SCALE
  5
62
102
{ACAD_REACTORS
330
47
102
}
330
47
100
AcDbScale
 70
     0
300
1/2" = 1'-0"
140
0.5
141
12.0
290
     0
  0
SCALE
  5
63
102
{ACAD_REACTORS
330
47
102
}
330
47
100
AcDbScale
 70
     0
300
3/4" = 1'-0"
140
0.75
141
12.0
290
     0
  0
SCALE
  5
64
102
{ACAD_REACTORS
330
47
102
}
330
47
100
AcDbScale
 70
     0
300
1" = 1'-0"
140
1.0
141
12.0
290
     0
  0
SCALE
  5
65
102
{ACAD_REACTORS
330
47
102
}
330
47
100
AcDbScale
 70
     0
300
1-1/2" = 1'-0"
140
1.5
141
12.0
290
     0
  0
SCALE
  5
66
102
{ACAD_REACTORS
330
47
102
}
330
47
100
AcDbScale
 70
     0
300
3" = 1'-0"
140
3.0
141
12.0
290
     0
  0
SCALE
  5
67
102
{ACAD_REACTORS
330
47
102
}
330
47
100
AcDbScale
 70
     0
300
6" = 1'-0"
140
6.0
141
12.0
290
     0
  0
SCALE
  5
68
102
{ACAD_REACTORS
330
47
102
}
330
47
100
AcDbScale
 70
     0
300
1'-0" = 1'-0"
140
12.0
141
12.0
290
     0
  0
TABLESTYLE
  5
6A
102
{ACAD_REACTORS
330
69
102
}
102
{ACAD_XDICTIONARY
360
222
102
}
330
69
100
AcDbTableStyle
  3
Standard
 70
     0
 71
     0
 40
0.06
 41
0.06
280
     0
281
     0
  7
Standard
140
0.18
170
     2
 62
     0
 63
   257
283
     0
 90
        4
 91
        0
  1

274
    -2
284
     1
 64
     0
275
    -2
285
     1
 65
     0
276
    -2
286
     1
 66
     0
277
    -2
287
     1
 67
     0
278
    -2
288
     1
 68
     0
279
    -2
289
     1
 69
     0
  7
Standard
140
0.25
170
     5
 62
     0
 63
   257
283
     0
 90
        4
 91
        0
  1

274
    -2
284
     1
 64
     0
275
    -2
285
     1
 65
     0
276
    -2
286
     1
 66
     0
277
    -2
287
     1
 67
     0
278
    -2
288
     1
 68
     0
279
    -2
289
     1
 69
     0
  7
Standard
140
0.18
170
     5
 62
     0
 63
   257
283
     0
 90
        4
 91
        0
  1

274
    -2
284
     1
 64
     0
275
    -2
285
     1
 65
     0
276
    -2
286
     1
 66
     0
277
    -2
287
     1
 67
     0
278
    -2
288
     1
 68
     0
279
    -2
289
     1
 69
     0
  0
VISUALSTYLE
  5
2F
102
{ACAD_REACTORS
330
2A
102
}
330
2A
100
AcDbVisualStyle
  2
2dWireframe
 70
     4
177
     3
291
     0
 70
    58
 90
        0
176
     1
 90
        2
176
     1
 90
        0
176
     1
 90
        0
176
     1
 40
0.6
176
     1
 40
30.0
176
     1
 62
     7
420
 16777215
176
     1
 90
        1
176
     1
 90
        4
176
     1
 62
     7
176
     1
 62
   257
176
     1
 90
        1
176
     1
 90
        1
176
     1
 40
1.0
176
     1
 90
        0
176
     1
 62
   257
176
     1
 40
1.0
176
     1
 90
        1
176
     1
 90
        6
176
     1
 90
        2
176
     1
 62
     7
176
     1
 90
        5
176
     1
 90
        0
176
     1
 90
        0
176
     1
290
     0
176
     1
 90
        1
176
     1
 40
0.0
176
     1
 90
        0
176
     1
290
     1
176
     1
290
     1
176
     1
290
     0
176
     1
290
     0
176
     1
290
     0
176
     1
290
     0
176
     1
290
     0
176
     1
290
     0
176
     1
290
     0
176
     1
 90
       50
176
     1
 40
0.0
176
     1
 40
1.0
176
     1
 90
        0
176
     1
 62
    18
420
        0
176
     1
 90
       50
176
     1
 90
        3
176
     1
 62
     5
420
      255
176
     1
290
     0
176
     1
 90
       50
176
     1
 90
       50
176
     1
 90
       50
176
     1
290
     0
176
     1
 90
       50
176
     1
 62
   256
176
     0
 40
1.0
176
     0
 90
        2
176
     1
  1
strokes_ogs.tif
176
     1
290
     0
176
     1
 40
1.0
176
     1
 40
1.0
176
     1
  0
VISUALSTYLE
  5
32
102
{ACAD_REACTORS
330
2A
102
}
330
2A
100
AcDbVisualStyle
  2
Basic
 70
     7
177
     3
291
     1
 70
    58
 90
        1
176
     1
 90
        0
176
     1
 90
        1
176
     1
 90
        0
176
     1
 40
0.6
176
     1
 40
30.0
176
     1
 62
     7
420
 16777215
176
     1
 90
        0
176
     1
 90
        4
176
     1
 62
     7
176
     1
 62
   257
176
     1
 90
        1
176
     1
 90
        1
176
     1
 40
1.0
176
     1
 90
        8
176
     1
 62
     7
176
     1
 40
1.0
176
     1
 90
        1
176
     1
 90
        6
176
     1
 90
        2
176
     1
 62
     7
176
     1
 90
        5
176
     1
 90
        0
176
     1
 90
        0
176
     1
290
     0
176
     1
 90
        1
176
     1
 40
0.0
176
     1
 90
        0
176
     1
290
     0
176
     1
290
     1
176
     1
290
     1
176
     1
290
     0
176
     1
290
     0
176
     1
290
     0
176
     1
290
     0
176
     1
290
     0
176
     1
290
     0
176
     1
 90
       50
176
     1
 40
0.0
176
     1
 40
1.0
176
     1
 90
        0
176
     1
 62
    18
420
        0
176
     1
 90
       50
176
     1
 90
        3
176
     1
 62
     5
420
      255
176
     1
290
     0
176
     1
 90
       50
176
     1
 90
       50
176
     1
 90
       50
176
     1
290
     0
176
     1
 90
       50
176
     1
 62
   256
176
     0
 40
1.0
176
     0
 90
        2
176
     1
  1
strokes_ogs.tif
176
     1
290
     0
176
     1
 40
1.0
176
     1
 40
1.0
176
     1
  0
VISUALSTYLE
  5
36
102
{ACAD_REACTORS
330
2A
102
}
330
2A
100
AcDbVisualStyle
  2
Brighten
 70
    12
177
     3
291
     1
 70
    58
 90
        2
176
     1
 90
        2
176
     1
 90
        0
176
     1
 90
        0
176
     1
 40
0.6
176
     1
 40
30.0
176
     1
 62
     7
420
 16777215
176
     1
 90
        1
176
     1
 90
        4
176
     1
 62
     7
176
     1
 62
   257
176
     1
 90
        1
176
     1
 90
        1
176
     1
 40
1.0
176
     1
 90
        8
176
     1
 62
     7
176
     1
 40
1.0
176
     1
 90
        1
176
     1
 90
        6
176
     1
 90
        2
176
     1
 62
     7
176
     1
 90
        5
176
     1
 90
        0
176
     1
 90
        0
176
     1
290
     0
176
     1
 90
        1
176
     1
 40
50.0
176
     1
 90
        0
176
     1
290
     0
176
     1
290
     1
176
     1
290
     1
176
     1
290
     0
176
     1
290
     0
176
     1
290
     0
176
     1
290
     0
176
     1
290
     0
176
     1
290
     0
176
     1
 90
       50
176
     1
 40
0.0
176
     1
 40
1.0
176
     1
 90
        0
176
     1
 62
    18
420
        0
176
     1
 90
       50
176
     1
 90
        3
176
     1
 62
     5
420
      255
176
     1
290
     0
176
     1
 90
       50
176
     1
 90
       50
176
     1
 90
       50
176
     1
290
     0
176
     1
 90
       50
176
     1
 62
   256
176
     0
 40
1.0
176
     0
 90
        2
176
     1
  1
strokes_ogs.tif
176
     1
290
     0
176
     1
 40
1.0
176
     1
 40
1.0
176
     1
  0
VISUALSTYLE
  5
3A
102
{ACAD_REACTORS
330
2A
102
}
330
2A
100
AcDbVisualStyle
  2
ColorChange
 70
    16
177
     3
291
     1
 70
    58
 90
        2
176
     1
 90
        2
176
     1
 90
        3
176
     1
 90
        0
176
     1
 40
0.6
176
     1
 40
30.0
176
     1
 62
     8
420
  8421504
176
     1
 90
        1
176
     1
 90
        4
176
     1
 62
     7
176
     1
 62
   257
176
     1
 90
        1
176
     1
 90
        1
176
     1
 40
1.0
176
     1
 90
        8
176
     1
 62
     8
420
  8421504
176
     1
 40
1.0
176
     1
 90
        1
176
     1
 90
        6
176
     1
 90
        2
176
     1
 62
     7
176
     1
 90
        5
176
     1
 90
        0
176
     1
 90
        0
176
     1
290
     0
176
     1
 90
        1
176
     1
 40
0.0
176
     1
 90
        0
176
     1
290
     0
176
     1
290
     1
176
     1
290
     1
176
     1
290
     0
176
     1
290
     0
176
     1
290
     0
176
     1
290
     0
176
     1
290
     0
176
     1
290
     0
176
     1
 90
       50
176
     1
 40
0.0
176
     1
 40
1.0
176
     1
 90
        0
176
     1
 62
    18
420
        0
176
     1
 90
       50
176
     1
 90
        3
176
     1
 62
     5
420
      255
176
     1
290
     0
176
     1
 90
       50
176
     1
 90
       50
176
     1
 90
       50
176
     1
290
     0
176
     1
 90
       50
176
     1
 62
   256
176
     0
 40
1.0
176
     0
 90
        2
176
     1
  1
strokes_ogs.tif
176
     1
290
     0
176
     1
 40
1.0
176
     1
 40
1.0
176
     1
  0
VISUALSTYLE
  5
34
102
{ACAD_REACTORS
330
2A
102
}
330
2A
100
AcDbVisualStyle
  2
Conceptual
 70
     9
177
     3
291
     0
 70
    58
 90
        3
176
     1
 90
        2
176
     1
 90
        0
176
     1
 90
        0
176
     1
 40
0.6
176
     1
 40
30.0
176
     1
 62
     7
420
 16777215
176
     1
 90
        2
176
     1
 90
        2
176
     1
 62
     7
176
     1
 62
   257
176
     1
 90
        1
176
     1
 90
        1
176
     1
 40
179.0
176
     1
 90
        8
176
     1
 62
     7
176
     1
 40
1.0
176
     1
 90
        1
176
     1
 90
        6
176
     1
 90
        2
176
     1
 62
     7
176
     1
 90
        3
176
     1
 90
        0
176
     1
 90
        0
176
     1
290
     0
176
     1
 90
        1
176
     1
 40
0.0
176
     1
 90
        0
176
     1
290
     0
176
     1
290
     1
176
     1
290
     1
176
     1
290
     0
176
     1
290
     0
176
     1
290
     0
176
     1
290
     0
176
     1
290
     0
176
     1
290
     0
176
     1
 90
       50
176
     1
 40
0.0
176
     1
 40
1.0
176
     1
 90
        0
176
     1
 62
    18
420
        0
176
     1
 90
       50
176
     1
 90
        3
176
     1
 62
     5
420
      255
176
     1
290
     0
176
     1
 90
       50
176
     1
 90
       50
176
     1
 90
       50
176
     1
290
     0
176
     1
 90
       50
176
     1
 62
   256
176
     0
 40
1.0
176
     0
 90
        2
176
     1
  1
strokes_ogs.tif
176
     1
290
     0
176
     1
 40
1.0
176
     1
 40
1.0
176
     1
  0
VISUALSTYLE
  5
35
102
{ACAD_REACTORS
330
2A
102
}
330
2A
100
AcDbVisualStyle
  2
Dim
 70
    11
177
     3
291
     1
 70
    58
 90
        2
176
     1
 90
        2
176
     1
 90
        0
176
     1
 90
        0
176
     1
 40
0.6
176
     1
 40
30.0
176
     1
 62
     7
420
 16777215
176
     1
 90
        1
176
     1
 90
        4
176
     1
 62
     7
176
     1
 62
   257
176
     1
 90
        1
176
     1
 90
        1
176
     1
 40
1.0
176
     1
 90
        8
176
     1
 62
     7
176
     1
 40
1.0
176
     1
 90
        1
176
     1
 90
        6
176
     1
 90
        2
176
     1
 62
     7
176
     1
 90
        5
176
     1
 90
        0
176
     1
 90
        0
176
     1
290
     0
176
     1
 90
        1
176
     1
 40
-50.0
176
     1
 90
        0
176
     1
290
     0
176
     1
290
     1
176
     1
290
     1
176
     1
290
     0
176
     1
290
     0
176
     1
290
     0
176
     1
290
     0
176
     1
290
     0
176
     1
290
     0
176
     1
 90
       50
176
     1
 40
0.0
176
     1
 40
1.0
176
     1
 90
        0
176
     1
 62
    18
420
        0
176
     1
 90
       50
176
     1
 90
        3
176
     1
 62
     5
420
      255
176
     1
290
     0
176
     1
 90
       50
176
     1
 90
       50
176
     1
 90
       50
176
     1
290
     0
176
     1
 90
       50
176
     1
 62
   256
176
     0
 40
1.0
176
     0
 90
        2
176
     1
  1
strokes_ogs.tif
176
     1
290
     0
176
     1
 40
1.0
176
     1
 40
1.0
176
     1
  0
VISUALSTYLE
  5
3D
102
{ACAD_REACTORS
330
2A
102
}
330
2A
100
AcDbVisualStyle
  2
EdgeColorOff
 70
    22
177
     3
291
     1
 70
    58
 90
        2
176
     0
 90
        2
176
     0
 90
        0
176
     0
 90
        0
176
     0
 40
0.6
176
     0
 40
30.0
176
     0
 62
     7
420
 16777215
176
     0
 90
        1
176
     0
 90
        4
176
     0
 62
     7
176
     0
 62
   257
176
     0
 90
        1
176
     0
 90
        1
176
     0
 40
1.0
176
     0
 90
        8
176
     2
 62
     7
176
     0
 40
1.0
176
     0
 90
        1
176
     0
 90
        6
176
     0
 90
        2
176
     0
 62
     7
176
     0
 90
        5
176
     0
 90
        0
176
     0
 90
        0
176
     0
290
     0
176
     0
 90
        1
176
     0
 40
0.0
176
     0
 90
        0
176
     0
290
     0
176
     0
290
     1
176
     0
290
     1
176
     0
290
     0
176
     0
290
     0
176
     0
290
     0
176
     0
290
     0
176
     0
290
     0
176
     0
290
     0
176
     0
 90
       50
176
     0
 40
0.0
176
     0
 40
1.0
176
     0
 90
        0
176
     0
 62
    18
420
        0
176
     0
 90
       50
176
     0
 90
        3
176
     0
 62
     5
420
      255
176
     0
290
     0
176
     0
 90
       50
176
     0
 90
       50
176
     0
 90
       50
176
     0
290
     0
176
     0
 90
       50
176
     0
 62
   256
176
     0
 40
1.0
176
     0
 90
        2
176
     0
  1
strokes_ogs.tif
176
     0
290
     0
176
     0
 40
1.0
176
     0
 40
1.0
176
     0
  0
VISUALSTYLE
  5
39
102
{ACAD_REACTORS
330
2A
102
}
330
2A
100
AcDbVisualStyle
  2
Facepattern
 70
    15
177
     3
291
     1
 70
    58
 90
        2
176
     1
 90
        2
176
     1
 90
        0
176
     1
 90
        0
176
     1
 40
0.6
176
     1
 40
30.0
176
     1
 62
     7
420
 16777215
176
     1
 90
        1
176
     1
 90
        4
176
     1
 62
     7
176
     1
 62
   257
176
     1
 90
        1
176
     1
 90
        1
176
     1
 40
1.0
176
     1
 90
        8
176
     1
 62
     7
176
     1
 40
1.0
176
     1
 90
        1
176
     1
 90
        6
176
     1
 90
        2
176
     1
 62
     7
176
     1
 90
        5
176
     1
 90
        0
176
     1
 90
        0
176
     1
290
     0
176
     1
 90
        1
176
     1
 40
0.0
176
     1
 90
        0
176
     1
290
     0
176
     1
290
     1
176
     1
290
     1
176
     1
290
     0
176
     1
290
     0
176
     1
290
     0
176
     1
290
     0
176
     1
290
     0
176
     1
290
     0
176
     1
 90
       50
176
     1
 40
0.0
176
     1
 40
1.0
176
     1
 90
        0
176
     1
 62
    18
420
        0
176
     1
 90
       50
176
     1
 90
        3
176
     1
 62
     5
420
      255
176
     1
290
     0
176
     1
 90
       50
176
     1
 90
       50
176
     1
 90
       50
176
     1
290
     0
176
     1
 90
       50
176
     1
 62
   256
176
     0
 40
1.0
176
     0
 90
        2
176
     1
  1
strokes_ogs.tif
176
     1
290
     0
176
     1
 40
1.0
176
     1
 40
1.0
176
     1
  0
VISUALSTYLE
  5
2B
102
{ACAD_REACTORS
330
2A
102
}
330
2A
100
AcDbVisualStyle
  2
Flat
 70
     0
177
     3
291
     1
 70
    58
 90
        2
176
     1
 90
        1
176
     1
 90
        1
176
     1
 90
        2
176
     1
 40
0.6
176
     1
 40
30.0
176
     1
 62
     7
420
 16777215
176
     1
 90
        0
176
     1
 90
        0
176
     1
 62
     7
176
     1
 62
   257
176
     1
 90
        1
176
     1
 90
        1
176
     1
 40
1.0
176
     1
 90
        8
176
     1
 62
     7
176
     1
 40
1.0
176
     1
 90
        1
176
     1
 90
        6
176
     1
 90
        2
176
     1
 62
     7
176
     1
 90
        5
176
     1
 90
        0
176
     1
 90
        0
176
     1
290
     0
176
     1
 90
       13
176
     1
 40
0.0
176
     1
 90
        0
176
     1
290
     0
176
     1
290
     1
176
     1
290
     1
176
     1
290
     0
176
     1
290
     0
176
     1
290
     0
176
     1
290
     0
176
     1
290
     0
176
     1
290
     0
176
     1
 90
       50
176
     1
 40
0.0
176
     1
 40
1.0
176
     1
 90
        0
176
     1
 62
    18
420
        0
176
     1
 90
       50
176
     1
 90
        3
176
     1
 62
     5
420
      255
176
     1
290
     0
176
     1
 90
       50
176
     1
 90
       50
176
     1
 90
       50
176
     1
290
     0
176
     1
 90
       50
176
     1
 62
   256
176
     0
 40
1.0
176
     0
 90
        2
176
     1
  1
strokes_ogs.tif
176
     1
290
     0
176
     1
 40
1.0
176
     1
 40
1.0
176
     1
  0
VISUALSTYLE
  5
2C
102
{ACAD_REACTORS
330
2A
102
}
330
2A
100
AcDbVisualStyle
  2
FlatWithEdges
 70
     1
177
     3
291
     1
 70
    58
 90
        2
176
     1
 90
        1
176
     1
 90
        1
176
     1
 90
        2
176
     1
 40
0.6
176
     1
 40
30.0
176
     1
 62
     7
420
 16777215
176
     1
 90
        1
176
     1
 90
        0
176
     1
 62
     7
176
     1
 62
   257
176
     1
 90
        1
176
     1
 90
        1
176
     1
 40
1.0
176
     1
 90
        0
176
     1
 62
   257
176
     1
 40
1.0
176
     1
 90
        1
176
     1
 90
        6
176
     1
 90
        2
176
     1
 62
     7
176
     1
 90
        5
176
     1
 90
        0
176
     1
 90
        0
176
     1
290
     0
176
     1
 90
       13
176
     1
 40
0.0
176
     1
 90
        0
176
     1
290
     0
176
     1
290
     1
176
     1
290
     1
176
     1
290
     0
176
     1
290
     0
176
     1
290
     0
176
     1
290
     0
176
     1
290
     0
176
     1
290
     0
176
     1
 90
       50
176
     1
 40
0.0
176
     1
 40
1.0
176
     1
 90
        0
176
     1
 62
    18
420
        0
176
     1
 90
       50
176
     1
 90
        3
176
     1
 62
     5
420
      255
176
     1
290
     0
176
     1
 90
       50
176
     1
 90
       50
176
     1
 90
       50
176
     1
290
     0
176
     1
 90
       50
176
     1
 62
   256
176
     0
 40
1.0
176
     0
 90
        2
176
     1
  1
strokes_ogs.tif
176
     1
290
     0
176
     1
 40
1.0
176
     1
 40
1.0
176
     1
  0
VISUALSTYLE
  5
2D
102
{ACAD_REACTORS
330
2A
102
}
330
2A
100
AcDbVisualStyle
  2
Gouraud
 70
     2
177
     3
291
     1
 70
    58
 90
        2
176
     1
 90
        2
176
     1
 90
        1
176
     1
 90
        2
176
     1
 40
0.6
176
     1
 40
30.0
176
     1
 62
     7
420
 16777215
176
     1
 90
        0
176
     1
 90
        0
176
     1
 62
     7
176
     1
 62
   257
176
     1
 90
        1
176
     1
 90
        1
176
     1
 40
1.0
176
     1
 90
        0
176
     1
 62
     7
176
     1
 40
1.0
176
     1
 90
        1
176
     1
 90
        6
176
     1
 90
        2
176
     1
 62
     7
176
     1
 90
        5
176
     1
 90
        0
176
     1
 90
        0
176
     1
290
     0
176
     1
 90
       13
176
     1
 40
0.0
176
     1
 90
        0
176
     1
290
     0
176
     1
290
     1
176
     1
290
     1
176
     1
290
     0
176
     1
290
     0
176
     1
290
     0
176
     1
290
     0
176
     1
290
     0
176
     1
290
     0
176
     1
 90
       50
176
     1
 40
0.0
176
     1
 40
1.0
176
     1
 90
        0
176
     1
 62
    18
420
        0
176
     1
 90
       50
176
     1
 90
        3
176
     1
 62
     5
420
      255
176
     1
290
     0
176
     1
 90
       50
176
     1
 90
       50
176
     1
 90
       50
176
     1
290
     0
176
     1
 90
       50
176
     1
 62
   256
176
     0
 40
1.0
176
     0
 90
        2
176
     1
  1
strokes_ogs.tif
176
     1
290
     0
176
     1
 40
1.0
176
     1
 40
1.0
176
     1
  0
VISUALSTYLE
  5
2E
102
{ACAD_REACTORS
330
2A
102
}
330
2A
100
AcDbVisualStyle
  2
GouraudWithEdges
 70
     3
177
     3
291
     1
 70
    58
 90
        2
176
     1
 90
        2
176
     1
 90
        1
176
     1
 90
        2
176
     1
 40
0.6
176
     1
 40
30.0
176
     1
 62
     7
420
 16777215
176
     1
 90
        1
176
     1
 90
        0
176
     1
 62
     7
176
     1
 62
   257
176
     1
 90
        1
176
     1
 90
        1
176
     1
 40
1.0
176
     1
 90
        0
176
     1
 62
   257
176
     1
 40
1.0
176
     1
 90
        1
176
     1
 90
        6
176
     1
 90
        2
176
     1
 62
     7
176
     1
 90
        5
176
     1
 90
        0
176
     1
 90
        0
176
     1
290
     0
176
     1
 90
       13
176
     1
 40
0.0
176
     1
 90
        0
176
     1
290
     0
176
     1
290
     1
176
     1
290
     1
176
     1
290
     0
176
     1
290
     0
176
     1
290
     0
176
     1
290
     0
176
     1
290
     0
176
     1
290
     0
176
     1
 90
       50
176
     1
 40
0.0
176
     1
 40
1.0
176
     1
 90
        0
176
     1
 62
    18
420
        0
176
     1
 90
       50
176
     1
 90
        3
176
     1
 62
     5
420
      255
176
     1
290
     0
176
     1
 90
       50
176
     1
 90
       50
176
     1
 90
       50
176
     1
290
     0
176
     1
 90
       50
176
     1
 62
   256
176
     0
 40
1.0
176
     0
 90
        2
176
     1
  1
strokes_ogs.tif
176
     1
290
     0
176
     1
 40
1.0
176
     1
 40
1.0
176
     1
  0
VISUALSTYLE
  5
31
102
{ACAD_REACTORS
330
2A
102
}
330
2A
100
AcDbVisualStyle
  2
Hidden
 70
     6
177
     3
291
     0
 70
    58
 90
        1
176
     1
 90
        2
176
     1
 90
        2
176
     1
 90
        0
176
     1
 40
0.6
176
     1
 40
30.0
176
     1
 62
     7
420
 16777215
176
     1
 90
        2
176
     1
 90
        2
176
     1
 62
     7
176
     1
 62
   257
176
     1
 90
        2
176
     1
 90
        1
176
     1
 40
40.0
176
     1
 90
        0
176
     1
 62
   257
176
     1
 40
1.0
176
     1
 90
        1
176
     1
 90
        6
176
     1
 90
        2
176
     1
 62
     7
176
     1
 90
        3
176
     1
 90
        0
176
     1
 90
        0
176
     1
290
     0
176
     1
 90
        1
176
     1
 40
0.0
176
     1
 90
        0
176
     1
290
     0
176
     1
290
     1
176
     1
290
     1
176
     1
290
     0
176
     1
290
     0
176
     1
290
     0
176
     1
290
     0
176
     1
290
     0
176
     1
290
     0
176
     1
 90
       50
176
     1
 40
0.0
176
     1
 40
1.0
176
     1
 90
        0
176
     1
 62
    18
420
        0
176
     1
 90
       50
176
     1
 90
        3
176
     1
 62
     5
420
      255
176
     1
290
     0
176
     1
 90
       50
176
     1
 90
       50
176
     1
 90
       50
176
     1
290
     0
176
     1
 90
       50
176
     1
 62
   256
176
     0
 40
1.0
176
     0
 90
        2
176
     1
  1
strokes_ogs.tif
176
     1
290
     0
176
     1
 40
1.0
176
     1
 40
1.0
176
     1
  0
VISUALSTYLE
  5
3B
102
{ACAD_REACTORS
330
2A
102
}
330
2A
100
AcDbVisualStyle
  2
JitterOff
 70
    20
177
     3
291
     1
 70
    58
 90
        2
176
     0
 90
        2
176
     0
 90
        0
176
     0
 90
        0
176
     0
 40
0.6
176
     0
 40
30.0
176
     0
 62
     7
420
 16777215
176
     0
 90
        1
176
     0
 90
        4
176
     0
 62
     7
176
     0
 62
   257
176
     0
 90
        1
176
     0
 90
        1
176
     0
 40
1.0
176
     0
 90
       10
176
     2
 62
     7
176
     0
 40
1.0
176
     0
 90
        1
176
     0
 90
        6
176
     0
 90
        2
176
     0
 62
     7
176
     0
 90
        5
176
     0
 90
        0
176
     0
 90
        0
176
     0
290
     0
176
     0
 90
        1
176
     0
 40
0.0
176
     0
 90
        0
176
     0
290
     0
176
     0
290
     1
176
     0
290
     1
176
     0
290
     0
176
     0
290
     0
176
     0
290
     0
176
     0
290
     0
176
     0
290
     0
176
     0
290
     0
176
     0
 90
       50
176
     0
 40
0.0
176
     0
 40
1.0
176
     0
 90
        0
176
     0
 62
    18
420
        0
176
     0
 90
       50
176
     0
 90
        3
176
     0
 62
     5
420
      255
176
     0
290
     0
176
     0
 90
       50
176
     0
 90
       50
176
     0
 90
       50
176
     0
290
     0
176
     0
 90
       50
176
     0
 62
   256
176
     0
 40
1.0
176
     0
 90
        2
176
     0
  1
strokes_ogs.tif
176
     0
290
     0
176
     0
 40
1.0
176
     0
 40
1.0
176
     0
  0
VISUALSTYLE
  5
38
102
{ACAD_REACTORS
330
2A
102
}
330
2A
100
AcDbVisualStyle
  2
Linepattern
 70
    14
177
     3
291
     1
 70
    58
 90
        2
176
     1
 90
        2
176
     1
 90
        0
176
     1
 90
        0
176
     1
 40
0.6
176
     1
 40
30.0
176
     1
 62
     7
420
 16777215
176
     1
 90
        1
176
     1
 90
        4
176
     1
 62
     7
176
     1
 62
   257
176
     1
 90
        7
176
     1
 90
        7
176
     1
 40
1.0
176
     1
 90
        8
176
     1
 62
     7
176
     1
 40
1.0
176
     1
 90
        1
176
     1
 90
        6
176
     1
 90
        2
176
     1
 62
     7
176
     1
 90
        5
176
     1
 90
        0
176
     1
 90
        0
176
     1
290
     0
176
     1
 90
        1
176
     1
 40
0.0
176
     1
 90
        0
176
     1
290
     0
176
     1
290
     1
176
     1
290
     1
176
     1
290
     0
176
     1
290
     0
176
     1
290
     0
176
     1
290
     0
176
     1
290
     0
176
     1
290
     0
176
     1
 90
       50
176
     1
 40
0.0
176
     1
 40
1.0
176
     1
 90
        0
176
     1
 62
    18
420
        0
176
     1
 90
       50
176
     1
 90
        3
176
     1
 62
     5
420
      255
176
     1
290
     0
176
     1
 90
       50
176
     1
 90
       50
176
     1
 90
       50
176
     1
290
     0
176
     1
 90
       50
176
     1
 62
   256
176
     0
 40
1.0
176
     0
 90
        2
176
     1
  1
strokes_ogs.tif
176
     1
290
     0
176
     1
 40
1.0
176
     1
 40
1.0
176
     1
  0
VISUALSTYLE
  5
3C
102
{ACAD_REACTORS
330
2A
102
}
330
2A
100
AcDbVisualStyle
  2
OverhangOff
 70
    21
177
     3
291
     1
 70
    58
 90
        2
176
     0
 90
        2
176
     0
 90
        0
176
     0
 90
        0
176
     0
 40
0.6
176
     0
 40
30.0
176
     0
 62
     7
420
 16777215
176
     0
 90
        1
176
     0
 90
        4
176
     0
 62
     7
176
     0
 62
   257
176
     0
 90
        1
176
     0
 90
        1
176
     0
 40
1.0
176
     0
 90
        9
176
     2
 62
     7
176
     0
 40
1.0
176
     0
 90
        1
176
     0
 90
        6
176
     0
 90
        2
176
     0
 62
     7
176
     0
 90
        5
176
     0
 90
        0
176
     0
 90
        0
176
     0
290
     0
176
     0
 90
        1
176
     0
 40
0.0
176
     0
 90
        0
176
     0
290
     0
176
     0
290
     1
176
     0
290
     1
176
     0
290
     0
176
     0
290
     0
176
     0
290
     0
176
     0
290
     0
176
     0
290
     0
176
     0
290
     0
176
     0
 90
       50
176
     0
 40
0.0
176
     0
 40
1.0
176
     0
 90
        0
176
     0
 62
    18
420
        0
176
     0
 90
       50
176
     0
 90
        3
176
     0
 62
     5
420
      255
176
     0
290
     0
176
     0
 90
       50
176
     0
 90
       50
176
     0
 90
       50
176
     0
290
     0
176
     0
 90
       50
176
     0
 62
   256
176
     0
 40
1.0
176
     0
 90
        2
176
     0
  1
strokes_ogs.tif
176
     0
290
     0
176
     0
 40
1.0
176
     0
 40
1.0
176
     0
  0
VISUALSTYLE
  5
33
102
{ACAD_REACTORS
330
2A
102
}
330
2A
100
AcDbVisualStyle
  2
Realistic
 70
     8
177
     3
291
     0
 70
    58
 90
        2
176
     1
 90
        3
176
     1
 90
        0
176
     1
 90
        2
176
     1
 40
0.6
176
     1
 40
30.0
176
     1
 62
     7
420
 16777215
176
     1
 90
        0
176
     1
 90
        0
176
     1
 62
     7
176
     1
 62
   257
176
     1
 90
        1
176
     1
 90
        1
176
     1
 40
1.0
176
     1
 90
        8
176
     1
 62
   257
176
     1
 40
1.0
176
     1
 90
        1
176
     1
 90
        6
176
     1
 90
        2
176
     1
 62
     7
176
     1
 90
        3
176
     1
 90
        0
176
     1
 90
        0
176
     1
290
     0
176
     1
 90
       13
176
     1
 40
0.0
176
     1
 90
        0
176
     1
290
     0
176
     1
290
     1
176
     1
290
     1
176
     1
290
     0
176
     1
290
     0
176
     1
290
     0
176
     1
290
     0
176
     1
290
     0
176
     1
290
     0
176
     1
 90
       50
176
     1
 40
0.0
176
     1
 40
1.0
176
     1
 90
        0
176
     1
 62
    18
420
        0
176
     1
 90
       50
176
     1
 90
        3
176
     1
 62
     5
420
      255
176
     1
290
     0
176
     1
 90
       50
176
     1
 90
       50
176
     1
 90
       50
176
     1
290
     0
176
     1
 90
       50
176
     1
 62
   256
176
     0
 40
1.0
176
     0
 90
        2
176
     1
  1
strokes_ogs.tif
176
     1
290
     0
176
     1
 40
1.0
176
     1
 40
1.0
176
     1
  0
VISUALSTYLE
  5
42
102
{ACAD_REACTORS
330
2A
102
}
330
2A
100
AcDbVisualStyle
  2
Shaded
 70
    27
177
     3
291
     0
 70
    58
 90
        2
176
     1
 90
        2
176
     1
 90
        1
176
     1
 90
        2
176
     1
 40
0.6
176
     1
 40
30.0
176
     1
 62
     7
420
 16777215
176
     1
 90
        0
176
     1
 90
        4
176
     1
 62
     7
176
     1
 62
   257
176
     1
 90
        1
176
     1
 90
        1
176
     1
 40
1.0
176
     1
 90
        8
176
     1
 62
   257
176
     1
 40
1.0
176
     1
 90
        1
176
     1
 90
        6
176
     1
 90
        2
176
     1
 62
     8
420
  7895160
176
     1
 90
        3
176
     1
 90
        0
176
     1
 90
        0
176
     1
290
     0
176
     1
 90
        5
176
     1
 40
0.0
176
     1
 90
        0
176
     1
290
     0
176
     1
290
     1
176
     1
290
     1
176
     1
290
     0
176
     1
290
     0
176
     1
290
     0
176
     1
290
     0
176
     1
290
     0
176
     1
290
     0
176
     1
 90
       50
176
     1
 40
0.0
176
     1
 40
1.0
176
     1
 90
        0
176
     1
 62
    18
420
        0
176
     1
 90
       50
176
     1
 90
        3
176
     1
 62
     5
420
      255
176
     1
290
     0
176
     1
 90
       50
176
     1
 90
       50
176
     1
 90
       50
176
     1
290
     0
176
     1
 90
       50
176
     1
 62
   256
176
     0
 40
1.0
176
     0
 90
        2
176
     1
  1
strokes_ogs.tif
176
     1
290
     0
176
     1
 40
1.0
176
     1
 40
1.0
176
     1
  0
VISUALSTYLE
  5
41
102
{ACAD_REACTORS
330
2A
102
}
330
2A
100
AcDbVisualStyle
  2
Shaded with edges
 70
    26
177
     3
291
     0
 70
    58
 90
        2
176
     1
 90
        2
176
     1
 90
        1
176
     1
 90
        2
176
     1
 40
0.6
176
     1
 40
30.0
176
     1
 62
     7
420
 16777215
176
     1
 90
        1
176
     1
 90
       10
176
     1
 62
     7
176
     1
 62
   257
176
     1
 90
        2
176
     1
 90
        1
176
     1
 40
1.0
176
     1
 90
        8
176
     1
 62
   257
176
     1
 40
1.0
176
     1
 90
        1
176
     1
 90
        6
176
     1
 90
        2
176
     1
 62
     7
176
     1
 90
        3
176
     1
 90
        0
176
     1
 90
        0
176
     1
290
     0
176
     1
 90
        5
176
     1
 40
0.0
176
     1
 90
        0
176
     1
290
     0
176
     1
290
     1
176
     1
290
     1
176
     1
290
     0
176
     1
290
     0
176
     1
290
     0
176
     1
290
     0
176
     1
290
     0
176
     1
290
     0
176
     1
 90
       50
176
     1
 40
0.0
176
     1
 40
1.0
176
     1
 90
        0
176
     1
 62
    18
420
        0
176
     1
 90
       50
176
     1
 90
        3
176
     1
 62
     5
420
      255
176
     1
290
     0
176
     1
 90
       50
176
     1
 90
       50
176
     1
 90
       50
176
     1
290
     0
176
     1
 90
       50
176
     1
 62
   256
176
     0
 40
1.0
176
     0
 90
        2
176
     1
  1
strokes_ogs.tif
176
     1
290
     0
176
     1
 40
1.0
176
     1
 40
1.0
176
     1
  0
VISUALSTYLE
  5
3E
102
{ACAD_REACTORS
330
2A
102
}
330
2A
100
AcDbVisualStyle
  2
Shades of Gray
 70
    23
177
     3
291
     0
 70
    58
 90
        2
176
     1
 90
        2
176
     1
 90
        3
176
     1
 90
        0
176
     1
 40
0.6
176
     1
 40
30.0
176
     1
 62
     7
420
 16777215
176
     1
 90
        2
176
     1
 90
        2
176
     1
 62
     7
176
     1
 62
     7
176
     1
 90
        1
176
     1
 90
        1
176
     1
 40
40.0
176
     1
 90
        8
176
     1
 62
     7
176
     1
 40
1.0
176
     1
 90
        1
176
     1
 90
        6
176
     1
 90
        2
176
     1
 62
     7
176
     1
 90
        3
176
     1
 90
        0
176
     1
 90
        0
176
     1
290
     0
176
     1
 90
        1
176
     1
 40
0.0
176
     1
 90
        0
176
     1
290
     0
176
     1
290
     1
176
     1
290
     1
176
     1
290
     0
176
     1
290
     0
176
     1
290
     0
176
     1
290
     0
176
     1
290
     0
176
     1
290
     0
176
     1
 90
       50
176
     1
 40
0.0
176
     1
 40
1.0
176
     1
 90
        0
176
     1
 62
    18
420
        0
176
     1
 90
       50
176
     1
 90
        3
176
     1
 62
     5
420
      255
176
     1
290
     0
176
     1
 90
       50
176
     1
 90
       50
176
     1
 90
       50
176
     1
290
     0
176
     1
 90
       50
176
     1
 62
   256
176
     0
 40
1.0
176
     0
 90
        2
176
     1
  1
strokes_ogs.tif
176
     1
290
     0
176
     1
 40
1.0
176
     1
 40
1.0
176
     1
  0
VISUALSTYLE
  5
3F
102
{ACAD_REACTORS
330
2A
102
}
330
2A
100
AcDbVisualStyle
  2
Sketchy
 70
    24
177
     3
291
     0
 70
    58
 90
        1
176
     1
 90
        2
176
     1
 90
        2
176
     1
 90
        0
176
     1
 40
0.6
176
     1
 40
30.0
176
     1
 62
     7
420
 16777215
176
     1
 90
        2
176
     1
 90
        2
176
     1
 62
     7
176
     1
 62
     7
176
     1
 90
        1
176
     1
 90
        1
176
     1
 40
40.0
176
     1
 90
       11
176
     1
 62
     7
176
     1
 40
1.0
176
     1
 90
        1
176
     1
 90
        6
176
     1
 90
        2
176
     1
 62
     7
176
     1
 90
        6
176
     1
 90
        0
176
     1
 90
        0
176
     1
290
     0
176
     1
 90
        1
176
     1
 40
0.0
176
     1
 90
        0
176
     1
290
     0
176
     1
290
     1
176
     1
290
     1
176
     1
290
     0
176
     1
290
     0
176
     1
290
     0
176
     1
290
     0
176
     1
290
     0
176
     1
290
     0
176
     1
 90
       50
176
     1
 40
0.0
176
     1
 40
1.0
176
     1
 90
        0
176
     1
 62
    18
420
        0
176
     1
 90
       50
176
     1
 90
        3
176
     1
 62
     5
420
      255
176
     1
290
     0
176
     1
 90
       50
176
     1
 90
       50
176
     1
 90
       50
176
     1
290
     0
176
     1
 90
       50
176
     1
 62
   256
176
     0
 40
1.0
176
     0
 90
        2
176
     1
  1
strokes_ogs.tif
176
     1
290
     0
176
     1
 40
1.0
176
     1
 40
1.0
176
     1
  0
VISUALSTYLE
  5
37
102
{ACAD_REACTORS
330
2A
102
}
330
2A
100
AcDbVisualStyle
  2
Thicken
 70
    13
177
     3
291
     1
 70
    58
 90
        2
176
     1
 90
        2
176
     1
 90
        0
176
     1
 90
        0
176
     1
 40
0.6
176
     1
 40
30.0
176
     1
 62
     7
420
 16777215
176
     1
 90
        1
176
     1
 90
        4
176
     1
 62
     7
176
     1
 62
   257
176
     1
 90
        1
176
     1
 90
        1
176
     1
 40
1.0
176
     1
 90
       12
176
     1
 62
     7
176
     1
 40
1.0
176
     1
 90
        1
176
     1
 90
        6
176
     1
 90
        2
176
     1
 62
     7
176
     1
 90
        5
176
     1
 90
        0
176
     1
 90
        0
176
     1
290
     0
176
     1
 90
        1
176
     1
 40
0.0
176
     1
 90
        0
176
     1
290
     0
176
     1
290
     1
176
     1
290
     1
176
     1
290
     0
176
     1
290
     0
176
     1
290
     0
176
     1
290
     0
176
     1
290
     0
176
     1
290
     0
176
     1
 90
       50
176
     1
 40
0.0
176
     1
 40
1.0
176
     1
 90
        0
176
     1
 62
    18
420
        0
176
     1
 90
       50
176
     1
 90
        3
176
     1
 62
     5
420
      255
176
     1
290
     0
176
     1
 90
       50
176
     1
 90
       50
176
     1
 90
       50
176
     1
290
     0
176
     1
 90
       50
176
     1
 62
   256
176
     0
 40
1.0
176
     0
 90
        2
176
     1
  1
strokes_ogs.tif
176
     1
290
     0
176
     1
 40
1.0
176
     1
 40
1.0
176
     1
  0
VISUALSTYLE
  5
30
102
{ACAD_REACTORS
330
2A
102
}
330
2A
100
AcDbVisualStyle
  2
Wireframe
 70
     5
177
     3
291
     0
 70
    58
 90
        0
176
     1
 90
        2
176
     1
 90
        0
176
     1
 90
        0
176
     1
 40
0.6
176
     1
 40
30.0
176
     1
 62
     7
420
 16777215
176
     1
 90
        1
176
     1
 90
        4
176
     1
 62
     7
176
     1
 62
   257
176
     1
 90
        1
176
     1
 90
        1
176
     1
 40
1.0
176
     1
 90
        0
176
     1
 62
   257
176
     1
 40
1.0
176
     1
 90
        1
176
     1
 90
        6
176
     1
 90
        2
176
     1
 62
     7
176
     1
 90
        3
176
     1
 90
        0
176
     1
 90
        0
176
     1
290
     0
176
     1
 90
        1
176
     1
 40
0.0
176
     1
 90
        0
176
     1
290
     0
176
     1
290
     1
176
     1
290
     1
176
     1
290
     0
176
     1
290
     0
176
     1
290
     0
176
     1
290
     0
176
     1
290
     0
176
     1
290
     0
176
     1
 90
       50
176
     1
 40
0.0
176
     1
 40
1.0
176
     1
 90
        0
176
     1
 62
    18
420
        0
176
     1
 90
       50
176
     1
 90
        3
176
     1
 62
     5
420
      255
176
     1
290
     0
176
     1
 90
       50
176
     1
 90
       50
176
     1
 90
       50
176
     1
290
     0
176
     1
 90
       50
176
     1
 62
   256
176
     0
 40
1.0
176
     0
 90
        2
176
     1
  1
strokes_ogs.tif
176
     1
290
     0
176
     1
 40
1.0
176
     1
 40
1.0
176
     1
  0
VISUALSTYLE
  5
40
102
{ACAD_REACTORS
330
2A
102
}
330
2A
100
AcDbVisualStyle
  2
X-Ray
 70
    25
177
     3
291
     0
 70
    58
 90
        2
176
     1
 90
        2
176
     1
 90
        1
176
     1
 90
        1
176
     1
 40
0.5
176
     1
 40
30.0
176
     1
 62
     7
420
 16777215
176
     1
 90
        1
176
     1
 90
        0
176
     1
 62
     7
176
     1
 62
   257
176
     1
 90
        1
176
     1
 90
        1
176
     1
 40
1.0
176
     1
 90
        8
176
     1
 62
     7
176
     1
 40
1.0
176
     1
 90
        1
176
     1
 90
        6
176
     1
 90
        2
176
     1
 62
     7
176
     1
 90
        3
176
     1
 90
        0
176
     1
 90
        0
176
     1
290
     0
176
     1
 90
       13
176
     1
 40
0.0
176
     1
 90
        0
176
     1
290
     0
176
     1
290
     1
176
     1
290
     1
176
     1
290
     0
176
     1
290
     0
176
     1
290
     0
176
     1
290
     0
176
     1
290
     0
176
     1
290
     0
176
     1
 90
       50
176
     1
 40
0.0
176
     1
 40
1.0
176
     1
 90
        0
176
     1
 62
    18
420
        0
176
     1
 90
       50
176
     1
 90
        3
176
     1
 62
     5
420
      255
176
     1
290
     0
176
     1
 90
       50
176
     1
 90
       50
176
     1
 90
       50
176
     1
290
     0
176
     1
 90
       50
176
     1
 62
   256
176
     0
 40
1.0
176
     0
 90
        2
176
     1
  1
strokes_ogs.tif
176
     1
290
     0
176
     1
 40
1.0
176
     1
 40
1.0
176
     1
  0
DICTIONARYVAR
  5
221
102
{ACAD_REACTORS
330
220
102
}
330
220
100
DictionaryVariables
280
     0
  1
1:1
  0
DICTIONARYVAR
  5
226
102
{ACAD_REACTORS
330
220
102
}
330
220
100
DictionaryVariables
280
     0
  1
Standard
  0
DICTIONARYVAR
  5
225
102
{ACAD_REACTORS
330
220
102
}
330
220
100
DictionaryVariables
280
     0
  1
Standard
  0
DICTIONARY
  5
222
330
6A
100
AcDbDictionary
280
     1
281
     1
  3
ACAD_ROUNDTRIP_2008_TABLESTYLE_CELLSTYLEMAP
360
223
  0
CELLSTYLEMAP
  5
223
102
{ACAD_REACTORS
330
222
102
}
330
222
100
AcDbCellStyleMap
 90
        3
300
CELLSTYLE
  1
TABLEFORMAT_BEGIN
 90
        5
170
     1
 91
        0
 92
    32768
 62
   257
 93
        1
300
CONTENTFORMAT
  1
CONTENTFORMAT_BEGIN
 90
        0
 91
        0
 92
        4
 93
        0
300

 40
0.0
140
1.0
 94
        5
 62
     0
340
11
144
0.25
309
CONTENTFORMAT_END
171
     1
301
MARGIN
  1
CELLMARGIN_BEGIN
 40
0.06
 40
0.06
 40
0.06
 40
0.06
 40
0.06
 40
0.06
309
CELLMARGIN_END
 94
        6
 95
        1
302
GRIDFORMAT
  1
GRIDFORMAT_BEGIN
 90
        0
 91
        1
 62
     0
 92
       -2
340
14
 93
        0
 40
0.045
309
GRIDFORMAT_END
 95
        2
302
GRIDFORMAT
  1
GRIDFORMAT_BEGIN
 90
        0
 91
        1
 62
     0
 92
       -2
340
14
 93
        0
 40
0.045
309
GRIDFORMAT_END
 95
        4
302
GRIDFORMAT
  1
GRIDFORMAT_BEGIN
 90
        0
 91
        1
 62
     0
 92
       -2
340
14
 93
        0
 40
0.045
309
GRIDFORMAT_END
 95
        8
302
GRIDFORMAT
  1
GRIDFORMAT_BEGIN
 90
        0
 91
        1
 62
     0
 92
       -2
340
14
 93
        0
 40
0.045
309
GRIDFORMAT_END
 95
       16
302
GRIDFORMAT
  1
GRIDFORMAT_BEGIN
 90
        0
 91
        1
 62
     0
 92
       -2
340
14
 93
        0
 40
0.045
309
GRIDFORMAT_END
 95
       32
302
GRIDFORMAT
  1
GRIDFORMAT_BEGIN
 90
        0
 91
        1
 62
     0
 92
       -2
340
14
 93
        0
 40
0.045
309
GRIDFORMAT_END
309
TABLEFORMAT_END
  1
CELLSTYLE_BEGIN
 90
        1
 91
        1
300
_TITLE
309
CELLSTYLE_END
300
CELLSTYLE
  1
TABLEFORMAT_BEGIN
 90
        5
170
     1
 91
        0
 92
        0
 62
   257
 93
        1
300
CONTENTFORMAT
  1
CONTENTFORMAT_BEGIN
 90
        0
 91
        0
 92
        4
 93
        0
300

 40
0.0
140
1.0
 94
        5
 62
     0
340
11
144
0.18
309
CONTENTFORMAT_END
171
     1
301
MARGIN
  1
CELLMARGIN_BEGIN
 40
0.06
 40
0.06
 40
0.06
 40
0.06
 40
0.06
 40
0.06
309
CELLMARGIN_END
 94
        6
 95
        1
302
GRIDFORMAT
  1
GRIDFORMAT_BEGIN
 90
        0
 91
        1
 62
     0
 92
       -2
340
14
 93
        0
 40
0.045
309
GRIDFORMAT_END
 95
        2
302
GRIDFORMAT
  1
GRIDFORMAT_BEGIN
 90
        0
 91
        1
 62
     0
 92
       -2
340
14
 93
        0
 40
0.045
309
GRIDFORMAT_END
 95
        4
302
GRIDFORMAT
  1
GRIDFORMAT_BEGIN
 90
        0
 91
        1
 62
     0
 92
       -2
340
14
 93
        0
 40
0.045
309
GRIDFORMAT_END
 95
        8
302
GRIDFORMAT
  1
GRIDFORMAT_BEGIN
 90
        0
 91
        1
 62
     0
 92
       -2
340
14
 93
        0
 40
0.045
309
GRIDFORMAT_END
 95
       16
302
GRIDFORMAT
  1
GRIDFORMAT_BEGIN
 90
        0
 91
        1
 62
     0
 92
       -2
340
14
 93
        0
 40
0.045
309
GRIDFORMAT_END
 95
       32
302
GRIDFORMAT
  1
GRIDFORMAT_BEGIN
 90
        0
 91
        1
 62
     0
 92
       -2
340
14
 93
        0
 40
0.045
309
GRIDFORMAT_END
309
TABLEFORMAT_END
  1
CELLSTYLE_BEGIN
 90
        2
 91
        1
300
_HEADER
309
CELLSTYLE_END
300
CELLSTYLE
  1
TABLEFORMAT_BEGIN
 90
        5
170
     1
 91
        0
 92
        0
 62
   257
 93
        1
300
CONTENTFORMAT
  1
CONTENTFORMAT_BEGIN
 90
        0
 91
        0
 92
        4
 93
        0
300

 40
0.0
140
1.0
 94
        2
 62
     0
340
11
144
0.18
309
CONTENTFORMAT_END
171
     1
301
MARGIN
  1
CELLMARGIN_BEGIN
 40
0.06
 40
0.06
 40
0.06
 40
0.06
 40
0.06
 40
0.06
309
CELLMARGIN_END
 94
        6
 95
        1
302
GRIDFORMAT
  1
GRIDFORMAT_BEGIN
 90
        0
 91
        1
 62
     0
 92
       -2
340
14
 93
        0
 40
0.045
309
GRIDFORMAT_END
 95
        2
302
GRIDFORMAT
  1
GRIDFORMAT_BEGIN
 90
        0
 91
        1
 62
     0
 92
       -2
340
14
 93
        0
 40
0.045
309
GRIDFORMAT_END
 95
        4
302
GRIDFORMAT
  1
GRIDFORMAT_BEGIN
 90
        0
 91
        1
 62
     0
 92
       -2
340
14
 93
        0
 40
0.045
309
GRIDFORMAT_END
 95
        8
302
GRIDFORMAT
  1
GRIDFORMAT_BEGIN
 90
        0
 91
        1
 62
     0
 92
       -2
340
14
 93
        0
 40
0.045
309
GRIDFORMAT_END
 95
       16
302
GRIDFORMAT
  1
GRIDFORMAT_BEGIN
 90
        0
 91
        1
 62
     0
 92
       -2
340
14
 93
        0
 40
0.045
309
GRIDFORMAT_END
 95
       32
302
GRIDFORMAT
  1
GRIDFORMAT_BEGIN
 90
        0
 91
        1
 62
     0
 92
       -2
340
14
 93
        0
 40
0.045
309
GRIDFORMAT_END
309
TABLEFORMAT_END
  1
CELLSTYLE_BEGIN
 90
        3
 91
        2
300
_DATA
309
CELLSTYLE_END
  0
ENDSEC
  0
EOF