0
SECTION
  2
HEADER
  9
$ACADVER
  1
AC1027
  9
$ACADMAINTVER
 70
     8
  9
$DWGCODEPAGE
  3
ANSI_1252
  9
$REQUIREDVERSIONS
160
                 0
  9
$COMMENTS
  1
File was created by Cadenas
  9
$CUSTOMPROPERTYTAG
  1
NN
  9
$CUSTOMPROPERTY
  1
Grip Tight Medium Duty Wide Slot Take Up Inch Bore
  9
$CUSTOMPROPERTYTAG
  1
NT
  9
$CUSTOMPROPERTY
  1
GT Wide Slot Take-Up Bearings -(Medium Duty)
  9
$CUSTOMPROPERTYTAG
  1
NB
  9
$CUSTOMPROPERTY
  1
136180
  9
$CUSTOMPROPERTYTAG
  1
NBSYN
  9
$CUSTOMPROPERTY
  1
$PN.$LUBE.
  9
$CUSTOMPROPERTYTAG
  1
LINA
  9
$CUSTOMPROPERTY
  1
136180
  9
$CUSTOMPROPERTYTAG
  1
SERIES
  9
$CUSTOMPROPERTY
  1
212
  9
$CUSTOMPROPERTYTAG
  1
SS
  9
$CUSTOMPROPERTY
  1
2-1/4
  9
$CUSTOMPROPERTYTAG
  1
PN
  9
$CUSTOMPROPERTY
  1
136180
  9
$CUSTOMPROPERTYTAG
  1
DESCRIPTION
  9
$CUSTOMPROPERTY
  1
WSTU-GTM-204
  9
$CUSTOMPROPERTYTAG
  1
A
  9
$CUSTOMPROPERTY
  1
2-7/64
  9
$CUSTOMPROPERTYTAG
  1
B
  9
$CUSTOMPROPERTY
  1
7-1/2
  9
$CUSTOMPROPERTYTAG
  1
C
  9
$CUSTOMPROPERTY
  1
1.047/1.077
  9
$CUSTOMPROPERTYTAG
  1
D
  9
$CUSTOMPROPERTY
  1
4
  9
$CUSTOMPROPERTYTAG
  1
E
  9
$CUSTOMPROPERTY
  1
4-11/16
  9
$CUSTOMPROPERTYTAG
  1
F
  9
$CUSTOMPROPERTY
  1
1-1/4
  9
$CUSTOMPROPERTYTAG
  1
G
  9
$CUSTOMPROPERTY
  1
3/4
  9
$CUSTOMPROPERTYTAG
  1
H
  9
$CUSTOMPROPERTY
  1
1-1/4
  9
$CUSTOMPROPERTYTAG
  1
J
  9
$CUSTOMPROPERTY
  1
4
  9
$CUSTOMPROPERTYTAG
  1
K
  9
$CUSTOMPROPERTY
  1
2-1/2
  9
$CUSTOMPROPERTYTAG
  1
L
  9
$CUSTOMPROPERTY
  1
3-1/2
  9
$CUSTOMPROPERTYTAG
  1
M
  9
$CUSTOMPROPERTY
  1
5.110/5.140
  9
$CUSTOMPROPERTYTAG
  1
N
  9
$CUSTOMPROPERTY
  1
5-7/8
  9
$CUSTOMPROPERTYTAG
  1
R
  9
$CUSTOMPROPERTY
  1
49/64
  9
$CUSTOMPROPERTYTAG
  1
S
  9
$CUSTOMPROPERTY
  1
1-11/32
  9
$CUSTOMPROPERTYTAG
  1
T
  9
$CUSTOMPROPERTY
  1
2-1/2
  9
$CUSTOMPROPERTYTAG
  1
Z
  9
$CUSTOMPROPERTY
  1
1-5/16
  9
$CUSTOMPROPERTYTAG
  1
COMPANY
  9
$CUSTOMPROPERTY
  1
baldor
  9
$INSBASE
 10
0.0
 20
0.0
 30
0.0
  9
$EXTMIN
 10
1.000000000000000E+20
 20
1.000000000000000E+20
 30
1.000000000000000E+20
  9
$EXTMAX
 10
-1.000000000000000E+20
 20
-1.000000000000000E+20
 30
-1.000000000000000E+20
  9
$LIMMIN
 10
0.0
 20
0.0
  9
$LIMMAX
 10
12.0
 20
9.0
  9
$ORTHOMODE
 70
     0
  9
$REGENMODE
 70
     1
  9
$FILLMODE
 70
     1
  9
$QTEXTMODE
 70
     0
  9
$MIRRTEXT
 70
     1
  9
$LTSCALE
 40
1.0
  9
$ATTMODE
 70
     1
  9
$TEXTSIZE
 40
0.2
  9
$TRACEWID
 40
0.05
  9
$TEXTSTYLE
  7
Standard
  9
$CLAYER
  8
0
  9
$CELTYPE
  6
ByLayer
  9
$CECOLOR
 62
   256
  9
$CELTSCALE
 40
1.0
  9
$DISPSILH
 70
     0
  9
$DIMSCALE
 40
1.0
  9
$DIMASZ
 40
0.18
  9
$DIMEXO
 40
0.0625
  9
$DIMDLI
 40
0.38
  9
$DIMRND
 40
0.0
  9
$DIMDLE
 40
0.0
  9
$DIMEXE
 40
0.18
  9
$DIMTP
 40
0.0
  9
$DIMTM
 40
0.0
  9
$DIMTXT
 40
0.18
  9
$DIMCEN
 40
0.09
  9
$DIMTSZ
 40
0.0
  9
$DIMTOL
 70
     0
  9
$DIMLIM
 70
     0
  9
$DIMTIH
 70
     1
  9
$DIMTOH
 70
     1
  9
$DIMSE1
 70
     0
  9
$DIMSE2
 70
     0
  9
$DIMTAD
 70
     0
  9
$DIMZIN
 70
     0
  9
$DIMBLK
  1

  9
$DIMASO
 70
     1
  9
$DIMSHO
 70
     1
  9
$DIMPOST
  1

  9
$DIMAPOST
  1

  9
$DIMALT
 70
     0
  9
$DIMALTD
 70
     2
  9
$DIMALTF
 40
25.4
  9
$DIMLFAC
 40
1.0
  9
$DIMTOFL
 70
     0
  9
$DIMTVP
 40
0.0
  9
$DIMTIX
 70
     0
  9
$DIMSOXD
 70
     0
  9
$DIMSAH
 70
     0
  9
$DIMBLK1
  1

  9
$DIMBLK2
  1

  9
$DIMSTYLE
  2
Standard
  9
$DIMCLRD
 70
     0
  9
$DIMCLRE
 70
     0
  9
$DIMCLRT
 70
     0
  9
$DIMTFAC
 40
1.0
  9
$DIMGAP
 40
0.09
  9
$DIMJUST
 70
     0
  9
$DIMSD1
 70
     0
  9
$DIMSD2
 70
     0
  9
$DIMTOLJ
 70
     1
  9
$DIMTZIN
 70
     0
  9
$DIMALTZ
 70
     0
  9
$DIMALTTZ
 70
     0
  9
$DIMUPT
 70
     0
  9
$DIMDEC
 70
     4
  9
$DIMTDEC
 70
     4
  9
$DIMALTU
 70
     2
  9
$DIMALTTD
 70
     2
  9
$DIMTXSTY
  7
Standard
  9
$DIMAUNIT
 70
     0
  9
$DIMADEC
 70
     0
  9
$DIMALTRND
 40
0.0
  9
$DIMAZIN
 70
     0
  9
$DIMDSEP
 70
    46
  9
$DIMATFIT
 70
     3
  9
$DIMFRAC
 70
     0
  9
$DIMLDRBLK
  1

  9
$DIMLUNIT
 70
     2
  9
$DIMLWD
 70
    -2
  9
$DIMLWE
 70
    -2
  9
$DIMTMOVE
 70
     0
  9
$DIMFXL
 40
1.0
  9
$DIMFXLON
 70
     0
  9
$DIMJOGANG
 40
0.7853981633974483
  9
$DIMTFILL
 70
     0
  9
$DIMTFILLCLR
 70
     0
  9
$DIMARCSYM
 70
     0
  9
$DIMLTYPE
  6

  9
$DIMLTEX1
  6

  9
$DIMLTEX2
  6

  9
$DIMTXTDIRECTION
 70
     0
  9
$LUNITS
 70
     2
  9
$LUPREC
 70
     4
  9
$SKETCHINC
 40
0.1
  9
$FILLETRAD
 40
0.5
  9
$AUNITS
 70
     0
  9
$AUPREC
 70
     0
  9
$MENU
  1
.
  9
$ELEVATION
 40
0.0
  9
$PELEVATION
 40
0.0
  9
$THICKNESS
 40
0.0
  9
$LIMCHECK
 70
     0
  9
$CHAMFERA
 40
0.0
  9
$CHAMFERB
 40
0.0
  9
$CHAMFERC
 40
0.0
  9
$CHAMFERD
 40
0.0
  9
$SKPOLY
 70
     0
  9
$TDCREATE
 40
2458168.957795359
  9
$TDUCREATE
 40
2458168.916128692
  9
$TDUPDATE
 40
2458168.957795359
  9
$TDUUPDATE
 40
2458168.916128692
  9
$TDINDWG
 40
0.0000000116
  9
$TDUSRTIMER
 40
0.0000000116
  9
$USRTIMER
 70
     1
  9
$ANGBASE
 50
0.0
  9
$ANGDIR
 70
     0
  9
$PDMODE
 70
     0
  9
$PDSIZE
 40
0.0
  9
$PLINEWID
 40
0.0
  9
$SPLFRAME
 70
     0
  9
$SPLINETYPE
 70
     6
  9
$SPLINESEGS
 70
     8
  9
$HANDSEED
  5
226
  9
$SURFTAB1
 70
     6
  9
$SURFTAB2
 70
     6
  9
$SURFTYPE
 70
     6
  9
$SURFU
 70
     6
  9
$SURFV
 70
     6
  9
$UCSBASE
  2

  9
$UCSNAME
  2

  9
$UCSORG
 10
0.0
 20
0.0
 30
0.0
  9
$UCSXDIR
 10
1.0
 20
0.0
 30
0.0
  9
$UCSYDIR
 10
0.0
 20
1.0
 30
0.0
  9
$UCSORTHOREF
  2

  9
$UCSORTHOVIEW
 70
     0
  9
$UCSORGTOP
 10
0.0
 20
0.0
 30
0.0
  9
$UCSORGBOTTOM
 10
0.0
 20
0.0
 30
0.0
  9
$UCSORGLEFT
 10
0.0
 20
0.0
 30
0.0
  9
$UCSORGRIGHT
 10
0.0
 20
0.0
 30
0.0
  9
$UCSORGFRONT
 10
0.0
 20
0.0
 30
0.0
  9
$UCSORGBACK
 10
0.0
 20
0.0
 30
0.0
  9
$PUCSBASE
  2

  9
$PUCSNAME
  2

  9
$PUCSORG
 10
0.0
 20
0.0
 30
0.0
  9
$PUCSXDIR
 10
1.0
 20
0.0
 30
0.0
  9
$PUCSYDIR
 10
0.0
 20
1.0
 30
0.0
  9
$PUCSORTHOREF
  2

  9
$PUCSORTHOVIEW
 70
     0
  9
$PUCSORGTOP
 10
0.0
 20
0.0
 30
0.0
  9
$PUCSORGBOTTOM
 10
0.0
 20
0.0
 30
0.0
  9
$PUCSORGLEFT
 10
0.0
 20
0.0
 30
0.0
  9
$PUCSORGRIGHT
 10
0.0
 20
0.0
 30
0.0
  9
$PUCSORGFRONT
 10
0.0
 20
0.0
 30
0.0
  9
$PUCSORGBACK
 10
0.0
 20
0.0
 30
0.0
  9
$USERI1
 70
     0
  9
$USERI2
 70
     0
  9
$USERI3
 70
     0
  9
$USERI4
 70
     0
  9
$USERI5
 70
     0
  9
$USERR1
 40
0.0
  9
$USERR2
 40
0.0
  9
$USERR3
 40
0.0
  9
$USERR4
 40
0.0
  9
$USERR5
 40
0.0
  9
$WORLDVIEW
 70
     1
  9
$SHADEDGE
 70
     3
  9
$SHADEDIF
 70
    70
  9
$TILEMODE
 70
     1
  9
$MAXACTVP
 70
    64
  9
$PINSBASE
 10
0.0
 20
0.0
 30
0.0
  9
$PLIMCHECK
 70
     0
  9
$PEXTMIN
 10
1.000000000000000E+20
 20
1.000000000000000E+20
 30
1.000000000000000E+20
  9
$PEXTMAX
 10
-1.000000000000000E+20
 20
-1.000000000000000E+20
 30
-1.000000000000000E+20
  9
$PLIMMIN
 10
0.0
 20
0.0
  9
$PLIMMAX
 10
12.0
 20
9.0
  9
$UNITMODE
 70
     0
  9
$VISRETAIN
 70
     1
  9
$PLINEGEN
 70
     0
  9
$PSLTSCALE
 70
     1
  9
$TREEDEPTH
 70
  3020
  9
$CMLSTYLE
  2
Standard
  9
$CMLJUST
 70
     0
  9
$CMLSCALE
 40
1.0
  9
$PROXYGRAPHICS
 70
     1
  9
$MEASUREMENT
 70
     0
  9
$CELWEIGHT
370
    -1
  9
$ENDCAPS
280
     0
  9
$JOINSTYLE
280
     0
  9
$LWDISPLAY
290
     0
  9
$INSUNITS
 70
     1
  9
$HYPERLINKBASE
  1

  9
$STYLESHEET
  1

  9
$XEDIT
290
     1
  9
$CEPSNTYPE
380
     0
  9
$PSTYLEMODE
290
     1
  9
$FINGERPRINTGUID
  2
{8710D642-69C7-4E6E-9A4C-2B46F02138B7}
  9
$VERSIONGUID
  2
{FAEB1C32-E019-11D5-929B-00C0DF256EC4}
  9
$EXTNAMES
290
     1
  9
$PSVPSCALE
 40
0.0
  9
$OLESTARTUP
290
     0
  9
$SORTENTS
280
   127
  9
$INDEXCTL
280
     0
  9
$HIDETEXT
280
     1
  9
$XCLIPFRAME
280
     2
  9
$HALOGAP
280
     0
  9
$OBSCOLOR
 70
   257
  9
$OBSLTYPE
280
     0
  9
$INTERSECTIONDISPLAY
280
     0
  9
$INTERSECTIONCOLOR
 70
   257
  9
$DIMASSOC
280
     2
  9
$PROJECTNAME
  1

  9
$CAMERADISPLAY
290
     0
  9
$LENSLENGTH
 40
50.0
  9
$CAMERAHEIGHT
 40
0.0
  9
$STEPSPERSEC
 40
2.0
  9
$STEPSIZE
 40
6.0
  9
$3DDWFPREC
 40
2.0
  9
$PSOLWIDTH
 40
0.25
  9
$PSOLHEIGHT
 40
4.0
  9
$LOFTANG1
 40
1.570796326794897
  9
$LOFTANG2
 40
1.570796326794897
  9
$LOFTMAG1
 40
0.0
  9
$LOFTMAG2
 40
0.0
  9
$LOFTPARAM
 70
     7
  9
$LOFTNORMALS
280
     1
  9
$LATITUDE
 40
37.795
  9
$LONGITUDE
 40
-122.394
  9
$NORTHDIRECTION
 40
0.0
  9
$TIMEZONE
 70
 -8000
  9
$LIGHTGLYPHDISPLAY
280
     1
  9
$TILEMODELIGHTSYNCH
280
     1
  9
$CMATERIAL
347
44
  9
$SOLIDHIST
280
     0
  9
$SHOWHIST
280
     1
  9
$DWFFRAME
280
     2
  9
$DGNFRAME
280
     2
  9
$REALWORLDSCALE
290
     1
  9
$INTERFERECOLOR
 62
   256
  9
$CSHADOW
280
     0
  9
$SHADOWPLANELOCATION
 40
0.0
  0
ENDSEC
  0
SECTION
  2
CLASSES
  0
CLASS
  1
ACDBDICTIONARYWDFLT
  2
AcDbDictionaryWithDefault
  3
ObjectDBX Classes
 90
        0
 91
        4
280
     0
281
     0
  0
CLASS
  1
VISUALSTYLE
  2
AcDbVisualStyle
  3
ObjectDBX Classes
 90
     4095
 91
        4
280
     0
281
     0
  0
CLASS
  1
MATERIAL
  2
AcDbMaterial
  3
ObjectDBX Classes
 90
     1153
 91
        4
280
     0
281
     0
  0
CLASS
  1
SCALE
  2
AcDbScale
  3
ObjectDBX Classes
 90
     1153
 91
        4
280
     0
281
     0
  0
CLASS
  1
TABLESTYLE
  2
AcDbTableStyle
  3
ObjectDBX Classes
 90
     4095
 91
        4
280
     0
281
     0
  0
CLASS
  1
MLEADERSTYLE
  2
AcDbMLeaderStyle
  3
ACDB_MLEADERSTYLE_CLASS
 90
     4095
 91
        4
280
     0
281
     0
  0
CLASS
  1
SUN
  2
AcDbSun
  3
SCENEOE
 90
     1153
 91
        4
280
     0
281
     0
  0
CLASS
  1
DICTIONARYVAR
  2
AcDbDictionaryVar
  3
ObjectDBX Classes
 90
        0
 91
        4
280
     0
281
     0
  0
CLASS
  1
CELLSTYLEMAP
  2
AcDbCellStyleMap
  3
ObjectDBX Classes
 90
     1152
 91
        4
280
     0
281
     0
  0
ENDSEC
  0
SECTION
  2
TABLES
  0
TABLE
  2
VPORT
  5
8
330
0
100
AcDbSymbolTable
 70
     1
  0
VPORT
  5
29
330
8
100
AcDbSymbolTableRecord
100
AcDbViewportTableRecord
  2
*Active
 70
     0
 10
0.0
 20
0.0
 11
1.0
 21
1.0
 12
-0.0468762516975403
 22
0.0
 13
0.0
 23
0.0
 14
0.5
 24
0.5
 15
0.5
 25
0.5
 16
0.0
 26
0.0
 36
1.0
 17
0.0
 27
0.0
 37
0.0
 40
5.992488015000001
 41
0.8414898069342245
 42
50.0
 43
0.0
 44
0.0
 50
0.0
 51
0.0
 71
     0
 72
   100
 73
     1
 74
     3
 75
     0
 76
     0
 77
     0
 78
     0
281
     0
 65
     1
110
0.0
120
0.0
130
0.0
111
1.0
121
0.0
131
0.0
112
0.0
122
1.0
132
0.0
 79
     0
146
0.0
348
2F
 60
     3
 61
     5
292
     1
282
     1
141
0.0
142
0.0
 63
   250
361
6D
  0
ENDTAB
  0
TABLE
  2
LTYPE
  5
5
330
0
100
AcDbSymbolTable
 70
     3
  0
LTYPE
  5
14
330
5
100
AcDbSymbolTableRecord
100
AcDbLinetypeTableRecord
  2
ByBlock
 70
     0
  3

 72
    65
 73
     0
 40
0.0
  0
LTYPE
  5
15
330
5
100
AcDbSymbolTableRecord
100
AcDbLinetypeTableRecord
  2
ByLayer
 70
     0
  3

 72
    65
 73
     0
 40
0.0
  0
LTYPE
  5
16
330
5
100
AcDbSymbolTableRecord
100
AcDbLinetypeTableRecord
  2
Continuous
 70
     0
  3
Solid line
 72
    65
 73
     0
 40
0.0
  0
LTYPE
  5
9F
330
5
100
AcDbSymbolTableRecord
100
AcDbLinetypeTableRecord
  2
Dashed
 70
     0
  3

 72
    65
 73
     2
 40
2.0
 49
1.0
 74
     0
 49
-1.0
 74
     0
  0
LTYPE
  5
18A
330
5
100
AcDbSymbolTableRecord
100
AcDbLinetypeTableRecord
  2
Center
 70
     0
  3

 72
    65
 73
     4
 40
1.5
 49
0.45
 74
     0
 49
-0.5
 74
     0
 49
0.05
 74
     0
 49
-0.5
 74
     0
  0
ENDTAB
  0
TABLE
  2
LAYER
  5
2
330
0
100
AcDbSymbolTable
 70
     7
  0
LAYER
  5
10
330
2
100
AcDbSymbolTableRecord
100
AcDbLayerTableRecord
  2
0
 70
     0
 62
     7
  6
Continuous
370
    -3
390
F
347
46
348
0
  0
LAYER
  5
72
330
2
100
AcDbSymbolTableRecord
100
AcDbLayerTableRecord
  2
AM_6
 70
     0
 62
    -2
  6
Continuous
370
    35
390
F
347
46
348
0
  0
LAYER
  5
A0
330
2
100
AcDbSymbolTableRecord
100
AcDbLayerTableRecord
  2
AM_9
 70
     0
 62
     6
  6
Dashed
370
    25
390
F
347
46
348
0
  0
LAYER
  5
18B
330
2
100
AcDbSymbolTableRecord
100
AcDbLayerTableRecord
  2
AM_7
 70
     0
 62
     7
  6
Center
370
    25
390
F
347
46
348
0
  0
LAYER
  5
18D
330
2
100
AcDbSymbolTableRecord
100
AcDbLayerTableRecord
  2
AM_4
 70
     0
 62
     7
  6
Continuous
370
    50
390
F
347
46
348
0
  0
LAYER
  5
19E
330
2
100
AcDbSymbolTableRecord
100
AcDbLayerTableRecord
  2
AM_5
 70
     0
 62
     3
  6
Continuous
370
    25
390
F
347
46
348
0
  0
LAYER
  5
214
330
2
100
AcDbSymbolTableRecord
100
AcDbLayerTableRecord
  2
ConnectionPoints
 70
     0
 62
     7
  6
Continuous
370
    50
390
F
347
46
348
0
  0
ENDTAB
  0
TABLE
  2
STYLE
  5
3
330
0
100
AcDbSymbolTable
 70
     1
  0
STYLE
  5
11
330
3
100
AcDbSymbolTableRecord
100
AcDbTextStyleTableRecord
  2
Standard
 70
     0
 40
0.0
 41
1.0
 50
0.0
 71
     0
 42
0.2
  3
txt
  4

  0
ENDTAB
  0
TABLE
  2
VIEW
  5
6
330
0
100
AcDbSymbolTable
 70
     0
  0
ENDTAB
  0
TABLE
  2
UCS
  5
7
330
0
100
AcDbSymbolTable
 70
     0
  0
ENDTAB
  0
TABLE
  2
APPID
  5
9
330
0
100
AcDbSymbolTable
 70
     1
  0
APPID
  5
12
330
9
100
AcDbSymbolTableRecord
100
AcDbRegAppTableRecord
  2
ACAD
 70
     0
  0
ENDTAB
  0
TABLE
  2
DIMSTYLE
  5
A
330
0
100
AcDbSymbolTable
 70
     1
100
AcDbDimStyleTable
  0
DIMSTYLE
105
27
330
A
100
AcDbSymbolTableRecord
100
AcDbDimStyleTableRecord
  2
Standard
 70
     0
178
     0
340
11
  0
ENDTAB
  0
TABLE
  2
BLOCK_RECORD
  5
1
330
0
100
AcDbSymbolTable
 70
     6
  0
BLOCK_RECORD
  5
1F
330
1
100
AcDbSymbolTableRecord
100
AcDbBlockTableRecord
  2
*Model_Space
340
22
 70
     0
280
     1
281
     0
  0
BLOCK_RECORD
  5
1B
330
1
100
AcDbSymbolTableRecord
100
AcDbBlockTableRecord
  2
*Paper_Space
340
1E
 70
     0
280
     1
281
     0
  0
BLOCK_RECORD
  5
23
330
1
100
AcDbSymbolTableRecord
100
AcDbBlockTableRecord
  2
*Paper_Space0
340
26
 70
     0
280
     1
281
     0
  0
BLOCK_RECORD
  5
6E
330
1
100
AcDbSymbolTableRecord
100
AcDbBlockTableRecord
  2
1_136180_2
340
0
102
{BLKREFS
331
6F
102
}
 70
     0
280
     1
281
     0
  0
BLOCK_RECORD
  5
8E
330
1
100
AcDbSymbolTableRecord
100
AcDbBlockTableRecord
  2
2_405016_Inch_0_in_136180_2
340
0
102
{BLKREFS
331
8F
102
}
 70
     0
280
     1
281
     0
  0
BLOCK_RECORD
  5
103
330
1
100
AcDbSymbolTableRecord
100
AcDbBlockTableRecord
  2
3_129525I_0_in_136180_2
340
0
102
{BLKREFS
331
104
102
}
 70
     0
280
     1
281
     0
  0
BLOCK_RECORD
  5
146
330
1
100
AcDbSymbolTableRecord
100
AcDbBlockTableRecord
  2
4_129934_0_in_136180_2
340
0
102
{BLKREFS
331
147
102
}
 70
     0
280
     1
281
     0
  0
BLOCK_RECORD
  5
1A0
330
1
100
AcDbSymbolTableRecord
100
AcDbBlockTableRecord
  2
5_WSTU_GT_12I_0_in_136180_2
340
0
102
{BLKREFS
331
1A1
102
}
 70
     0
280
     1
281
     0
  0
ENDTAB
  0
ENDSEC
  0
SECTION
  2
BLOCKS
  0
BLOCK
  5
20
330
1F
100
AcDbEntity
  8
0
100
AcDbBlockBegin
  2
*Model_Space
 70
     0
 10
0.0
 20
0.0
 30
0.0
  3
*Model_Space
  1

  0
ENDBLK
  5
21
330
1F
100
AcDbEntity
  8
0
100
AcDbBlockEnd
  0
BLOCK
  5
1C
330
1B
100
AcDbEntity
 67
     1
  8
0
100
AcDbBlockBegin
  2
*Paper_Space
 70
     0
 10
0.0
 20
0.0
 30
0.0
  3
*Paper_Space
  1

  0
ENDBLK
  5
1D
330
1B
100
AcDbEntity
 67
     1
  8
0
100
AcDbBlockEnd
  0
BLOCK
  5
24
330
23
100
AcDbEntity
  8
0
100
AcDbBlockBegin
  2
*Paper_Space0
 70
     0
 10
0.0
 20
0.0
 30
0.0
  3
*Paper_Space0
  1

  0
ENDBLK
  5
25
330
23
100
AcDbEntity
  8
0
100
AcDbBlockEnd
  0
BLOCK
  5
70
330
6E
100
AcDbEntity
  8
0
100
AcDbBlockBegin
  2
1_136180_2
 70
     2
 10
0.0
 20
0.0
 30
0.0
  3
1_136180_2
  1

  0
ATTDEF
  5
73
330
6E
100
AcDbEntity
  8
AM_6
100
AcDbText
 10
7.424995112419128
 20
2.937494125
 30
0.0
 40
0.5
  1
Grip Tight Medium Duty Wide Slot Take Up Inch Bore
100
AcDbAttributeDefinition
  3

  2
NN
 70
     8
280
     0
  0
ATTDEF
  5
74
330
6E
100
AcDbEntity
  8
AM_6
100
AcDbText
 10
7.424995112419128
 20
2.437494125
 30
0.0
 40
0.5
  1
GT Wide Slot Take-Up Bearings -(Medium Duty)
100
AcDbAttributeDefinition
  3

  2
NT
 70
     8
280
     0
  0
ATTDEF
  5
75
330
6E
100
AcDbEntity
  8
AM_6
100
AcDbText
 10
7.424995112419128
 20
1.937494125
 30
0.0
 40
0.5
  1
136180
100
AcDbAttributeDefinition
  3

  2
NB
 70
     8
280
     0
  0
ATTDEF
  5
76
330
6E
100
AcDbEntity
  8
AM_6
100
AcDbText
 10
7.424995112419128
 20
1.437494125
 30
0.0
 40
0.5
  1
$PN.$LUBE.
100
AcDbAttributeDefinition
  3

  2
NBSYN
 70
     8
280
     0
  0
ATTDEF
  5
77
330
6E
100
AcDbEntity
  8
AM_6
100
AcDbText
 10
7.424995112419128
 20
0.9374941250000002
 30
0.0
 40
0.5
  1
136180
100
AcDbAttributeDefinition
  3

  2
LINA
 70
     8
280
     0
  0
ATTDEF
  5
78
330
6E
100
AcDbEntity
  8
AM_6
100
AcDbText
 10
7.424995112419128
 20
0.4374941250000002
 30
0.0
 40
0.5
  1
212
100
AcDbAttributeDefinition
  3

  2
SERIES
 70
     8
280
     0
  0
ATTDEF
  5
79
330
6E
100
AcDbEntity
  8
AM_6
100
AcDbText
 10
7.424995112419128
 20
-0.0625058749999998
 30
0.0
 40
0.5
  1
2-1/4
100
AcDbAttributeDefinition
  3

  2
SS
 70
     8
280
     0
  0
ATTDEF
  5
7A
330
6E
100
AcDbEntity
  8
AM_6
100
AcDbText
 10
7.424995112419128
 20
-0.5625058749999998
 30
0.0
 40
0.5
  1
136180
100
AcDbAttributeDefinition
  3

  2
PN
 70
     8
280
     0
  0
ATTDEF
  5
7B
330
6E
100
AcDbEntity
  8
AM_6
100
AcDbText
 10
7.424995112419128
 20
-1.062505875
 30
0.0
 40
0.5
  1
WSTU-GTM-204
100
AcDbAttributeDefinition
  3

  2
DESCRIPTION
 70
     8
280
     0
  0
ATTDEF
  5
7C
330
6E
100
AcDbEntity
  8
AM_6
100
AcDbText
 10
7.424995112419128
 20
-1.562505875
 30
0.0
 40
0.5
  1
2-7/64
100
AcDbAttributeDefinition
  3

  2
A
 70
     8
280
     0
  0
ATTDEF
  5
7D
330
6E
100
AcDbEntity
  8
AM_6
100
AcDbText
 10
7.424995112419128
 20
-2.062505875
 30
0.0
 40
0.5
  1
7-1/2
100
AcDbAttributeDefinition
  3

  2
B
 70
     8
280
     0
  0
ATTDEF
  5
7E
330
6E
100
AcDbEntity
  8
AM_6
100
AcDbText
 10
7.424995112419128
 20
-2.562505875
 30
0.0
 40
0.5
  1
1.047/1.077
100
AcDbAttributeDefinition
  3

  2
C
 70
     8
280
     0
  0
ATTDEF
  5
7F
330
6E
100
AcDbEntity
  8
AM_6
100
AcDbText
 10
7.424995112419128
 20
-3.062505875
 30
0.0
 40
0.5
  1
4
100
AcDbAttributeDefinition
  3

  2
D
 70
     8
280
     0
  0
ATTDEF
  5
80
330
6E
100
AcDbEntity
  8
AM_6
100
AcDbText
 10
7.424995112419128
 20
-3.562505875
 30
0.0
 40
0.5
  1
4-11/16
100
AcDbAttributeDefinition
  3

  2
E
 70
     8
280
     0
  0
ATTDEF
  5
81
330
6E
100
AcDbEntity
  8
AM_6
100
AcDbText
 10
7.424995112419128
 20
-4.062505874999999
 30
0.0
 40
0.5
  1
1-1/4
100
AcDbAttributeDefinition
  3

  2
F
 70
     8
280
     0
  0
ATTDEF
  5
82
330
6E
100
AcDbEntity
  8
AM_6
100
AcDbText
 10
7.424995112419128
 20
-4.562505874999999
 30
0.0
 40
0.5
  1
3/4
100
AcDbAttributeDefinition
  3

  2
G
 70
     8
280
     0
  0
ATTDEF
  5
83
330
6E
100
AcDbEntity
  8
AM_6
100
AcDbText
 10
7.424995112419128
 20
-5.062505874999999
 30
0.0
 40
0.5
  1
1-1/4
100
AcDbAttributeDefinition
  3

  2
H
 70
     8
280
     0
  0
ATTDEF
  5
84
330
6E
100
AcDbEntity
  8
AM_6
100
AcDbText
 10
7.424995112419128
 20
-5.562505874999999
 30
0.0
 40
0.5
  1
4
100
AcDbAttributeDefinition
  3

  2
J
 70
     8
280
     0
  0
ATTDEF
  5
85
330
6E
100
AcDbEntity
  8
AM_6
100
AcDbText
 10
7.424995112419128
 20
-6.062505874999999
 30
0.0
 40
0.5
  1
2-1/2
100
AcDbAttributeDefinition
  3

  2
K
 70
     8
280
     0
  0
ATTDEF
  5
86
330
6E
100
AcDbEntity
  8
AM_6
100
AcDbText
 10
7.424995112419128
 20
-6.562505874999999
 30
0.0
 40
0.5
  1
3-1/2
100
AcDbAttributeDefinition
  3

  2
L
 70
     8
280
     0
  0
ATTDEF
  5
87
330
6E
100
AcDbEntity
  8
AM_6
100
AcDbText
 10
7.424995112419128
 20
-7.062505874999999
 30
0.0
 40
0.5
  1
5.110/5.140
100
AcDbAttributeDefinition
  3

  2
M
 70
     8
280
     0
  0
ATTDEF
  5
88
330
6E
100
AcDbEntity
  8
AM_6
100
AcDbText
 10
7.424995112419128
 20
-7.562505874999999
 30
0.0
 40
0.5
  1
5-7/8
100
AcDbAttributeDefinition
  3

  2
N
 70
     8
280
     0
  0
ATTDEF
  5
89
330
6E
100
AcDbEntity
  8
AM_6
100
AcDbText
 10
7.424995112419128
 20
-8.062505875
 30
0.0
 40
0.5
  1
49/64
100
AcDbAttributeDefinition
  3

  2
R
 70
     8
280
     0
  0
ATTDEF
  5
8A
330
6E
100
AcDbEntity
  8
AM_6
100
AcDbText
 10
7.424995112419128
 20
-8.562505875
 30
0.0
 40
0.5
  1
1-11/32
100
AcDbAttributeDefinition
  3

  2
S
 70
     8
280
     0
  0
ATTDEF
  5
8B
330
6E
100
AcDbEntity
  8
AM_6
100
AcDbText
 10
7.424995112419128
 20
-9.062505875
 30
0.0
 40
0.5
  1
2-1/2
100
AcDbAttributeDefinition
  3

  2
T
 70
     8
280
     0
  0
ATTDEF
  5
8C
330
6E
100
AcDbEntity
  8
AM_6
100
AcDbText
 10
7.424995112419128
 20
-9.562505875
 30
0.0
 40
0.5
  1
1-5/16
100
AcDbAttributeDefinition
  3

  2
Z
 70
     8
280
     0
  0
ATTDEF
  5
8D
330
6E
100
AcDbEntity
  8
AM_6
100
AcDbText
 10
7.424995112419128
 20
-10.062505875
 30
0.0
 40
0.5
  1
baldor
100
AcDbAttributeDefinition
  3

  2
COMPANY
 70
     8
280
     0
  0
INSERT
  5
8F
330
6E
100
AcDbEntity
  8
0
100
AcDbBlockReference
  2
2_405016_Inch_0_in_136180_2
 10
0.0
 20
0.0
 30
0.0
  0
INSERT
  5
104
330
6E
100
AcDbEntity
  8
0
100
AcDbBlockReference
  2
3_129525I_0_in_136180_2
 10
0.0
 20
0.0
 30
0.0
  0
INSERT
  5
147
330
6E
100
AcDbEntity
  8
0
100
AcDbBlockReference
  2
4_129934_0_in_136180_2
 10
0.0
 20
0.0
 30
0.0
  0
INSERT
  5
1A1
330
6E
100
AcDbEntity
  8
0
100
AcDbBlockReference
  2
5_WSTU_GT_12I_0_in_136180_2
 10
0.0
 20
0.0
 30
0.0
  0
ENDBLK
  5
71
330
6E
100
AcDbEntity
  8
0
100
AcDbBlockEnd
  0
BLOCK
  5
90
330
8E
100
AcDbEntity
  8
0
100
AcDbBlockBegin
  2
2_405016_Inch_0_in_136180_2
 70
     2
 10
0.0
 20
0.0
 30
0.0
  3
2_405016_Inch_0_in_136180_2
  1

  0
ATTDEF
  5
92
330
8E
100
AcDbEntity
  8
AM_6
100
AcDbText
 10
5.218750000000001
 20
-1.19817569835516
 30
0.0
 40
0.5
  1
405016 -Inch
100
AcDbAttributeDefinition
  3

  2
NN
 70
     8
280
     0
  0
ATTDEF
  5
93
330
8E
100
AcDbEntity
  8
AM_6
100
AcDbText
 10
5.218750000000001
 20
-1.69817569835516
 30
0.0
 40
0.5
  1
Grease Fitting
100
AcDbAttributeDefinition
  3

  2
NT
 70
     8
280
     0
  0
ATTDEF
  5
94
330
8E
100
AcDbEntity
  8
AM_6
100
AcDbText
 10
5.218750000000001
 20
-2.19817569835516
 30
0.0
 40
0.5
  1
405016-Inch
100
AcDbAttributeDefinition
  3

  2
NB
 70
     8
280
     0
  0
ATTDEF
  5
95
330
8E
100
AcDbEntity
  8
AM_6
100
AcDbText
 10
5.218750000000001
 20
-2.69817569835516
 30
0.0
 40
0.5
  1
$MN.-Inch
100
AcDbAttributeDefinition
  3

  2
NBSYN
 70
     8
280
     0
  0
ATTDEF
  5
96
330
8E
100
AcDbEntity
  8
AM_6
100
AcDbText
 10
5.218750000000001
 20
-3.19817569835516
 30
0.0
 40
0.5
  1
405016
100
AcDbAttributeDefinition
  3

  2
LINA
 70
     8
280
     0
  0
ATTDEF
  5
97
330
8E
100
AcDbEntity
  8
AM_6
100
AcDbText
 10
5.218750000000001
 20
-3.69817569835516
 30
0.0
 40
0.5
  1
405016
100
AcDbAttributeDefinition
  3

  2
MN
 70
     8
280
     0
  0
ATTDEF
  5
98
330
8E
100
AcDbEntity
  8
AM_6
100
AcDbText
 10
5.218750000000001
 20
-4.19817569835516
 30
0.0
 40
0.5
  1
7/16 HEX
100
AcDbAttributeDefinition
  3

  2
H
 70
     8
280
     0
  0
ATTDEF
  5
99
330
8E
100
AcDbEntity
  8
AM_6
100
AcDbText
 10
5.218750000000001
 20
-4.69817569835516
 30
0.0
 40
0.5
  1
0.383
100
AcDbAttributeDefinition
  3

  2
NDR
 70
     8
280
     0
  0
ATTDEF
  5
9A
330
8E
100
AcDbEntity
  8
AM_6
100
AcDbText
 10
5.218750000000001
 20
-5.19817569835516
 30
0.0
 40
0.5
  1
0.337
100
AcDbAttributeDefinition
  3

  2
KDR
 70
     8
280
     0
  0
ATTDEF
  5
9B
330
8E
100
AcDbEntity
  8
AM_6
100
AcDbText
 10
5.218750000000001
 20
-5.69817569835516
 30
0.0
 40
0.5
  1
0.1575
100
AcDbAttributeDefinition
  3

  2
BZE
 70
     8
280
     0
  0
ATTDEF
  5
9C
330
8E
100
AcDbEntity
  8
AM_6
100
AcDbText
 10
5.218750000000001
 20
-6.19817569835516
 30
0.0
 40
0.5
  1
0.4375
100
AcDbAttributeDefinition
  3

  2
HEX
 70
     8
280
     0
  0
ATTDEF
  5
9D
330
8E
100
AcDbEntity
  8
AM_6
100
AcDbText
 10
5.218750000000001
 20
-6.69817569835516
 30
0.0
 40
0.5
  1
0.281250
100
AcDbAttributeDefinition
  3

  2
HEX2
 70
     8
280
     0
  0
ATTDEF
  5
9E
330
8E
100
AcDbEntity
  8
AM_6
100
AcDbText
 10
5.218750000000001
 20
-7.19817569835516
 30
0.0
 40
0.5
  1
baldor
100
AcDbAttributeDefinition
  3

  2
COMPANY
 70
     8
280
     0
  0
LWPOLYLINE
  5
A1
330
8E
100
AcDbEntity
  8
AM_9
100
AcDbPolyline
 90
        5
 70
     0
 43
0.0
 10
-0.1791093260592888
 20
-1.802988809059826
 10
-0.1842540823997056
 20
-1.769920119967152
 10
-0.1862220679364952
 20
-1.735562409178914
 10
-0.1844124966919383
 20
-1.699376446285356
 10
-0.1791093260592888
 20
-1.662363809059826
  0
LINE
  5
A2
330
8E
100
AcDbEntity
  8
AM_9
100
AcDbLine
 10
-0.1510741298357571
 20
-1.65582729571137
 30
0.0
 11
-0.1791093260592888
 21
-1.662363809059826
 31
0.0
  0
LWPOLYLINE
  5
A3
330
8E
100
AcDbEntity
  8
AM_9
100
AcDbPolyline
 90
        5
 70
     0
 43
0.0
 10
-0.1791093260592888
 20
-1.662363809059826
 10
-0.198835512140694
 20
-1.630938517736611
 10
-0.2156330920108726
 20
-1.598247724328328
 10
-0.2290462109660022
 20
-1.563756153690794
 10
-0.2389369657326278
 20
-1.528419092407283
  0
LINE
  5
A4
330
8E
100
AcDbEntity
  8
AM_9
100
AcDbLine
 10
-0.2099962668917055
 20
-1.521671457656344
 30
0.0
 11
-0.2389369657326278
 21
-1.528419092407283
 31
0.0
  0
LINE
  5
A5
330
8E
100
AcDbEntity
  8
AM_9
100
AcDbLine
 10
-0.2389369657326278
 20
-1.528419092407283
 30
0.0
 11
-0.2711532636537958
 21
-1.532868123437406
 31
0.0
  0
LWPOLYLINE
  5
A6
330
8E
100
AcDbEntity
  8
AM_9
100
AcDbPolyline
 90
        3
 70
     0
 43
0.0
 10
-0.2813919000363601
 20
-1.534003048956784
 10
-0.2911775952746244
 20
-1.53480559349426
 10
-0.2987675689889719
 20
-1.535100066725467
  0
LWPOLYLINE
  5
A7
330
8E
100
AcDbEntity
  8
AM_9
100
AcDbPolyline
 90
        5
 70
     0
 43
0.0
 10
-0.2389369657326278
 20
-1.809669092407284
 10
-0.2295338871417797
 20
-1.80924806213629
 10
-0.2166871171046322
 20
-1.808052555641742
 10
-0.1996402057054679
 20
-1.805926787031713
 10
-0.1791093260592888
 20
-1.802988809059826
  0
LINE
  5
A8
330
8E
100
AcDbEntity
  8
AM_9
100
AcDbLine
 10
-0.1510741298357571
 20
-1.79645229571137
 30
0.0
 11
-0.1791093260592888
 21
-1.802988809059826
 31
0.0
  0
LINE
  5
A9
330
8E
100
AcDbEntity
  8
AM_9
100
AcDbLine
 10
-0.452415808934145
 20
-1.822504016496842
 30
0.0
 11
-0.3774664534000949
 21
-1.841030662014441
 31
0.0
  0
LINE
  5
AA
330
8E
100
AcDbEntity
  8
AM_9
100
AcDbLine
 10
-0.4395859245204076
 20
-1.574599390582632
 30
0.0
 11
-0.4986131040655764
 21
-1.624363178260487
 31
0.0
  0
LWPOLYLINE
  5
AB
330
8E
100
AcDbEntity
  8
AM_9
100
AcDbPolyline
 90
        3
 70
     0
 43
0.0
 10
-0.2689146070947223
 20
-1.528139734350518
 10
-0.2512755937295761
 20
-1.525488843014547
 10
-0.2360765106845276
 20
-1.523437592413266
  0
LWPOLYLINE
  5
AC
330
8E
100
AcDbEntity
  8
AM_9
100
AcDbPolyline
 90
        9
 70
     0
 43
0.0
 10
-0.3847728786538518
 20
-1.573970354969523
 10
-0.3908222124407716
 20
-1.570298453496335
 10
-0.3991085447806816
 20
-1.566784913568539
 10
-0.4074186327739252
 20
-1.564930516120106
 10
-0.4157207619601324
 20
-1.564712922940378
 10
-0.4245584806368854
 20
-1.566357192558251
 10
-0.4325139806740874
 20
-1.569722129597046
 10
-0.4394631569926004
 20
-1.574496255550119
 10
-0.4402354624796457
 20
-1.575157389070408
  0
LWPOLYLINE
  5
AD
330
8E
100
AcDbEntity
  8
AM_9
100
AcDbPolyline
 90
        3
 70
     0
 43
0.0
 10
-0.3773290275865031
 20
-1.579861059793761
 10
-0.3824776538250371
 20
-1.575620679626816
 10
-0.3847728786538518
 20
-1.573970354969523
  0
LWPOLYLINE
  5
AE
330
8E
100
AcDbEntity
  8
AM_9
100
AcDbPolyline
 90
        9
 70
     0
 43
0.0
 10
-0.3779176157283993
 20
-1.840916718052129
 10
-0.3708091705593495
 20
-1.842151955713455
 10
-0.3625222044149999
 20
-1.842075935321489
 10
-0.3538182594124961
 20
-1.840136498724275
 10
-0.3460152043208337
 20
-1.83652493030583
 10
-0.3392230340250701
 20
-1.831544712708264
 10
-0.3333419371168473
 20
-1.82531393877689
 10
-0.3282506922105585
 20
-1.817748732795735
 10
-0.3244390732358846
 20
-1.809955801102014
  0
LWPOLYLINE
  5
AF
330
8E
100
AcDbEntity
  8
AM_9
100
AcDbPolyline
 90
        3
 70
     0
 43
0.0
 10
-0.0000000000000002
 20
-1.322028700151693
 10
0.0544416102741494
 20
-1.352576042662264
 10
0.1093749999999998
 20
-1.38125
  0
LWPOLYLINE
  5
B0
330
8E
100
AcDbEntity
  8
AM_9
100
AcDbPolyline
 90
        3
 70
     0
 43
0.0
 10
-0.1093750000000001
 20
-1.38125
 10
-0.0546875000000001
 20
-1.352709559607483
 10
-0.0000000000000002
 20
-1.322028700151693
  0
LWPOLYLINE
  5
B1
330
8E
100
AcDbEntity
  8
AM_9
100
AcDbPolyline
 90
        6
 70
     0
 43
0.0
 10
-0.1510741298357571
 20
-1.79645229571137
 10
-0.1564222384464444
 20
-1.796396258798399
 10
-0.1639940363880806
 20
-1.796835121917566
 10
-0.1744063212866124
 20
-1.797896289109958
 10
-0.1876759562813859
 20
-1.799613121169831
 10
-0.2099962668917055
 20
-1.802921457656343
  0
LINE
  5
B2
330
8E
100
AcDbEntity
  8
AM_9
100
AcDbLine
 10
-0.1423511072786653
 20
-1.710015418202868
 30
0.0
 11
-0.1419585098156051
 21
-1.724019408754154
 31
0.0
  0
LWPOLYLINE
  5
B3
330
8E
100
AcDbEntity
  8
AM_9
100
AcDbPolyline
 90
        3
 70
     0
 43
0.0
 10
-0.1510741298357572
 20
-1.65582729571137
 10
-0.1458778226760521
 20
-1.679760622598914
 10
-0.1432337260912252
 20
-1.698823974188126
  0
LINE
  5
B4
330
8E
100
AcDbEntity
  8
AM_9
100
AcDbLine
 10
-0.1803710435280685
 20
-1.568042490568421
 30
0.0
 11
-0.1765789831125444
 21
-1.575455855542361
 31
0.0
  0
LINE
  5
B5
330
8E
100
AcDbEntity
  8
AM_9
100
AcDbLine
 10
-0.1829360704724053
 20
-1.563305852468511
 30
0.0
 11
-0.1810695753855195
 21
-1.566732130191761
 31
0.0
  0
LWPOLYLINE
  5
B6
330
8E
100
AcDbEntity
  8
AM_9
100
AcDbPolyline
 90
        3
 70
     0
 43
0.0
 10
-0.2099962668917055
 20
-1.521671457656344
 10
-0.194357301502906
 20
-1.544242854288234
 10
-0.1838310984437546
 20
-1.56169933912511
  0
LWPOLYLINE
  5
B7
330
8E
100
AcDbEntity
  8
AM_9
100
AcDbPolyline
 90
        3
 70
     0
 43
0.0
 10
-0.2258378743019628
 20
-1.522302666893888
 10
-0.2189176876709016
 20
-1.521760369847584
 10
-0.2099962668917055
 20
-1.521671457656344
  0
LWPOLYLINE
  5
B8
330
8E
100
AcDbEntity
  8
AM_9
100
AcDbPolyline
 90
        3
 70
     0
 43
0.0
 10
-0.1429179904742638
 20
-1.746317835832085
 10
-0.1441228263802216
 20
-1.757845324422914
 10
-0.1510741298357571
 20
-1.79645229571137
  0
LWPOLYLINE
  5
B9
330
8E
100
AcDbEntity
  8
AM_9
100
AcDbPolyline
 90
        3
 70
     0
 43
0.0
 10
-0.1419585098156051
 20
-1.724019408754154
 10
-0.1420496512545707
 20
-1.730816312422038
 10
-0.1426363321024856
 20
-1.742708935558311
  0
LWPOLYLINE
  5
BA
330
8E
100
AcDbEntity
  8
AM_9
100
AcDbPolyline
 90
        3
 70
     0
 43
0.0
 10
-0.1655271686866946
 20
-1.601095315607801
 10
-0.1598729403210872
 20
-1.618018689712644
 10
-0.1510741298357571
 20
-1.65582729571137
  0
LINE
  5
BB
330
8E
100
AcDbEntity
  8
AM_9
100
AcDbLine
 10
-0.1765789831125444
 20
-1.575455855542361
 30
0.0
 11
-0.1737489923463444
 21
-1.581368737037116
 31
0.0
  0
ELLIPSE
  5
BC
330
8E
100
AcDbEntity
  8
AM_9
100
AcDbEllipse
 10
-0.2013892028241883
 20
-1.659520244837341
 30
0.0
 11
-0.0319308501143826
 21
0.1369518580960938
 31
0.0
210
0.0
220
0.0
230
1.0
 40
0.3659981507706699
 41
2.150416404658206
 42
6.139946939636888
  0
LWPOLYLINE
  5
BD
330
8E
100
AcDbEntity
  8
AM_9
100
AcDbPolyline
 90
        3
 70
     0
 43
0.0
 10
-0.3055458577949632
 20
-1.624102494962034
 10
-0.3030753670497809
 20
-1.650172855181632
 10
-0.2987675689889719
 20
-1.675725066725467
  0
LWPOLYLINE
  5
BE
330
8E
100
AcDbEntity
  8
AM_9
100
AcDbPolyline
 90
        3
 70
     0
 43
0.0
 10
-0.260230468443121
 20
-1.579317949924796
 10
-0.2616913382589204
 20
-1.5646612730526
 10
-0.2689146070947223
 20
-1.528139734350518
  0
LINE
  5
BF
330
8E
100
AcDbEntity
  8
AM_9
100
AcDbLine
 10
-0.2689146070947223
 20
-1.528139734350518
 30
0.0
 11
-0.2987675689889719
 21
-1.535100066725467
 31
0.0
  0
LWPOLYLINE
  5
C0
330
8E
100
AcDbEntity
  8
AM_9
100
AcDbPolyline
 90
        3
 70
     0
 43
0.0
 10
-0.3001593436617023
 20
-1.542990185070576
 10
-0.3030606061861224
 20
-1.562544122408012
 10
-0.3055458577949632
 20
-1.589883406468319
  0
LINE
  5
C1
330
8E
100
AcDbEntity
  8
AM_9
100
AcDbLine
 10
-0.2987675689889719
 20
-1.535100066725467
 30
0.0
 11
-0.3001593436617023
 21
-1.542990185070576
 31
0.0
  0
LINE
  5
C2
330
8E
100
AcDbEntity
  8
AM_9
100
AcDbLine
 10
-0.2711532636537958
 20
-1.532868123437406
 30
0.0
 11
-0.2813919000363601
 21
-1.534003048956784
 31
0.0
  0
ELLIPSE
  5
C3
330
8E
100
AcDbEntity
  8
AM_9
100
AcDbEllipse
 10
-0.2467045921760209
 20
-1.670085701380858
 30
0.0
 11
-0.0319308501143828
 21
0.1369518580960942
 31
0.0
210
0.0
220
0.0
230
1.0
 40
0.3659981507706686
 41
2.257336395741336
 42
6.139946939636892
  0
ELLIPSE
  5
C4
330
8E
100
AcDbEntity
  8
AM_9
100
AcDbEllipse
 10
-0.2467045921760206
 20
-1.670085701380858
 30
0.0
 11
-0.03193085011438265
 21
0.136951858096094
 31
0.0
210
0.0
220
0.0
230
1.0
 40
0.3659981507706702
 41
1.24222372251918
 42
1.951156734850504
  0
LINE
  5
C5
330
8E
100
AcDbEntity
  8
AM_9
100
AcDbLine
 10
-0.3055458577949632
 20
-1.589883406468319
 30
0.0
 11
-0.3055458577949632
 21
-1.624102494962034
 31
0.0
  0
ELLIPSE
  5
C6
330
8E
100
AcDbEntity
  8
AM_9
100
AcDbEllipse
 10
-0.2467045921760238
 20
-1.670085701380857
 30
0.0
 11
-0.03193085011438064
 21
0.1369518580960928
 31
0.0
210
0.0
220
0.0
230
1.0
 40
0.365998150770654
 41
0.0560213022649867
 42
0.8626327579757749
  0
LWPOLYLINE
  5
C7
330
8E
100
AcDbEntity
  8
AM_9
100
AcDbPolyline
 90
       15
 70
     0
 43
0.0
 10
-0.325005720807769
 20
-1.811274927487008
 10
-0.3249981235759191
 20
-1.811258058898447
 10
-0.3242948550858591
 20
-1.809921736191671
 10
-0.3223489625191269
 20
-1.806972728210497
 10
-0.3188217564423477
 20
-1.802779869864963
 10
-0.3133930837029644
 20
-1.797820838579021
 10
-0.3058797292434187
 20
-1.792750025847056
 10
-0.2964784936340537
 20
-1.788398997206595
 10
-0.2859412059630501
 20
-1.785543292737005
 10
-0.2753528243569892
 20
-1.784536989875888
 10
-0.2657875058012352
 20
-1.785194549091395
 10
-0.2579577013123823
 20
-1.786942735328891
 10
-0.2521708846701452
 20
-1.789087768983826
 10
-0.2483657988276482
 20
-1.791037372834818
 10
-0.246301575681582
 20
-1.79237756278998
  0
LWPOLYLINE
  5
C8
330
8E
100
AcDbEntity
  8
AM_9
100
AcDbPolyline
 90
        4
 70
     0
 43
0.0
 10
-0.2457249882508971
 20
-1.792821960916105
 10
-0.2457290154521426
 20
-1.792818475364686
 10
-0.246444927661742
 20
-1.792129913189567
 10
-0.2470595804866388
 20
-1.791486844419182
  0
LWPOLYLINE
  5
C9
330
8E
100
AcDbEntity
  8
AM_9
100
AcDbPolyline
 90
        3
 70
     0
 43
0.0
 10
-0.3007265529803566
 20
-1.561400110174463
 10
-0.3002308390339068
 20
-1.559888864792692
 10
-0.3001080482840257
 20
-1.559572263717043
  0
LWPOLYLINE
  5
CA
330
8E
100
AcDbEntity
  8
AM_9
100
AcDbPolyline
 90
       15
 70
     0
 43
0.0
 10
-0.3001859742899463
 20
-1.559742340613025
 10
-0.3010989996949646
 20
-1.561408221390172
 10
-0.3033197097005513
 20
-1.564624990178367
 10
-0.3071860428441655
 20
-1.56900495988579
 10
-0.3130052319883311
 20
-1.574042125647602
 10
-0.3209094906372093
 20
-1.579043241549064
 10
-0.3306010676163393
 20
-1.583160945693493
 10
-0.3412341323734742
 20
-1.585674714432168
 10
-0.3517112419290166
 20
-1.58633448874926
 10
-0.3609876504712827
 20
-1.585416914690131
 10
-0.368437950552764
 20
-1.58353982871028
 10
-0.3738325735113309
 20
-1.58139191830127
 10
-0.3772844385241899
 20
-1.579531703301783
 10
-0.3790455751923114
 20
-1.578343488976116
 10
-0.3793704903862942
 20
-1.578088800297479
  0
LINE
  5
CB
330
8E
100
AcDbEntity
  8
AM_9
100
AcDbLine
 10
-0.177120771554662
 20
-1.540911692407327
 30
0.0
 11
-0.2263662233581053
 21
-1.552393458059951
 31
0.0
  0
LINE
  5
CC
330
8E
100
AcDbEntity
  8
AM_9
100
AcDbLine
 10
-0.1764121822902711
 20
-1.76664703161473
 30
0.0
 11
-0.1343592486638227
 21
-1.756842229115782
 31
0.0
  0
LWPOLYLINE
  5
CD
330
8E
100
AcDbEntity
  8
AM_9
100
AcDbPolyline
 90
       20
 70
     0
 43
0.0
 10
-0.1343659249938089
 20
-1.75684378540361
 10
-0.1293028157827818
 20
-1.754240967168627
 10
-0.1247141396218193
 20
-1.748667196040507
 10
-0.1208880884981782
 20
-1.740047239076489
 10
-0.118154598914599
 20
-1.729130991490922
 10
-0.1164278875396129
 20
-1.715586212655024
 10
-0.1158549073091555
 20
-1.700580271317741
 10
-0.1164156227038168
 20
-1.683658286749774
 10
-0.1180609686233502
 20
-1.666254703027538
 10
-0.1208367673933813
 20
-1.647857393511457
 10
-0.1245107513506024
 20
-1.629997455120003
 10
-0.1291842652280563
 20
-1.612172481606624
 10
-0.134472979061152
 20
-1.5958460564441
 10
-0.140518627090196
 20
-1.580578872764631
 10
-0.1468270783017122
 20
-1.567620478489193
 10
-0.1535654953592166
 20
-1.556631372029879
 10
-0.1601799433259584
 20
-1.548518942862664
 10
-0.1668493358980662
 20
-1.543070477436415
 10
-0.1731116383367607
 20
-1.540730939756072
 10
-0.1750481862547573
 20
-1.540635465754913
  0
LINE
  5
CE
330
8E
100
AcDbEntity
  8
AM_9
100
AcDbLine
 10
-0.1771125901748265
 20
-1.540909785344162
 30
0.0
 11
-0.1790373738502115
 21
-1.541554054033761
 31
0.0
  0
LWPOLYLINE
  5
CF
330
8E
100
AcDbEntity
  8
AM_9
100
AcDbPolyline
 90
        3
 70
     0
 43
0.0
 10
-0.2689146070947223
 20
-1.668764734350518
 10
-0.2634308483997529
 20
-1.641140958955647
 10
-0.2602304684431306
 20
-1.613537038418516
  0
LWPOLYLINE
  5
D0
330
8E
100
AcDbEntity
  8
AM_9
100
AcDbPolyline
 90
        5
 70
     0
 43
0.0
 10
-0.179037373850178
 20
-1.695945945966246
 10
-0.1733931390117468
 20
-1.711459976006311
 10
-0.1670729780242512
 20
-1.72560797563067
 10
-0.1606047421316797
 20
-1.737205943415793
 10
-0.154583449575955
 20
-1.745651327458446
  0
ARC
  5
D1
330
8E
100
AcDbEntity
  8
AM_9
100
AcDbCircle
 10
0.0
 20
-1.61875
 30
0.0
 40
0.1999999999999997
100
AcDbArc
 50
219.3509981350618
 51
0.0
  0
LWPOLYLINE
  5
D2
330
8E
100
AcDbEntity
  8
AM_9
100
AcDbPolyline
 90
        6
 70
     0
 43
0.0
 10
-0.154583449575955
 20
-1.745651327458446
 10
-0.1538031670974778
 20
-1.746584802540261
 10
-0.1472336073736394
 20
-1.752962011960484
 10
-0.1407130262602577
 20
-1.756511709638181
 10
-0.1347930597680668
 20
-1.756934256104104
 10
-0.1343659249938089
 20
-1.75684378540361
  0
LINE
  5
D3
330
8E
100
AcDbEntity
  8
AM_9
100
AcDbLine
 10
-0.2360765106845276
 20
-1.523437592413266
 30
0.0
 11
-0.2258378743019628
 21
-1.522302666893888
 31
0.0
  0
ELLIPSE
  5
D4
330
8E
100
AcDbEntity
  8
AM_9
100
AcDbEllipse
 10
-0.2013892028241873
 20
-1.659520244837344
 30
0.0
 11
-0.03193085011438429
 21
0.136951858096098
 31
0.0
210
0.0
220
0.0
230
1.0
 40
0.3659981507705659
 41
0.056021302265008
 42
0.8626327579757253
  0
LINE
  5
D5
330
8E
100
AcDbEntity
  8
AM_9
100
AcDbLine
 10
-0.2602304684431306
 20
-1.613537038418516
 30
0.0
 11
-0.260230468443121
 21
-1.579317949924796
 31
0.0
  0
ELLIPSE
  5
D6
330
8E
100
AcDbEntity
  8
AM_9
100
AcDbEllipse
 10
-0.2013892028241856
 20
-1.659520244837341
 30
0.0
 11
-0.03193085011438366
 21
0.1369518580960978
 31
0.0
210
0.0
220
0.0
230
1.0
 40
0.3659981507706767
 41
1.144545279139745
 42
1.951156734850482
  0
LWPOLYLINE
  5
D7
330
8E
100
AcDbEntity
  8
AM_9
100
AcDbPolyline
 90
        3
 70
     0
 43
0.0
 10
-0.2099962668917055
 20
-1.802921457656343
 10
-0.2163479371246914
 20
-1.773589189975666
 10
-0.225837874301963
 20
-1.74430747759944
  0
LINE
  5
D8
330
8E
100
AcDbEntity
  8
AM_9
100
AcDbLine
 10
-0.225837874301963
 20
-1.74430747759944
 30
0.0
 11
-0.2360765106845278
 21
-1.721215725501071
 31
0.0
  0
LWPOLYLINE
  5
D9
330
8E
100
AcDbEntity
  8
AM_9
100
AcDbPolyline
 90
        3
 70
     0
 43
0.0
 10
-0.2360765106845278
 20
-1.721215725501071
 10
-0.2462091938631852
 20
-1.702671611213501
 10
-0.2689146070947223
 20
-1.668764734350518
  0
LINE
  5
DA
330
8E
100
AcDbEntity
  8
AM_9
100
AcDbLine
 10
-0.2689146070947223
 20
-1.668764734350518
 30
0.0
 11
-0.2987675689889719
 21
-1.675725066725467
 31
0.0
  0
LWPOLYLINE
  5
DB
330
8E
100
AcDbEntity
  8
AM_9
100
AcDbPolyline
 90
        3
 70
     0
 43
0.0
 10
-0.2987675689889719
 20
-1.675725066725467
 10
-0.2912216284034026
 20
-1.703826183495197
 10
-0.2813919000363601
 20
-1.731781182044589
  0
LINE
  5
DC
330
8E
100
AcDbEntity
  8
AM_9
100
AcDbLine
 10
-0.2813919000363601
 20
-1.731781182044589
 30
0.0
 11
-0.2711532636537958
 21
-1.754872934142958
 31
0.0
  0
LWPOLYLINE
  5
DD
330
8E
100
AcDbEntity
  8
AM_9
100
AcDbPolyline
 90
        3
 70
     0
 43
0.0
 10
-0.2711532636537958
 20
-1.754872934142958
 10
-0.2561815527589922
 20
-1.782577936735335
 10
-0.2389369657326278
 20
-1.809669092407284
  0
LINE
  5
DE
330
8E
100
AcDbEntity
  8
AM_9
100
AcDbLine
 10
-0.2099962668917055
 20
-1.802921457656343
 30
0.0
 11
-0.2389369657326278
 21
-1.809669092407284
 31
0.0
  0
LWPOLYLINE
  5
DF
330
8E
100
AcDbEntity
  8
AM_9
100
AcDbPolyline
 90
        3
 70
     0
 43
0.0
 10
0.1093749999999998
 20
-1.33125
 10
0.0546874999999998
 20
-1.305102940392517
 10
-0.0000000000000002
 20
-1.281096299848307
  0
LWPOLYLINE
  5
E0
330
8E
100
AcDbEntity
  8
AM_9
100
AcDbPolyline
 90
        3
 70
     0
 43
0.0
 10
-0.0000000000000002
 20
-1.281096299848307
 10
-0.0544416102741497
 20
-1.304990567611884
 10
-0.1093750000000001
 20
-1.33125
  0
LWPOLYLINE
  5
E1
330
8E
100
AcDbEntity
  8
AM_9
100
AcDbPolyline
 90
        3
 70
     0
 43
0.0
 10
0.1093749999999998
 20
-1.38125
 10
0.1640624999999998
 20
-1.407397059607483
 10
0.2187499999999998
 20
-1.431403700151693
  0
LWPOLYLINE
  5
E2
330
8E
100
AcDbEntity
  8
AM_9
100
AcDbPolyline
 90
        3
 70
     0
 43
0.0
 10
-0.2187500000000002
 20
-1.431403700151693
 10
-0.1643083897258505
 20
-1.407509432388115
 10
-0.1093750000000001
 20
-1.38125
  0
LINE
  5
E3
330
8E
100
AcDbEntity
  8
AM_9
100
AcDbLine
 10
-0.0000000000000002
 20
-1.322028700151693
 30
0.0
 11
-0.0000000000000002
 21
-1.281096299848307
 31
0.0
  0
LWPOLYLINE
  5
E4
330
8E
100
AcDbEntity
  8
AM_9
100
AcDbPolyline
 90
        3
 70
     0
 43
0.0
 10
0.2187499999999998
 20
-1.390471299848307
 10
0.1643083897258502
 20
-1.359923957337735
 10
0.1093749999999998
 20
-1.33125
  0
LWPOLYLINE
  5
E5
330
8E
100
AcDbEntity
  8
AM_9
100
AcDbPolyline
 90
        3
 70
     0
 43
0.0
 10
-0.1093750000000001
 20
-1.33125
 10
-0.1640625000000001
 20
-1.359790440392517
 10
-0.2187500000000002
 20
-1.390471299848307
  0
ELLIPSE
  5
E6
330
8E
100
AcDbEntity
  8
AM_9
100
AcDbEllipse
 10
-0.0000000000000002
 20
-1.61875
 30
0.0
 11
-0.1999999999999998
 21
2.449293598294704E-17
 31
0.0
210
0.0
220
0.0
230
1.0
 40
0.8660254037844392
 41
0.461946020566967
 42
5.82123928661262
  0
LWPOLYLINE
  5
E7
330
8E
100
AcDbEntity
  8
AM_9
100
AcDbPolyline
 90
        7
 70
     0
 43
0.0
 10
-0.1790373738501785
 20
-1.695945945966246
 10
-0.1842628795203942
 20
-1.679951216295605
 10
-0.1891729979031394
 20
-1.663894458256412
 10
-0.1936098952159725
 20
-1.647127825105295
 10
-0.1971856748420372
 20
-1.629679808725254
 10
-0.1994144431868156
 20
-1.612207633207593
 10
-0.199999999969953
 20
-1.59850755900097
  0
LINE
  5
E8
330
8E
100
AcDbEntity
  8
AM_9
100
AcDbLine
 10
0.1999999999999998
 20
-1.61875
 30
0.0
 11
0.1999999999999998
 21
-1.5453125
 31
0.0
  0
LWPOLYLINE
  5
E9
330
8E
100
AcDbEntity
  8
AM_9
100
AcDbPolyline
 90
        8
 70
     0
 43
0.0
 10
-0.199999999969953
 20
-1.59850755900097
 10
-0.1999786710855129
 20
-1.595997492794571
 10
-0.1988321115509054
 20
-1.580727046299115
 10
-0.196164942998426
 20
-1.567797828583382
 10
-0.1920694300574959
 20
-1.556745849846331
 10
-0.1870948030566196
 20
-1.548476804053058
 10
-0.1815005947613931
 20
-1.542953487144151
 10
-0.1790373738501785
 20
-1.541554054033754
  0
LWPOLYLINE
  5
EA
330
8E
100
AcDbEntity
  8
AM_9
100
AcDbPolyline
 90
        3
 70
     0
 43
0.0
 10
0.1093749999999998
 20
-1.709375
 10
0.0546874999999998
 20
-1.735522059607482
 10
-0.0000000000000002
 20
-1.759528700151692
  0
LWPOLYLINE
  5
EB
330
8E
100
AcDbEntity
  8
AM_9
100
AcDbPolyline
 90
        3
 70
     0
 43
0.0
 10
0.2187499999999998
 20
-1.650153700151692
 10
0.1643083897258502
 20
-1.680701042662265
 10
0.1093749999999998
 20
-1.709375
  0
LINE
  5
EC
330
8E
100
AcDbEntity
  8
AM_9
100
AcDbLine
 10
0.2187499999999998
 20
-1.650153700151692
 30
0.0
 11
0.2187499999999998
 21
-1.390471299848307
 31
0.0
  0
LWPOLYLINE
  5
ED
330
8E
100
AcDbEntity
  8
AM_9
100
AcDbPolyline
 90
        3
 70
     0
 43
0.0
 10
0.1093749999999998
 20
-1.659375
 10
0.1640624999999998
 20
-1.633227940392517
 10
0.2187499999999998
 20
-1.609221299848307
  0
LWPOLYLINE
  5
EE
330
8E
100
AcDbEntity
  8
AM_9
100
AcDbPolyline
 90
        3
 70
     0
 43
0.0
 10
-0.0000000000000002
 20
-1.718596299848307
 10
0.0544416102741494
 20
-1.688048957337735
 10
0.1093749999999998
 20
-1.659375
  0
LINE
  5
EF
330
8E
100
AcDbEntity
  8
AM_9
100
AcDbLine
 10
-0.2187500000000002
 20
-1.650153700151692
 30
0.0
 11
-0.2187500000000002
 21
-1.390471299848307
 31
0.0
  0
LWPOLYLINE
  5
F0
330
8E
100
AcDbEntity
  8
AM_9
100
AcDbPolyline
 90
        3
 70
     0
 43
0.0
 10
-0.1093750000000001
 20
-1.709375
 10
-0.1640625000000001
 20
-1.680834559607483
 10
-0.2187500000000002
 20
-1.650153700151692
  0
LWPOLYLINE
  5
F1
330
8E
100
AcDbEntity
  8
AM_9
100
AcDbPolyline
 90
        3
 70
     0
 43
0.0
 10
-0.0000000000000002
 20
-1.759528700151692
 10
-0.0544416102741497
 20
-1.735634432388115
 10
-0.1093750000000001
 20
-1.709375
  0
LINE
  5
F2
330
8E
100
AcDbEntity
  8
AM_9
100
AcDbLine
 10
-0.0000000000000002
 20
-1.759528700151692
 30
0.0
 11
-0.0000000000000002
 21
-1.718596299848307
 31
0.0
  0
LWPOLYLINE
  5
F3
330
8E
100
AcDbEntity
  8
AM_9
100
AcDbPolyline
 90
        3
 70
     0
 43
0.0
 10
-0.1093750000000001
 20
-1.659375
 10
-0.0546875000000002
 20
-1.687915440392517
 10
-0.0000000000000002
 20
-1.718596299848307
  0
LWPOLYLINE
  5
F4
330
8E
100
AcDbEntity
  8
AM_9
100
AcDbPolyline
 90
        3
 70
     0
 43
0.0
 10
-0.2187500000000002
 20
-1.609221299848307
 10
-0.1643083897258506
 20
-1.633115567611884
 10
-0.1093750000000001
 20
-1.659375
  0
LINE
  5
F5
330
8E
100
AcDbEntity
  8
AM_9
100
AcDbLine
 10
0.1999999999999998
 20
-1.4953125
 30
0.0
 11
0.1999999999999998
 21
-1.45625
 31
0.0
  0
LINE
  5
F6
330
8E
100
AcDbEntity
  8
AM_9
100
AcDbLine
 10
-0.1851454569549802
 20
-1.350059912570727
 30
0.0
 11
-0.1912304659644925
 21
-1.447272462287446
 31
0.0
  0
LINE
  5
F7
330
8E
100
AcDbEntity
  8
AM_9
100
AcDbLine
 10
0.1912304659644921
 20
-1.447272462287446
 30
0.0
 11
0.1851454569549799
 21
-1.350059912570727
 31
0.0
  0
ELLIPSE
  5
F8
330
8E
100
AcDbEntity
  8
AM_9
100
AcDbEllipse
 10
-0.0000000000000001
 20
-1.346875
 30
0.0
 11
0.1616637258772237
 21
0.0
 31
0.0
210
0.0
220
0.0
230
1.0
 40
0.8660254037844384
 41
0.0
 42
6.283185307179586
  0
ELLIPSE
  5
F9
330
8E
100
AcDbEntity
  8
AM_9
100
AcDbEllipse
 10
-0.46875
 20
-1.721856438444094
 30
0.0
 11
-0.02349716402074581
 21
0.1007796617096757
 31
0.0
210
0.0
220
0.0
230
1.0
 40
0.3659981507706682
 41
0.0
 42
6.283185307179586
  0
ELLIPSE
  5
FA
330
8E
100
AcDbEntity
  8
AM_9
100
AcDbEllipse
 10
-0.3729962569746641
 20
-1.699531086609234
 30
0.0
 11
-0.03024351534849224
 21
0.129714855930758
 31
0.0
210
0.0
220
0.0
230
1.0
 40
0.3659981507706661
 41
0.0
 42
6.283185307179586
  0
ELLIPSE
  5
FB
330
8E
100
AcDbEntity
  8
AM_9
100
AcDbEllipse
 10
-0.2013892028241879
 20
-1.659520244837341
 30
0.0
 11
-0.02497702053391697
 21
0.1071267867773893
 31
0.0
210
0.0
220
0.0
230
1.0
 40
0.3659981507706686
 41
0.0
 42
6.283185307179586
  0
ELLIPSE
  5
FC
330
8E
100
AcDbEntity
  8
AM_9
100
AcDbEllipse
 10
-0.0000000000000001
 20
-1.5453125
 30
0.0
 11
-0.2000000000000002
 21
2.980232263262471E-9
 31
0.0
210
0.0
220
0.0
230
1.0
 40
0.8660254037844374
 41
0.0
 42
6.283185307179586
  0
ELLIPSE
  5
FD
330
8E
100
AcDbEntity
  8
AM_9
100
AcDbEllipse
 10
-0.0000000000000001
 20
-1.545312500000001
 30
0.0
 11
-0.2187499999999996
 21
3.259629037943317E-9
 31
0.0
210
0.0
220
0.0
230
1.0
 40
0.8660254037844334
 41
0.0
 42
6.283185307179586
  0
ELLIPSE
  5
FE
330
8E
100
AcDbEntity
  8
AM_9
100
AcDbEllipse
 10
-0.0000000000000002
 20
-1.495312499999998
 30
0.0
 11
-0.2187500000000012
 21
2.678914873134850E-17
 31
0.0
210
0.0
220
0.0
230
1.0
 40
0.8660254037844392
 41
0.0
 42
6.283185307179586
  0
ELLIPSE
  5
FF
330
8E
100
AcDbEntity
  8
AM_9
100
AcDbEllipse
 10
-0.0000000000000001
 20
-1.4953125
 30
0.0
 11
-0.2000000000000002
 21
2.980232263262471E-9
 31
0.0
210
0.0
220
0.0
230
1.0
 40
0.866025403784436
 41
0.0
 42
6.283185307179586
  0
ELLIPSE
  5
100
330
8E
100
AcDbEntity
  8
AM_9
100
AcDbEllipse
 10
-0.0000000000000002
 20
-1.45625
 30
0.0
 11
-0.1999999999999998
 21
2.449293598294704E-17
 31
0.0
210
0.0
220
0.0
230
1.0
 40
0.8660254037844382
 41
0.0
 42
6.283185307179586
  0
ELLIPSE
  5
101
330
8E
100
AcDbEntity
  8
AM_9
100
AcDbEllipse
 10
-0.0000000000000001
 20
-1.45625
 30
0.0
 11
-0.1915112338502297
 21
2.345336195354441E-17
 31
0.0
210
0.0
220
0.0
230
1.0
 40
0.8660254037844385
 41
0.0
 42
6.283185307179586
  0
ELLIPSE
  5
102
330
8E
100
AcDbEntity
  8
AM_9
100
AcDbEllipse
 10
-0.0000000000000002
 20
-1.358751782423881
 30
0.0
 11
-0.1854172907249858
 21
2.762932959926596E-9
 31
0.0
210
0.0
220
0.0
230
1.0
 40
0.866025403784429
 41
0.0
 42
6.283185307179586
  0
ENDBLK
  5
91
330
8E
100
AcDbEntity
  8
0
100
AcDbBlockEnd
  0
BLOCK
  5
105
330
103
100
AcDbEntity
  8
0
100
AcDbBlockBegin
  2
3_129525I_0_in_136180_2
 70
     2
 10
0.0
 20
0.0
 30
0.0
  3
3_129525I_0_in_136180_2
  1

  0
ATTDEF
  5
107
330
103
100
AcDbEntity
  8
AM_6
100
AcDbText
 10
5.657
 20
2.164827584946084
 30
0.0
 40
0.5
  1
INS-GT B
100
AcDbAttributeDefinition
  3

  2
NN
 70
     8
280
     0
  0
ATTDEF
  5
108
330
103
100
AcDbEntity
  8
AM_6
100
AcDbText
 10
5.657
 20
1.664827584946084
 30
0.0
 40
0.5
  1
GT Normal Duty Bearing Inserts
100
AcDbAttributeDefinition
  3

  2
NT
 70
     8
280
     0
  0
ATTDEF
  5
109
330
103
100
AcDbEntity
  8
AM_6
100
AcDbText
 10
5.657
 20
1.164827584946084
 30
0.0
 40
0.5
  1
129525I
100
AcDbAttributeDefinition
  3

  2
NB
 70
     8
280
     0
  0
ATTDEF
  5
10A
330
103
100
AcDbEntity
  8
AM_6
100
AcDbText
 10
5.657
 20
0.6648275849460843
 30
0.0
 40
0.5
  1
$PN.I
100
AcDbAttributeDefinition
  3

  2
NBSYN
 70
     8
280
     0
  0
ATTDEF
  5
10B
330
103
100
AcDbEntity
  8
AM_6
100
AcDbText
 10
5.657
 20
0.1648275849460843
 30
0.0
 40
0.5
  1
129525
100
AcDbAttributeDefinition
  3

  2
LINA
 70
     8
280
     0
  0
ATTDEF
  5
10C
330
103
100
AcDbEntity
  8
AM_6
100
AcDbText
 10
5.657
 20
-0.3351724150539157
 30
0.0
 40
0.5
  1
212
100
AcDbAttributeDefinition
  3

  2
SERIES
 70
     8
280
     0
  0
ATTDEF
  5
10D
330
103
100
AcDbEntity
  8
AM_6
100
AcDbText
 10
5.657
 20
-0.8351724150539157
 30
0.0
 40
0.5
  1
129525
100
AcDbAttributeDefinition
  3

  2
PN
 70
     8
280
     0
  0
ATTDEF
  5
10E
330
103
100
AcDbEntity
  8
AM_6
100
AcDbText
 10
5.657
 20
-1.335172415053916
 30
0.0
 40
0.5
  1
INS-GT-12
100
AcDbAttributeDefinition
  3

  2
DESCRIPTION
 70
     8
280
     0
  0
ATTDEF
  5
10F
330
103
100
AcDbEntity
  8
AM_6
100
AcDbText
 10
5.657
 20
-1.835172415053916
 30
0.0
 40
0.5
  1
2.12
100
AcDbAttributeDefinition
  3

  2
A
 70
     8
280
     0
  0
ATTDEF
  5
110
330
103
100
AcDbEntity
  8
AM_6
100
AcDbText
 10
5.657
 20
-2.335172415053916
 30
0.0
 40
0.5
  1
1.02
100
AcDbAttributeDefinition
  3

  2
C
 70
     8
280
     0
  0
ATTDEF
  5
111
330
103
100
AcDbEntity
  8
AM_6
100
AcDbText
 10
5.657
 20
-2.835172415053916
 30
0.0
 40
0.5
  1
4.3307
100
AcDbAttributeDefinition
  3

  2
D
 70
     8
280
     0
  0
ATTDEF
  5
112
330
103
100
AcDbEntity
  8
AM_6
100
AcDbText
 10
5.657
 20
-3.335172415053916
 30
0.0
 40
0.5
  1
0.25
100
AcDbAttributeDefinition
  3

  2
J
 70
     8
280
     0
  0
ATTDEF
  5
113
330
103
100
AcDbEntity
  8
AM_6
100
AcDbText
 10
5.657
 20
-3.835172415053916
 30
0.0
 40
0.5
  1
3.69
100
AcDbAttributeDefinition
  3

  2
L
 70
     8
280
     0
  0
ATTDEF
  5
114
330
103
100
AcDbEntity
  8
AM_6
100
AcDbText
 10
5.657
 20
-4.335172415053916
 30
0.0
 40
0.5
  1
#10 - 32 x 1/4
100
AcDbAttributeDefinition
  3

  2
N
 70
     8
280
     0
  0
ATTDEF
  5
115
330
103
100
AcDbEntity
  8
AM_6
100
AcDbText
 10
5.657
 20
-4.835172415053916
 30
0.0
 40
0.5
  1
0.73000
100
AcDbAttributeDefinition
  3

  2
W
 70
     8
280
     0
  0
ATTDEF
  5
116
330
103
100
AcDbEntity
  8
AM_6
100
AcDbText
 10
5.657
 20
-5.335172415053916
 30
0.0
 40
0.5
  1
1.46
100
AcDbAttributeDefinition
  3

  2
X
 70
     8
280
     0
  0
ATTDEF
  5
117
330
103
100
AcDbEntity
  8
AM_6
100
AcDbText
 10
5.657
 20
-5.835172415053916
 30
0.0
 40
0.5
  1
1.39
100
AcDbAttributeDefinition
  3

  2
Y
 70
     8
280
     0
  0
ATTDEF
  5
118
330
103
100
AcDbEntity
  8
AM_6
100
AcDbText
 10
5.657
 20
-6.335172415053916
 30
0.0
 40
0.5
  1
baldor
100
AcDbAttributeDefinition
  3

  2
COMPANY
 70
     8
280
     0
  0
LINE
  5
119
330
103
100
AcDbEntity
  8
AM_9
100
AcDbLine
 10
-1.094999072898146
 20
-1.376428466
 30
0.0
 11
-0.5474990728981456
 21
-1.376428466
 31
0.0
  0
LINE
  5
11A
330
103
100
AcDbEntity
  8
AM_9
100
AcDbLine
 10
-0.5474990728981456
 20
1.376428466
 30
0.0
 11
-1.094999072898146
 21
1.376428466
 31
0.0
  0
LINE
  5
11B
330
103
100
AcDbEntity
  8
AM_9
100
AcDbLine
 10
-0.5474990728981456
 20
1.376428466
 30
0.0
 11
-0.5474990728981456
 21
-1.376428466
 31
0.0
  0
LINE
  5
11C
330
103
100
AcDbEntity
  8
AM_9
100
AcDbLine
 10
-0.5474990728981456
 20
-1.376428466
 30
0.0
 11
0.6569999999999997
 21
-1.4184905004777
 31
0.0
  0
LINE
  5
11D
330
103
100
AcDbEntity
  8
AM_9
100
AcDbLine
 10
0.6569999999999997
 20
1.4184905004777
 30
0.0
 11
-0.5474990728981456
 21
1.376428466
 31
0.0
  0
LINE
  5
11E
330
103
100
AcDbEntity
  8
AM_9
100
AcDbLine
 10
-0.9124990728981458
 20
-1.508214233
 30
0.0
 11
-0.7299990728981457
 21
-1.508214233
 31
0.0
  0
LINE
  5
11F
330
103
100
AcDbEntity
  8
AM_9
100
AcDbLine
 10
-0.7299990728981457
 20
1.508214233
 30
0.0
 11
-0.9124990728981458
 21
1.508214233
 31
0.0
  0
LINE
  5
120
330
103
100
AcDbEntity
  8
AM_9
100
AcDbLine
 10
-0.7299990728981457
 20
1.64
 30
0.0
 11
-0.7299990728981457
 21
-1.64
 31
0.0
  0
LINE
  5
121
330
103
100
AcDbEntity
  8
AM_9
100
AcDbLine
 10
-0.7299990728981457
 20
-1.64
 30
0.0
 11
-0.51
 21
-1.64
 31
0.0
  0
LINE
  5
122
330
103
100
AcDbEntity
  8
AM_9
100
AcDbLine
 10
-0.51
 20
1.64
 30
0.0
 11
-0.7299990728981457
 21
1.64
 31
0.0
  0
LINE
  5
123
330
103
100
AcDbEntity
  8
AM_9
100
AcDbLine
 10
-0.9124990728981458
 20
1.64
 30
0.0
 11
-0.9124990728981458
 21
-1.64
 31
0.0
  0
LINE
  5
124
330
103
100
AcDbEntity
  8
AM_9
100
AcDbLine
 10
-1.054199072898146
 20
-1.64
 30
0.0
 11
-0.9124990728981458
 21
-1.64
 31
0.0
  0
LINE
  5
125
330
103
100
AcDbEntity
  8
AM_9
100
AcDbLine
 10
-0.9124990728981458
 20
1.64
 30
0.0
 11
-1.054199072898146
 21
1.64
 31
0.0
  0
LINE
  5
126
330
103
100
AcDbEntity
  8
AM_9
100
AcDbLine
 10
0.51
 20
-1.64
 30
0.0
 11
0.6161999999999999
 21
-1.64
 31
0.0
  0
LINE
  5
127
330
103
100
AcDbEntity
  8
AM_9
100
AcDbLine
 10
0.6161999999999999
 20
1.64
 30
0.0
 11
0.51
 21
1.64
 31
0.0
  0
LINE
  5
128
330
103
100
AcDbEntity
  8
AM_9
100
AcDbLine
 10
-1.094999072898146
 20
1.5992
 30
0.0
 11
-1.094999072898146
 21
-1.5992
 31
0.0
  0
LINE
  5
129
330
103
100
AcDbEntity
  8
AM_9
100
AcDbLine
 10
-1.054199072898146
 20
1.64
 30
0.0
 11
-1.054199072898146
 21
-1.64
 31
0.0
  0
LINE
  5
12A
330
103
100
AcDbEntity
  8
AM_9
100
AcDbLine
 10
-1.094999072898146
 20
-1.5992
 30
0.0
 11
-1.054199072898146
 21
-1.64
 31
0.0
  0
LINE
  5
12B
330
103
100
AcDbEntity
  8
AM_9
100
AcDbLine
 10
-1.054199072898146
 20
1.64
 30
0.0
 11
-1.094999072898146
 21
1.5992
 31
0.0
  0
LINE
  5
12C
330
103
100
AcDbEntity
  8
AM_9
100
AcDbLine
 10
0.6161999999999999
 20
1.64
 30
0.0
 11
0.6161999999999999
 21
-1.64
 31
0.0
  0
LINE
  5
12D
330
103
100
AcDbEntity
  8
AM_9
100
AcDbLine
 10
0.6569999999999998
 20
1.5992
 30
0.0
 11
0.6569999999999998
 21
-1.5992
 31
0.0
  0
LINE
  5
12E
330
103
100
AcDbEntity
  8
AM_9
100
AcDbLine
 10
0.6569999999999998
 20
1.5992
 30
0.0
 11
0.6161999999999999
 21
1.64
 31
0.0
  0
LINE
  5
12F
330
103
100
AcDbEntity
  8
AM_9
100
AcDbLine
 10
0.6161999999999999
 20
-1.64
 30
0.0
 11
0.6569999999999998
 21
-1.5992
 31
0.0
  0
LINE
  5
130
330
103
100
AcDbEntity
  8
AM_9
100
AcDbLine
 10
-0.3000000000000001
 20
-2.06335
 30
0.0
 11
-0.2
 21
-2.06335
 31
0.0
  0
LINE
  5
131
330
103
100
AcDbEntity
  8
AM_9
100
AcDbLine
 10
-0.2
 20
2.06335
 30
0.0
 11
-0.3000000000000001
 21
2.06335
 31
0.0
  0
LINE
  5
132
330
103
100
AcDbEntity
  8
AM_9
100
AcDbLine
 10
-0.51
 20
2.035840869774971
 30
0.0
 11
-0.51
 21
-2.035840869770555
 31
0.0
  0
ARC
  5
133
330
103
100
AcDbEntity
  8
AM_9
100
AcDbCircle
 10
-0.4692000000000007
 20
-2.035840869167004
 30
0.0
 40
0.0407999999999993
100
AcDbArc
 50
180.0
 51
248.5875033595294
  0
ARC
  5
134
330
103
100
AcDbEntity
  8
AM_9
100
AcDbCircle
 10
-0.4692000000000007
 20
2.035840869167004
 30
0.0
 40
0.0407999999999991
100
AcDbArc
 50
111.4124966404706
 51
180.0
  0
LINE
  5
135
330
103
100
AcDbEntity
  8
AM_9
100
AcDbLine
 10
0.51
 20
2.035840869166999
 30
0.0
 11
0.51
 21
-2.035840869162583
 31
0.0
  0
ARC
  5
136
330
103
100
AcDbEntity
  8
AM_9
100
AcDbCircle
 10
0.4692000000000013
 20
-2.035840869167
 30
0.0
 40
0.0407999999999986
100
AcDbArc
 50
291.4124577757966
 51
0.0
  0
ARC
  5
137
330
103
100
AcDbEntity
  8
AM_9
100
AcDbCircle
 10
0.4692000000000013
 20
2.035840869167
 30
0.0
 40
0.0407999999999987
100
AcDbArc
 50
0.0
 51
68.58754222420349
  0
LINE
  5
138
330
103
100
AcDbEntity
  8
AM_9
100
AcDbLine
 10
-0.4840952577140981
 20
2.073824698589939
 30
0.0
 11
-0.4840952577140981
 21
-2.073824698589939
 31
0.0
  0
ARC
  5
139
330
103
100
AcDbEntity
  8
AM_9
100
AcDbCircle
 10
0.000000000000028
 20
-0.8393499999999081
 30
0.0
 40
1.326000000000096
100
AcDbArc
 50
248.5875320425444
 51
256.3641564590654
  0
ARC
  5
13A
330
103
100
AcDbEntity
  8
AM_9
100
AcDbCircle
 10
-0.0000000000000012
 20
0.8393500000000045
 30
0.0
 40
1.325999999999995
100
AcDbArc
 50
103.6358435409343
 51
111.4124679574559
  0
LINE
  5
13B
330
103
100
AcDbEntity
  8
AM_9
100
AcDbLine
 10
-0.312604651162791
 20
2.127974977280586
 30
0.0
 11
-0.312604651162791
 21
-2.127974977280586
 31
0.0
  0
LINE
  5
13C
330
103
100
AcDbEntity
  8
AM_9
100
AcDbLine
 10
-0.3000000000000001
 20
2.11806247745535
 30
0.0
 11
-0.3000000000000001
 21
-2.118062477451366
 31
0.0
  0
ARC
  5
13D
330
103
100
AcDbEntity
  8
AM_9
100
AcDbCircle
 10
-0.3102
 20
-2.118062477455351
 30
0.0
 40
0.0101999999999997
100
AcDbArc
 50
256.3641564590636
 51
0.0000008537736463
  0
ARC
  5
13E
330
103
100
AcDbEntity
  8
AM_9
100
AcDbCircle
 10
-0.3102
 20
2.118062477455351
 30
0.0
 40
0.0101999999999999
100
AcDbArc
 50
0.0000008537736463
 51
103.6358435409364
  0
LINE
  5
13F
330
103
100
AcDbEntity
  8
AM_9
100
AcDbLine
 10
-0.2
 20
2.141389016312513
 30
0.0
 11
-0.2
 21
-2.141389016312336
 31
0.0
  0
ARC
  5
140
330
103
100
AcDbEntity
  8
AM_9
100
AcDbCircle
 10
-0.1898000000000006
 20
-2.141389016312514
 30
0.0
 40
0.0101999999999994
100
AcDbArc
 50
180.0
 51
261.7064502235345
  0
ARC
  5
141
330
103
100
AcDbEntity
  8
AM_9
100
AcDbCircle
 10
-0.1898000000000006
 20
2.141389016312514
 30
0.0
 40
0.0101999999999992
100
AcDbArc
 50
98.29354977646553
 51
180.0
  0
LINE
  5
142
330
103
100
AcDbEntity
  8
AM_9
100
AcDbLine
 10
-0.1912712969764246
 20
2.151482345060115
 30
0.0
 11
-0.1912712969764246
 21
-2.151482345060115
 31
0.0
  0
LINE
  5
143
330
103
100
AcDbEntity
  8
AM_9
100
AcDbLine
 10
0.4840952319490359
 20
2.073824708693624
 30
0.0
 11
0.484095231949036
 21
-2.073824708693624
 31
0.0
  0
ARC
  5
144
330
103
100
AcDbEntity
  8
AM_9
100
AcDbCircle
 10
0.0000000000000014
 20
-0.8393500000000134
 30
0.0
 40
1.325999999999987
100
AcDbArc
 50
261.7063327597813
 51
291.41246676162
  0
ARC
  5
145
330
103
100
AcDbEntity
  8
AM_9
100
AcDbCircle
 10
0.0000000000000053
 20
0.8393500000000471
 30
0.0
 40
1.325999999999954
100
AcDbArc
 50
68.58753323837962
 51
98.2936672402191
  0
ENDBLK
  5
106
330
103
100
AcDbEntity
  8
0
100
AcDbBlockEnd
  0
BLOCK
  5
148
330
146
100
AcDbEntity
  8
0
100
AcDbBlockBegin
  2
4_129934_0_in_136180_2
 70
     2
 10
0.0
 20
0.0
 30
0.0
  3
4_129934_0_in_136180_2
  1

  0
ATTDEF
  5
14A
330
146
100
AcDbEntity
  8
AM_6
100
AcDbText
 10
5.765625
 20
1.75
 30
0.0
 40
0.5
  1
Grip Tight Normal Duty Adapter and Nut Inch Bore
100
AcDbAttributeDefinition
  3

  2
NN
 70
     8
280
     0
  0
ATTDEF
  5
14B
330
146
100
AcDbEntity
  8
AM_6
100
AcDbText
 10
5.765625
 20
1.25
 30
0.0
 40
0.5
  1
GT and GTM Adapter & Lock Nut Assemblies
100
AcDbAttributeDefinition
  3

  2
NT
 70
     8
280
     0
  0
ATTDEF
  5
14C
330
146
100
AcDbEntity
  8
AM_6
100
AcDbText
 10
5.765625
 20
0.75
 30
0.0
 40
0.5
  1
129934
100
AcDbAttributeDefinition
  3

  2
NB
 70
     8
280
     0
  0
ATTDEF
  5
14D
330
146
100
AcDbEntity
  8
AM_6
100
AcDbText
 10
5.765625
 20
0.25
 30
0.0
 40
0.5
  1
$PN.
100
AcDbAttributeDefinition
  3

  2
NBSYN
 70
     8
280
     0
  0
ATTDEF
  5
14E
330
146
100
AcDbEntity
  8
AM_6
100
AcDbText
 10
5.765625
 20
-0.25
 30
0.0
 40
0.5
  1
129934
100
AcDbAttributeDefinition
  3

  2
LINA
 70
     8
280
     0
  0
ATTDEF
  5
14F
330
146
100
AcDbEntity
  8
AM_6
100
AcDbText
 10
5.765625
 20
-0.75
 30
0.0
 40
0.5
  1
212
100
AcDbAttributeDefinition
  3

  2
SERIES
 70
     8
280
     0
  0
ATTDEF
  5
150
330
146
100
AcDbEntity
  8
AM_6
100
AcDbText
 10
5.765625
 20
-1.25
 30
0.0
 40
0.5
  1
2-1/4
100
AcDbAttributeDefinition
  3

  2
SS
 70
     8
280
     0
  0
ATTDEF
  5
151
330
146
100
AcDbEntity
  8
AM_6
100
AcDbText
 10
5.765625
 20
-1.75
 30
0.0
 40
0.5
  1
129934
100
AcDbAttributeDefinition
  3

  2
PN
 70
     8
280
     0
  0
ATTDEF
  5
152
330
146
100
AcDbEntity
  8
AM_6
100
AcDbText
 10
5.765625
 20
-2.25
 30
0.0
 40
0.5
  1
AN-GTM-12-204
100
AcDbAttributeDefinition
  3

  2
DESCRIPTION
 70
     8
280
     0
  0
ATTDEF
  5
153
330
146
100
AcDbEntity
  8
AM_6
100
AcDbText
 10
5.765625
 20
-2.75
 30
0.0
 40
0.5
  1
2-7/64
100
AcDbAttributeDefinition
  3

  2
A
 70
     8
280
     0
  0
ATTDEF
  5
154
330
146
100
AcDbEntity
  8
AM_6
100
AcDbText
 10
5.765625
 20
-3.25
 30
0.0
 40
0.5
  1
1.0240
100
AcDbAttributeDefinition
  3

  2
C
 70
     8
280
     0
  0
ATTDEF
  5
155
330
146
100
AcDbEntity
  8
AM_6
100
AcDbText
 10
5.765625
 20
-3.75
 30
0.0
 40
0.5
  1
4.3307
100
AcDbAttributeDefinition
  3

  2
D
 70
     8
280
     0
  0
ATTDEF
  5
156
330
146
100
AcDbEntity
  8
AM_6
100
AcDbText
 10
5.765625
 20
-4.25
 30
0.0
 40
0.5
  1
0.250
100
AcDbAttributeDefinition
  3

  2
J
 70
     8
280
     0
  0
ATTDEF
  5
157
330
146
100
AcDbEntity
  8
AM_6
100
AcDbText
 10
5.765625
 20
-4.75
 30
0.0
 40
0.5
  1
3-1/2
100
AcDbAttributeDefinition
  3

  2
L
 70
     8
280
     0
  0
ATTDEF
  5
158
330
146
100
AcDbEntity
  8
AM_6
100
AcDbText
 10
5.765625
 20
-5.25
 30
0.0
 40
0.5
  1
10 - 32 x 1/4
100
AcDbAttributeDefinition
  3

  2
N
 70
     8
280
     0
  0
ATTDEF
  5
159
330
146
100
AcDbEntity
  8
AM_6
100
AcDbText
 10
5.765625
 20
-5.75
 30
0.0
 40
0.5
  1
49/64
100
AcDbAttributeDefinition
  3

  2
W
 70
     8
280
     0
  0
ATTDEF
  5
15A
330
146
100
AcDbEntity
  8
AM_6
100
AcDbText
 10
5.765625
 20
-6.25
 30
0.0
 40
0.5
  1
1-5/16
100
AcDbAttributeDefinition
  3

  2
X
 70
     8
280
     0
  0
ATTDEF
  5
15B
330
146
100
AcDbEntity
  8
AM_6
100
AcDbText
 10
5.765625
 20
-6.75
 30
0.0
 40
0.5
  1
1-11/32
100
AcDbAttributeDefinition
  3

  2
Y
 70
     8
280
     0
  0
ATTDEF
  5
15C
330
146
100
AcDbEntity
  8
AM_6
100
AcDbText
 10
5.765625
 20
-7.25
 30
0.0
 40
0.5
  1
baldor
100
AcDbAttributeDefinition
  3

  2
COMPANY
 70
     8
280
     0
  0
LWPOLYLINE
  5
15D
330
146
100
AcDbEntity
  8
AM_9
100
AcDbPolyline
 90
        6
 70
     0
 43
0.0
 10
-1.271539999999999
 20
0.047309117476686
 10
-1.276308334719725
 20
0.0253285222387836
 10
-1.278207626056813
 20
0.0018699370410627
 10
-1.277003679715671
 20
-0.0202010430732723
 10
-1.272874906738277
 20
-0.0423311387033335
 10
-1.271539999999999
 20
-0.0473091174766861
  0
LWPOLYLINE
  5
15E
330
146
100
AcDbEntity
  8
AM_9
100
AcDbPolyline
 90
       12
 70
     0
 43
0.0
 10
-1.115156551125237
 20
0.0571201450181998
 10
-1.12474629395396
 20
0.0673488386511289
 10
-1.137107205336036
 20
0.0769294793585771
 10
-1.150863946051889
 20
0.0843738964484442
 10
-1.166033305942096
 20
0.0895728988120038
 10
-1.181851445216941
 20
0.092218316388509
 10
-1.198167817079201
 20
0.0921900166430834
 10
-1.214252536912306
 20
0.0894555817416971
 10
-1.2379921903044
 20
0.0798069095473091
 10
-1.249459283547025
 20
0.0720847386942111
 10
-1.25968490334001
 20
0.062783248253822
 10
-1.271539999999999
 20
0.047309117476686
  0
LWPOLYLINE
  5
15F
330
146
100
AcDbEntity
  8
AM_9
100
AcDbPolyline
 90
       14
 70
     0
 43
0.0
 10
-1.27044576880838
 20
-0.0490565884758957
 10
-1.268816524943647
 20
-0.0515080387042993
 10
-1.259070002988511
 20
-0.0634136089088643
 10
-1.247515224271093
 20
-0.0735759715737289
 10
-1.234121593850415
 20
-0.081895359239603
 10
-1.219549363760396
 20
-0.0879240433633629
 10
-1.203817217574598
 20
-0.0915423193244473
 10
-1.187702912909795
 20
-0.0925262684657192
 10
-1.171434146842662
 20
-0.0907758651279197
 10
-1.155686644136124
 20
-0.0863385607812327
 10
-1.14093115463668
 20
-0.0792922610409434
 10
-1.127584319479506
 20
-0.0698513842691344
 10
-1.116236266309881
 20
-0.0584197283296482
 10
-1.109769158845265
 20
-0.0497092769115744
  0
LINE
  5
160
330
146
100
AcDbEntity
  8
AM_9
100
AcDbLine
 10
-1.271539999999999
 20
-0.0473091174766861
 30
0.0
 11
-1.27044576880838
 21
-0.0490565884758957
 31
0.0
  0
LINE
  5
161
330
146
100
AcDbEntity
  8
AM_9
100
AcDbLine
 10
-1.271539999999999
 20
0.047309117476686
 30
0.0
 11
-1.271539999999999
 21
0.125
 31
0.0
  0
LINE
  5
162
330
146
100
AcDbEntity
  8
AM_9
100
AcDbLine
 10
-1.271539999999999
 20
-0.125
 30
0.0
 11
-1.271539999999999
 21
-0.0473091174766861
 31
0.0
  0
LINE
  5
163
330
146
100
AcDbEntity
  8
AM_9
100
AcDbLine
 10
-0.65625
 20
1.352007902881875
 30
0.0
 11
-1.3125
 21
1.352007902881875
 31
0.0
  0
LINE
  5
164
330
146
100
AcDbEntity
  8
AM_9
100
AcDbLine
 10
-0.6562500000000002
 20
1.413607902966446
 30
0.0
 11
-0.6972099999999999
 21
1.449173327805978
 31
0.0
  0
LINE
  5
165
330
146
100
AcDbEntity
  8
AM_9
100
AcDbLine
 10
-0.6972099999999999
 20
1.449173327805978
 30
0.0
 11
-1.271539999999999
 21
1.449173327805978
 31
0.0
  0
LINE
  5
166
330
146
100
AcDbEntity
  8
AM_9
100
AcDbLine
 10
-1.271539999999999
 20
1.449173327805978
 30
0.0
 11
-1.3125
 21
1.413607902966447
 31
0.0
  0
LINE
  5
167
330
146
100
AcDbEntity
  8
AM_9
100
AcDbLine
 10
-0.65625
 20
-1.352007902881875
 30
0.0
 11
-1.3125
 21
-1.352007902881875
 31
0.0
  0
LINE
  5
168
330
146
100
AcDbEntity
  8
AM_9
100
AcDbLine
 10
-1.3125
 20
-1.413607902966446
 30
0.0
 11
-1.271539999999999
 21
-1.449173327805978
 31
0.0
  0
LINE
  5
169
330
146
100
AcDbEntity
  8
AM_9
100
AcDbLine
 10
-1.271539999999999
 20
-1.449173327805978
 30
0.0
 11
-0.6972099999999999
 21
-1.449173327805978
 31
0.0
  0
LINE
  5
16A
330
146
100
AcDbEntity
  8
AM_9
100
AcDbLine
 10
-0.6972099999999999
 20
-1.449173327805978
 30
0.0
 11
-0.6562499999999999
 21
-1.413607902966447
 31
0.0
  0
LINE
  5
16B
330
146
100
AcDbEntity
  8
AM_9
100
AcDbLine
 10
-0.65625
 20
1.477007902881875
 30
0.0
 11
-1.3125
 21
1.477007902881875
 31
0.0
  0
LINE
  5
16C
330
146
100
AcDbEntity
  8
AM_9
100
AcDbLine
 10
-0.65625
 20
-1.477007902881875
 30
0.0
 11
-1.3125
 21
-1.477007902881875
 31
0.0
  0
LINE
  5
16D
330
146
100
AcDbEntity
  8
AM_9
100
AcDbLine
 10
-0.4921874999999999
 20
1.304597757411063
 30
0.0
 11
-1.3125
 21
1.305555555555556
 31
0.0
  0
LINE
  5
16E
330
146
100
AcDbEntity
  8
AM_9
100
AcDbLine
 10
0.765625
 20
1.123888339649451
 30
0.0
 11
-1.34375
 21
1.123888339649451
 31
0.0
  0
LINE
  5
16F
330
146
100
AcDbEntity
  8
AM_9
100
AcDbLine
 10
-1.34375
 20
-1.125
 30
0.0
 11
0.7656249999999999
 21
-1.125
 31
0.0
  0
LINE
  5
170
330
146
100
AcDbEntity
  8
AM_9
100
AcDbLine
 10
-0.9843749999999997
 20
-1.305555555555556
 30
0.0
 11
-0.4921874999999999
 21
-1.305555555555556
 31
0.0
  0
LINE
  5
171
330
146
100
AcDbEntity
  8
AM_9
100
AcDbLine
 10
-0.4921874999999999
 20
1.304597757411063
 30
0.0
 11
0.7273445147120567
 21
1.347215031211412
 31
0.0
  0
LINE
  5
172
330
146
100
AcDbEntity
  8
AM_9
100
AcDbLine
 10
-0.4921874999999999
 20
1.304597757411063
 30
0.0
 11
-0.4921874999999999
 21
-1.305555555555556
 31
0.0
  0
LINE
  5
173
330
146
100
AcDbEntity
  8
AM_9
100
AcDbLine
 10
0.765625
 20
0.9880850719352307
 30
0.0
 11
0.765625
 21
-0.9880850719352307
 31
0.0
  0
LINE
  5
174
330
146
100
AcDbEntity
  8
AM_9
100
AcDbLine
 10
-0.4921874999999999
 20
-1.305555555555556
 30
0.0
 11
0.7273445156250001
 21
-1.348142551961002
 31
0.0
  0
LINE
  5
175
330
146
100
AcDbEntity
  8
AM_9
100
AcDbLine
 10
-0.8203125000000001
 20
-1.430555555555555
 30
0.0
 11
-0.65625
 21
-1.430555555555555
 31
0.0
  0
LINE
  5
176
330
146
100
AcDbEntity
  8
AM_9
100
AcDbLine
 10
-0.65625
 20
1.430555555555555
 30
0.0
 11
-0.8203125000000001
 21
1.430555555555555
 31
0.0
  0
LINE
  5
177
330
146
100
AcDbEntity
  8
AM_9
100
AcDbLine
 10
-0.9843749999999999
 20
1.555555555555555
 30
0.0
 11
-0.9843749999999999
 21
-1.555555555555555
 31
0.0
  0
LINE
  5
178
330
146
100
AcDbEntity
  8
AM_9
100
AcDbLine
 10
-0.8203125000000001
 20
1.555555555555555
 30
0.0
 11
-0.8203125000000001
 21
-1.555555555555555
 31
0.0
  0
LINE
  5
179
330
146
100
AcDbEntity
  8
AM_9
100
AcDbLine
 10
-0.9843749999999999
 20
-1.555555555555555
 30
0.0
 11
-0.8203125000000001
 21
-1.555555555555555
 31
0.0
  0
LINE
  5
17A
330
146
100
AcDbEntity
  8
AM_9
100
AcDbLine
 10
-0.8203125000000001
 20
1.555555555555555
 30
0.0
 11
-0.9843749999999999
 21
1.555555555555555
 31
0.0
  0
LINE
  5
17B
330
146
100
AcDbEntity
  8
AM_9
100
AcDbLine
 10
-1.243731783788711
 20
-0.125
 30
0.0
 11
-0.6562499999999999
 21
-0.125
 31
0.0
  0
LINE
  5
17C
330
146
100
AcDbEntity
  8
AM_9
100
AcDbLine
 10
-0.6972099999999999
 20
-1.574173327805978
 30
0.0
 11
-1.271539999999999
 21
-1.574173327805978
 31
0.0
  0
LINE
  5
17D
330
146
100
AcDbEntity
  8
AM_9
100
AcDbLine
 10
-0.7273445156249996
 20
-1.75
 30
0.0
 11
-0.6972099999999999
 21
-1.75
 31
0.0
  0
LINE
  5
17E
330
146
100
AcDbEntity
  8
AM_9
100
AcDbLine
 10
-0.6562499999999999
 20
0.125
 30
0.0
 11
-1.243731783788711
 21
0.125
 31
0.0
  0
LINE
  5
17F
330
146
100
AcDbEntity
  8
AM_9
100
AcDbLine
 10
-1.271539999999999
 20
1.574173327805978
 30
0.0
 11
-0.6972099999999999
 21
1.574173327805978
 31
0.0
  0
LINE
  5
180
330
146
100
AcDbEntity
  8
AM_9
100
AcDbLine
 10
-0.6972099999999999
 20
1.75
 30
0.0
 11
-0.7273445156249996
 21
1.75
 31
0.0
  0
LINE
  5
181
330
146
100
AcDbEntity
  8
AM_9
100
AcDbLine
 10
-1.271539999999999
 20
-1.574173327805978
 30
0.0
 11
-1.3125
 21
-1.538607902966447
 31
0.0
  0
LINE
  5
182
330
146
100
AcDbEntity
  8
AM_9
100
AcDbLine
 10
-0.6972099999999999
 20
1.574173327805978
 30
0.0
 11
-0.65625
 21
1.538607902966446
 31
0.0
  0
LINE
  5
183
330
146
100
AcDbEntity
  8
AM_9
100
AcDbLine
 10
-0.65625
 20
1.70904
 30
0.0
 11
-0.6972099999999999
 21
1.75
 31
0.0
  0
LINE
  5
184
330
146
100
AcDbEntity
  8
AM_9
100
AcDbLine
 10
-0.65625
 20
1.70904
 30
0.0
 11
-0.65625
 21
-1.70904
 31
0.0
  0
LINE
  5
185
330
146
100
AcDbEntity
  8
AM_9
100
AcDbLine
 10
-0.65625
 20
-1.538607902966447
 30
0.0
 11
-0.6972099999999999
 21
-1.574173327805978
 31
0.0
  0
LINE
  5
186
330
146
100
AcDbEntity
  8
AM_9
100
AcDbLine
 10
-0.6972099999999999
 20
1.75
 30
0.0
 11
-0.6972099999999999
 21
-1.75
 31
0.0
  0
LINE
  5
187
330
146
100
AcDbEntity
  8
AM_9
100
AcDbLine
 10
-0.6972099999999999
 20
-1.75
 30
0.0
 11
-0.65625
 21
-1.70904
 31
0.0
  0
LINE
  5
188
330
146
100
AcDbEntity
  8
AM_9
100
AcDbLine
 10
-1.3125
 20
1.538607902966446
 30
0.0
 11
-1.271539999999999
 21
1.574173327805978
 31
0.0
  0
CIRCLE
  5
189
330
146
100
AcDbEntity
  8
AM_9
100
AcDbCircle
 10
-1.189896050080434
 20
-0.0000000000000002
 30
0.0
 40
0.0724499999999998
  0
LINE
  5
18C
330
146
100
AcDbEntity
  8
AM_7
100
AcDbLine
 10
-1.189896050080433
 20
-0.0997500000000001
 30
0.0
 11
-1.189896050080433
 21
0.0997500000000001
 31
0.0
  0
LINE
  5
18E
330
146
100
AcDbEntity
  8
AM_4
100
AcDbLine
 10
-1.34375
 20
1.304597757411064
 30
0.0
 11
-1.3125
 21
1.304597757411064
 31
0.0
  0
LINE
  5
18F
330
146
100
AcDbEntity
  8
AM_4
100
AcDbLine
 10
-1.34375
 20
1.304597757411064
 30
0.0
 11
-1.34375
 21
-1.305555555555556
 31
0.0
  0
LINE
  5
190
330
146
100
AcDbEntity
  8
AM_4
100
AcDbLine
 10
-1.34375
 20
-1.305555555555556
 30
0.0
 11
-1.3125
 21
-1.305555555555556
 31
0.0
  0
LINE
  5
191
330
146
100
AcDbEntity
  8
AM_4
100
AcDbLine
 10
0.7273445147120567
 20
1.347215031211412
 30
0.0
 11
0.765625
 21
1.348552734640802
 31
0.0
  0
LINE
  5
192
330
146
100
AcDbEntity
  8
AM_4
100
AcDbLine
 10
0.765625
 20
-0.9880850719352307
 30
0.0
 11
0.765625
 21
-1.349479335931894
 31
0.0
  0
LINE
  5
193
330
146
100
AcDbEntity
  8
AM_4
100
AcDbLine
 10
0.765625
 20
1.348552734640802
 30
0.0
 11
0.765625
 21
0.9880850719352307
 31
0.0
  0
LINE
  5
194
330
146
100
AcDbEntity
  8
AM_4
100
AcDbLine
 10
0.7273445156250001
 20
-1.348142551961002
 30
0.0
 11
0.765625
 21
-1.349479335931894
 31
0.0
  0
LINE
  5
195
330
146
100
AcDbEntity
  8
AM_4
100
AcDbLine
 10
-1.3125
 20
-0.125
 30
0.0
 11
-1.243731783788711
 21
-0.125
 31
0.0
  0
LINE
  5
196
330
146
100
AcDbEntity
  8
AM_4
100
AcDbLine
 10
-1.271539999999999
 20
-1.75
 30
0.0
 11
-0.7273445156249996
 21
-1.75
 31
0.0
  0
LINE
  5
197
330
146
100
AcDbEntity
  8
AM_4
100
AcDbLine
 10
-1.243731783788711
 20
0.125
 30
0.0
 11
-1.3125
 21
0.125
 31
0.0
  0
LINE
  5
198
330
146
100
AcDbEntity
  8
AM_4
100
AcDbLine
 10
-0.7273445156249996
 20
1.75
 30
0.0
 11
-1.271539999999999
 21
1.75
 31
0.0
  0
LINE
  5
199
330
146
100
AcDbEntity
  8
AM_4
100
AcDbLine
 10
-1.271539999999999
 20
-0.125
 30
0.0
 11
-1.271539999999999
 21
-1.75
 31
0.0
  0
LINE
  5
19A
330
146
100
AcDbEntity
  8
AM_4
100
AcDbLine
 10
-1.3125
 20
1.70904
 30
0.0
 11
-1.3125
 21
-1.70904
 31
0.0
  0
LINE
  5
19B
330
146
100
AcDbEntity
  8
AM_4
100
AcDbLine
 10
-1.3125
 20
-1.70904
 30
0.0
 11
-1.271539999999999
 21
-1.75
 31
0.0
  0
LINE
  5
19C
330
146
100
AcDbEntity
  8
AM_4
100
AcDbLine
 10
-1.271539999999999
 20
1.75
 30
0.0
 11
-1.3125
 21
1.70904
 31
0.0
  0
LINE
  5
19D
330
146
100
AcDbEntity
  8
AM_4
100
AcDbLine
 10
-1.271539999999999
 20
1.75
 30
0.0
 11
-1.271539999999999
 21
0.125
 31
0.0
  0
ARC
  5
19F
330
146
100
AcDbEntity
  8
AM_5
100
AcDbCircle
 10
-1.189896050080434
 20
0.0
 30
0.0
 40
0.095
100
AcDbArc
 50
74.99999999999994
 51
14.99999999999992
  0
ENDBLK
  5
149
330
146
100
AcDbEntity
  8
0
100
AcDbBlockEnd
  0
BLOCK
  5
1A2
330
1A0
100
AcDbEntity
  8
0
100
AcDbBlockBegin
  2
5_WSTU_GT_12I_0_in_136180_2
 70
     2
 10
0.0
 20
0.0
 30
0.0
  3
5_WSTU_GT_12I_0_in_136180_2
  1

  0
ATTDEF
  5
1A4
330
1A0
100
AcDbEntity
  8
AM_6
100
AcDbText
 10
7.424995112419128
 20
2.937494125
 30
0.0
 40
0.5
  1
GTMMDWSTUB-Ib
100
AcDbAttributeDefinition
  3

  2
NN
 70
     8
280
     0
  0
ATTDEF
  5
1A5
330
1A0
100
AcDbEntity
  8
AM_6
100
AcDbText
 10
7.424995112419128
 20
2.437494125
 30
0.0
 40
0.5
  1
Grip Tight Adapter Ball Bearings
100
AcDbAttributeDefinition
  3

  2
NT
 70
     8
280
     0
  0
ATTDEF
  5
1A6
330
1A0
100
AcDbEntity
  8
AM_6
100
AcDbText
 10
7.424995112419128
 20
1.937494125
 30
0.0
 40
0.5
  1
WSTU-GT-12I
100
AcDbAttributeDefinition
  3

  2
NB
 70
     8
280
     0
  0
ATTDEF
  5
1A7
330
1A0
100
AcDbEntity
  8
AM_6
100
AcDbText
 10
7.424995112419128
 20
1.437494125
 30
0.0
 40
0.5
  1
$PN.$LUBE.I
100
AcDbAttributeDefinition
  3

  2
NBSYN
 70
     8
280
     0
  0
ATTDEF
  5
1A8
330
1A0
100
AcDbEntity
  8
AM_6
100
AcDbText
 10
7.424995112419128
 20
0.9374941250000002
 30
0.0
 40
0.5
  1
WSTU-GT-12
100
AcDbAttributeDefinition
  3

  2
LINA
 70
     8
280
     0
  0
ATTDEF
  5
1A9
330
1A0
100
AcDbEntity
  8
AM_6
100
AcDbText
 10
7.424995112419128
 20
0.4374941250000002
 30
0.0
 40
0.5
  1
212
100
AcDbAttributeDefinition
  3

  2
SERIES
 70
     8
280
     0
  0
ATTDEF
  5
1AA
330
1A0
100
AcDbEntity
  8
AM_6
100
AcDbText
 10
7.424995112419128
 20
-0.0625058749999998
 30
0.0
 40
0.5
  1
WSTU-GT-12
100
AcDbAttributeDefinition
  3

  2
PN
 70
     8
280
     0
  0
ATTDEF
  5
1AB
330
1A0
100
AcDbEntity
  8
AM_6
100
AcDbText
 10
7.424995112419128
 20
-0.5625058749999998
 30
0.0
 40
0.5
  1
WSTU-GT-12
100
AcDbAttributeDefinition
  3

  2
DESCRIPTION
 70
     8
280
     0
  0
ATTDEF
  5
1AC
330
1A0
100
AcDbEntity
  8
AM_6
100
AcDbText
 10
7.424995112419128
 20
-1.062505875
 30
0.0
 40
0.5
  1
12.6
100
AcDbAttributeDefinition
  3

  2
WEIGHT
 70
     8
280
     0
  0
ATTDEF
  5
1AD
330
1A0
100
AcDbEntity
  8
AM_6
100
AcDbText
 10
7.424995112419128
 20
-1.562505875
 30
0.0
 40
0.5
  1
110.0
100
AcDbAttributeDefinition
  3

  2
BOD
 70
     8
280
     0
  0
ATTDEF
  5
1AE
330
1A0
100
AcDbEntity
  8
AM_6
100
AcDbText
 10
7.424995112419128
 20
-2.062505875
 30
0.0
 40
0.5
  1
2-7/64
100
AcDbAttributeDefinition
  3

  2
A
 70
     8
280
     0
  0
ATTDEF
  5
1AF
330
1A0
100
AcDbEntity
  8
AM_6
100
AcDbText
 10
7.424995112419128
 20
-2.562505875
 30
0.0
 40
0.5
  1
7-1/2
100
AcDbAttributeDefinition
  3

  2
B
 70
     8
280
     0
  0
ATTDEF
  5
1B0
330
1A0
100
AcDbEntity
  8
AM_6
100
AcDbText
 10
7.424995112419128
 20
-3.062505875
 30
0.0
 40
0.5
  1
1.047 / 1.077
100
AcDbAttributeDefinition
  3

  2
C
 70
     8
280
     0
  0
ATTDEF
  5
1B1
330
1A0
100
AcDbEntity
  8
AM_6
100
AcDbText
 10
7.424995112419128
 20
-3.562505875
 30
0.0
 40
0.5
  1
4-11/16
100
AcDbAttributeDefinition
  3

  2
E
 70
     8
280
     0
  0
ATTDEF
  5
1B2
330
1A0
100
AcDbEntity
  8
AM_6
100
AcDbText
 10
7.424995112419128
 20
-4.062505874999999
 30
0.0
 40
0.5
  1
1-1/4
100
AcDbAttributeDefinition
  3

  2
F
 70
     8
280
     0
  0
ATTDEF
  5
1B3
330
1A0
100
AcDbEntity
  8
AM_6
100
AcDbText
 10
7.424995112419128
 20
-4.562505874999999
 30
0.0
 40
0.5
  1
3/4
100
AcDbAttributeDefinition
  3

  2
G
 70
     8
280
     0
  0
ATTDEF
  5
1B4
330
1A0
100
AcDbEntity
  8
AM_6
100
AcDbText
 10
7.424995112419128
 20
-5.062505874999999
 30
0.0
 40
0.5
  1
1-1/4
100
AcDbAttributeDefinition
  3

  2
H
 70
     8
280
     0
  0
ATTDEF
  5
1B5
330
1A0
100
AcDbEntity
  8
AM_6
100
AcDbText
 10
7.424995112419128
 20
-5.562505874999999
 30
0.0
 40
0.5
  1
4
100
AcDbAttributeDefinition
  3

  2
J
 70
     8
280
     0
  0
ATTDEF
  5
1B6
330
1A0
100
AcDbEntity
  8
AM_6
100
AcDbText
 10
7.424995112419128
 20
-6.062505874999999
 30
0.0
 40
0.5
  1
2-1/2
100
AcDbAttributeDefinition
  3

  2
K
 70
     8
280
     0
  0
ATTDEF
  5
1B7
330
1A0
100
AcDbEntity
  8
AM_6
100
AcDbText
 10
7.424995112419128
 20
-6.562505874999999
 30
0.0
 40
0.5
  1
3-1/2
100
AcDbAttributeDefinition
  3

  2
L
 70
     8
280
     0
  0
ATTDEF
  5
1B8
330
1A0
100
AcDbEntity
  8
AM_6
100
AcDbText
 10
7.424995112419128
 20
-7.062505874999999
 30
0.0
 40
0.5
  1
5.110 / 5.140
100
AcDbAttributeDefinition
  3

  2
M
 70
     8
280
     0
  0
ATTDEF
  5
1B9
330
1A0
100
AcDbEntity
  8
AM_6
100
AcDbText
 10
7.424995112419128
 20
-7.562505874999999
 30
0.0
 40
0.5
  1
5-7/8
100
AcDbAttributeDefinition
  3

  2
N
 70
     8
280
     0
  0
ATTDEF
  5
1BA
330
1A0
100
AcDbEntity
  8
AM_6
100
AcDbText
 10
7.424995112419128
 20
-8.062505875
 30
0.0
 40
0.5
  1
49/64
100
AcDbAttributeDefinition
  3

  2
R
 70
     8
280
     0
  0
ATTDEF
  5
1BB
330
1A0
100
AcDbEntity
  8
AM_6
100
AcDbText
 10
7.424995112419128
 20
-8.562505875
 30
0.0
 40
0.5
  1
1-11/32
100
AcDbAttributeDefinition
  3

  2
S
 70
     8
280
     0
  0
ATTDEF
  5
1BC
330
1A0
100
AcDbEntity
  8
AM_6
100
AcDbText
 10
7.424995112419128
 20
-9.062505875
 30
0.0
 40
0.5
  1
2-1/2
100
AcDbAttributeDefinition
  3

  2
T
 70
     8
280
     0
  0
ATTDEF
  5
1BD
330
1A0
100
AcDbEntity
  8
AM_6
100
AcDbText
 10
7.424995112419128
 20
-9.562505875
 30
0.0
 40
0.5
  1
1-5/16
100
AcDbAttributeDefinition
  3

  2
Z
 70
     8
280
     0
  0
ATTDEF
  5
1BE
330
1A0
100
AcDbEntity
  8
AM_6
100
AcDbText
 10
7.424995112419128
 20
-10.062505875
 30
0.0
 40
0.5
  1
baldor
100
AcDbAttributeDefinition
  3

  2
COMPANY
 70
     8
280
     0
  0
LWPOLYLINE
  5
1BF
330
1A0
100
AcDbEntity
  8
AM_9
100
AcDbPolyline
 90
       27
 70
     0
 43
0.0
 10
-0.4311945685870195
 20
-1.293293346098792
 10
-0.4259349464885488
 20
-1.27872905999436
 10
-0.4072099101393771
 20
-1.237192250506993
 10
-0.3835864771105484
 20
-1.197553171491461
 10
-0.3549720736835547
 20
-1.159959222684238
 10
-0.3218709494800926
 20
-1.125124117549497
 10
-0.2848888922840137
 20
-1.093754429301946
 10
-0.2439077937305953
 20
-1.066019676928555
 10
-0.1996864913240907
 20
-1.042516924201286
 10
-0.1530510834945769
 20
-1.023762520206861
 10
-0.104605344704514
 20
-1.010121204864419
 10
-0.0546574857808528
 20
-1.001614503733687
 10
-0.0041660300355502
 20
-0.9984401335751107
 10
0.0458006076441042
 20
-1.000671159296805
 10
0.09534610931239
 20
-1.008125560730429
 10
0.1435398471487098
 20
-1.020633598138345
 10
0.189863626105678
 20
-1.038085868684657
 10
0.2339697183846335
 20
-1.060197232149213
 10
0.2750590183113495
 20
-1.086494942677753
 10
0.3131169770136747
 20
-1.117077371660299
 10
0.3473733069518385
 20
-1.151267019960424
 10
0.3771974945566764
 20
-1.188362496653572
 10
0.4023808109120371
 20
-1.22822959355829
 10
0.4225534924103768
 20
-1.270189958716793
 10
0.4373216369804687
 20
-1.313394672242748
 10
0.4468064420145728
 20
-1.35973366643469
 10
0.45
 20
-1.406249999999999
  0
LWPOLYLINE
  5
1C0
330
1A0
100
AcDbEntity
  8
AM_9
100
AcDbPolyline
 90
        4
 70
     0
 43
0.0
 10
-0.4500000000000002
 20
-1.40625
 10
-0.4473351165538696
 20
-1.36375285908428
 10
-0.4394074174714958
 20
-1.321353759897739
 10
-0.4311945685870195
 20
-1.293293346098792
  0
ELLIPSE
  5
1C1
330
1A0
100
AcDbEntity
  8
AM_9
100
AcDbEllipse
 10
-0.0000000000000002
 20
-1.456249999999999
 30
0.0
 11
-0.35
 21
4.286263797015736E-17
 31
0.0
210
0.0
220
0.0
230
1.0
 40
0.8660254037844384
 41
0.0
 42
6.283185307179586
  0
ELLIPSE
  5
1C2
330
1A0
100
AcDbEntity
  8
AM_9
100
AcDbEllipse
 10
-0.0000000000000049
 20
-1.406250000000002
 30
0.0
 11
0.4499999999999953
 21
0.0
 31
0.0
210
0.0
220
0.0
230
1.0
 40
0.866025403784443
 41
2.847734911612009
 42
3.141592653589793
  0
ELLIPSE
  5
1C3
330
1A0
100
AcDbEntity
  8
AM_9
100
AcDbEllipse
 10
-0.0000000000000001
 20
-1.406249999999999
 30
0.0
 11
0.4500000000000001
 21
0.0
 31
0.0
210
0.0
220
0.0
230
1.0
 40
0.8660254037844382
 41
0.2791028694316671
 42
2.847734911612016
  0
LINE
  5
1C4
330
1A0
100
AcDbEntity
  8
AM_9
100
AcDbLine
 10
0.4499985532290559
 20
-1.407274161715902
 30
0.0
 11
0.4499971317222028
 21
-1.404807954693727
 31
0.0
  0
LINE
  5
1C5
330
1A0
100
AcDbEntity
  8
AM_9
100
AcDbLine
 10
0.4498704558244883
 20
-1.415940499661663
 30
0.0
 11
0.4499985532290559
 21
-1.407274161715902
 31
0.0
  0
LWPOLYLINE
  5
1C6
330
1A0
100
AcDbEntity
  8
AM_9
100
AcDbPolyline
 90
       50
 70
     0
 43
0.0
 10
-0.4499891701776997
 20
-1.409052057300557
 10
-0.4498153023491592
 20
-1.417820560035027
 10
-0.4480489730085848
 20
-1.44381830348404
 10
-0.4444224409512823
 20
-1.469639738297784
 10
-0.4389532275069738
 20
-1.495182652448432
 10
-0.4316646301267646
 20
-1.520346569754956
 10
-0.4225857296651175
 20
-1.545032384443026
 10
-0.411751519062513
 20
-1.569142310401572
 10
-0.3992031326728577
 20
-1.592579914547144
 10
-0.3849881335037144
 20
-1.615250266093488
 10
-0.3691608063838305
 20
-1.637060220192443
 10
-0.3517824017885338
 20
-1.657918837845839
 10
-0.3329212790584313
 20
-1.677737926220292
 10
-0.3126529091216772
 20
-1.696432667334789
 10
-0.291059714068271
 20
-1.713922291459637
 10
-0.2682307410865581
 20
-1.730130746671894
 10
-0.2442611876703812
 20
-1.744987318643666
 10
-0.2192518102015738
 20
-1.75842716399464
 10
-0.1933082567395936
 20
-1.770391734123299
 10
-0.1665403665067909
 20
-1.780829081382761
 10
-0.139061474125558
 20
-1.789694053020631
 10
-0.1109877481577962
 20
-1.796948388542976
 10
-0.0824375832336224
 20
-1.802560742295426
 10
-0.0535310550183114
 20
-1.80650665528787
 10
-0.0243894387490694
 20
-1.808768499476581
 10
0.004865214379785
 20
-1.809335414943228
 10
0.0341104531541552
 20
-1.808203256656571
 10
0.0632231766941002
 20
-1.805374638314878
 10
0.0920808219121836
 20
-1.800858947738236
 10
0.1205616679898879
 20
-1.794672310898529
 10
0.1485448831823432
 20
-1.786837679713596
 10
0.1759109062667503
 20
-1.777384944738092
 10
0.2025418826770153
 20
-1.766351064298955
 10
0.2283221703350962
 20
-1.753780192837336
 10
0.2531389264336384
 20
-1.739723784982718
 10
0.2768827797559967
 20
-1.724240646289457
 10
0.2994485833853283
 20
-1.707396897923755
 10
0.3207362302751074
 20
-1.689265822473222
 10
0.3406515004964056
 20
-1.669927562891725
 10
0.3591068963683442
 20
-1.649468657125361
 10
0.3760224130372122
 20
-1.627981406696992
 10
0.3913261901696752
 20
-1.605563096457127
 10
0.4049549969465769
 20
-1.582315101558661
 10
0.4168545173043107
 20
-1.558341932701746
 10
0.4269794231176558
 20
-1.533750278655616
 10
0.4352932459677349
 20
-1.508648104442166
 10
0.4417680790910685
 20
-1.483143854860471
 10
0.4463841566625017
 20
-1.45734579848275
 10
0.4491293659408881
 20
-1.431361529955449
 10
0.4498704558244883
 20
-1.415940499661663
  0
LINE
  5
1C7
330
1A0
100
AcDbEntity
  8
AM_9
100
AcDbLine
 10
-0.4499993012204777
 20
-1.406961768750404
 30
0.0
 11
-0.4499891701776997
 21
-1.409052057300557
 31
0.0
  0
LWPOLYLINE
  5
1C8
330
1A0
100
AcDbEntity
  8
AM_9
100
AcDbPolyline
 90
       29
 70
     0
 43
0.0
 10
0.45
 20
-1.406249999999999
 10
0.4471679016991138
 20
-1.449395342003137
 10
0.4387817157327397
 20
-1.491695086790885
 10
0.4250066055053057
 20
-1.532375154457587
 10
0.405916585140662
 20
-1.571045340851798
 10
0.3817668137121659
 20
-1.607453895050005
 10
0.3530090156977687
 20
-1.64099859567199
 10
0.3195733127582054
 20
-1.67163052124084
 10
0.2820334690034195
 20
-1.698915420161256
 10
0.2410777921940663
 20
-1.722425554844714
 10
0.1967779117528769
 20
-1.742061531708652
 10
0.1498093311258314
 20
-1.757605543609153
 10
0.1010609514098909
 20
-1.768809213862621
 10
0.0514105750750559
 20
-1.775504578008129
 10
0.0009425703328896
 20
-1.77781768500758
 10
-0.0493763340945407
 20
-1.775711165062542
 10
-0.0985855772133339
 20
-1.769226486782396
 10
-0.1467127352139248
 20
-1.758460771937449
 10
-0.1928674199521538
 20
-1.743582034273816
 10
-0.2367864245322419
 20
-1.724538963798015
 10
-0.2778964549213058
 20
-1.701556987415194
 10
-0.3154543282308061
 20
-1.6749888835048
 10
-0.3494328964155537
 20
-1.644592909771961
 10
-0.3791212586479888
 20
-1.610901502160782
 10
-0.4039621276081988
 20
-1.57446574909722
 10
-0.4236565544210558
 20
-1.535487557315836
 10
-0.4380593488551721
 20
-1.494343873188109
 10
-0.4468846189500422
 20
-1.451779367009128
 10
-0.4500000000000002
 20
-1.40625
  0
ELLIPSE
  5
1C9
330
1A0
100
AcDbEntity
  8
AM_9
100
AcDbEllipse
 10
-0.0000000000000001
 20
-1.40625
 30
0.0
 11
0.4500000000000002
 21
0.0
 31
0.0
210
0.0
220
0.0
230
1.0
 40
0.866025403784439
 41
3.486614547296565
 42
5.94628656081766
  0
LINE
  5
1CA
330
1A0
100
AcDbEntity
  8
AM_9
100
AcDbLine
 10
-0.7273445156249999
 20
-1.977411502444546
 30
0.0
 11
0.7273445156249997
 21
-1.977411502444546
 31
0.0
  0
LINE
  5
1CB
330
1A0
100
AcDbEntity
  8
AM_9
100
AcDbLine
 10
-0.7273445156249999
 20
1.977411502444546
 30
0.0
 11
0.7273445156249997
 21
1.977411502444546
 31
0.0
  0
LINE
  5
1CC
330
1A0
100
AcDbEntity
  8
AM_9
100
AcDbLine
 10
-0.8421875000000001
 20
2.699254080631634
 30
0.0
 11
-0.6890624999999999
 21
2.699254080631634
 31
0.0
  0
LINE
  5
1CD
330
1A0
100
AcDbEntity
  8
AM_9
100
AcDbLine
 10
-0.8421875000000001
 20
2.640985201869613
 30
0.0
 11
-0.6890624999999999
 21
2.640985201869613
 31
0.0
  0
LINE
  5
1CE
330
1A0
100
AcDbEntity
  8
AM_9
100
AcDbLine
 10
-0.8421875000000001
 20
2.684686862266132
 30
0.0
 11
-0.6890624999999999
 21
2.684686862266132
 31
0.0
  0
LINE
  5
1CF
330
1A0
100
AcDbEntity
  8
AM_9
100
AcDbLine
 10
-0.8421875000000001
 20
2.597283544173094
 30
0.0
 11
-0.6890624999999999
 21
2.597283544173094
 31
0.0
  0
LINE
  5
1D0
330
1A0
100
AcDbEntity
  8
AM_9
100
AcDbLine
 10
-0.8421875000000001
 20
2.728388522662622
 30
0.0
 11
-0.6890624999999999
 21
2.728388522662622
 31
0.0
  0
LINE
  5
1D1
330
1A0
100
AcDbEntity
  8
AM_9
100
AcDbLine
 10
-0.8421875000000001
 20
2.652638978062024
 30
0.0
 11
-0.6890624999999999
 21
2.652638978062024
 31
0.0
  0
LINE
  5
1D2
330
1A0
100
AcDbEntity
  8
AM_9
100
AcDbLine
 10
-0.8421875000000001
 20
2.620591095157923
 30
0.0
 11
-0.6890624999999999
 21
2.620591095157923
 31
0.0
  0
LINE
  5
1D3
330
1A0
100
AcDbEntity
  8
AM_9
100
AcDbLine
 10
-0.8421875000000001
 20
2.629331425077221
 30
0.0
 11
-0.6890624999999999
 21
2.629331425077221
 31
0.0
  0
LINE
  5
1D4
330
1A0
100
AcDbEntity
  8
AM_9
100
AcDbLine
 10
-0.8421875000000001
 20
2.705080969077838
 30
0.0
 11
-0.6890624999999999
 21
2.705080969077838
 31
0.0
  0
LINE
  5
1D5
330
1A0
100
AcDbEntity
  8
AM_9
100
AcDbLine
 10
-0.8421875000000001
 20
2.722561634316434
 30
0.0
 11
-0.6890624999999999
 21
2.722561634316434
 31
0.0
  0
LINE
  5
1D6
330
1A0
100
AcDbEntity
  8
AM_9
100
AcDbLine
 10
-0.8421875000000001
 20
2.603110432619299
 30
0.0
 11
-0.6890624999999999
 21
2.603110432619299
 31
0.0
  0
LINE
  5
1D7
330
1A0
100
AcDbEntity
  8
AM_9
100
AcDbLine
 10
-0.8421875000000001
 20
2.710907857424025
 30
0.0
 11
-0.6890624999999999
 21
2.710907857424025
 31
0.0
  0
LINE
  5
1D8
330
1A0
100
AcDbEntity
  8
AM_9
100
AcDbLine
 10
-0.8421875000000001
 20
2.614764204111734
 30
0.0
 11
-0.6890624999999999
 21
2.614764204111734
 31
0.0
  0
LINE
  5
1D9
330
1A0
100
AcDbEntity
  8
AM_9
100
AcDbLine
 10
-0.8421875000000001
 20
2.626417980904127
 30
0.0
 11
-0.6890624999999999
 21
2.626417980904127
 31
0.0
  0
LINE
  5
1DA
330
1A0
100
AcDbEntity
  8
AM_9
100
AcDbLine
 10
-0.8421875000000001
 20
2.696340636458539
 30
0.0
 11
-0.6890624999999999
 21
2.696340636458539
 31
0.0
  0
LINE
  5
1DB
330
1A0
100
AcDbEntity
  8
AM_9
100
AcDbLine
 10
-0.8421875000000001
 20
2.670119642000614
 30
0.0
 11
-0.6890624999999999
 21
2.670119642000614
 31
0.0
  0
LINE
  5
1DC
330
1A0
100
AcDbEntity
  8
AM_9
100
AcDbLine
 10
-0.8421875000000001
 20
2.658465865808203
 30
0.0
 11
-0.6890624999999999
 21
2.658465865808203
 31
0.0
  0
LINE
  5
1DD
330
1A0
100
AcDbEntity
  8
AM_9
100
AcDbLine
 10
-0.8421875000000001
 20
2.675946529646805
 30
0.0
 11
-0.6890624999999999
 21
2.675946529646805
 31
0.0
  0
LINE
  5
1DE
330
1A0
100
AcDbEntity
  8
AM_9
100
AcDbLine
 10
-0.6890624999999999
 20
2.5943701
 30
0.0
 11
-0.6890624999999999
 21
2.731301966935732
 31
0.0
  0
LINE
  5
1DF
330
1A0
100
AcDbEntity
  8
AM_9
100
AcDbLine
 10
-0.8421875000000001
 20
2.5943701
 30
0.0
 11
-0.6890624999999999
 21
2.5943701
 31
0.0
  0
LINE
  5
1E0
330
1A0
100
AcDbEntity
  8
AM_9
100
AcDbLine
 10
-0.8421875000000001
 20
2.611850759838625
 30
0.0
 11
-0.6890624999999999
 21
2.611850759838625
 31
0.0
  0
LINE
  5
1E1
330
1A0
100
AcDbEntity
  8
AM_9
100
AcDbLine
 10
-0.8421875000000001
 20
2.731301966935732
 30
0.0
 11
-0.6890624999999999
 21
2.731301966935732
 31
0.0
  0
LINE
  5
1E2
330
1A0
100
AcDbEntity
  8
AM_9
100
AcDbLine
 10
-0.8421875000000001
 20
2.713821301697136
 30
0.0
 11
-0.6890624999999999
 21
2.713821301697136
 31
0.0
  0
LINE
  5
1E3
330
1A0
100
AcDbEntity
  8
AM_9
100
AcDbLine
 10
-0.7273445156250001
 20
-2.16535
 30
0.0
 11
0.7273445156250004
 21
-2.16535
 31
0.0
  0
LINE
  5
1E4
330
1A0
100
AcDbEntity
  8
AM_9
100
AcDbLine
 10
0.7273445156250004
 20
2.16535
 30
0.0
 11
-0.7273445156250001
 21
2.16535
 31
0.0
  0
LINE
  5
1E5
330
1A0
100
AcDbEntity
  8
AM_9
100
AcDbLine
 10
0.7273445156250002
 20
-1.016594169566442
 30
0.0
 11
0.7273445156250002
 21
1.016594169566442
 31
0.0
  0
LINE
  5
1E6
330
1A0
100
AcDbEntity
  8
AM_9
100
AcDbLine
 10
-0.7273445156249999
 20
1.016594169566442
 30
0.0
 11
-0.7273445156249999
 21
-1.016594169566442
 31
0.0
  0
LINE
  5
1E7
330
1A0
100
AcDbEntity
  8
AM_9
100
AcDbLine
 10
-0.7273445156249998
 20
-1.1875
 30
0.0
 11
0.7273445156250001
 21
-1.1875
 31
0.0
  0
LINE
  5
1E8
330
1A0
100
AcDbEntity
  8
AM_9
100
AcDbLine
 10
-0.7273445156249998
 20
-1.25
 30
0.0
 11
0.7273445156250001
 21
-1.25
 31
0.0
  0
LINE
  5
1E9
330
1A0
100
AcDbEntity
  8
AM_9
100
AcDbLine
 10
-0.7273445156249998
 20
1.25
 30
0.0
 11
0.7273445156250001
 21
1.25
 31
0.0
  0
LINE
  5
1EA
330
1A0
100
AcDbEntity
  8
AM_9
100
AcDbLine
 10
-0.7273445156249998
 20
1.1875
 30
0.0
 11
0.7273445156250001
 21
1.1875
 31
0.0
  0
LINE
  5
1EB
330
1A0
100
AcDbEntity
  8
AM_7
100
AcDbLine
 10
0.0000000000000003
 20
-0.6562486875000001
 30
0.0
 11
0.0000000000000003
 21
0.6562486875000001
 31
0.0
  0
LINE
  5
1EC
330
1A0
100
AcDbEntity
  8
AM_7
100
AcDbLine
 10
2.424995112419128
 20
0.0
 30
0.0
 11
-2.518747615814209
 21
0.0
 31
0.0
  0
LINE
  5
1ED
330
1A0
100
AcDbEntity
  8
AM_4
100
AcDbLine
 10
-0.523498953
 20
2.937494125
 30
0.0
 11
-0.5234989529999999
 21
2.554994125
 31
0.0
  0
LINE
  5
1EE
330
1A0
100
AcDbEntity
  8
AM_4
100
AcDbLine
 10
-0.8421875
 20
2.554994125
 30
0.0
 11
-0.8421875
 21
2.898124025
 31
0.0
  0
LINE
  5
1EF
330
1A0
100
AcDbEntity
  8
AM_4
100
AcDbLine
 10
-0.8028174
 20
2.937494125
 30
0.0
 11
-0.523498953
 21
2.937494125
 31
0.0
  0
LINE
  5
1F0
330
1A0
100
AcDbEntity
  8
AM_4
100
AcDbLine
 10
-0.8421875
 20
2.898124025
 30
0.0
 11
-0.8028174
 21
2.937494125
 31
0.0
  0
LINE
  5
1F1
330
1A0
100
AcDbEntity
  8
AM_4
100
AcDbLine
 10
0.5234989530000002
 20
-2.554994125
 30
0.0
 11
-0.5234989529999999
 21
-2.554994125000001
 31
0.0
  0
LINE
  5
1F2
330
1A0
100
AcDbEntity
  8
AM_4
100
AcDbLine
 10
-0.8421875
 20
-2.898124025
 30
0.0
 11
-0.8421875
 21
-2.554994125000001
 31
0.0
  0
LINE
  5
1F3
330
1A0
100
AcDbEntity
  8
AM_4
100
AcDbLine
 10
0.5234989530000004
 20
-2.937494125
 30
0.0
 11
0.5234989530000002
 21
-2.554994125
 31
0.0
  0
LINE
  5
1F4
330
1A0
100
AcDbEntity
  8
AM_4
100
AcDbLine
 10
0.7273445156250002
 20
-2.436884125
 30
0.0
 11
0.8421875000000003
 21
-2.554994125
 31
0.0
  0
LINE
  5
1F5
330
1A0
100
AcDbEntity
  8
AM_4
100
AcDbLine
 10
-0.8421875
 20
-2.554994125000001
 30
0.0
 11
-0.7273445156250002
 21
-2.436884125000001
 31
0.0
  0
LINE
  5
1F6
330
1A0
100
AcDbEntity
  8
AM_4
100
AcDbLine
 10
0.8421875000000003
 20
-2.554994125
 30
0.0
 11
0.8421875000000003
 21
-2.898124025
 31
0.0
  0
LINE
  5
1F7
330
1A0
100
AcDbEntity
  8
AM_4
100
AcDbLine
 10
-0.5234989529999999
 20
-2.554994125000001
 30
0.0
 11
-0.523498953
 21
-2.937494125
 31
0.0
  0
LINE
  5
1F8
330
1A0
100
AcDbEntity
  8
AM_4
100
AcDbLine
 10
0.8028174000000002
 20
-2.937494125
 30
0.0
 11
0.5234989530000004
 21
-2.937494125
 31
0.0
  0
LINE
  5
1F9
330
1A0
100
AcDbEntity
  8
AM_4
100
AcDbLine
 10
0.8421875000000003
 20
-2.898124025
 30
0.0
 11
0.8028174000000002
 21
-2.937494125
 31
0.0
  0
LINE
  5
1FA
330
1A0
100
AcDbEntity
  8
AM_4
100
AcDbLine
 10
0.5234989530000004
 20
-2.874999999999999
 30
0.0
 11
0.8421875000000003
 21
-2.874999999999999
 31
0.0
  0
LINE
  5
1FB
330
1A0
100
AcDbEntity
  8
AM_4
100
AcDbLine
 10
0.8421875000000003
 20
2.898124025
 30
0.0
 11
0.8421875000000003
 21
2.554994125
 31
0.0
  0
LINE
  5
1FC
330
1A0
100
AcDbEntity
  8
AM_4
100
AcDbLine
 10
0.5234989530000002
 20
2.554994125
 30
0.0
 11
0.5234989530000004
 21
2.937494125
 31
0.0
  0
LINE
  5
1FD
330
1A0
100
AcDbEntity
  8
AM_4
100
AcDbLine
 10
0.8028174000000002
 20
2.937494125
 30
0.0
 11
0.8421875000000003
 21
2.898124025
 31
0.0
  0
LINE
  5
1FE
330
1A0
100
AcDbEntity
  8
AM_4
100
AcDbLine
 10
0.5234989530000004
 20
2.937494125
 30
0.0
 11
0.8028174000000001
 21
2.937494125
 31
0.0
  0
LINE
  5
1FF
330
1A0
100
AcDbEntity
  8
AM_4
100
AcDbLine
 10
-0.8028174
 20
-2.937494125
 30
0.0
 11
-0.8421875
 21
-2.898124025
 31
0.0
  0
LINE
  5
200
330
1A0
100
AcDbEntity
  8
AM_4
100
AcDbLine
 10
-0.523498953
 20
-2.937494125
 30
0.0
 11
-0.8028173999999998
 21
-2.937494125
 31
0.0
  0
LINE
  5
201
330
1A0
100
AcDbEntity
  8
AM_4
100
AcDbLine
 10
-0.8421875
 20
-2.874999999999999
 30
0.0
 11
-0.523498953
 21
-2.874999999999999
 31
0.0
  0
LINE
  5
202
330
1A0
100
AcDbEntity
  8
AM_4
100
AcDbLine
 10
0.8421875000000003
 20
2.554994125
 30
0.0
 11
0.7273445156250005
 21
2.436884125000001
 31
0.0
  0
LINE
  5
203
330
1A0
100
AcDbEntity
  8
AM_4
100
AcDbLine
 10
-0.7273445156249999
 20
2.436884125
 30
0.0
 11
-0.8421875
 21
2.554994125
 31
0.0
  0
LINE
  5
204
330
1A0
100
AcDbEntity
  8
AM_4
100
AcDbLine
 10
-0.5234989529999999
 20
2.554994125
 30
0.0
 11
0.5234989530000002
 21
2.554994125
 31
0.0
  0
LINE
  5
205
330
1A0
100
AcDbEntity
  8
AM_4
100
AcDbLine
 10
0.5234989530000004
 20
2.875
 30
0.0
 11
0.8421875000000003
 21
2.875
 31
0.0
  0
LINE
  5
206
330
1A0
100
AcDbEntity
  8
AM_4
100
AcDbLine
 10
-0.8421875
 20
2.875
 30
0.0
 11
-0.523498953
 21
2.875
 31
0.0
  0
LINE
  5
207
330
1A0
100
AcDbEntity
  8
AM_4
100
AcDbLine
 10
-0.7273445156249997
 20
2.125000000000001
 30
0.0
 11
0.7273445156249999
 21
2.125000000000001
 31
0.0
  0
LINE
  5
208
330
1A0
100
AcDbEntity
  8
AM_4
100
AcDbLine
 10
-0.7273445156249997
 20
-2.125
 30
0.0
 11
0.7273445156249999
 21
-2.125
 31
0.0
  0
LINE
  5
209
330
1A0
100
AcDbEntity
  8
AM_4
100
AcDbLine
 10
0.7273445156250004
 20
-1.016594169566442
 30
0.0
 11
0.7273445156250002
 21
-2.436884125
 31
0.0
  0
LINE
  5
20A
330
1A0
100
AcDbEntity
  8
AM_4
100
AcDbLine
 10
0.7273445156250005
 20
2.436884125000001
 30
0.0
 11
0.7273445156250004
 21
1.016594169566442
 31
0.0
  0
LINE
  5
20B
330
1A0
100
AcDbEntity
  8
AM_4
100
AcDbLine
 10
-0.7273445156249998
 20
1.016594169566442
 30
0.0
 11
-0.7273445156249999
 21
2.436884125
 31
0.0
  0
LINE
  5
20C
330
1A0
100
AcDbEntity
  8
AM_4
100
AcDbLine
 10
-0.7273445156250002
 20
-2.436884125000001
 30
0.0
 11
-0.7273445156249998
 21
-1.016594169566442
 31
0.0
  0
ARC
  5
20D
330
1A0
100
AcDbEntity
  8
AM_4
100
AcDbCircle
 10
-0.0000000000000002
 20
0.0000000000000001
 30
0.0
 40
1.249997500000001
100
AcDbArc
 50
305.5826536341262
 51
54.41734636587371
  0
CIRCLE
  5
20E
330
1A0
100
AcDbEntity
  8
AM_4
100
AcDbCircle
 10
0.0000000000000003
 20
0.0
 30
0.0
 40
0.62499875
  0
ARC
  5
20F
330
1A0
100
AcDbEntity
  8
AM_4
100
AcDbCircle
 10
0.0000000000000003
 20
0.0000000000000002
 30
0.0
 40
1.2499975
100
AcDbArc
 50
125.5826536341263
 51
234.4173463658737
  0
LINE
  5
210
330
1A0
100
AcDbEntity
  8
AM_4
100
AcDbLine
 10
-0.7273445156249996
 20
1.875
 30
0.0
 11
0.7273445156250001
 21
1.875
 31
0.0
  0
LINE
  5
211
330
1A0
100
AcDbEntity
  8
AM_4
100
AcDbLine
 10
-0.7273445156249996
 20
2.0
 30
0.0
 11
0.7273445156250001
 21
2.0
 31
0.0
  0
LINE
  5
212
330
1A0
100
AcDbEntity
  8
AM_4
100
AcDbLine
 10
-0.7273445156249996
 20
-2.0
 30
0.0
 11
0.7273445156250001
 21
-2.0
 31
0.0
  0
LINE
  5
213
330
1A0
100
AcDbEntity
  8
AM_4
100
AcDbLine
 10
-0.7273445156249996
 20
-1.874999998137354
 30
0.0
 11
0.7273445156250001
 21
-1.874999998137354
 31
0.0
  0
ENDBLK
  5
1A3
330
1A0
100
AcDbEntity
  8
0
100
AcDbBlockEnd
  0
ENDSEC
  0
SECTION
  2
ENTITIES
  0
INSERT
  5
6F
330
1F
100
AcDbEntity
  8
0
100
AcDbBlockReference
  2
1_136180_2
 10
0.0
 20
0.0
 30
0.0
  0
POINT
  5
215
330
1F
100
AcDbEntity
  8
ConnectionPoints
100
AcDbPoint
 10
0.0
 20
0.0
 30
0.0
  0
POINT
  5
216
330
1F
100
AcDbEntity
  8
ConnectionPoints
100
AcDbPoint
 10
0.0
 20
0.0
 30
0.0
  0
POINT
  5
217
330
1F
100
AcDbEntity
  8
ConnectionPoints
100
AcDbPoint
 10
0.765625
 20
0.0
 30
0.0
  0
POINT
  5
218
330
1F
100
AcDbEntity
  8
ConnectionPoints
100
AcDbPoint
 10
0.0
 20
0.0
 30
0.0
  0
POINT
  5
219
330
1F
100
AcDbEntity
  8
ConnectionPoints
100
AcDbPoint
 10
0.0
 20
0.0
 30
0.0
  0
POINT
  5
21A
330
1F
100
AcDbEntity
  8
ConnectionPoints
100
AcDbPoint
 10
0.0
 20
0.0
 30
0.0
  0
POINT
  5
21B
330
1F
100
AcDbEntity
  8
ConnectionPoints
100
AcDbPoint
 10
-0.0000000000000002
 20
-1.45625
 30
-2.522298988522178
  0
POINT
  5
21C
330
1F
100
AcDbEntity
  8
ConnectionPoints
100
AcDbPoint
 10
-0.765625
 20
0.0
 30
0.0
  0
ENDSEC
  0
SECTION
  2
OBJECTS
  0
DICTIONARY
  5
C
330
0
100
AcDbDictionary
281
     1
  3
ACAD_DETAILVIEWSTYLE
350
224
  3
ACAD_GROUP
350
D
  3
ACAD_LAYOUT
350
1A
  3
ACAD_MATERIAL
350
43
  3
ACAD_MLEADERSTYLE
350
6B
  3
ACAD_MLINESTYLE
350
17
  3
ACAD_PLOTSETTINGS
350
19
  3
ACAD_PLOTSTYLENAME
350
E
  3
ACAD_SCALELIST
350
47
  3
ACAD_SECTIONVIEWSTYLE
350
225
  3
ACAD_TABLESTYLE
350
69
  3
ACAD_VISUALSTYLE
350
2A
  3
ACDB_RECOMPOSE_DATA
350
221
  3
AcDbVariableDictionary
350
21D
  0
SUN
  5
6D
330
29
100
AcDbSun
 90
        1
290
     0
 63
     7
421
 16777215
 40
1.0
291
     1
 91
  2455826
 92
 54000000
292
     0
 70
     2
 71
   256
280
     1
  0
DICTIONARY
  5
224
102
{ACAD_REACTORS
330
C
102
}
330
C
100
AcDbDictionary
281
     1
  0
DICTIONARY
  5
D
102
{ACAD_REACTORS
330
C
102
}
330
C
100
AcDbDictionary
281
     1
  0
DICTIONARY
  5
1A
102
{ACAD_REACTORS
330
C
102
}
330
C
100
AcDbDictionary
281
     1
  3
Layout1
350
1E
  3
Layout2
350
26
  3
Model
350
22
  0
DICTIONARY
  5
43
102
{ACAD_REACTORS
330
C
102
}
330
C
100
AcDbDictionary
281
     1
  3
ByBlock
350
45
  3
ByLayer
350
44
  3
Global
350
46
  0
DICTIONARY
  5
6B
102
{ACAD_REACTORS
330
C
102
}
330
C
100
AcDbDictionary
281
     1
  3
Standard
350
6C
  0
DICTIONARY
  5
17
102
{ACAD_REACTORS
330
C
102
}
330
C
100
AcDbDictionary
281
     1
  3
Standard
350
18
  0
DICTIONARY
  5
19
102
{ACAD_REACTORS
330
C
102
}
330
C
100
AcDbDictionary
281
     1
  0
ACDBDICTIONARYWDFLT
  5
E
102
{ACAD_REACTORS
330
C
102
}
330
C
100
AcDbDictionary
281
     1
  3
Normal
350
F
100
AcDbDictionaryWithDefault
340
F
  0
DICTIONARY
  5
47
102
{ACAD_REACTORS
330
C
102
}
330
C
100
AcDbDictionary
281
     1
  3
A0
350
48
  3
A1
350
49
  3
A2
350
4A
  3
A3
350
4B
  3
A4
350
4C
  3
A5
350
4D
  3
A6
350
4E
  3
A7
350
4F
  3
A8
350
50
  3
A9
350
51
  3
B0
350
52
  3
B1
350
53
  3
B2
350
54
  3
B3
350
55
  3
B4
350
56
  3
B5
350
57
  3
B6
350
58
  3
B7
350
59
  3
B8
350
5A
  3
B9
350
5B
  3
C0
350
5C
  3
C1
350
5D
  3
C2
350
5E
  3
C3
350
5F
  3
C4
350
60
  3
C5
350
61
  3
C6
350
62
  3
C7
350
63
  3
C8
350
64
  3
C9
350
65
  3
D0
350
66
  3
D1
350
67
  3
D2
350
68
  0
DICTIONARY
  5
225
102
{ACAD_REACTORS
330
C
102
}
330
C
100
AcDbDictionary
281
     1
  0
DICTIONARY
  5
69
102
{ACAD_REACTORS
330
C
102
}
330
C
100
AcDbDictionary
281
     1
  3
Standard
350
6A
  0
DICTIONARY
  5
2A
102
{ACAD_REACTORS
330
C
102
}
330
C
100
AcDbDictionary
281
     1
  3
2dWireframe
350
2F
  3
Basic
350
32
  3
Brighten
350
36
  3
ColorChange
350
3A
  3
Conceptual
350
34
  3
Dim
350
35
  3
EdgeColorOff
350
3D
  3
Facepattern
350
39
  3
Flat
350
2B
  3
FlatWithEdges
350
2C
  3
Gouraud
350
2D
  3
GouraudWithEdges
350
2E
  3
Hidden
350
31
  3
JitterOff
350
3B
  3
Linepattern
350
38
  3
OverhangOff
350
3C
  3
Realistic
350
33
  3
Shaded
350
42
  3
Shaded with edges
350
41
  3
Shades of Gray
350
3E
  3
Sketchy
350
3F
  3
Thicken
350
37
  3
Wireframe
350
30
  3
X-Ray
350
40
  0
XRECORD
  5
221
102
{ACAD_REACTORS
330
C
102
}
330
C
100
AcDbXrecord
280
     1
 90
        1
330
6A
  0
DICTIONARY
  5
21D
102
{ACAD_REACTORS
330
C
102
}
330
C
100
AcDbDictionary
281
     1
  3
CANNOSCALE
350
21E
  3
CMLEADERSTYLE
350
223
  3
CTABLESTYLE
350
222
  0
LAYOUT
  5
1E
102
{ACAD_REACTORS
330
1A
102
}
330
1A
100
AcDbPlotSettings
  1

  2
none_device
  4

  6

 40
0.0
 41
0.0
 42
0.0
 43
0.0
 44
0.0
 45
0.0
 46
0.0
 47
0.0
 48
0.0
 49
0.0
140
0.0
141
0.0
142
1.0
143
1.0
 70
   688
 72
     0
 73
     0
 74
     5
  7

 75
    16
 76
     0
 77
     2
 78
   300
147
1.0
148
0.0
149
0.0
100
AcDbLayout
  1
Layout1
 70
     1
 71
     1
 10
0.0
 20
0.0
 11
12.0
 21
9.0
 12
0.0
 22
0.0
 32
0.0
 14
1.000000000000000E+20
 24
1.000000000000000E+20
 34
1.000000000000000E+20
 15
-1.000000000000000E+20
 25
-1.000000000000000E+20
 35
-1.000000000000000E+20
146
0.0
 13
0.0
 23
0.0
 33
0.0
 16
1.0
 26
0.0
 36
0.0
 17
0.0
 27
1.0
 37
0.0
 76
     0
330
1B
  0
LAYOUT
  5
26
102
{ACAD_REACTORS
330
1A
102
}
330
1A
100
AcDbPlotSettings
  1

  2
none_device
  4

  6

 40
0.0
 41
0.0
 42
0.0
 43
0.0
 44
0.0
 45
0.0
 46
0.0
 47
0.0
 48
0.0
 49
0.0
140
0.0
141
0.0
142
1.0
143
1.0
 70
   688
 72
     0
 73
     0
 74
     5
  7

 75
    16
 76
     0
 77
     2
 78
   300
147
1.0
148
0.0
149
0.0
100
AcDbLayout
  1
Layout2
 70
     1
 71
     2
 10
0.0
 20
0.0
 11
0.0
 21
0.0
 12
0.0
 22
0.0
 32
0.0
 14
0.0
 24
0.0
 34
0.0
 15
0.0
 25
0.0
 35
0.0
146
0.0
 13
0.0
 23
0.0
 33
0.0
 16
1.0
 26
0.0
 36
0.0
 17
0.0
 27
1.0
 37
0.0
 76
     0
330
23
  0
LAYOUT
  5
22
102
{ACAD_REACTORS
330
1A
102
}
330
1A
100
AcDbPlotSettings
  1

  2
none_device
  4
Letter_(8.50_x_11.00_Inches)
  6

 40
6.35
 41
6.35
 42
6.35000508
 43
6.35000508
 44
215.9
 45
279.4
 46
0.0
 47
0.0
 48
0.0
 49
0.0
140
0.0
141
0.0
142
1.0
143
1.0
 70
  1712
 72
     0
 73
     0
 74
     0
  7

 75
     0
 76
     0
 77
     2
 78
   300
147
1.0
148
0.0
149
0.0
100
AcDbLayout
  1
Model
 70
     1
 71
     0
 10
0.0
 20
0.0
 11
12.0
 21
9.0
 12
0.0
 22
0.0
 32
0.0
 14
1.000000000000000E+20
 24
1.000000000000000E+20
 34
1.000000000000000E+20
 15
-1.000000000000000E+20
 25
-1.000000000000000E+20
 35
-1.000000000000000E+20
146
0.0
 13
0.0
 23
0.0
 33
0.0
 16
1.0
 26
0.0
 36
0.0
 17
0.0
 27
1.0
 37
0.0
 76
     0
330
1F
331
29
  0
MATERIAL
  5
45
102
{ACAD_REACTORS
330
43
102
}
330
43
100
AcDbMaterial
  1
ByBlock
 72
     1
 94
      127
  0
MATERIAL
  5
44
102
{ACAD_REACTORS
330
43
102
}
330
43
100
AcDbMaterial
  1
ByLayer
 72
     1
 94
      127
  0
MATERIAL
  5
46
102
{ACAD_REACTORS
330
43
102
}
330
43
100
AcDbMaterial
  1
Global
 72
     1
 94
      127
  0
MLEADERSTYLE
  5
6C
102
{ACAD_REACTORS
330
6B
102
}
330
6B
100
AcDbMLeaderStyle
179
     2
170
     2
171
     1
172
     0
 90
        2
 40
0.0
 41
0.0
173
     1
 91
-1056964608
340
14
 92
       -2
290
     1
 42
0.09
291
     1
 43
0.36
  3
Standard
341
0
 44
0.18
300

342
11
174
     1
178
     6
175
     1
176
     0
 93
-1056964608
 45
0.18
292
     0
297
     0
 46
0.18
343
0
 94
-1056964608
 47
1.0
 49
1.0
140
1.0
293
     1
141
0.0
294
     1
177
     0
142
1.0
295
     0
296
     0
143
0.125
271
     0
272
     9
273
     9
298
     0
  0
MLINESTYLE
  5
18
102
{ACAD_REACTORS
330
17
102
}
330
17
100
AcDbMlineStyle
  2
Standard
 70
     0
  3

 62
   256
 51
90.0
 52
90.0
 71
     2
 49
0.5
 62
   256
  6
BYLAYER
 49
-0.5
 62
   256
  6
BYLAYER
  0
ACDBPLACEHOLDER
  5
F
102
{ACAD_REACTORS
330
E
102
}
330
E
  0
SCALE
  5
48
102
{ACAD_REACTORS
330
47
102
}
330
47
100
AcDbScale
 70
     0
300
1:1
140
1.0
141
1.0
290
     1
  0
SCALE
  5
49
102
{ACAD_REACTORS
330
47
102
}
330
47
100
AcDbScale
 70
     0
300
1:2
140
1.0
141
2.0
290
     0
  0
SCALE
  5
4A
102
{ACAD_REACTORS
330
47
102
}
330
47
100
AcDbScale
 70
     0
300
1:4
140
1.0
141
4.0
290
     0
  0
SCALE
  5
4B
102
{ACAD_REACTORS
330
47
102
}
330
47
100
AcDbScale
 70
     0
300
1:5
140
1.0
141
5.0
290
     0
  0
SCALE
  5
4C
102
{ACAD_REACTORS
330
47
102
}
330
47
100
AcDbScale
 70
     0
300
1:8
140
1.0
141
8.0
290
     0
  0
SCALE
  5
4D
102
{ACAD_REACTORS
330
47
102
}
330
47
100
AcDbScale
 70
     0
300
1:10
140
1.0
141
10.0
290
     0
  0
SCALE
  5
4E
102
{ACAD_REACTORS
330
47
102
}
330
47
100
AcDbScale
 70
     0
300
1:16
140
1.0
141
16.0
290
     0
  0
SCALE
  5
4F
102
{ACAD_REACTORS
330
47
102
}
330
47
100
AcDbScale
 70
     0
300
1:20
140
1.0
141
20.0
290
     0
  0
SCALE
  5
50
102
{ACAD_REACTORS
330
47
102
}
330
47
100
AcDbScale
 70
     0
300
1:30
140
1.0
141
30.0
290
     0
  0
SCALE
  5
51
102
{ACAD_REACTORS
330
47
102
}
330
47
100
AcDbScale
 70
     0
300
1:40
140
1.0
141
40.0
290
     0
  0
SCALE
  5
52
102
{ACAD_REACTORS
330
47
102
}
330
47
100
AcDbScale
 70
     0
300
1:50
140
1.0
141
50.0
290
     0
  0
SCALE
  5
53
102
{ACAD_REACTORS
330
47
102
}
330
47
100
AcDbScale
 70
     0
300
1:100
140
1.0
141
100.0
290
     0
  0
SCALE
  5
54
102
{ACAD_REACTORS
330
47
102
}
330
47
100
AcDbScale
 70
     0
300
2:1
140
2.0
141
1.0
290
     0
  0
SCALE
  5
55
102
{ACAD_REACTORS
330
47
102
}
330
47
100
AcDbScale
 70
     0
300
4:1
140
4.0
141
1.0
290
     0
  0
SCALE
  5
56
102
{ACAD_REACTORS
330
47
102
}
330
47
100
AcDbScale
 70
     0
300
8:1
140
8.0
141
1.0
290
     0
  0
SCALE
  5
57
102
{ACAD_REACTORS
330
47
102
}
330
47
100
AcDbScale
 70
     0
300
10:1
140
10.0
141
1.0
290
     0
  0
SCALE
  5
58
102
{ACAD_REACTORS
330
47
102
}
330
47
100
AcDbScale
 70
     0
300
100:1
140
100.0
141
1.0
290
     0
  0
SCALE
  5
59
102
{ACAD_REACTORS
330
47
102
}
330
47
100
AcDbScale
 70
     0
300
1/128" = 1'-0"
140
0.0078125
141
12.0
290
     0
  0
SCALE
  5
5A
102
{ACAD_REACTORS
330
47
102
}
330
47
100
AcDbScale
 70
     0
300
1/64" = 1'-0"
140
0.015625
141
12.0
290
     0
  0
SCALE
  5
5B
102
{ACAD_REACTORS
330
47
102
}
330
47
100
AcDbScale
 70
     0
300
1/32" = 1'-0"
140
0.03125
141
12.0
290
     0
  0
SCALE
  5
5C
102
{ACAD_REACTORS
330
47
102
}
330
47
100
AcDbScale
 70
     0
300
1/16" = 1'-0"
140
0.0625
141
12.0
290
     0
  0
SCALE
  5
5D
102
{ACAD_REACTORS
330
47
102
}
330
47
100
AcDbScale
 70
     0
300
3/32" = 1'-0"
140
0.09375
141
12.0
290
     0
  0
SCALE
  5
5E
102
{ACAD_REACTORS
330
47
102
}
330
47
100
AcDbScale
 70
     0
300
1/8" = 1'-0"
140
0.125
141
12.0
290
     0
  0
SCALE
  5
5F
102
{ACAD_REACTORS
330
47
102
}
330
47
100
AcDbScale
 70
     0
300
3/16" = 1'-0"
140
0.1875
141
12.0
290
     0
  0
SCALE
  5
60
102
{ACAD_REACTORS
330
47
102
}
330
47
100
AcDbScale
 70
     0
300
1/4" = 1'-0"
140
0.25
141
12.0
290
     0
  0
SCALE
  5
61
102
{ACAD_REACTORS
330
47
102
}
330
47
100
AcDbScale
 70
     0
300
3/8" = 1'-0"
140
0.375
141
12.0
290
     0
  0
SCALE
  5
62
102
{ACAD_REACTORS
330
47
102
}
330
47
100
AcDbScale
 70
     0
300
1/2" = 1'-0"
140
0.5
141
12.0
290
     0
  0
SCALE
  5
63
102
{ACAD_REACTORS
330
47
102
}
330
47
100
AcDbScale
 70
     0
300
3/4" = 1'-0"
140
0.75
141
12.0
290
     0
  0
SCALE
  5
64
102
{ACAD_REACTORS
330
47
102
}
330
47
100
AcDbScale
 70
     0
300
1" = 1'-0"
140
1.0
141
12.0
290
     0
  0
SCALE
  5
65
102
{ACAD_REACTORS
330
47
102
}
330
47
100
AcDbScale
 70
     0
300
1-1/2" = 1'-0"
140
1.5
141
12.0
290
     0
  0
SCALE
  5
66
102
{ACAD_REACTORS
330
47
102
}
330
47
100
AcDbScale
 70
     0
300
3" = 1'-0"
140
3.0
141
12.0
290
     0
  0
SCALE
  5
67
102
{ACAD_REACTORS
330
47
102
}
330
47
100
AcDbScale
 70
     0
300
6" = 1'-0"
140
6.0
141
12.0
290
     0
  0
SCALE
  5
68
102
{ACAD_REACTORS
330
47
102
}
330
47
100
AcDbScale
 70
     0
300
1'-0" = 1'-0"
140
12.0
141
12.0
290
     0
  0
TABLESTYLE
  5
6A
102
{ACAD_REACTORS
330
69
102
}
102
{ACAD_XDICTIONARY
360
21F
102
}
330
69
100
AcDbTableStyle
  3
Standard
 70
     0
 71
     0
 40
0.06
 41
0.06
280
     0
281
     0
  7
Standard
140
0.18
170
     2
 62
     0
 63
   257
283
     0
 90
        4
 91
        0
  1

274
    -2
284
     1
 64
     0
275
    -2
285
     1
 65
     0
276
    -2
286
     1
 66
     0
277
    -2
287
     1
 67
     0
278
    -2
288
     1
 68
     0
279
    -2
289
     1
 69
     0
  7
Standard
140
0.25
170
     5
 62
     0
 63
   257
283
     0
 90
        4
 91
        0
  1

274
    -2
284
     1
 64
     0
275
    -2
285
     1
 65
     0
276
    -2
286
     1
 66
     0
277
    -2
287
     1
 67
     0
278
    -2
288
     1
 68
     0
279
    -2
289
     1
 69
     0
  7
Standard
140
0.18
170
     5
 62
     0
 63
   257
283
     0
 90
        4
 91
        0
  1

274
    -2
284
     1
 64
     0
275
    -2
285
     1
 65
     0
276
    -2
286
     1
 66
     0
277
    -2
287
     1
 67
     0
278
    -2
288
     1
 68
     0
279
    -2
289
     1
 69
     0
  0
VISUALSTYLE
  5
2F
102
{ACAD_REACTORS
330
2A
102
}
330
2A
100
AcDbVisualStyle
  2
2dWireframe
 70
     4
177
     3
291
     0
 70
    58
 90
        0
176
     1
 90
        2
176
     1
 90
        0
176
     1
 90
        0
176
     1
 40
0.6
176
     1
 40
30.0
176
     1
 62
     7
420
 16777215
176
     1
 90
        1
176
     1
 90
        4
176
     1
 62
     7
176
     1
 62
   257
176
     1
 90
        1
176
     1
 90
        1
176
     1
 40
1.0
176
     1
 90
        0
176
     1
 62
   257
176
     1
 40
1.0
176
     1
 90
        1
176
     1
 90
        6
176
     1
 90
        2
176
     1
 62
     7
176
     1
 90
        5
176
     1
 90
        0
176
     1
 90
        0
176
     1
290
     0
176
     1
 90
        1
176
     1
 40
0.0
176
     1
 90
        0
176
     1
290
     1
176
     1
290
     1
176
     1
290
     0
176
     1
290
     0
176
     1
290
     0
176
     1
290
     0
176
     1
290
     0
176
     1
290
     0
176
     1
290
     0
176
     1
 90
       50
176
     1
 40
0.0
176
     1
 40
1.0
176
     1
 90
        0
176
     1
 62
    18
420
        0
176
     1
 90
       50
176
     1
 90
        3
176
     1
 62
     5
420
      255
176
     1
290
     0
176
     1
 90
       50
176
     1
 90
       50
176
     1
 90
       50
176
     1
290
     0
176
     1
 90
       50
176
     1
 62
   256
176
     0
 40
1.0
176
     0
 90
        2
176
     1
  1
strokes_ogs.tif
176
     1
290
     0
176
     1
 40
1.0
176
     1
 40
1.0
176
     1
  0
VISUALSTYLE
  5
32
102
{ACAD_REACTORS
330
2A
102
}
330
2A
100
AcDbVisualStyle
  2
Basic
 70
     7
177
     3
291
     1
 70
    58
 90
        1
176
     1
 90
        0
176
     1
 90
        1
176
     1
 90
        0
176
     1
 40
0.6
176
     1
 40
30.0
176
     1
 62
     7
420
 16777215
176
     1
 90
        0
176
     1
 90
        4
176
     1
 62
     7
176
     1
 62
   257
176
     1
 90
        1
176
     1
 90
        1
176
     1
 40
1.0
176
     1
 90
        8
176
     1
 62
     7
176
     1
 40
1.0
176
     1
 90
        1
176
     1
 90
        6
176
     1
 90
        2
176
     1
 62
     7
176
     1
 90
        5
176
     1
 90
        0
176
     1
 90
        0
176
     1
290
     0
176
     1
 90
        1
176
     1
 40
0.0
176
     1
 90
        0
176
     1
290
     0
176
     1
290
     1
176
     1
290
     1
176
     1
290
     0
176
     1
290
     0
176
     1
290
     0
176
     1
290
     0
176
     1
290
     0
176
     1
290
     0
176
     1
 90
       50
176
     1
 40
0.0
176
     1
 40
1.0
176
     1
 90
        0
176
     1
 62
    18
420
        0
176
     1
 90
       50
176
     1
 90
        3
176
     1
 62
     5
420
      255
176
     1
290
     0
176
     1
 90
       50
176
     1
 90
       50
176
     1
 90
       50
176
     1
290
     0
176
     1
 90
       50
176
     1
 62
   256
176
     0
 40
1.0
176
     0
 90
        2
176
     1
  1
strokes_ogs.tif
176
     1
290
     0
176
     1
 40
1.0
176
     1
 40
1.0
176
     1
  0
VISUALSTYLE
  5
36
102
{ACAD_REACTORS
330
2A
102
}
330
2A
100
AcDbVisualStyle
  2
Brighten
 70
    12
177
     3
291
     1
 70
    58
 90
        2
176
     1
 90
        2
176
     1
 90
        0
176
     1
 90
        0
176
     1
 40
0.6
176
     1
 40
30.0
176
     1
 62
     7
420
 16777215
176
     1
 90
        1
176
     1
 90
        4
176
     1
 62
     7
176
     1
 62
   257
176
     1
 90
        1
176
     1
 90
        1
176
     1
 40
1.0
176
     1
 90
        8
176
     1
 62
     7
176
     1
 40
1.0
176
     1
 90
        1
176
     1
 90
        6
176
     1
 90
        2
176
     1
 62
     7
176
     1
 90
        5
176
     1
 90
        0
176
     1
 90
        0
176
     1
290
     0
176
     1
 90
        1
176
     1
 40
50.0
176
     1
 90
        0
176
     1
290
     0
176
     1
290
     1
176
     1
290
     1
176
     1
290
     0
176
     1
290
     0
176
     1
290
     0
176
     1
290
     0
176
     1
290
     0
176
     1
290
     0
176
     1
 90
       50
176
     1
 40
0.0
176
     1
 40
1.0
176
     1
 90
        0
176
     1
 62
    18
420
        0
176
     1
 90
       50
176
     1
 90
        3
176
     1
 62
     5
420
      255
176
     1
290
     0
176
     1
 90
       50
176
     1
 90
       50
176
     1
 90
       50
176
     1
290
     0
176
     1
 90
       50
176
     1
 62
   256
176
     0
 40
1.0
176
     0
 90
        2
176
     1
  1
strokes_ogs.tif
176
     1
290
     0
176
     1
 40
1.0
176
     1
 40
1.0
176
     1
  0
VISUALSTYLE
  5
3A
102
{ACAD_REACTORS
330
2A
102
}
330
2A
100
AcDbVisualStyle
  2
ColorChange
 70
    16
177
     3
291
     1
 70
    58
 90
        2
176
     1
 90
        2
176
     1
 90
        3
176
     1
 90
        0
176
     1
 40
0.6
176
     1
 40
30.0
176
     1
 62
     8
420
  8421504
176
     1
 90
        1
176
     1
 90
        4
176
     1
 62
     7
176
     1
 62
   257
176
     1
 90
        1
176
     1
 90
        1
176
     1
 40
1.0
176
     1
 90
        8
176
     1
 62
     8
420
  8421504
176
     1
 40
1.0
176
     1
 90
        1
176
     1
 90
        6
176
     1
 90
        2
176
     1
 62
     7
176
     1
 90
        5
176
     1
 90
        0
176
     1
 90
        0
176
     1
290
     0
176
     1
 90
        1
176
     1
 40
0.0
176
     1
 90
        0
176
     1
290
     0
176
     1
290
     1
176
     1
290
     1
176
     1
290
     0
176
     1
290
     0
176
     1
290
     0
176
     1
290
     0
176
     1
290
     0
176
     1
290
     0
176
     1
 90
       50
176
     1
 40
0.0
176
     1
 40
1.0
176
     1
 90
        0
176
     1
 62
    18
420
        0
176
     1
 90
       50
176
     1
 90
        3
176
     1
 62
     5
420
      255
176
     1
290
     0
176
     1
 90
       50
176
     1
 90
       50
176
     1
 90
       50
176
     1
290
     0
176
     1
 90
       50
176
     1
 62
   256
176
     0
 40
1.0
176
     0
 90
        2
176
     1
  1
strokes_ogs.tif
176
     1
290
     0
176
     1
 40
1.0
176
     1
 40
1.0
176
     1
  0
VISUALSTYLE
  5
34
102
{ACAD_REACTORS
330
2A
102
}
330
2A
100
AcDbVisualStyle
  2
Conceptual
 70
     9
177
     3
291
     0
 70
    58
 90
        3
176
     1
 90
        2
176
     1
 90
        0
176
     1
 90
        0
176
     1
 40
0.6
176
     1
 40
30.0
176
     1
 62
     7
420
 16777215
176
     1
 90
        2
176
     1
 90
        2
176
     1
 62
     7
176
     1
 62
   257
176
     1
 90
        1
176
     1
 90
        1
176
     1
 40
179.0
176
     1
 90
        8
176
     1
 62
     7
176
     1
 40
1.0
176
     1
 90
        1
176
     1
 90
        6
176
     1
 90
        2
176
     1
 62
     7
176
     1
 90
        3
176
     1
 90
        0
176
     1
 90
        0
176
     1
290
     0
176
     1
 90
        1
176
     1
 40
0.0
176
     1
 90
        0
176
     1
290
     0
176
     1
290
     1
176
     1
290
     1
176
     1
290
     0
176
     1
290
     0
176
     1
290
     0
176
     1
290
     0
176
     1
290
     0
176
     1
290
     0
176
     1
 90
       50
176
     1
 40
0.0
176
     1
 40
1.0
176
     1
 90
        0
176
     1
 62
    18
420
        0
176
     1
 90
       50
176
     1
 90
        3
176
     1
 62
     5
420
      255
176
     1
290
     0
176
     1
 90
       50
176
     1
 90
       50
176
     1
 90
       50
176
     1
290
     0
176
     1
 90
       50
176
     1
 62
   256
176
     0
 40
1.0
176
     0
 90
        2
176
     1
  1
strokes_ogs.tif
176
     1
290
     0
176
     1
 40
1.0
176
     1
 40
1.0
176
     1
  0
VISUALSTYLE
  5
35
102
{ACAD_REACTORS
330
2A
102
}
330
2A
100
AcDbVisualStyle
  2
Dim
 70
    11
177
     3
291
     1
 70
    58
 90
        2
176
     1
 90
        2
176
     1
 90
        0
176
     1
 90
        0
176
     1
 40
0.6
176
     1
 40
30.0
176
     1
 62
     7
420
 16777215
176
     1
 90
        1
176
     1
 90
        4
176
     1
 62
     7
176
     1
 62
   257
176
     1
 90
        1
176
     1
 90
        1
176
     1
 40
1.0
176
     1
 90
        8
176
     1
 62
     7
176
     1
 40
1.0
176
     1
 90
        1
176
     1
 90
        6
176
     1
 90
        2
176
     1
 62
     7
176
     1
 90
        5
176
     1
 90
        0
176
     1
 90
        0
176
     1
290
     0
176
     1
 90
        1
176
     1
 40
-50.0
176
     1
 90
        0
176
     1
290
     0
176
     1
290
     1
176
     1
290
     1
176
     1
290
     0
176
     1
290
     0
176
     1
290
     0
176
     1
290
     0
176
     1
290
     0
176
     1
290
     0
176
     1
 90
       50
176
     1
 40
0.0
176
     1
 40
1.0
176
     1
 90
        0
176
     1
 62
    18
420
        0
176
     1
 90
       50
176
     1
 90
        3
176
     1
 62
     5
420
      255
176
     1
290
     0
176
     1
 90
       50
176
     1
 90
       50
176
     1
 90
       50
176
     1
290
     0
176
     1
 90
       50
176
     1
 62
   256
176
     0
 40
1.0
176
     0
 90
        2
176
     1
  1
strokes_ogs.tif
176
     1
290
     0
176
     1
 40
1.0
176
     1
 40
1.0
176
     1
  0
VISUALSTYLE
  5
3D
102
{ACAD_REACTORS
330
2A
102
}
330
2A
100
AcDbVisualStyle
  2
EdgeColorOff
 70
    22
177
     3
291
     1
 70
    58
 90
        2
176
     0
 90
        2
176
     0
 90
        0
176
     0
 90
        0
176
     0
 40
0.6
176
     0
 40
30.0
176
     0
 62
     7
420
 16777215
176
     0
 90
        1
176
     0
 90
        4
176
     0
 62
     7
176
     0
 62
   257
176
     0
 90
        1
176
     0
 90
        1
176
     0
 40
1.0
176
     0
 90
        8
176
     2
 62
     7
176
     0
 40
1.0
176
     0
 90
        1
176
     0
 90
        6
176
     0
 90
        2
176
     0
 62
     7
176
     0
 90
        5
176
     0
 90
        0
176
     0
 90
        0
176
     0
290
     0
176
     0
 90
        1
176
     0
 40
0.0
176
     0
 90
        0
176
     0
290
     0
176
     0
290
     1
176
     0
290
     1
176
     0
290
     0
176
     0
290
     0
176
     0
290
     0
176
     0
290
     0
176
     0
290
     0
176
     0
290
     0
176
     0
 90
       50
176
     0
 40
0.0
176
     0
 40
1.0
176
     0
 90
        0
176
     0
 62
    18
420
        0
176
     0
 90
       50
176
     0
 90
        3
176
     0
 62
     5
420
      255
176
     0
290
     0
176
     0
 90
       50
176
     0
 90
       50
176
     0
 90
       50
176
     0
290
     0
176
     0
 90
       50
176
     0
 62
   256
176
     0
 40
1.0
176
     0
 90
        2
176
     0
  1
strokes_ogs.tif
176
     0
290
     0
176
     0
 40
1.0
176
     0
 40
1.0
176
     0
  0
VISUALSTYLE
  5
39
102
{ACAD_REACTORS
330
2A
102
}
330
2A
100
AcDbVisualStyle
  2
Facepattern
 70
    15
177
     3
291
     1
 70
    58
 90
        2
176
     1
 90
        2
176
     1
 90
        0
176
     1
 90
        0
176
     1
 40
0.6
176
     1
 40
30.0
176
     1
 62
     7
420
 16777215
176
     1
 90
        1
176
     1
 90
        4
176
     1
 62
     7
176
     1
 62
   257
176
     1
 90
        1
176
     1
 90
        1
176
     1
 40
1.0
176
     1
 90
        8
176
     1
 62
     7
176
     1
 40
1.0
176
     1
 90
        1
176
     1
 90
        6
176
     1
 90
        2
176
     1
 62
     7
176
     1
 90
        5
176
     1
 90
        0
176
     1
 90
        0
176
     1
290
     0
176
     1
 90
        1
176
     1
 40
0.0
176
     1
 90
        0
176
     1
290
     0
176
     1
290
     1
176
     1
290
     1
176
     1
290
     0
176
     1
290
     0
176
     1
290
     0
176
     1
290
     0
176
     1
290
     0
176
     1
290
     0
176
     1
 90
       50
176
     1
 40
0.0
176
     1
 40
1.0
176
     1
 90
        0
176
     1
 62
    18
420
        0
176
     1
 90
       50
176
     1
 90
        3
176
     1
 62
     5
420
      255
176
     1
290
     0
176
     1
 90
       50
176
     1
 90
       50
176
     1
 90
       50
176
     1
290
     0
176
     1
 90
       50
176
     1
 62
   256
176
     0
 40
1.0
176
     0
 90
        2
176
     1
  1
strokes_ogs.tif
176
     1
290
     0
176
     1
 40
1.0
176
     1
 40
1.0
176
     1
  0
VISUALSTYLE
  5
2B
102
{ACAD_REACTORS
330
2A
102
}
330
2A
100
AcDbVisualStyle
  2
Flat
 70
     0
177
     3
291
     1
 70
    58
 90
        2
176
     1
 90
        1
176
     1
 90
        1
176
     1
 90
        2
176
     1
 40
0.6
176
     1
 40
30.0
176
     1
 62
     7
420
 16777215
176
     1
 90
        0
176
     1
 90
        0
176
     1
 62
     7
176
     1
 62
   257
176
     1
 90
        1
176
     1
 90
        1
176
     1
 40
1.0
176
     1
 90
        8
176
     1
 62
     7
176
     1
 40
1.0
176
     1
 90
        1
176
     1
 90
        6
176
     1
 90
        2
176
     1
 62
     7
176
     1
 90
        5
176
     1
 90
        0
176
     1
 90
        0
176
     1
290
     0
176
     1
 90
       13
176
     1
 40
0.0
176
     1
 90
        0
176
     1
290
     0
176
     1
290
     1
176
     1
290
     1
176
     1
290
     0
176
     1
290
     0
176
     1
290
     0
176
     1
290
     0
176
     1
290
     0
176
     1
290
     0
176
     1
 90
       50
176
     1
 40
0.0
176
     1
 40
1.0
176
     1
 90
        0
176
     1
 62
    18
420
        0
176
     1
 90
       50
176
     1
 90
        3
176
     1
 62
     5
420
      255
176
     1
290
     0
176
     1
 90
       50
176
     1
 90
       50
176
     1
 90
       50
176
     1
290
     0
176
     1
 90
       50
176
     1
 62
   256
176
     0
 40
1.0
176
     0
 90
        2
176
     1
  1
strokes_ogs.tif
176
     1
290
     0
176
     1
 40
1.0
176
     1
 40
1.0
176
     1
  0
VISUALSTYLE
  5
2C
102
{ACAD_REACTORS
330
2A
102
}
330
2A
100
AcDbVisualStyle
  2
FlatWithEdges
 70
     1
177
     3
291
     1
 70
    58
 90
        2
176
     1
 90
        1
176
     1
 90
        1
176
     1
 90
        2
176
     1
 40
0.6
176
     1
 40
30.0
176
     1
 62
     7
420
 16777215
176
     1
 90
        1
176
     1
 90
        0
176
     1
 62
     7
176
     1
 62
   257
176
     1
 90
        1
176
     1
 90
        1
176
     1
 40
1.0
176
     1
 90
        0
176
     1
 62
   257
176
     1
 40
1.0
176
     1
 90
        1
176
     1
 90
        6
176
     1
 90
        2
176
     1
 62
     7
176
     1
 90
        5
176
     1
 90
        0
176
     1
 90
        0
176
     1
290
     0
176
     1
 90
       13
176
     1
 40
0.0
176
     1
 90
        0
176
     1
290
     0
176
     1
290
     1
176
     1
290
     1
176
     1
290
     0
176
     1
290
     0
176
     1
290
     0
176
     1
290
     0
176
     1
290
     0
176
     1
290
     0
176
     1
 90
       50
176
     1
 40
0.0
176
     1
 40
1.0
176
     1
 90
        0
176
     1
 62
    18
420
        0
176
     1
 90
       50
176
     1
 90
        3
176
     1
 62
     5
420
      255
176
     1
290
     0
176
     1
 90
       50
176
     1
 90
       50
176
     1
 90
       50
176
     1
290
     0
176
     1
 90
       50
176
     1
 62
   256
176
     0
 40
1.0
176
     0
 90
        2
176
     1
  1
strokes_ogs.tif
176
     1
290
     0
176
     1
 40
1.0
176
     1
 40
1.0
176
     1
  0
VISUALSTYLE
  5
2D
102
{ACAD_REACTORS
330
2A
102
}
330
2A
100
AcDbVisualStyle
  2
Gouraud
 70
     2
177
     3
291
     1
 70
    58
 90
        2
176
     1
 90
        2
176
     1
 90
        1
176
     1
 90
        2
176
     1
 40
0.6
176
     1
 40
30.0
176
     1
 62
     7
420
 16777215
176
     1
 90
        0
176
     1
 90
        0
176
     1
 62
     7
176
     1
 62
   257
176
     1
 90
        1
176
     1
 90
        1
176
     1
 40
1.0
176
     1
 90
        0
176
     1
 62
     7
176
     1
 40
1.0
176
     1
 90
        1
176
     1
 90
        6
176
     1
 90
        2
176
     1
 62
     7
176
     1
 90
        5
176
     1
 90
        0
176
     1
 90
        0
176
     1
290
     0
176
     1
 90
       13
176
     1
 40
0.0
176
     1
 90
        0
176
     1
290
     0
176
     1
290
     1
176
     1
290
     1
176
     1
290
     0
176
     1
290
     0
176
     1
290
     0
176
     1
290
     0
176
     1
290
     0
176
     1
290
     0
176
     1
 90
       50
176
     1
 40
0.0
176
     1
 40
1.0
176
     1
 90
        0
176
     1
 62
    18
420
        0
176
     1
 90
       50
176
     1
 90
        3
176
     1
 62
     5
420
      255
176
     1
290
     0
176
     1
 90
       50
176
     1
 90
       50
176
     1
 90
       50
176
     1
290
     0
176
     1
 90
       50
176
     1
 62
   256
176
     0
 40
1.0
176
     0
 90
        2
176
     1
  1
strokes_ogs.tif
176
     1
290
     0
176
     1
 40
1.0
176
     1
 40
1.0
176
     1
  0
VISUALSTYLE
  5
2E
102
{ACAD_REACTORS
330
2A
102
}
330
2A
100
AcDbVisualStyle
  2
GouraudWithEdges
 70
     3
177
     3
291
     1
 70
    58
 90
        2
176
     1
 90
        2
176
     1
 90
        1
176
     1
 90
        2
176
     1
 40
0.6
176
     1
 40
30.0
176
     1
 62
     7
420
 16777215
176
     1
 90
        1
176
     1
 90
        0
176
     1
 62
     7
176
     1
 62
   257
176
     1
 90
        1
176
     1
 90
        1
176
     1
 40
1.0
176
     1
 90
        0
176
     1
 62
   257
176
     1
 40
1.0
176
     1
 90
        1
176
     1
 90
        6
176
     1
 90
        2
176
     1
 62
     7
176
     1
 90
        5
176
     1
 90
        0
176
     1
 90
        0
176
     1
290
     0
176
     1
 90
       13
176
     1
 40
0.0
176
     1
 90
        0
176
     1
290
     0
176
     1
290
     1
176
     1
290
     1
176
     1
290
     0
176
     1
290
     0
176
     1
290
     0
176
     1
290
     0
176
     1
290
     0
176
     1
290
     0
176
     1
 90
       50
176
     1
 40
0.0
176
     1
 40
1.0
176
     1
 90
        0
176
     1
 62
    18
420
        0
176
     1
 90
       50
176
     1
 90
        3
176
     1
 62
     5
420
      255
176
     1
290
     0
176
     1
 90
       50
176
     1
 90
       50
176
     1
 90
       50
176
     1
290
     0
176
     1
 90
       50
176
     1
 62
   256
176
     0
 40
1.0
176
     0
 90
        2
176
     1
  1
strokes_ogs.tif
176
     1
290
     0
176
     1
 40
1.0
176
     1
 40
1.0
176
     1
  0
VISUALSTYLE
  5
31
102
{ACAD_REACTORS
330
2A
102
}
330
2A
100
AcDbVisualStyle
  2
Hidden
 70
     6
177
     3
291
     0
 70
    58
 90
        1
176
     1
 90
        2
176
     1
 90
        2
176
     1
 90
        0
176
     1
 40
0.6
176
     1
 40
30.0
176
     1
 62
     7
420
 16777215
176
     1
 90
        2
176
     1
 90
        2
176
     1
 62
     7
176
     1
 62
   257
176
     1
 90
        2
176
     1
 90
        1
176
     1
 40
40.0
176
     1
 90
        0
176
     1
 62
   257
176
     1
 40
1.0
176
     1
 90
        1
176
     1
 90
        6
176
     1
 90
        2
176
     1
 62
     7
176
     1
 90
        3
176
     1
 90
        0
176
     1
 90
        0
176
     1
290
     0
176
     1
 90
        1
176
     1
 40
0.0
176
     1
 90
        0
176
     1
290
     0
176
     1
290
     1
176
     1
290
     1
176
     1
290
     0
176
     1
290
     0
176
     1
290
     0
176
     1
290
     0
176
     1
290
     0
176
     1
290
     0
176
     1
 90
       50
176
     1
 40
0.0
176
     1
 40
1.0
176
     1
 90
        0
176
     1
 62
    18
420
        0
176
     1
 90
       50
176
     1
 90
        3
176
     1
 62
     5
420
      255
176
     1
290
     0
176
     1
 90
       50
176
     1
 90
       50
176
     1
 90
       50
176
     1
290
     0
176
     1
 90
       50
176
     1
 62
   256
176
     0
 40
1.0
176
     0
 90
        2
176
     1
  1
strokes_ogs.tif
176
     1
290
     0
176
     1
 40
1.0
176
     1
 40
1.0
176
     1
  0
VISUALSTYLE
  5
3B
102
{ACAD_REACTORS
330
2A
102
}
330
2A
100
AcDbVisualStyle
  2
JitterOff
 70
    20
177
     3
291
     1
 70
    58
 90
        2
176
     0
 90
        2
176
     0
 90
        0
176
     0
 90
        0
176
     0
 40
0.6
176
     0
 40
30.0
176
     0
 62
     7
420
 16777215
176
     0
 90
        1
176
     0
 90
        4
176
     0
 62
     7
176
     0
 62
   257
176
     0
 90
        1
176
     0
 90
        1
176
     0
 40
1.0
176
     0
 90
       10
176
     2
 62
     7
176
     0
 40
1.0
176
     0
 90
        1
176
     0
 90
        6
176
     0
 90
        2
176
     0
 62
     7
176
     0
 90
        5
176
     0
 90
        0
176
     0
 90
        0
176
     0
290
     0
176
     0
 90
        1
176
     0
 40
0.0
176
     0
 90
        0
176
     0
290
     0
176
     0
290
     1
176
     0
290
     1
176
     0
290
     0
176
     0
290
     0
176
     0
290
     0
176
     0
290
     0
176
     0
290
     0
176
     0
290
     0
176
     0
 90
       50
176
     0
 40
0.0
176
     0
 40
1.0
176
     0
 90
        0
176
     0
 62
    18
420
        0
176
     0
 90
       50
176
     0
 90
        3
176
     0
 62
     5
420
      255
176
     0
290
     0
176
     0
 90
       50
176
     0
 90
       50
176
     0
 90
       50
176
     0
290
     0
176
     0
 90
       50
176
     0
 62
   256
176
     0
 40
1.0
176
     0
 90
        2
176
     0
  1
strokes_ogs.tif
176
     0
290
     0
176
     0
 40
1.0
176
     0
 40
1.0
176
     0
  0
VISUALSTYLE
  5
38
102
{ACAD_REACTORS
330
2A
102
}
330
2A
100
AcDbVisualStyle
  2
Linepattern
 70
    14
177
     3
291
     1
 70
    58
 90
        2
176
     1
 90
        2
176
     1
 90
        0
176
     1
 90
        0
176
     1
 40
0.6
176
     1
 40
30.0
176
     1
 62
     7
420
 16777215
176
     1
 90
        1
176
     1
 90
        4
176
     1
 62
     7
176
     1
 62
   257
176
     1
 90
        7
176
     1
 90
        7
176
     1
 40
1.0
176
     1
 90
        8
176
     1
 62
     7
176
     1
 40
1.0
176
     1
 90
        1
176
     1
 90
        6
176
     1
 90
        2
176
     1
 62
     7
176
     1
 90
        5
176
     1
 90
        0
176
     1
 90
        0
176
     1
290
     0
176
     1
 90
        1
176
     1
 40
0.0
176
     1
 90
        0
176
     1
290
     0
176
     1
290
     1
176
     1
290
     1
176
     1
290
     0
176
     1
290
     0
176
     1
290
     0
176
     1
290
     0
176
     1
290
     0
176
     1
290
     0
176
     1
 90
       50
176
     1
 40
0.0
176
     1
 40
1.0
176
     1
 90
        0
176
     1
 62
    18
420
        0
176
     1
 90
       50
176
     1
 90
        3
176
     1
 62
     5
420
      255
176
     1
290
     0
176
     1
 90
       50
176
     1
 90
       50
176
     1
 90
       50
176
     1
290
     0
176
     1
 90
       50
176
     1
 62
   256
176
     0
 40
1.0
176
     0
 90
        2
176
     1
  1
strokes_ogs.tif
176
     1
290
     0
176
     1
 40
1.0
176
     1
 40
1.0
176
     1
  0
VISUALSTYLE
  5
3C
102
{ACAD_REACTORS
330
2A
102
}
330
2A
100
AcDbVisualStyle
  2
OverhangOff
 70
    21
177
     3
291
     1
 70
    58
 90
        2
176
     0
 90
        2
176
     0
 90
        0
176
     0
 90
        0
176
     0
 40
0.6
176
     0
 40
30.0
176
     0
 62
     7
420
 16777215
176
     0
 90
        1
176
     0
 90
        4
176
     0
 62
     7
176
     0
 62
   257
176
     0
 90
        1
176
     0
 90
        1
176
     0
 40
1.0
176
     0
 90
        9
176
     2
 62
     7
176
     0
 40
1.0
176
     0
 90
        1
176
     0
 90
        6
176
     0
 90
        2
176
     0
 62
     7
176
     0
 90
        5
176
     0
 90
        0
176
     0
 90
        0
176
     0
290
     0
176
     0
 90
        1
176
     0
 40
0.0
176
     0
 90
        0
176
     0
290
     0
176
     0
290
     1
176
     0
290
     1
176
     0
290
     0
176
     0
290
     0
176
     0
290
     0
176
     0
290
     0
176
     0
290
     0
176
     0
290
     0
176
     0
 90
       50
176
     0
 40
0.0
176
     0
 40
1.0
176
     0
 90
        0
176
     0
 62
    18
420
        0
176
     0
 90
       50
176
     0
 90
        3
176
     0
 62
     5
420
      255
176
     0
290
     0
176
     0
 90
       50
176
     0
 90
       50
176
     0
 90
       50
176
     0
290
     0
176
     0
 90
       50
176
     0
 62
   256
176
     0
 40
1.0
176
     0
 90
        2
176
     0
  1
strokes_ogs.tif
176
     0
290
     0
176
     0
 40
1.0
176
     0
 40
1.0
176
     0
  0
VISUALSTYLE
  5
33
102
{ACAD_REACTORS
330
2A
102
}
330
2A
100
AcDbVisualStyle
  2
Realistic
 70
     8
177
     3
291
     0
 70
    58
 90
        2
176
     1
 90
        3
176
     1
 90
        0
176
     1
 90
        2
176
     1
 40
0.6
176
     1
 40
30.0
176
     1
 62
     7
420
 16777215
176
     1
 90
        0
176
     1
 90
        0
176
     1
 62
     7
176
     1
 62
   257
176
     1
 90
        1
176
     1
 90
        1
176
     1
 40
1.0
176
     1
 90
        8
176
     1
 62
   257
176
     1
 40
1.0
176
     1
 90
        1
176
     1
 90
        6
176
     1
 90
        2
176
     1
 62
     7
176
     1
 90
        3
176
     1
 90
        0
176
     1
 90
        0
176
     1
290
     0
176
     1
 90
       13
176
     1
 40
0.0
176
     1
 90
        0
176
     1
290
     0
176
     1
290
     1
176
     1
290
     1
176
     1
290
     0
176
     1
290
     0
176
     1
290
     0
176
     1
290
     0
176
     1
290
     0
176
     1
290
     0
176
     1
 90
       50
176
     1
 40
0.0
176
     1
 40
1.0
176
     1
 90
        0
176
     1
 62
    18
420
        0
176
     1
 90
       50
176
     1
 90
        3
176
     1
 62
     5
420
      255
176
     1
290
     0
176
     1
 90
       50
176
     1
 90
       50
176
     1
 90
       50
176
     1
290
     0
176
     1
 90
       50
176
     1
 62
   256
176
     0
 40
1.0
176
     0
 90
        2
176
     1
  1
strokes_ogs.tif
176
     1
290
     0
176
     1
 40
1.0
176
     1
 40
1.0
176
     1
  0
VISUALSTYLE
  5
42
102
{ACAD_REACTORS
330
2A
102
}
330
2A
100
AcDbVisualStyle
  2
Shaded
 70
    27
177
     3
291
     0
 70
    58
 90
        2
176
     1
 90
        2
176
     1
 90
        1
176
     1
 90
        2
176
     1
 40
0.6
176
     1
 40
30.0
176
     1
 62
     7
420
 16777215
176
     1
 90
        0
176
     1
 90
        4
176
     1
 62
     7
176
     1
 62
   257
176
     1
 90
        1
176
     1
 90
        1
176
     1
 40
1.0
176
     1
 90
        8
176
     1
 62
   257
176
     1
 40
1.0
176
     1
 90
        1
176
     1
 90
        6
176
     1
 90
        2
176
     1
 62
     8
420
  7895160
176
     1
 90
        3
176
     1
 90
        0
176
     1
 90
        0
176
     1
290
     0
176
     1
 90
        5
176
     1
 40
0.0
176
     1
 90
        0
176
     1
290
     0
176
     1
290
     1
176
     1
290
     1
176
     1
290
     0
176
     1
290
     0
176
     1
290
     0
176
     1
290
     0
176
     1
290
     0
176
     1
290
     0
176
     1
 90
       50
176
     1
 40
0.0
176
     1
 40
1.0
176
     1
 90
        0
176
     1
 62
    18
420
        0
176
     1
 90
       50
176
     1
 90
        3
176
     1
 62
     5
420
      255
176
     1
290
     0
176
     1
 90
       50
176
     1
 90
       50
176
     1
 90
       50
176
     1
290
     0
176
     1
 90
       50
176
     1
 62
   256
176
     0
 40
1.0
176
     0
 90
        2
176
     1
  1
strokes_ogs.tif
176
     1
290
     0
176
     1
 40
1.0
176
     1
 40
1.0
176
     1
  0
VISUALSTYLE
  5
41
102
{ACAD_REACTORS
330
2A
102
}
330
2A
100
AcDbVisualStyle
  2
Shaded with edges
 70
    26
177
     3
291
     0
 70
    58
 90
        2
176
     1
 90
        2
176
     1
 90
        1
176
     1
 90
        2
176
     1
 40
0.6
176
     1
 40
30.0
176
     1
 62
     7
420
 16777215
176
     1
 90
        1
176
     1
 90
       10
176
     1
 62
     7
176
     1
 62
   257
176
     1
 90
        2
176
     1
 90
        1
176
     1
 40
1.0
176
     1
 90
        8
176
     1
 62
   257
176
     1
 40
1.0
176
     1
 90
        1
176
     1
 90
        6
176
     1
 90
        2
176
     1
 62
     7
176
     1
 90
        3
176
     1
 90
        0
176
     1
 90
        0
176
     1
290
     0
176
     1
 90
        5
176
     1
 40
0.0
176
     1
 90
        0
176
     1
290
     0
176
     1
290
     1
176
     1
290
     1
176
     1
290
     0
176
     1
290
     0
176
     1
290
     0
176
     1
290
     0
176
     1
290
     0
176
     1
290
     0
176
     1
 90
       50
176
     1
 40
0.0
176
     1
 40
1.0
176
     1
 90
        0
176
     1
 62
    18
420
        0
176
     1
 90
       50
176
     1
 90
        3
176
     1
 62
     5
420
      255
176
     1
290
     0
176
     1
 90
       50
176
     1
 90
       50
176
     1
 90
       50
176
     1
290
     0
176
     1
 90
       50
176
     1
 62
   256
176
     0
 40
1.0
176
     0
 90
        2
176
     1
  1
strokes_ogs.tif
176
     1
290
     0
176
     1
 40
1.0
176
     1
 40
1.0
176
     1
  0
VISUALSTYLE
  5
3E
102
{ACAD_REACTORS
330
2A
102
}
330
2A
100
AcDbVisualStyle
  2
Shades of Gray
 70
    23
177
     3
291
     0
 70
    58
 90
        2
176
     1
 90
        2
176
     1
 90
        3
176
     1
 90
        0
176
     1
 40
0.6
176
     1
 40
30.0
176
     1
 62
     7
420
 16777215
176
     1
 90
        2
176
     1
 90
        2
176
     1
 62
     7
176
     1
 62
     7
176
     1
 90
        1
176
     1
 90
        1
176
     1
 40
40.0
176
     1
 90
        8
176
     1
 62
     7
176
     1
 40
1.0
176
     1
 90
        1
176
     1
 90
        6
176
     1
 90
        2
176
     1
 62
     7
176
     1
 90
        3
176
     1
 90
        0
176
     1
 90
        0
176
     1
290
     0
176
     1
 90
        1
176
     1
 40
0.0
176
     1
 90
        0
176
     1
290
     0
176
     1
290
     1
176
     1
290
     1
176
     1
290
     0
176
     1
290
     0
176
     1
290
     0
176
     1
290
     0
176
     1
290
     0
176
     1
290
     0
176
     1
 90
       50
176
     1
 40
0.0
176
     1
 40
1.0
176
     1
 90
        0
176
     1
 62
    18
420
        0
176
     1
 90
       50
176
     1
 90
        3
176
     1
 62
     5
420
      255
176
     1
290
     0
176
     1
 90
       50
176
     1
 90
       50
176
     1
 90
       50
176
     1
290
     0
176
     1
 90
       50
176
     1
 62
   256
176
     0
 40
1.0
176
     0
 90
        2
176
     1
  1
strokes_ogs.tif
176
     1
290
     0
176
     1
 40
1.0
176
     1
 40
1.0
176
     1
  0
VISUALSTYLE
  5
3F
102
{ACAD_REACTORS
330
2A
102
}
330
2A
100
AcDbVisualStyle
  2
Sketchy
 70
    24
177
     3
291
     0
 70
    58
 90
        1
176
     1
 90
        2
176
     1
 90
        2
176
     1
 90
        0
176
     1
 40
0.6
176
     1
 40
30.0
176
     1
 62
     7
420
 16777215
176
     1
 90
        2
176
     1
 90
        2
176
     1
 62
     7
176
     1
 62
     7
176
     1
 90
        1
176
     1
 90
        1
176
     1
 40
40.0
176
     1
 90
       11
176
     1
 62
     7
176
     1
 40
1.0
176
     1
 90
        1
176
     1
 90
        6
176
     1
 90
        2
176
     1
 62
     7
176
     1
 90
        6
176
     1
 90
        0
176
     1
 90
        0
176
     1
290
     0
176
     1
 90
        1
176
     1
 40
0.0
176
     1
 90
        0
176
     1
290
     0
176
     1
290
     1
176
     1
290
     1
176
     1
290
     0
176
     1
290
     0
176
     1
290
     0
176
     1
290
     0
176
     1
290
     0
176
     1
290
     0
176
     1
 90
       50
176
     1
 40
0.0
176
     1
 40
1.0
176
     1
 90
        0
176
     1
 62
    18
420
        0
176
     1
 90
       50
176
     1
 90
        3
176
     1
 62
     5
420
      255
176
     1
290
     0
176
     1
 90
       50
176
     1
 90
       50
176
     1
 90
       50
176
     1
290
     0
176
     1
 90
       50
176
     1
 62
   256
176
     0
 40
1.0
176
     0
 90
        2
176
     1
  1
strokes_ogs.tif
176
     1
290
     0
176
     1
 40
1.0
176
     1
 40
1.0
176
     1
  0
VISUALSTYLE
  5
37
102
{ACAD_REACTORS
330
2A
102
}
330
2A
100
AcDbVisualStyle
  2
Thicken
 70
    13
177
     3
291
     1
 70
    58
 90
        2
176
     1
 90
        2
176
     1
 90
        0
176
     1
 90
        0
176
     1
 40
0.6
176
     1
 40
30.0
176
     1
 62
     7
420
 16777215
176
     1
 90
        1
176
     1
 90
        4
176
     1
 62
     7
176
     1
 62
   257
176
     1
 90
        1
176
     1
 90
        1
176
     1
 40
1.0
176
     1
 90
       12
176
     1
 62
     7
176
     1
 40
1.0
176
     1
 90
        1
176
     1
 90
        6
176
     1
 90
        2
176
     1
 62
     7
176
     1
 90
        5
176
     1
 90
        0
176
     1
 90
        0
176
     1
290
     0
176
     1
 90
        1
176
     1
 40
0.0
176
     1
 90
        0
176
     1
290
     0
176
     1
290
     1
176
     1
290
     1
176
     1
290
     0
176
     1
290
     0
176
     1
290
     0
176
     1
290
     0
176
     1
290
     0
176
     1
290
     0
176
     1
 90
       50
176
     1
 40
0.0
176
     1
 40
1.0
176
     1
 90
        0
176
     1
 62
    18
420
        0
176
     1
 90
       50
176
     1
 90
        3
176
     1
 62
     5
420
      255
176
     1
290
     0
176
     1
 90
       50
176
     1
 90
       50
176
     1
 90
       50
176
     1
290
     0
176
     1
 90
       50
176
     1
 62
   256
176
     0
 40
1.0
176
     0
 90
        2
176
     1
  1
strokes_ogs.tif
176
     1
290
     0
176
     1
 40
1.0
176
     1
 40
1.0
176
     1
  0
VISUALSTYLE
  5
30
102
{ACAD_REACTORS
330
2A
102
}
330
2A
100
AcDbVisualStyle
  2
Wireframe
 70
     5
177
     3
291
     0
 70
    58
 90
        0
176
     1
 90
        2
176
     1
 90
        0
176
     1
 90
        0
176
     1
 40
0.6
176
     1
 40
30.0
176
     1
 62
     7
420
 16777215
176
     1
 90
        1
176
     1
 90
        4
176
     1
 62
     7
176
     1
 62
   257
176
     1
 90
        1
176
     1
 90
        1
176
     1
 40
1.0
176
     1
 90
        0
176
     1
 62
   257
176
     1
 40
1.0
176
     1
 90
        1
176
     1
 90
        6
176
     1
 90
        2
176
     1
 62
     7
176
     1
 90
        3
176
     1
 90
        0
176
     1
 90
        0
176
     1
290
     0
176
     1
 90
        1
176
     1
 40
0.0
176
     1
 90
        0
176
     1
290
     0
176
     1
290
     1
176
     1
290
     1
176
     1
290
     0
176
     1
290
     0
176
     1
290
     0
176
     1
290
     0
176
     1
290
     0
176
     1
290
     0
176
     1
 90
       50
176
     1
 40
0.0
176
     1
 40
1.0
176
     1
 90
        0
176
     1
 62
    18
420
        0
176
     1
 90
       50
176
     1
 90
        3
176
     1
 62
     5
420
      255
176
     1
290
     0
176
     1
 90
       50
176
     1
 90
       50
176
     1
 90
       50
176
     1
290
     0
176
     1
 90
       50
176
     1
 62
   256
176
     0
 40
1.0
176
     0
 90
        2
176
     1
  1
strokes_ogs.tif
176
     1
290
     0
176
     1
 40
1.0
176
     1
 40
1.0
176
     1
  0
VISUALSTYLE
  5
40
102
{ACAD_REACTORS
330
2A
102
}
330
2A
100
AcDbVisualStyle
  2
X-Ray
 70
    25
177
     3
291
     0
 70
    58
 90
        2
176
     1
 90
        2
176
     1
 90
        1
176
     1
 90
        1
176
     1
 40
0.5
176
     1
 40
30.0
176
     1
 62
     7
420
 16777215
176
     1
 90
        1
176
     1
 90
        0
176
     1
 62
     7
176
     1
 62
   257
176
     1
 90
        1
176
     1
 90
        1
176
     1
 40
1.0
176
     1
 90
        8
176
     1
 62
     7
176
     1
 40
1.0
176
     1
 90
        1
176
     1
 90
        6
176
     1
 90
        2
176
     1
 62
     7
176
     1
 90
        3
176
     1
 90
        0
176
     1
 90
        0
176
     1
290
     0
176
     1
 90
       13
176
     1
 40
0.0
176
     1
 90
        0
176
     1
290
     0
176
     1
290
     1
176
     1
290
     1
176
     1
290
     0
176
     1
290
     0
176
     1
290
     0
176
     1
290
     0
176
     1
290
     0
176
     1
290
     0
176
     1
 90
       50
176
     1
 40
0.0
176
     1
 40
1.0
176
     1
 90
        0
176
     1
 62
    18
420
        0
176
     1
 90
       50
176
     1
 90
        3
176
     1
 62
     5
420
      255
176
     1
290
     0
176
     1
 90
       50
176
     1
 90
       50
176
     1
 90
       50
176
     1
290
     0
176
     1
 90
       50
176
     1
 62
   256
176
     0
 40
1.0
176
     0
 90
        2
176
     1
  1
strokes_ogs.tif
176
     1
290
     0
176
     1
 40
1.0
176
     1
 40
1.0
176
     1
  0
DICTIONARYVAR
  5
21E
102
{ACAD_REACTORS
330
21D
102
}
330
21D
100
DictionaryVariables
280
     0
  1
1:1
  0
DICTIONARYVAR
  5
223
102
{ACAD_REACTORS
330
21D
102
}
330
21D
100
DictionaryVariables
280
     0
  1
Standard
  0
DICTIONARYVAR
  5
222
102
{ACAD_REACTORS
330
21D
102
}
330
21D
100
DictionaryVariables
280
     0
  1
Standard
  0
DICTIONARY
  5
21F
330
6A
100
AcDbDictionary
280
     1
281
     1
  3
ACAD_ROUNDTRIP_2008_TABLESTYLE_CELLSTYLEMAP
360
220
  0
CELLSTYLEMAP
  5
220
102
{ACAD_REACTORS
330
21F
102
}
330
21F
100
AcDbCellStyleMap
 90
        3
300
CELLSTYLE
  1
TABLEFORMAT_BEGIN
 90
        5
170
     1
 91
        0
 92
    32768
 62
   257
 93
        1
300
CONTENTFORMAT
  1
CONTENTFORMAT_BEGIN
 90
        0
 91
        0
 92
        4
 93
        0
300

 40
0.0
140
1.0
 94
        5
 62
     0
340
11
144
0.25
309
CONTENTFORMAT_END
171
     1
301
MARGIN
  1
CELLMARGIN_BEGIN
 40
0.06
 40
0.06
 40
0.06
 40
0.06
 40
0.06
 40
0.06
309
CELLMARGIN_END
 94
        6
 95
        1
302
GRIDFORMAT
  1
GRIDFORMAT_BEGIN
 90
        0
 91
        1
 62
     0
 92
       -2
340
14
 93
        0
 40
0.045
309
GRIDFORMAT_END
 95
        2
302
GRIDFORMAT
  1
GRIDFORMAT_BEGIN
 90
        0
 91
        1
 62
     0
 92
       -2
340
14
 93
        0
 40
0.045
309
GRIDFORMAT_END
 95
        4
302
GRIDFORMAT
  1
GRIDFORMAT_BEGIN
 90
        0
 91
        1
 62
     0
 92
       -2
340
14
 93
        0
 40
0.045
309
GRIDFORMAT_END
 95
        8
302
GRIDFORMAT
  1
GRIDFORMAT_BEGIN
 90
        0
 91
        1
 62
     0
 92
       -2
340
14
 93
        0
 40
0.045
309
GRIDFORMAT_END
 95
       16
302
GRIDFORMAT
  1
GRIDFORMAT_BEGIN
 90
        0
 91
        1
 62
     0
 92
       -2
340
14
 93
        0
 40
0.045
309
GRIDFORMAT_END
 95
       32
302
GRIDFORMAT
  1
GRIDFORMAT_BEGIN
 90
        0
 91
        1
 62
     0
 92
       -2
340
14
 93
        0
 40
0.045
309
GRIDFORMAT_END
309
TABLEFORMAT_END
  1
CELLSTYLE_BEGIN
 90
        1
 91
        1
300
_TITLE
309
CELLSTYLE_END
300
CELLSTYLE
  1
TABLEFORMAT_BEGIN
 90
        5
170
     1
 91
        0
 92
        0
 62
   257
 93
        1
300
CONTENTFORMAT
  1
CONTENTFORMAT_BEGIN
 90
        0
 91
        0
 92
        4
 93
        0
300

 40
0.0
140
1.0
 94
        5
 62
     0
340
11
144
0.18
309
CONTENTFORMAT_END
171
     1
301
MARGIN
  1
CELLMARGIN_BEGIN
 40
0.06
 40
0.06
 40
0.06
 40
0.06
 40
0.06
 40
0.06
309
CELLMARGIN_END
 94
        6
 95
        1
302
GRIDFORMAT
  1
GRIDFORMAT_BEGIN
 90
        0
 91
        1
 62
     0
 92
       -2
340
14
 93
        0
 40
0.045
309
GRIDFORMAT_END
 95
        2
302
GRIDFORMAT
  1
GRIDFORMAT_BEGIN
 90
        0
 91
        1
 62
     0
 92
       -2
340
14
 93
        0
 40
0.045
309
GRIDFORMAT_END
 95
        4
302
GRIDFORMAT
  1
GRIDFORMAT_BEGIN
 90
        0
 91
        1
 62
     0
 92
       -2
340
14
 93
        0
 40
0.045
309
GRIDFORMAT_END
 95
        8
302
GRIDFORMAT
  1
GRIDFORMAT_BEGIN
 90
        0
 91
        1
 62
     0
 92
       -2
340
14
 93
        0
 40
0.045
309
GRIDFORMAT_END
 95
       16
302
GRIDFORMAT
  1
GRIDFORMAT_BEGIN
 90
        0
 91
        1
 62
     0
 92
       -2
340
14
 93
        0
 40
0.045
309
GRIDFORMAT_END
 95
       32
302
GRIDFORMAT
  1
GRIDFORMAT_BEGIN
 90
        0
 91
        1
 62
     0
 92
       -2
340
14
 93
        0
 40
0.045
309
GRIDFORMAT_END
309
TABLEFORMAT_END
  1
CELLSTYLE_BEGIN
 90
        2
 91
        1
300
_HEADER
309
CELLSTYLE_END
300
CELLSTYLE
  1
TABLEFORMAT_BEGIN
 90
        5
170
     1
 91
        0
 92
        0
 62
   257
 93
        1
300
CONTENTFORMAT
  1
CONTENTFORMAT_BEGIN
 90
        0
 91
        0
 92
        4
 93
        0
300

 40
0.0
140
1.0
 94
        2
 62
     0
340
11
144
0.18
309
CONTENTFORMAT_END
171
     1
301
MARGIN
  1
CELLMARGIN_BEGIN
 40
0.06
 40
0.06
 40
0.06
 40
0.06
 40
0.06
 40
0.06
309
CELLMARGIN_END
 94
        6
 95
        1
302
GRIDFORMAT
  1
GRIDFORMAT_BEGIN
 90
        0
 91
        1
 62
     0
 92
       -2
340
14
 93
        0
 40
0.045
309
GRIDFORMAT_END
 95
        2
302
GRIDFORMAT
  1
GRIDFORMAT_BEGIN
 90
        0
 91
        1
 62
     0
 92
       -2
340
14
 93
        0
 40
0.045
309
GRIDFORMAT_END
 95
        4
302
GRIDFORMAT
  1
GRIDFORMAT_BEGIN
 90
        0
 91
        1
 62
     0
 92
       -2
340
14
 93
        0
 40
0.045
309
GRIDFORMAT_END
 95
        8
302
GRIDFORMAT
  1
GRIDFORMAT_BEGIN
 90
        0
 91
        1
 62
     0
 92
       -2
340
14
 93
        0
 40
0.045
309
GRIDFORMAT_END
 95
       16
302
GRIDFORMAT
  1
GRIDFORMAT_BEGIN
 90
        0
 91
        1
 62
     0
 92
       -2
340
14
 93
        0
 40
0.045
309
GRIDFORMAT_END
 95
       32
302
GRIDFORMAT
  1
GRIDFORMAT_BEGIN
 90
        0
 91
        1
 62
     0
 92
       -2
340
14
 93
        0
 40
0.045
309
GRIDFORMAT_END
309
TABLEFORMAT_END
  1
CELLSTYLE_BEGIN
 90
        3
 91
        2
300
_DATA
309
CELLSTYLE_END
  0
ENDSEC
  0
EOF