0
SECTION
  2
HEADER
  9
$ACADVER
  1
AC1027
  9
$ACADMAINTVER
 70
     8
  9
$DWGCODEPAGE
  3
ANSI_1252
  9
$REQUIREDVERSIONS
160
                 0
  9
$COMMENTS
  1
File was created by Cadenas
  9
$CUSTOMPROPERTYTAG
  1
NN
  9
$CUSTOMPROPERTY
  1
Grip Tight Medium Duty Wide Slot Take Up Inch Bore
  9
$CUSTOMPROPERTYTAG
  1
NT
  9
$CUSTOMPROPERTY
  1
GT Wide Slot Take-Up Bearings -(Medium Duty)
  9
$CUSTOMPROPERTYTAG
  1
NB
  9
$CUSTOMPROPERTY
  1
136174
  9
$CUSTOMPROPERTYTAG
  1
NBSYN
  9
$CUSTOMPROPERTY
  1
$PN.$LUBE.
  9
$CUSTOMPROPERTYTAG
  1
LINA
  9
$CUSTOMPROPERTY
  1
136174
  9
$CUSTOMPROPERTYTAG
  1
SERIES
  9
$CUSTOMPROPERTY
  1
209
  9
$CUSTOMPROPERTYTAG
  1
SS
  9
$CUSTOMPROPERTY
  1
1-1/2
  9
$CUSTOMPROPERTYTAG
  1
PN
  9
$CUSTOMPROPERTY
  1
136174
  9
$CUSTOMPROPERTYTAG
  1
DESCRIPTION
  9
$CUSTOMPROPERTY
  1
WSTU-GTM-108
  9
$CUSTOMPROPERTYTAG
  1
A
  9
$CUSTOMPROPERTY
  1
1-27/32
  9
$CUSTOMPROPERTYTAG
  1
B
  9
$CUSTOMPROPERTY
  1
5-5/8
  9
$CUSTOMPROPERTYTAG
  1
C
  9
$CUSTOMPROPERTY
  1
0.673/0.703
  9
$CUSTOMPROPERTYTAG
  1
D
  9
$CUSTOMPROPERTY
  1
3-1/4
  9
$CUSTOMPROPERTYTAG
  1
E
  9
$CUSTOMPROPERTY
  1
3-7/16
  9
$CUSTOMPROPERTYTAG
  1
F
  9
$CUSTOMPROPERTY
  1
1
  9
$CUSTOMPROPERTYTAG
  1
G
  9
$CUSTOMPROPERTY
  1
5/8
  9
$CUSTOMPROPERTYTAG
  1
H
  9
$CUSTOMPROPERTY
  1
3/4
  9
$CUSTOMPROPERTYTAG
  1
J
  9
$CUSTOMPROPERTY
  1
3-1/4
  9
$CUSTOMPROPERTYTAG
  1
K
  9
$CUSTOMPROPERTY
  1
1-15/16
  9
$CUSTOMPROPERTYTAG
  1
L
  9
$CUSTOMPROPERTY
  1
2-43/64
  9
$CUSTOMPROPERTYTAG
  1
M
  9
$CUSTOMPROPERTY
  1
3.985/4.015
  9
$CUSTOMPROPERTYTAG
  1
N
  9
$CUSTOMPROPERTY
  1
4-3/4
  9
$CUSTOMPROPERTYTAG
  1
R
  9
$CUSTOMPROPERTY
  1
21/32
  9
$CUSTOMPROPERTYTAG
  1
S
  9
$CUSTOMPROPERTY
  1
1-3/16
  9
$CUSTOMPROPERTYTAG
  1
T
  9
$CUSTOMPROPERTY
  1
1-15/16
  9
$CUSTOMPROPERTYTAG
  1
Z
  9
$CUSTOMPROPERTY
  1
1-5/32
  9
$CUSTOMPROPERTYTAG
  1
COMPANY
  9
$CUSTOMPROPERTY
  1
baldor
  9
$INSBASE
 10
0.0
 20
0.0
 30
0.0
  9
$EXTMIN
 10
1.000000000000000E+20
 20
1.000000000000000E+20
 30
1.000000000000000E+20
  9
$EXTMAX
 10
-1.000000000000000E+20
 20
-1.000000000000000E+20
 30
-1.000000000000000E+20
  9
$LIMMIN
 10
0.0
 20
0.0
  9
$LIMMAX
 10
12.0
 20
9.0
  9
$ORTHOMODE
 70
     0
  9
$REGENMODE
 70
     1
  9
$FILLMODE
 70
     1
  9
$QTEXTMODE
 70
     0
  9
$MIRRTEXT
 70
     1
  9
$LTSCALE
 40
1.0
  9
$ATTMODE
 70
     1
  9
$TEXTSIZE
 40
0.2
  9
$TRACEWID
 40
0.05
  9
$TEXTSTYLE
  7
Standard
  9
$CLAYER
  8
0
  9
$CELTYPE
  6
ByLayer
  9
$CECOLOR
 62
   256
  9
$CELTSCALE
 40
1.0
  9
$DISPSILH
 70
     0
  9
$DIMSCALE
 40
1.0
  9
$DIMASZ
 40
0.18
  9
$DIMEXO
 40
0.0625
  9
$DIMDLI
 40
0.38
  9
$DIMRND
 40
0.0
  9
$DIMDLE
 40
0.0
  9
$DIMEXE
 40
0.18
  9
$DIMTP
 40
0.0
  9
$DIMTM
 40
0.0
  9
$DIMTXT
 40
0.18
  9
$DIMCEN
 40
0.09
  9
$DIMTSZ
 40
0.0
  9
$DIMTOL
 70
     0
  9
$DIMLIM
 70
     0
  9
$DIMTIH
 70
     1
  9
$DIMTOH
 70
     1
  9
$DIMSE1
 70
     0
  9
$DIMSE2
 70
     0
  9
$DIMTAD
 70
     0
  9
$DIMZIN
 70
     0
  9
$DIMBLK
  1

  9
$DIMASO
 70
     1
  9
$DIMSHO
 70
     1
  9
$DIMPOST
  1

  9
$DIMAPOST
  1

  9
$DIMALT
 70
     0
  9
$DIMALTD
 70
     2
  9
$DIMALTF
 40
25.4
  9
$DIMLFAC
 40
1.0
  9
$DIMTOFL
 70
     0
  9
$DIMTVP
 40
0.0
  9
$DIMTIX
 70
     0
  9
$DIMSOXD
 70
     0
  9
$DIMSAH
 70
     0
  9
$DIMBLK1
  1

  9
$DIMBLK2
  1

  9
$DIMSTYLE
  2
Standard
  9
$DIMCLRD
 70
     0
  9
$DIMCLRE
 70
     0
  9
$DIMCLRT
 70
     0
  9
$DIMTFAC
 40
1.0
  9
$DIMGAP
 40
0.09
  9
$DIMJUST
 70
     0
  9
$DIMSD1
 70
     0
  9
$DIMSD2
 70
     0
  9
$DIMTOLJ
 70
     1
  9
$DIMTZIN
 70
     0
  9
$DIMALTZ
 70
     0
  9
$DIMALTTZ
 70
     0
  9
$DIMUPT
 70
     0
  9
$DIMDEC
 70
     4
  9
$DIMTDEC
 70
     4
  9
$DIMALTU
 70
     2
  9
$DIMALTTD
 70
     2
  9
$DIMTXSTY
  7
Standard
  9
$DIMAUNIT
 70
     0
  9
$DIMADEC
 70
     0
  9
$DIMALTRND
 40
0.0
  9
$DIMAZIN
 70
     0
  9
$DIMDSEP
 70
    46
  9
$DIMATFIT
 70
     3
  9
$DIMFRAC
 70
     0
  9
$DIMLDRBLK
  1

  9
$DIMLUNIT
 70
     2
  9
$DIMLWD
 70
    -2
  9
$DIMLWE
 70
    -2
  9
$DIMTMOVE
 70
     0
  9
$DIMFXL
 40
1.0
  9
$DIMFXLON
 70
     0
  9
$DIMJOGANG
 40
0.7853981633974483
  9
$DIMTFILL
 70
     0
  9
$DIMTFILLCLR
 70
     0
  9
$DIMARCSYM
 70
     0
  9
$DIMLTYPE
  6

  9
$DIMLTEX1
  6

  9
$DIMLTEX2
  6

  9
$DIMTXTDIRECTION
 70
     0
  9
$LUNITS
 70
     2
  9
$LUPREC
 70
     4
  9
$SKETCHINC
 40
0.1
  9
$FILLETRAD
 40
0.5
  9
$AUNITS
 70
     0
  9
$AUPREC
 70
     0
  9
$MENU
  1
.
  9
$ELEVATION
 40
0.0
  9
$PELEVATION
 40
0.0
  9
$THICKNESS
 40
0.0
  9
$LIMCHECK
 70
     0
  9
$CHAMFERA
 40
0.0
  9
$CHAMFERB
 40
0.0
  9
$CHAMFERC
 40
0.0
  9
$CHAMFERD
 40
0.0
  9
$SKPOLY
 70
     0
  9
$TDCREATE
 40
2458168.993099815
  9
$TDUCREATE
 40
2458168.951433148
  9
$TDUPDATE
 40
2458168.993099988
  9
$TDUUPDATE
 40
2458168.951433322
  9
$TDINDWG
 40
0.0000000116
  9
$TDUSRTIMER
 40
0.0000000116
  9
$USRTIMER
 70
     1
  9
$ANGBASE
 50
0.0
  9
$ANGDIR
 70
     0
  9
$PDMODE
 70
     0
  9
$PDSIZE
 40
0.0
  9
$PLINEWID
 40
0.0
  9
$SPLFRAME
 70
     0
  9
$SPLINETYPE
 70
     6
  9
$SPLINESEGS
 70
     8
  9
$HANDSEED
  5
26A
  9
$SURFTAB1
 70
     6
  9
$SURFTAB2
 70
     6
  9
$SURFTYPE
 70
     6
  9
$SURFU
 70
     6
  9
$SURFV
 70
     6
  9
$UCSBASE
  2

  9
$UCSNAME
  2

  9
$UCSORG
 10
0.0
 20
0.0
 30
0.0
  9
$UCSXDIR
 10
1.0
 20
0.0
 30
0.0
  9
$UCSYDIR
 10
0.0
 20
1.0
 30
0.0
  9
$UCSORTHOREF
  2

  9
$UCSORTHOVIEW
 70
     0
  9
$UCSORGTOP
 10
0.0
 20
0.0
 30
0.0
  9
$UCSORGBOTTOM
 10
0.0
 20
0.0
 30
0.0
  9
$UCSORGLEFT
 10
0.0
 20
0.0
 30
0.0
  9
$UCSORGRIGHT
 10
0.0
 20
0.0
 30
0.0
  9
$UCSORGFRONT
 10
0.0
 20
0.0
 30
0.0
  9
$UCSORGBACK
 10
0.0
 20
0.0
 30
0.0
  9
$PUCSBASE
  2

  9
$PUCSNAME
  2

  9
$PUCSORG
 10
0.0
 20
0.0
 30
0.0
  9
$PUCSXDIR
 10
1.0
 20
0.0
 30
0.0
  9
$PUCSYDIR
 10
0.0
 20
1.0
 30
0.0
  9
$PUCSORTHOREF
  2

  9
$PUCSORTHOVIEW
 70
     0
  9
$PUCSORGTOP
 10
0.0
 20
0.0
 30
0.0
  9
$PUCSORGBOTTOM
 10
0.0
 20
0.0
 30
0.0
  9
$PUCSORGLEFT
 10
0.0
 20
0.0
 30
0.0
  9
$PUCSORGRIGHT
 10
0.0
 20
0.0
 30
0.0
  9
$PUCSORGFRONT
 10
0.0
 20
0.0
 30
0.0
  9
$PUCSORGBACK
 10
0.0
 20
0.0
 30
0.0
  9
$USERI1
 70
     0
  9
$USERI2
 70
     0
  9
$USERI3
 70
     0
  9
$USERI4
 70
     0
  9
$USERI5
 70
     0
  9
$USERR1
 40
0.0
  9
$USERR2
 40
0.0
  9
$USERR3
 40
0.0
  9
$USERR4
 40
0.0
  9
$USERR5
 40
0.0
  9
$WORLDVIEW
 70
     1
  9
$SHADEDGE
 70
     3
  9
$SHADEDIF
 70
    70
  9
$TILEMODE
 70
     1
  9
$MAXACTVP
 70
    64
  9
$PINSBASE
 10
0.0
 20
0.0
 30
0.0
  9
$PLIMCHECK
 70
     0
  9
$PEXTMIN
 10
1.000000000000000E+20
 20
1.000000000000000E+20
 30
1.000000000000000E+20
  9
$PEXTMAX
 10
-1.000000000000000E+20
 20
-1.000000000000000E+20
 30
-1.000000000000000E+20
  9
$PLIMMIN
 10
0.0
 20
0.0
  9
$PLIMMAX
 10
12.0
 20
9.0
  9
$UNITMODE
 70
     0
  9
$VISRETAIN
 70
     1
  9
$PLINEGEN
 70
     0
  9
$PSLTSCALE
 70
     1
  9
$TREEDEPTH
 70
  3020
  9
$CMLSTYLE
  2
Standard
  9
$CMLJUST
 70
     0
  9
$CMLSCALE
 40
1.0
  9
$PROXYGRAPHICS
 70
     1
  9
$MEASUREMENT
 70
     0
  9
$CELWEIGHT
370
    -1
  9
$ENDCAPS
280
     0
  9
$JOINSTYLE
280
     0
  9
$LWDISPLAY
290
     0
  9
$INSUNITS
 70
     1
  9
$HYPERLINKBASE
  1

  9
$STYLESHEET
  1

  9
$XEDIT
290
     1
  9
$CEPSNTYPE
380
     0
  9
$PSTYLEMODE
290
     1
  9
$FINGERPRINTGUID
  2
{DCC24336-3539-4778-91A3-A2126756371F}
  9
$VERSIONGUID
  2
{FAEB1C32-E019-11D5-929B-00C0DF256EC4}
  9
$EXTNAMES
290
     1
  9
$PSVPSCALE
 40
0.0
  9
$OLESTARTUP
290
     0
  9
$SORTENTS
280
   127
  9
$INDEXCTL
280
     0
  9
$HIDETEXT
280
     1
  9
$XCLIPFRAME
280
     2
  9
$HALOGAP
280
     0
  9
$OBSCOLOR
 70
   257
  9
$OBSLTYPE
280
     0
  9
$INTERSECTIONDISPLAY
280
     0
  9
$INTERSECTIONCOLOR
 70
   257
  9
$DIMASSOC
280
     2
  9
$PROJECTNAME
  1

  9
$CAMERADISPLAY
290
     0
  9
$LENSLENGTH
 40
50.0
  9
$CAMERAHEIGHT
 40
0.0
  9
$STEPSPERSEC
 40
2.0
  9
$STEPSIZE
 40
6.0
  9
$3DDWFPREC
 40
2.0
  9
$PSOLWIDTH
 40
0.25
  9
$PSOLHEIGHT
 40
4.0
  9
$LOFTANG1
 40
1.570796326794897
  9
$LOFTANG2
 40
1.570796326794897
  9
$LOFTMAG1
 40
0.0
  9
$LOFTMAG2
 40
0.0
  9
$LOFTPARAM
 70
     7
  9
$LOFTNORMALS
280
     1
  9
$LATITUDE
 40
37.795
  9
$LONGITUDE
 40
-122.394
  9
$NORTHDIRECTION
 40
0.0
  9
$TIMEZONE
 70
 -8000
  9
$LIGHTGLYPHDISPLAY
280
     1
  9
$TILEMODELIGHTSYNCH
280
     1
  9
$CMATERIAL
347
44
  9
$SOLIDHIST
280
     0
  9
$SHOWHIST
280
     1
  9
$DWFFRAME
280
     2
  9
$DGNFRAME
280
     2
  9
$REALWORLDSCALE
290
     1
  9
$INTERFERECOLOR
 62
   256
  9
$CSHADOW
280
     0
  9
$SHADOWPLANELOCATION
 40
0.0
  0
ENDSEC
  0
SECTION
  2
CLASSES
  0
CLASS
  1
ACDBDICTIONARYWDFLT
  2
AcDbDictionaryWithDefault
  3
ObjectDBX Classes
 90
        0
 91
        4
280
     0
281
     0
  0
CLASS
  1
VISUALSTYLE
  2
AcDbVisualStyle
  3
ObjectDBX Classes
 90
     4095
 91
        4
280
     0
281
     0
  0
CLASS
  1
MATERIAL
  2
AcDbMaterial
  3
ObjectDBX Classes
 90
     1153
 91
        4
280
     0
281
     0
  0
CLASS
  1
SCALE
  2
AcDbScale
  3
ObjectDBX Classes
 90
     1153
 91
        4
280
     0
281
     0
  0
CLASS
  1
TABLESTYLE
  2
AcDbTableStyle
  3
ObjectDBX Classes
 90
     4095
 91
        4
280
     0
281
     0
  0
CLASS
  1
MLEADERSTYLE
  2
AcDbMLeaderStyle
  3
ACDB_MLEADERSTYLE_CLASS
 90
     4095
 91
        4
280
     0
281
     0
  0
CLASS
  1
SUN
  2
AcDbSun
  3
SCENEOE
 90
     1153
 91
        4
280
     0
281
     0
  0
CLASS
  1
DICTIONARYVAR
  2
AcDbDictionaryVar
  3
ObjectDBX Classes
 90
        0
 91
        4
280
     0
281
     0
  0
CLASS
  1
CELLSTYLEMAP
  2
AcDbCellStyleMap
  3
ObjectDBX Classes
 90
     1152
 91
        4
280
     0
281
     0
  0
ENDSEC
  0
SECTION
  2
TABLES
  0
TABLE
  2
VPORT
  5
8
330
0
100
AcDbSymbolTable
 70
     1
  0
VPORT
  5
29
330
8
100
AcDbSymbolTableRecord
100
AcDbViewportTableRecord
  2
*Active
 70
     0
 10
0.0
 20
0.0
 11
1.0
 21
1.0
 12
0.9646265999574446
 22
0.0
 13
0.0
 23
0.0
 14
0.5
 24
0.5
 15
0.5
 25
0.5
 16
0.0
 26
0.0
 36
1.0
 17
0.0
 27
0.0
 37
0.0
 40
4.844990309999999
 41
1.476739121917215
 42
50.0
 43
0.0
 44
0.0
 50
0.0
 51
0.0
 71
     0
 72
   100
 73
     1
 74
     3
 75
     0
 76
     0
 77
     0
 78
     0
281
     0
 65
     1
110
0.0
120
0.0
130
0.0
111
1.0
121
0.0
131
0.0
112
0.0
122
1.0
132
0.0
 79
     0
146
0.0
348
2F
 60
     3
 61
     5
292
     1
282
     1
141
0.0
142
0.0
 63
   250
361
6D
  0
ENDTAB
  0
TABLE
  2
LTYPE
  5
5
330
0
100
AcDbSymbolTable
 70
     3
  0
LTYPE
  5
14
330
5
100
AcDbSymbolTableRecord
100
AcDbLinetypeTableRecord
  2
ByBlock
 70
     0
  3

 72
    65
 73
     0
 40
0.0
  0
LTYPE
  5
15
330
5
100
AcDbSymbolTableRecord
100
AcDbLinetypeTableRecord
  2
ByLayer
 70
     0
  3

 72
    65
 73
     0
 40
0.0
  0
LTYPE
  5
16
330
5
100
AcDbSymbolTableRecord
100
AcDbLinetypeTableRecord
  2
Continuous
 70
     0
  3
Solid line
 72
    65
 73
     0
 40
0.0
  0
LTYPE
  5
9F
330
5
100
AcDbSymbolTableRecord
100
AcDbLinetypeTableRecord
  2
Dashed
 70
     0
  3

 72
    65
 73
     2
 40
2.0
 49
1.0
 74
     0
 49
-1.0
 74
     0
  0
LTYPE
  5
C7
330
5
100
AcDbSymbolTableRecord
100
AcDbLinetypeTableRecord
  2
Center
 70
     0
  3

 72
    65
 73
     4
 40
1.5
 49
0.45
 74
     0
 49
-0.5
 74
     0
 49
0.05
 74
     0
 49
-0.5
 74
     0
  0
ENDTAB
  0
TABLE
  2
LAYER
  5
2
330
0
100
AcDbSymbolTable
 70
     7
  0
LAYER
  5
10
330
2
100
AcDbSymbolTableRecord
100
AcDbLayerTableRecord
  2
0
 70
     0
 62
     7
  6
Continuous
370
    -3
390
F
347
46
348
0
  0
LAYER
  5
72
330
2
100
AcDbSymbolTableRecord
100
AcDbLayerTableRecord
  2
AM_6
 70
     0
 62
    -2
  6
Continuous
370
    35
390
F
347
46
348
0
  0
LAYER
  5
A0
330
2
100
AcDbSymbolTableRecord
100
AcDbLayerTableRecord
  2
AM_9
 70
     0
 62
     6
  6
Dashed
370
    25
390
F
347
46
348
0
  0
LAYER
  5
C0
330
2
100
AcDbSymbolTableRecord
100
AcDbLayerTableRecord
  2
AM_5
 70
     0
 62
     3
  6
Continuous
370
    25
390
F
347
46
348
0
  0
LAYER
  5
C8
330
2
100
AcDbSymbolTableRecord
100
AcDbLayerTableRecord
  2
AM_7
 70
     0
 62
     7
  6
Center
370
    25
390
F
347
46
348
0
  0
LAYER
  5
CB
330
2
100
AcDbSymbolTableRecord
100
AcDbLayerTableRecord
  2
AM_4
 70
     0
 62
     7
  6
Continuous
370
    50
390
F
347
46
348
0
  0
LAYER
  5
258
330
2
100
AcDbSymbolTableRecord
100
AcDbLayerTableRecord
  2
ConnectionPoints
 70
     0
 62
     7
  6
Continuous
370
    50
390
F
347
46
348
0
  0
ENDTAB
  0
TABLE
  2
STYLE
  5
3
330
0
100
AcDbSymbolTable
 70
     1
  0
STYLE
  5
11
330
3
100
AcDbSymbolTableRecord
100
AcDbTextStyleTableRecord
  2
Standard
 70
     0
 40
0.0
 41
1.0
 50
0.0
 71
     0
 42
0.2
  3
txt
  4

  0
ENDTAB
  0
TABLE
  2
VIEW
  5
6
330
0
100
AcDbSymbolTable
 70
     0
  0
ENDTAB
  0
TABLE
  2
UCS
  5
7
330
0
100
AcDbSymbolTable
 70
     0
  0
ENDTAB
  0
TABLE
  2
APPID
  5
9
330
0
100
AcDbSymbolTable
 70
     1
  0
APPID
  5
12
330
9
100
AcDbSymbolTableRecord
100
AcDbRegAppTableRecord
  2
ACAD
 70
     0
  0
ENDTAB
  0
TABLE
  2
DIMSTYLE
  5
A
330
0
100
AcDbSymbolTable
 70
     1
100
AcDbDimStyleTable
  0
DIMSTYLE
105
27
330
A
100
AcDbSymbolTableRecord
100
AcDbDimStyleTableRecord
  2
Standard
 70
     0
178
     0
340
11
  0
ENDTAB
  0
TABLE
  2
BLOCK_RECORD
  5
1
330
0
100
AcDbSymbolTable
 70
     6
  0
BLOCK_RECORD
  5
1F
330
1
100
AcDbSymbolTableRecord
100
AcDbBlockTableRecord
  2
*Model_Space
340
22
 70
     0
280
     1
281
     0
  0
BLOCK_RECORD
  5
1B
330
1
100
AcDbSymbolTableRecord
100
AcDbBlockTableRecord
  2
*Paper_Space
340
1E
 70
     0
280
     1
281
     0
  0
BLOCK_RECORD
  5
23
330
1
100
AcDbSymbolTableRecord
100
AcDbBlockTableRecord
  2
*Paper_Space0
340
26
 70
     0
280
     1
281
     0
  0
BLOCK_RECORD
  5
6E
330
1
100
AcDbSymbolTableRecord
100
AcDbBlockTableRecord
  2
1_136174_0
340
0
102
{BLKREFS
331
6F
102
}
 70
     0
280
     1
281
     0
  0
BLOCK_RECORD
  5
8E
330
1
100
AcDbSymbolTableRecord
100
AcDbBlockTableRecord
  2
2_405016_Inch_0_in_136174_0
340
0
102
{BLKREFS
331
8F
102
}
 70
     0
280
     1
281
     0
  0
BLOCK_RECORD
  5
10B
330
1
100
AcDbSymbolTableRecord
100
AcDbBlockTableRecord
  2
3_129522I_0_in_136174_0
340
0
102
{BLKREFS
331
10C
102
}
 70
     0
280
     1
281
     0
  0
BLOCK_RECORD
  5
132
330
1
100
AcDbSymbolTableRecord
100
AcDbBlockTableRecord
  2
4_129928_0_in_136174_0
340
0
102
{BLKREFS
331
133
102
}
 70
     0
280
     1
281
     0
  0
BLOCK_RECORD
  5
172
330
1
100
AcDbSymbolTableRecord
100
AcDbBlockTableRecord
  2
5_WSTU_GT_09I_0_in_136174_0
340
0
102
{BLKREFS
331
173
102
}
 70
     0
280
     1
281
     0
  0
ENDTAB
  0
ENDSEC
  0
SECTION
  2
BLOCKS
  0
BLOCK
  5
20
330
1F
100
AcDbEntity
  8
0
100
AcDbBlockBegin
  2
*Model_Space
 70
     0
 10
0.0
 20
0.0
 30
0.0
  3
*Model_Space
  1

  0
ENDBLK
  5
21
330
1F
100
AcDbEntity
  8
0
100
AcDbBlockEnd
  0
BLOCK
  5
1C
330
1B
100
AcDbEntity
 67
     1
  8
0
100
AcDbBlockBegin
  2
*Paper_Space
 70
     0
 10
0.0
 20
0.0
 30
0.0
  3
*Paper_Space
  1

  0
ENDBLK
  5
1D
330
1B
100
AcDbEntity
 67
     1
  8
0
100
AcDbBlockEnd
  0
BLOCK
  5
24
330
23
100
AcDbEntity
  8
0
100
AcDbBlockBegin
  2
*Paper_Space0
 70
     0
 10
0.0
 20
0.0
 30
0.0
  3
*Paper_Space0
  1

  0
ENDBLK
  5
25
330
23
100
AcDbEntity
  8
0
100
AcDbBlockEnd
  0
BLOCK
  5
70
330
6E
100
AcDbEntity
  8
0
100
AcDbBlockBegin
  2
1_136174_0
 70
     2
 10
0.0
 20
0.0
 30
0.0
  3
1_136174_0
  1

  0
ATTDEF
  5
73
330
6E
100
AcDbEntity
  8
AM_6
100
AcDbText
 10
9.471875
 20
2.37499525
 30
0.0
 40
0.5
  1
Grip Tight Medium Duty Wide Slot Take Up Inch Bore
100
AcDbAttributeDefinition
  3

  2
NN
 70
     8
280
     0
  0
ATTDEF
  5
74
330
6E
100
AcDbEntity
  8
AM_6
100
AcDbText
 10
9.471875
 20
1.87499525
 30
0.0
 40
0.5
  1
GT Wide Slot Take-Up Bearings -(Medium Duty)
100
AcDbAttributeDefinition
  3

  2
NT
 70
     8
280
     0
  0
ATTDEF
  5
75
330
6E
100
AcDbEntity
  8
AM_6
100
AcDbText
 10
9.471875
 20
1.37499525
 30
0.0
 40
0.5
  1
136174
100
AcDbAttributeDefinition
  3

  2
NB
 70
     8
280
     0
  0
ATTDEF
  5
76
330
6E
100
AcDbEntity
  8
AM_6
100
AcDbText
 10
9.471875
 20
0.87499525
 30
0.0
 40
0.5
  1
$PN.$LUBE.
100
AcDbAttributeDefinition
  3

  2
NBSYN
 70
     8
280
     0
  0
ATTDEF
  5
77
330
6E
100
AcDbEntity
  8
AM_6
100
AcDbText
 10
9.471875
 20
0.37499525
 30
0.0
 40
0.5
  1
136174
100
AcDbAttributeDefinition
  3

  2
LINA
 70
     8
280
     0
  0
ATTDEF
  5
78
330
6E
100
AcDbEntity
  8
AM_6
100
AcDbText
 10
9.471875
 20
-0.12500475
 30
0.0
 40
0.5
  1
209
100
AcDbAttributeDefinition
  3

  2
SERIES
 70
     8
280
     0
  0
ATTDEF
  5
79
330
6E
100
AcDbEntity
  8
AM_6
100
AcDbText
 10
9.471875
 20
-0.62500475
 30
0.0
 40
0.5
  1
1-1/2
100
AcDbAttributeDefinition
  3

  2
SS
 70
     8
280
     0
  0
ATTDEF
  5
7A
330
6E
100
AcDbEntity
  8
AM_6
100
AcDbText
 10
9.471875
 20
-1.12500475
 30
0.0
 40
0.5
  1
136174
100
AcDbAttributeDefinition
  3

  2
PN
 70
     8
280
     0
  0
ATTDEF
  5
7B
330
6E
100
AcDbEntity
  8
AM_6
100
AcDbText
 10
9.471875
 20
-1.62500475
 30
0.0
 40
0.5
  1
WSTU-GTM-108
100
AcDbAttributeDefinition
  3

  2
DESCRIPTION
 70
     8
280
     0
  0
ATTDEF
  5
7C
330
6E
100
AcDbEntity
  8
AM_6
100
AcDbText
 10
9.471875
 20
-2.12500475
 30
0.0
 40
0.5
  1
1-27/32
100
AcDbAttributeDefinition
  3

  2
A
 70
     8
280
     0
  0
ATTDEF
  5
7D
330
6E
100
AcDbEntity
  8
AM_6
100
AcDbText
 10
9.471875
 20
-2.62500475
 30
0.0
 40
0.5
  1
5-5/8
100
AcDbAttributeDefinition
  3

  2
B
 70
     8
280
     0
  0
ATTDEF
  5
7E
330
6E
100
AcDbEntity
  8
AM_6
100
AcDbText
 10
9.471875
 20
-3.12500475
 30
0.0
 40
0.5
  1
0.673/0.703
100
AcDbAttributeDefinition
  3

  2
C
 70
     8
280
     0
  0
ATTDEF
  5
7F
330
6E
100
AcDbEntity
  8
AM_6
100
AcDbText
 10
9.471875
 20
-3.62500475
 30
0.0
 40
0.5
  1
3-1/4
100
AcDbAttributeDefinition
  3

  2
D
 70
     8
280
     0
  0
ATTDEF
  5
80
330
6E
100
AcDbEntity
  8
AM_6
100
AcDbText
 10
9.471875
 20
-4.12500475
 30
0.0
 40
0.5
  1
3-7/16
100
AcDbAttributeDefinition
  3

  2
E
 70
     8
280
     0
  0
ATTDEF
  5
81
330
6E
100
AcDbEntity
  8
AM_6
100
AcDbText
 10
9.471875
 20
-4.62500475
 30
0.0
 40
0.5
  1
1
100
AcDbAttributeDefinition
  3

  2
F
 70
     8
280
     0
  0
ATTDEF
  5
82
330
6E
100
AcDbEntity
  8
AM_6
100
AcDbText
 10
9.471875
 20
-5.12500475
 30
0.0
 40
0.5
  1
5/8
100
AcDbAttributeDefinition
  3

  2
G
 70
     8
280
     0
  0
ATTDEF
  5
83
330
6E
100
AcDbEntity
  8
AM_6
100
AcDbText
 10
9.471875
 20
-5.62500475
 30
0.0
 40
0.5
  1
3/4
100
AcDbAttributeDefinition
  3

  2
H
 70
     8
280
     0
  0
ATTDEF
  5
84
330
6E
100
AcDbEntity
  8
AM_6
100
AcDbText
 10
9.471875
 20
-6.12500475
 30
0.0
 40
0.5
  1
3-1/4
100
AcDbAttributeDefinition
  3

  2
J
 70
     8
280
     0
  0
ATTDEF
  5
85
330
6E
100
AcDbEntity
  8
AM_6
100
AcDbText
 10
9.471875
 20
-6.62500475
 30
0.0
 40
0.5
  1
1-15/16
100
AcDbAttributeDefinition
  3

  2
K
 70
     8
280
     0
  0
ATTDEF
  5
86
330
6E
100
AcDbEntity
  8
AM_6
100
AcDbText
 10
9.471875
 20
-7.12500475
 30
0.0
 40
0.5
  1
2-43/64
100
AcDbAttributeDefinition
  3

  2
L
 70
     8
280
     0
  0
ATTDEF
  5
87
330
6E
100
AcDbEntity
  8
AM_6
100
AcDbText
 10
9.471875
 20
-7.62500475
 30
0.0
 40
0.5
  1
3.985/4.015
100
AcDbAttributeDefinition
  3

  2
M
 70
     8
280
     0
  0
ATTDEF
  5
88
330
6E
100
AcDbEntity
  8
AM_6
100
AcDbText
 10
9.471875
 20
-8.12500475
 30
0.0
 40
0.5
  1
4-3/4
100
AcDbAttributeDefinition
  3

  2
N
 70
     8
280
     0
  0
ATTDEF
  5
89
330
6E
100
AcDbEntity
  8
AM_6
100
AcDbText
 10
9.471875
 20
-8.62500475
 30
0.0
 40
0.5
  1
21/32
100
AcDbAttributeDefinition
  3

  2
R
 70
     8
280
     0
  0
ATTDEF
  5
8A
330
6E
100
AcDbEntity
  8
AM_6
100
AcDbText
 10
9.471875
 20
-9.12500475
 30
0.0
 40
0.5
  1
1-3/16
100
AcDbAttributeDefinition
  3

  2
S
 70
     8
280
     0
  0
ATTDEF
  5
8B
330
6E
100
AcDbEntity
  8
AM_6
100
AcDbText
 10
9.471875
 20
-9.62500475
 30
0.0
 40
0.5
  1
1-15/16
100
AcDbAttributeDefinition
  3

  2
T
 70
     8
280
     0
  0
ATTDEF
  5
8C
330
6E
100
AcDbEntity
  8
AM_6
100
AcDbText
 10
9.471875
 20
-10.12500475
 30
0.0
 40
0.5
  1
1-5/32
100
AcDbAttributeDefinition
  3

  2
Z
 70
     8
280
     0
  0
ATTDEF
  5
8D
330
6E
100
AcDbEntity
  8
AM_6
100
AcDbText
 10
9.471875
 20
-10.62500475
 30
0.0
 40
0.5
  1
baldor
100
AcDbAttributeDefinition
  3

  2
COMPANY
 70
     8
280
     0
  0
INSERT
  5
8F
330
6E
100
AcDbEntity
  8
0
100
AcDbBlockReference
  2
2_405016_Inch_0_in_136174_0
 10
0.0
 20
0.0
 30
0.0
  0
INSERT
  5
10C
330
6E
100
AcDbEntity
  8
0
100
AcDbBlockReference
  2
3_129522I_0_in_136174_0
 10
0.0
 20
0.0
 30
0.0
  0
INSERT
  5
133
330
6E
100
AcDbEntity
  8
0
100
AcDbBlockReference
  2
4_129928_0_in_136174_0
 10
0.0
 20
0.0
 30
0.0
  0
INSERT
  5
173
330
6E
100
AcDbEntity
  8
0
100
AcDbBlockReference
  2
5_WSTU_GT_09I_0_in_136174_0
 10
0.0
 20
0.0
 30
0.0
  0
ENDBLK
  5
71
330
6E
100
AcDbEntity
  8
0
100
AcDbBlockEnd
  0
BLOCK
  5
90
330
8E
100
AcDbEntity
  8
0
100
AcDbBlockBegin
  2
2_405016_Inch_0_in_136174_0
 70
     2
 10
0.0
 20
0.0
 30
0.0
  3
2_405016_Inch_0_in_136174_0
  1

  0
ATTDEF
  5
92
330
8E
100
AcDbEntity
  8
AM_6
100
AcDbText
 10
3.289241808859554
 20
-0.8856756983551582
 30
0.0
 40
0.5
  1
405016 -Inch
100
AcDbAttributeDefinition
  3

  2
NN
 70
     8
280
     0
  0
ATTDEF
  5
93
330
8E
100
AcDbEntity
  8
AM_6
100
AcDbText
 10
3.289241808859554
 20
-1.385675698355158
 30
0.0
 40
0.5
  1
Grease Fitting
100
AcDbAttributeDefinition
  3

  2
NT
 70
     8
280
     0
  0
ATTDEF
  5
94
330
8E
100
AcDbEntity
  8
AM_6
100
AcDbText
 10
3.289241808859554
 20
-1.885675698355158
 30
0.0
 40
0.5
  1
405016-Inch
100
AcDbAttributeDefinition
  3

  2
NB
 70
     8
280
     0
  0
ATTDEF
  5
95
330
8E
100
AcDbEntity
  8
AM_6
100
AcDbText
 10
3.289241808859554
 20
-2.385675698355158
 30
0.0
 40
0.5
  1
$MN.-Inch
100
AcDbAttributeDefinition
  3

  2
NBSYN
 70
     8
280
     0
  0
ATTDEF
  5
96
330
8E
100
AcDbEntity
  8
AM_6
100
AcDbText
 10
3.289241808859554
 20
-2.885675698355158
 30
0.0
 40
0.5
  1
405016
100
AcDbAttributeDefinition
  3

  2
LINA
 70
     8
280
     0
  0
ATTDEF
  5
97
330
8E
100
AcDbEntity
  8
AM_6
100
AcDbText
 10
3.289241808859554
 20
-3.385675698355158
 30
0.0
 40
0.5
  1
405016
100
AcDbAttributeDefinition
  3

  2
MN
 70
     8
280
     0
  0
ATTDEF
  5
98
330
8E
100
AcDbEntity
  8
AM_6
100
AcDbText
 10
3.289241808859554
 20
-3.885675698355158
 30
0.0
 40
0.5
  1
7/16 HEX
100
AcDbAttributeDefinition
  3

  2
H
 70
     8
280
     0
  0
ATTDEF
  5
99
330
8E
100
AcDbEntity
  8
AM_6
100
AcDbText
 10
3.289241808859554
 20
-4.385675698355158
 30
0.0
 40
0.5
  1
0.383
100
AcDbAttributeDefinition
  3

  2
NDR
 70
     8
280
     0
  0
ATTDEF
  5
9A
330
8E
100
AcDbEntity
  8
AM_6
100
AcDbText
 10
3.289241808859554
 20
-4.885675698355158
 30
0.0
 40
0.5
  1
0.337
100
AcDbAttributeDefinition
  3

  2
KDR
 70
     8
280
     0
  0
ATTDEF
  5
9B
330
8E
100
AcDbEntity
  8
AM_6
100
AcDbText
 10
3.289241808859554
 20
-5.385675698355158
 30
0.0
 40
0.5
  1
0.1575
100
AcDbAttributeDefinition
  3

  2
BZE
 70
     8
280
     0
  0
ATTDEF
  5
9C
330
8E
100
AcDbEntity
  8
AM_6
100
AcDbText
 10
3.289241808859554
 20
-5.885675698355158
 30
0.0
 40
0.5
  1
0.4375
100
AcDbAttributeDefinition
  3

  2
HEX
 70
     8
280
     0
  0
ATTDEF
  5
9D
330
8E
100
AcDbEntity
  8
AM_6
100
AcDbText
 10
3.289241808859554
 20
-6.385675698355158
 30
0.0
 40
0.5
  1
0.281250
100
AcDbAttributeDefinition
  3

  2
HEX2
 70
     8
280
     0
  0
ATTDEF
  5
9E
330
8E
100
AcDbEntity
  8
AM_6
100
AcDbText
 10
3.289241808859554
 20
-6.885675698355158
 30
0.0
 40
0.5
  1
baldor
100
AcDbAttributeDefinition
  3

  2
COMPANY
 70
     8
280
     0
  0
LINE
  5
A1
330
8E
100
AcDbEntity
  8
AM_9
100
AcDbLine
 10
-1.710758191140446
 20
-1.174379893480119
 30
0.0
 11
-1.87242191701767
 21
-0.8943701065198802
 31
0.0
  0
LINE
  5
A2
330
8E
100
AcDbEntity
  8
AM_9
100
AcDbLine
 10
-1.87242191701767
 20
-0.8943701065198802
 30
0.0
 11
-1.904869890030154
 21
-0.8856756983551582
 31
0.0
  0
LINE
  5
A3
330
8E
100
AcDbEntity
  8
AM_9
100
AcDbLine
 10
-1.719452599305168
 20
-1.206827866492603
 30
0.0
 11
-1.710758191140446
 21
-1.174379893480119
 31
0.0
  0
ARC
  5
A4
330
8E
100
AcDbEntity
  8
AM_9
100
AcDbCircle
 10
-2.262491367386848
 20
-1.30625
 30
0.0
 40
0.1999999999999987
100
AcDbArc
 50
166.0493374558447
 51
254.1862140460518
  0
LINE
  5
A5
330
8E
100
AcDbEntity
  8
AM_9
100
AcDbLine
 10
-1.719452599305168
 20
-1.206827866492603
 30
0.0
 11
-1.904869890030154
 21
-0.8856756983551582
 31
0.0
  0
LINE
  5
A6
330
8E
100
AcDbEntity
  8
AM_9
100
AcDbLine
 10
-1.904869890030154
 20
-0.8856756983551582
 30
0.0
 11
-2.076788728082019
 21
-0.9778964063755987
 31
0.0
  0
LINE
  5
A7
330
8E
100
AcDbEntity
  8
AM_9
100
AcDbLine
 10
-1.885277494231789
 20
-1.309603593624401
 30
0.0
 11
-1.719452599305168
 21
-1.206827866492603
 31
0.0
  0
LINE
  5
A8
330
8E
100
AcDbEntity
  8
AM_9
100
AcDbLine
 10
-2.407901008970987
 20
-1.48395229571137
 30
0.0
 11
-2.419222582194864
 21
-1.490488809059826
 31
0.0
  0
LINE
  5
A9
330
8E
100
AcDbEntity
  8
AM_9
100
AcDbLine
 10
-2.489090890575778
 20
-1.34332729571137
 30
0.0
 11
-2.500412463799655
 21
-1.349863809059826
 31
0.0
  0
LWPOLYLINE
  5
AA
330
8E
100
AcDbEntity
  8
AM_9
100
AcDbPolyline
 90
        6
 70
     0
 43
0.0
 10
-2.489090890575778
 20
-1.34332729571137
 10
-2.47247504858825
 20
-1.367260622598914
 10
-2.456420435933116
 20
-1.392117212109331
 10
-2.440936769869433
 20
-1.418316312422038
 10
-2.426447854754683
 20
-1.445345324422914
 10
-2.407901008970987
 20
-1.48395229571137
  0
LINE
  5
AB
330
8E
100
AcDbEntity
  8
AM_9
100
AcDbLine
 10
-2.207782295305727
 20
-1.401008892479447
 30
0.0
 11
-2.317704143396286
 21
-1.210618666724731
 31
0.0
  0
ELLIPSE
  5
AC
330
8E
100
AcDbEntity
  8
AM_9
100
AcDbEllipse
 10
-2.333107502882144
 20
-1.347020244837341
 30
0.0
 11
-0.0703125
 21
0.1217848224071865
 31
0.0
210
0.0
220
0.0
230
1.0
 40
0.9063077870366516
 41
5.859216366485141
 42
9.848746901463826
  0
LWPOLYLINE
  5
AD
330
8E
100
AcDbEntity
  8
AM_9
100
AcDbPolyline
 90
        6
 70
     0
 43
0.0
 10
-2.407901008970987
 20
-1.48395229571137
 10
-2.378696401471463
 20
-1.483896258798399
 10
-2.349822632757332
 20
-1.484335121917566
 10
-2.321133902169803
 20
-1.485396289109958
 10
-2.293345420596832
 20
-1.487113121169831
 10
-2.25672616293249
 20
-1.490421457656343
  0
LWPOLYLINE
  5
AE
330
8E
100
AcDbEntity
  8
AM_9
100
AcDbPolyline
 90
        7
 70
     0
 43
0.0
 10
-2.419105926142072
 20
-1.209171457656344
 10
-2.429415062499401
 20
-1.231742854288234
 10
-2.440758889333611
 20
-1.255206884363538
 10
-2.453472863910418
 20
-1.279960167846305
 10
-2.46736879010011
 20
-1.305518689712644
 10
-2.478042129740754
 20
-1.324357171961479
 10
-2.489090890575778
 20
-1.34332729571137
  0
LWPOLYLINE
  5
AF
330
8E
100
AcDbEntity
  8
AM_9
100
AcDbPolyline
 90
        5
 70
     0
 43
0.0
 10
-2.217922267202886
 20
-1.383445945966246
 10
-2.225889732279079
 20
-1.398959976006311
 10
-2.236645805713261
 20
-1.41310797563067
 10
-2.249288857235704
 20
-1.424705943415793
 10
-2.259698382855756
 20
-1.431654528105156
  0
LWPOLYLINE
  5
B0
330
8E
100
AcDbEntity
  8
AM_9
100
AcDbPolyline
 90
       13
 70
     0
 43
0.0
 10
-2.217922267202886
 20
-1.383445945966246
 10
-2.212967606730818
 20
-1.367451216295605
 10
-2.210859722264076
 20
-1.351394458256412
 10
-2.211339493981962
 20
-1.334627825105295
 10
-2.2145550309346
 20
-1.317179808725254
 10
-2.220573394177382
 20
-1.299707633207593
 10
-2.228924481997129
 20
-1.283497492794571
 10
-2.239798082473878
 20
-1.268227046299115
 10
-2.25219640418786
 20
-1.255297828583382
 10
-2.266619834553852
 20
-1.244245849846331
 10
-2.28213281441467
 20
-1.235976804053058
 10
-2.299226218201641
 20
-1.230453487144151
 10
-2.307060467570806
 20
-1.229054054033754
  0
LINE
  5
B1
330
8E
100
AcDbEntity
  8
AM_9
100
AcDbLine
 10
-2.369688593496188
 20
-1.241123288128892
 30
0.0
 11
-2.388107502882144
 21
-1.251757450421053
 31
0.0
  0
LINE
  5
B2
330
8E
100
AcDbEntity
  8
AM_9
100
AcDbLine
 10
-2.278107502882144
 20
-1.442283039253629
 30
0.0
 11
-2.259688664855032
 21
-1.431648918160516
 31
0.0
  0
LWPOLYLINE
  5
B3
330
8E
100
AcDbEntity
  8
AM_9
100
AcDbPolyline
 90
        3
 70
     0
 43
0.0
 10
-2.384065934021112
 20
-1.251284431162258
 10
-2.37455793106303
 20
-1.244131372029879
 10
-2.369696283898778
 20
-1.241127728641494
  0
LWPOLYLINE
  5
B4
330
8E
100
AcDbEntity
  8
AM_9
100
AcDbPolyline
 90
       19
 70
     0
 43
0.0
 10
-2.275080236458874
 20
-1.438805791721221
 10
-2.280081157188426
 20
-1.440462011960484
 10
-2.297442127010145
 20
-1.444011709638181
 10
-2.314797604140389
 20
-1.444434256104104
 10
-2.332655315724678
 20
-1.441740967168627
 10
-2.349485077224752
 20
-1.436167196040507
 10
-2.365801821125457
 20
-1.427547239076489
 10
-2.380200871985291
 20
-1.416630991490922
 10
-2.393133224851038
 20
-1.403086212655024
 10
-2.403492953010738
 20
-1.388080271317741
 10
-2.411603127827436
 20
-1.371158286749774
 10
-2.416779769018277
 20
-1.353754703027538
 10
-2.419179705462426
 20
-1.335357393511457
 10
-2.418602121505299
 20
-1.317497455120003
 10
-2.415030417696175
 20
-1.299672481606624
 10
-2.408752870428512
 20
-1.2833460564441
 10
-2.399595271365791
 20
-1.268078872764631
 10
-2.38829908220378
 20
-1.255120478489193
 10
-2.384065934021112
 20
-1.251284431162258
  0
LWPOLYLINE
  5
B5
330
8E
100
AcDbEntity
  8
AM_9
100
AcDbPolyline
 90
        3
 70
     0
 43
0.0
 10
-2.259698382855756
 20
-1.431654528105156
 10
-2.264179280381545
 20
-1.434084802540261
 10
-2.275080236458874
 20
-1.438805791721221
  0
LWPOLYLINE
  5
B6
330
8E
100
AcDbEntity
  8
AM_9
100
AcDbPolyline
 90
        5
 70
     0
 43
0.0
 10
-2.369696283898778
 20
-1.241127728641494
 10
-2.359496441323548
 20
-1.236018942862664
 10
-2.342703018503888
 20
-1.230570477436415
 10
-2.325303682349892
 20
-1.228230939756072
 10
-2.307060467570789
 20
-1.229054054033761
  0
ELLIPSE
  5
B7
330
8E
100
AcDbEntity
  8
AM_9
100
AcDbEllipse
 10
-2.333107502882142
 20
-1.34702024483734
 30
0.0
 11
-0.07031249999999822
 21
0.1217848224071856
 31
0.0
210
0.0
220
0.0
230
1.0
 40
0.9063077870366515
 41
3.764821264091943
 42
4.57143271980271
  0
ELLIPSE
  5
B8
330
8E
100
AcDbEntity
  8
AM_9
100
AcDbEllipse
 10
-2.333107502882144
 20
-1.347020244837343
 30
0.0
 11
-0.07031250000001862
 21
0.1217848224071789
 31
0.0
210
0.0
220
0.0
230
1.0
 40
0.9063077870366858
 41
4.853345240966584
 42
5.659956696677302
  0
LWPOLYLINE
  5
B9
330
8E
100
AcDbEntity
  8
AM_9
100
AcDbPolyline
 90
        5
 70
     0
 43
0.0
 10
-2.419222582194864
 20
-1.490488809059826
 10
-2.44108497069349
 20
-1.457420119967152
 10
-2.461981057623483
 20
-1.423062409178914
 10
-2.481898677178392
 20
-1.386876446285356
 10
-2.500412463799655
 20
-1.349863809059826
  0
LWPOLYLINE
  5
BA
330
8E
100
AcDbEntity
  8
AM_9
100
AcDbPolyline
 90
        4
 70
     0
 43
0.0
 10
-2.316133732003018
 20
-1.49654792953254
 10
-2.345389744551382
 20
-1.495552555641742
 10
-2.383008538912566
 20
-1.493426787031713
 10
-2.419222582194864
 20
-1.490488809059826
  0
LWPOLYLINE
  5
BB
330
8E
100
AcDbEntity
  8
AM_9
100
AcDbPolyline
 90
        4
 70
     0
 43
0.0
 10
-2.500412463799655
 20
-1.349863809059826
 10
-2.485535345756579
 20
-1.318438517736611
 10
-2.469106073513905
 20
-1.285747724328328
 10
-2.454102952976163
 20
-1.257533840774979
  0
ELLIPSE
  5
BC
330
8E
100
AcDbEntity
  8
AM_9
100
AcDbEllipse
 10
-2.351407410420677
 20
-1.357585701380858
 30
0.0
 11
-0.07031250000000003
 21
0.1217848224071867
 31
0.0
210
0.0
220
0.0
230
1.0
 40
0.9063077870366504
 41
0.2501659572928823
 42
2.894928684196459
  0
LWPOLYLINE
  5
BD
330
8E
100
AcDbEntity
  8
AM_9
100
AcDbPolyline
 90
       19
 70
     0
 43
0.0
 10
-2.296722198924357
 20
-1.345265616766836
 10
-2.293242841303908
 20
-1.354937838777571
 10
-2.289248708132605
 20
-1.3721362109898
 10
-2.287947801238752
 20
-1.389204412227232
 10
-2.289281435396199
 20
-1.405609493437918
 10
-2.293106996853139
 20
-1.420891949381969
 10
-2.299243908642608
 20
-1.434692932547374
 10
-2.307541042526529
 20
-1.446755706761521
 10
-2.317947382408719
 20
-1.456877059564783
 10
-2.33051193876507
 20
-1.464785690256099
 10
-2.345150560706861
 20
-1.470010039607676
 10
-2.36104351920401
 20
-1.472016179295922
 10
-2.377326465482299
 20
-1.470736593153709
 10
-2.393439889222409
 20
-1.466348201520445
 10
-2.408956593793076
 20
-1.459058640089309
 10
-2.423452667363962
 20
-1.449101819045427
 10
-2.436495198497544
 20
-1.436777498224024
 10
-2.447672855124661
 20
-1.422470724108353
 10
-2.451930769226331
 20
-1.415622889647148
  0
LWPOLYLINE
  5
BE
330
8E
100
AcDbEntity
  8
AM_9
100
AcDbPolyline
 90
       19
 70
     0
 43
0.0
 10
-2.451930769226331
 20
-1.415622889647148
 10
-2.455624837942557
 20
-1.408728677115008
 10
-2.462417589246079
 20
-1.392038633024555
 10
-2.46658396163316
 20
-1.374851187548882
 10
-2.468056886020742
 20
-1.357758060733437
 10
-2.466888626212103
 20
-1.341295709963716
 10
-2.463217544326191
 20
-1.325929339737211
 10
-2.457223610558164
 20
-1.312024675183993
 10
-2.449062127866899
 20
-1.299844226862232
 10
-2.438791960007498
 20
-1.289591798815411
 10
-2.426366908715028
 20
-1.281529511081184
 10
-2.411849680803806
 20
-1.276115549707624
 10
-2.396007933985267
 20
-1.273895187613695
 10
-2.379730637578395
 20
-1.274967467071599
 10
-2.363592990712513
 20
-1.279161694820453
 10
-2.348025238462747
 20
-1.28627081924021
 10
-2.333450304946393
 20
-1.296063912971269
 10
-2.320301270054663
 20
-1.308246319595834
 10
-2.313622491253153
 20
-1.316094890863244
  0
ELLIPSE
  5
BF
330
8E
100
AcDbEntity
  8
AM_9
100
AcDbEllipse
 10
-2.402408313684662
 20
-1.387031086609234
 30
0.0
 11
0.06659694825923297
 21
-0.1153492980140274
 31
0.0
210
0.0
220
0.0
230
1.0
 40
0.9063077870366515
 41
0.0
 42
6.283185307179586
  0
LINE
  5
C1
330
8E
100
AcDbEntity
  8
AM_5
100
AcDbLine
 10
-1.860949403011363
 20
-1.267466103579453
 30
0.0
 11
-1.710758191140446
 21
-1.174379893480119
 31
0.0
  0
LINE
  5
C2
330
8E
100
AcDbEntity
  8
AM_5
100
AcDbLine
 10
-1.885277494231789
 20
-1.309603593624401
 30
0.0
 11
-1.860949403011363
 21
-1.267466103579453
 31
0.0
  0
LINE
  5
C3
330
8E
100
AcDbEntity
  8
AM_5
100
AcDbLine
 10
-1.849443788586251
 20
-1.287394412336045
 30
0.0
 11
-2.039638160066279
 21
-0.9579680976190067
 31
0.0
  0
LINE
  5
C4
330
8E
100
AcDbEntity
  8
AM_5
100
AcDbLine
 10
-2.028132545641167
 20
-0.9778964063755987
 30
0.0
 11
-1.87242191701767
 21
-0.8943701065198801
 31
0.0
  0
LINE
  5
C5
330
8E
100
AcDbEntity
  8
AM_5
100
AcDbLine
 10
-2.076788728082019
 20
-0.9778964063755988
 30
0.0
 11
-2.028132545641167
 21
-0.9778964063755987
 31
0.0
  0
ELLIPSE
  5
C6
330
8E
100
AcDbEntity
  8
AM_9
100
AcDbEllipse
 10
-2.333107502882144
 20
-1.34702024483734
 30
0.0
 11
-0.0550000000000006
 21
0.09526279441628849
 31
0.0
210
0.0
220
0.0
230
1.0
 40
0.9063077870366489
 41
0.0
 42
6.283185307179586
  0
LINE
  5
C9
330
8E
100
AcDbEntity
  8
AM_7
100
AcDbLine
 10
-2.472491367386848
 20
-1.306249999999998
 30
0.0
 11
-2.052491367386844
 21
-1.306249999999998
 31
0.0
  0
LINE
  5
CA
330
8E
100
AcDbEntity
  8
AM_7
100
AcDbLine
 10
-2.262491367386846
 20
-1.516249999999999
 30
0.0
 11
-2.262491367386846
 21
-1.096249999999996
 31
0.0
  0
LINE
  5
CC
330
8E
100
AcDbEntity
  8
AM_4
100
AcDbLine
 10
-2.025918886206007
 20
-1.422255557077846
 30
0.0
 11
-2.244668886206007
 21
-1.043369442922154
 31
0.0
  0
LINE
  5
CD
330
8E
100
AcDbEntity
  8
AM_4
100
AcDbLine
 10
-2.253736485902621
 20
-1.009528700151693
 30
0.0
 11
-2.244668886206007
 21
-1.043369442922154
 31
0.0
  0
LINE
  5
CE
330
8E
100
AcDbEntity
  8
AM_4
100
AcDbLine
 10
-2.025918886206007
 20
-1.422255557077846
 30
0.0
 11
-2.00114574313216
 21
-1.447028700151692
 31
0.0
  0
LINE
  5
CF
330
8E
100
AcDbEntity
  8
AM_4
100
AcDbLine
 10
-1.930248746130949
 20
-1.406096299848307
 30
0.0
 11
-1.939316345827563
 21
-1.372255557077846
 31
0.0
  0
LINE
  5
D0
330
8E
100
AcDbEntity
  8
AM_4
100
AcDbLine
 10
-1.939316345827563
 20
-1.372255557077846
 30
0.0
 11
-2.158066345827563
 21
-0.9933694429221538
 31
0.0
  0
LINE
  5
D1
330
8E
100
AcDbEntity
  8
AM_4
100
AcDbLine
 10
-2.158066345827563
 20
-0.9933694429221538
 30
0.0
 11
-2.18283948890141
 21
-0.968596299848307
 31
0.0
  0
ARC
  5
D2
330
8E
100
AcDbEntity
  8
AM_4
100
AcDbCircle
 10
-2.262491367386846
 20
-1.306249999999997
 30
0.0
 40
0.200000000000002
100
AcDbArc
 50
254.1862140460515
 51
299.9999999999995
  0
ARC
  5
D3
330
8E
100
AcDbEntity
  8
AM_4
100
AcDbCircle
 10
-2.262491367386847
 20
-1.30625
 30
0.0
 40
0.1999999999999995
100
AcDbArc
 50
119.9999999999998
 51
166.0493374558448
  0
LINE
  5
D4
330
8E
100
AcDbEntity
  8
AM_4
100
AcDbLine
 10
-2.081033111156904
 20
-0.970544919243112
 30
0.0
 11
-2.148691345827563
 21
-1.009607419243112
 31
0.0
  0
LINE
  5
D5
330
8E
100
AcDbEntity
  8
AM_4
100
AcDbLine
 10
-1.948691345827563
 20
-1.356017580756887
 30
0.0
 11
-1.881033111156904
 21
-1.316955080756887
 31
0.0
  0
LINE
  5
D6
330
8E
100
AcDbEntity
  8
AM_4
100
AcDbLine
 10
-2.317704143396286
 20
-1.210618666724731
 30
0.0
 11
-2.362491367386846
 21
-1.133044919243112
 31
0.0
  0
LINE
  5
D7
330
8E
100
AcDbEntity
  8
AM_4
100
AcDbLine
 10
-2.235293886206007
 20
-1.059607419243112
 30
0.0
 11
-2.362491367386846
 21
-1.133044919243112
 31
0.0
  0
LINE
  5
D8
330
8E
100
AcDbEntity
  8
AM_4
100
AcDbLine
 10
-2.162491367386846
 20
-1.479455080756888
 30
0.0
 11
-2.035293886206007
 21
-1.406017580756888
 31
0.0
  0
LINE
  5
D9
330
8E
100
AcDbEntity
  8
AM_4
100
AcDbLine
 10
-2.162491367386846
 20
-1.479455080756888
 30
0.0
 11
-2.207782295305727
 21
-1.401008892479447
 31
0.0
  0
LINE
  5
DA
330
8E
100
AcDbEntity
  8
AM_4
100
AcDbLine
 10
-2.253736485902621
 20
-1.009528700151693
 30
0.0
 11
-2.18283948890141
 21
-0.968596299848307
 31
0.0
  0
LWPOLYLINE
  5
DB
330
8E
100
AcDbEntity
  8
AM_4
100
AcDbPolyline
 90
        3
 70
     0
 43
0.0
 10
-2.23001541474493
 20
-1.06875
 10
-2.243729607607314
 20
-1.040209559607483
 10
-2.253736485902621
 20
-1.009528700151693
  0
LWPOLYLINE
  5
DC
330
8E
100
AcDbEntity
  8
AM_4
100
AcDbPolyline
 90
        3
 70
     0
 43
0.0
 10
-2.18283948890141
 20
-0.968596299848307
 10
-2.161361817983787
 20
-0.9924905676118846
 10
-2.143412874366486
 20
-1.01875
  0
LINE
  5
DD
330
8E
100
AcDbEntity
  8
AM_4
100
AcDbLine
 10
-2.190588800210006
 20
-1.118903700151693
 30
0.0
 11
-2.119691803208795
 21
-1.077971299848307
 31
0.0
  0
LWPOLYLINE
  5
DE
330
8E
100
AcDbEntity
  8
AM_4
100
AcDbPolyline
 90
        3
 70
     0
 43
0.0
 10
-2.048691345827563
 20
-1.1828125
 10
-2.019190231542025
 20
-1.238696690392517
 10
-1.993396431823564
 20
-1.296721299848307
  0
LWPOLYLINE
  5
DF
330
8E
100
AcDbEntity
  8
AM_4
100
AcDbPolyline
 90
        3
 70
     0
 43
0.0
 10
-2.143412874366486
 20
-1.01875
 10
-2.129698681504102
 20
-1.047290440392517
 10
-2.119691803208795
 20
-1.077971299848307
  0
LWPOLYLINE
  5
E0
330
8E
100
AcDbEntity
  8
AM_4
100
AcDbPolyline
 90
        4
 70
     0
 43
0.0
 10
-2.119691803208795
 20
-1.077971299848307
 10
-2.10183907039794
 20
-1.101722765773117
 10
-2.074197369931374
 20
-1.141486426839267
 10
-2.048691345827563
 20
-1.1828125
  0
LWPOLYLINE
  5
E1
330
8E
100
AcDbEntity
  8
AM_4
100
AcDbPolyline
 90
        4
 70
     0
 43
0.0
 10
-2.135293886206007
 20
-1.2328125
 10
-2.158266150641509
 20
-1.190188249398529
 10
-2.178945793747427
 20
-1.146240353255273
 10
-2.190588800210006
 20
-1.118903700151693
  0
LWPOLYLINE
  5
E2
330
8E
100
AcDbEntity
  8
AM_4
100
AcDbPolyline
 90
        3
 70
     0
 43
0.0
 10
-2.190588800210006
 20
-1.118903700151693
 10
-2.212066471127629
 20
-1.095009432388115
 10
-2.23001541474493
 20
-1.06875
  0
LWPOLYLINE
  5
E3
330
8E
100
AcDbEntity
  8
AM_4
100
AcDbPolyline
 90
        3
 70
     0
 43
0.0
 10
-2.064293428824775
 20
-1.337653700151692
 10
-2.101487038915846
 20
-1.28653862725104
 10
-2.135293886206007
 20
-1.2328125
  0
LINE
  5
E4
330
8E
100
AcDbEntity
  8
AM_4
100
AcDbLine
 10
-2.064293428824775
 20
-1.337653700151692
 30
0.0
 11
-1.993396431823564
 21
-1.296721299848307
 31
0.0
  0
LWPOLYLINE
  5
E5
330
8E
100
AcDbEntity
  8
AM_4
100
AcDbPolyline
 90
        3
 70
     0
 43
0.0
 10
-2.040572357667084
 20
-1.396875
 10
-2.054286550529469
 20
-1.368334559607483
 10
-2.064293428824775
 20
-1.337653700151692
  0
LWPOLYLINE
  5
E6
330
8E
100
AcDbEntity
  8
AM_4
100
AcDbPolyline
 90
        3
 70
     0
 43
0.0
 10
-2.00114574313216
 20
-1.447028700151692
 10
-2.022623414049783
 20
-1.423134432388115
 10
-2.040572357667084
 20
-1.396875
  0
LINE
  5
E7
330
8E
100
AcDbEntity
  8
AM_4
100
AcDbLine
 10
-2.00114574313216
 20
-1.447028700151692
 30
0.0
 11
-1.930248746130949
 21
-1.406096299848307
 31
0.0
  0
LWPOLYLINE
  5
E8
330
8E
100
AcDbEntity
  8
AM_4
100
AcDbPolyline
 90
        3
 70
     0
 43
0.0
 10
-1.95396981728864
 20
-1.346875
 10
-1.940255624426256
 20
-1.375415440392517
 10
-1.930248746130949
 20
-1.406096299848307
  0
LWPOLYLINE
  5
E9
330
8E
100
AcDbEntity
  8
AM_4
100
AcDbPolyline
 90
        3
 70
     0
 43
0.0
 10
-1.993396431823564
 20
-1.296721299848307
 10
-1.971918760905942
 20
-1.320615567611884
 10
-1.95396981728864
 20
-1.346875
  0
LINE
  5
EA
330
8E
100
AcDbEntity
  8
AM_4
100
AcDbLine
 10
-2.268413409152035
 20
-1.497169092407284
 30
0.0
 11
-2.316133732003018
 21
-1.49654792953254
 31
0.0
  0
LINE
  5
EB
330
8E
100
AcDbEntity
  8
AM_4
100
AcDbLine
 10
-2.454102952976163
 20
-1.257533840774979
 30
0.0
 11
-2.430793172361617
 21
-1.215919092407283
 31
0.0
  0
LWPOLYLINE
  5
EC
330
8E
100
AcDbEntity
  8
AM_4
100
AcDbPolyline
 90
        3
 70
     0
 43
0.0
 10
-2.25672616293249
 20
-1.490421457656343
 10
-2.239752480598967
 20
-1.461089189975666
 10
-2.223614223414784
 20
-1.43180747759944
  0
LINE
  5
ED
330
8E
100
AcDbEntity
  8
AM_4
100
AcDbLine
 10
-2.223614223414784
 20
-1.43180747759944
 30
0.0
 11
-2.211592693232977
 21
-1.408715725501071
 31
0.0
  0
LWPOLYLINE
  5
EE
330
8E
100
AcDbEntity
  8
AM_4
100
AcDbPolyline
 90
        4
 70
     0
 43
0.0
 10
-2.211592693232977
 20
-1.408715725501071
 10
-2.202427706656419
 20
-1.390171611213501
 10
-2.194336435877432
 20
-1.373034690571682
 10
-2.186739665199422
 20
-1.356264734350518
  0
LWPOLYLINE
  5
EF
330
8E
100
AcDbEntity
  8
AM_4
100
AcDbPolyline
 90
        3
 70
     0
 43
0.0
 10
-2.241914130953317
 20
-1.442372934142958
 10
-2.25564930871789
 20
-1.470077936735335
 10
-2.268413409152035
 20
-1.497169092407284
  0
LINE
  5
F0
330
8E
100
AcDbEntity
  8
AM_4
100
AcDbLine
 10
-2.25672616293249
 20
-1.490421457656343
 30
0.0
 11
-2.268413409152035
 21
-1.497169092407284
 31
0.0
  0
LWPOLYLINE
  5
F1
330
8E
100
AcDbEntity
  8
AM_4
100
AcDbPolyline
 90
        3
 70
     0
 43
0.0
 10
-2.267929546804213
 20
-1.215639734350518
 10
-2.295991846773056
 20
-1.212988843014547
 10
-2.325779951611043
 20
-1.210937592413266
  0
LINE
  5
F2
330
8E
100
AcDbEntity
  8
AM_4
100
AcDbLine
 10
-2.325779951611043
 20
-1.210937592413266
 30
0.0
 11
-2.351788760637027
 21
-1.209802666893888
 31
0.0
  0
LWPOLYLINE
  5
F3
330
8E
100
AcDbEntity
  8
AM_4
100
AcDbPolyline
 90
        4
 70
     0
 43
0.0
 10
-2.351788760637027
 20
-1.209802666893888
 10
-2.374778795329267
 20
-1.209260369847584
 10
-2.396784665189952
 20
-1.209080911862199
 10
-2.419105926142072
 20
-1.209171457656344
  0
LINE
  5
F4
330
8E
100
AcDbEntity
  8
AM_4
100
AcDbLine
 10
-2.419105926142072
 20
-1.209171457656344
 30
0.0
 11
-2.430793172361617
 21
-1.215919092407283
 31
0.0
  0
LWPOLYLINE
  5
F5
330
8E
100
AcDbEntity
  8
AM_4
100
AcDbPolyline
 90
        3
 70
     0
 43
0.0
 10
-2.430793172361617
 20
-1.215919092407283
 10
-2.401113351127815
 20
-1.218398491521736
 10
-2.37008866817556
 20
-1.220368123437406
  0
LWPOLYLINE
  5
F6
330
8E
100
AcDbEntity
  8
AM_4
100
AcDbPolyline
 90
        3
 70
     0
 43
0.0
 10
-2.344079859149576
 20
-1.221503048956784
 10
-2.312429308295552
 20
-1.22230559349426
 10
-2.279985196115191
 20
-1.222600066725467
  0
LWPOLYLINE
  5
F7
330
8E
100
AcDbEntity
  8
AM_4
100
AcDbPolyline
 90
        3
 70
     0
 43
0.0
 10
-2.1987953145104
 20
-1.363225066725467
 10
-2.214682599073496
 20
-1.391326183495197
 10
-2.22989260077151
 20
-1.419281182044589
  0
LWPOLYLINE
  5
F8
330
8E
100
AcDbEntity
  8
AM_4
100
AcDbPolyline
 90
        3
 70
     0
 43
0.0
 10
-2.186739665199422
 20
-1.356264734350518
 10
-2.199735553049032
 20
-1.328640958955647
 10
-2.213949453163273
 20
-1.301037038418516
  0
LINE
  5
F9
330
8E
100
AcDbEntity
  8
AM_4
100
AcDbLine
 10
-2.213949453163273
 20
-1.301037038418516
 30
0.0
 11
-2.233705853116541
 21
-1.266817949924796
 31
0.0
  0
LWPOLYLINE
  5
FA
330
8E
100
AcDbEntity
  8
AM_4
100
AcDbPolyline
 90
        4
 70
     0
 43
0.0
 10
-2.233705853116541
 20
-1.266817949924796
 10
-2.242954488530435
 20
-1.2521612730526
 10
-2.255252005980069
 20
-1.233704770112759
 10
-2.267929546804213
 20
-1.215639734350518
  0
LINE
  5
FB
330
8E
100
AcDbEntity
  8
AM_4
100
AcDbLine
 10
-2.267929546804213
 20
-1.215639734350518
 30
0.0
 11
-2.279985196115191
 21
-1.222600066725467
 31
0.0
  0
LWPOLYLINE
  5
FC
330
8E
100
AcDbEntity
  8
AM_4
100
AcDbPolyline
 90
        3
 70
     0
 43
0.0
 10
-2.279985196115191
 20
-1.222600066725467
 10
-2.266451930614801
 20
-1.250044122408012
 10
-2.252005760655076
 20
-1.277383406468319
  0
LWPOLYLINE
  5
FD
330
8E
100
AcDbEntity
  8
AM_4
100
AcDbPolyline
 90
        3
 70
     0
 43
0.0
 10
-2.232249360701806
 20
-1.311602494962034
 10
-2.215867406082829
 20
-1.337672855181632
 10
-2.1987953145104
 20
-1.363225066725467
  0
LINE
  5
FE
330
8E
100
AcDbEntity
  8
AM_4
100
AcDbLine
 10
-2.186739665199422
 20
-1.356264734350518
 30
0.0
 11
-2.1987953145104
 21
-1.363225066725467
 31
0.0
  0
LINE
  5
FF
330
8E
100
AcDbEntity
  8
AM_4
100
AcDbLine
 10
-2.37008866817556
 20
-1.220368123437406
 30
0.0
 11
-2.344079859149576
 21
-1.221503048956784
 31
0.0
  0
ELLIPSE
  5
100
330
8E
100
AcDbEntity
  8
AM_4
100
AcDbEllipse
 10
-2.351407410420677
 20
-1.35758570138086
 30
0.0
 11
-0.07031250000000268
 21
0.1217848224071829
 31
0.0
210
0.0
220
0.0
230
1.0
 40
0.9063077870366516
 41
2.894928684196429
 42
3.565561594284222
  0
ELLIPSE
  5
101
330
8E
100
AcDbEntity
  8
AM_4
100
AcDbEllipse
 10
-2.351407410420677
 20
-1.357585701380859
 30
0.0
 11
-0.07031249999999822
 21
0.1217848224071887
 31
0.0
210
0.0
220
0.0
230
1.0
 40
0.9063077870366497
 41
5.859216366485152
 42
6.533351264472478
  0
LINE
  5
102
330
8E
100
AcDbEntity
  8
AM_4
100
AcDbLine
 10
-2.22989260077151
 20
-1.419281182044589
 30
0.0
 11
-2.241914130953317
 21
-1.442372934142958
 31
0.0
  0
ELLIPSE
  5
103
330
8E
100
AcDbEntity
  8
AM_4
100
AcDbEllipse
 10
-2.351407410420678
 20
-1.357585701380858
 30
0.0
 11
-0.07031250000000178
 21
0.1217848224071867
 31
0.0
210
0.0
220
0.0
230
1.0
 40
0.9063077870366535
 41
3.764821264091932
 42
4.571432719802687
  0
LWPOLYLINE
  5
104
330
8E
100
AcDbEntity
  8
AM_4
100
AcDbPolyline
 90
        3
 70
     0
 43
0.0
 10
-2.252005760655076
 20
-1.277383406468319
 10
-2.242555561768767
 20
-1.294619806845232
 10
-2.232249360701806
 20
-1.311602494962034
  0
ELLIPSE
  5
105
330
8E
100
AcDbEntity
  8
AM_4
100
AcDbEllipse
 10
-2.351407410420677
 20
-1.357585701380858
 30
0.0
 11
-0.07031249999999996
 21
0.121784822407186
 31
0.0
210
0.0
220
0.0
230
1.0
 40
0.9063077870366486
 41
4.853345240966668
 42
5.659956696677434
  0
LWPOLYLINE
  5
106
330
8E
100
AcDbEntity
  8
AM_4
100
AcDbPolyline
 90
        4
 70
     0
 43
0.0
 10
-2.541955003082958
 20
-1.367474401101553
 10
-2.542621800085112
 20
-1.380388996504986
 10
-2.541138486118457
 20
-1.402000878463974
 10
-2.539069876633852
 20
-1.413295039932035
  0
LWPOLYLINE
  5
107
330
8E
100
AcDbEntity
  8
AM_4
100
AcDbPolyline
 90
       34
 70
     0
 43
0.0
 10
-2.454896786116417
 20
-1.517818018105945
 10
-2.448035191622955
 20
-1.52069479157507
 10
-2.427557073867228
 20
-1.526853210231945
 10
-2.406630644607406
 20
-1.529650095557348
 10
-2.385790204831669
 20
-1.529022111793155
 10
-2.365563678686113
 20
-1.525002276392582
 10
-2.346452232675861
 20
-1.517714613091871
 10
-2.328914695973446
 20
-1.507362416837069
 10
-2.313359618889997
 20
-1.494214782527712
 10
-2.300147608449733
 20
-1.478602619496729
 10
-2.289574948238187
 20
-1.460896191705366
 10
-2.281883276218252
 20
-1.441506287396823
 10
-2.277256217835473
 20
-1.420882579628704
 10
-2.275812612214999
 20
-1.399509481746404
 10
-2.277599121337297
 20
-1.377897319708271
 10
-2.282585197729759
 20
-1.356569373986386
 10
-2.290661888523644
 20
-1.336047086032209
 10
-2.301644149486292
 20
-1.316835729513706
 10
-2.315275354322718
 20
-1.299411719597448
 10
-2.331229952764281
 20
-1.284213756571374
 10
-2.349123285786573
 20
-1.27162689026012
 10
-2.368516597927341
 20
-1.261974602899166
 10
-2.388925542082881
 20
-1.255507227392854
 10
-2.409832530124229
 20
-1.252390518045019
 10
-2.430703759291613
 20
-1.252696848279585
 10
-2.451009799135982
 20
-1.256402141325734
 10
-2.470246205801055
 20
-1.263390493566618
 10
-2.487949703730568
 20
-1.273465457341841
 10
-2.503707259478856
 20
-1.286363971235181
 10
-2.517152705986232
 20
-1.301759846756882
 10
-2.527984312622794
 20
-1.319286499390462
 10
-2.53595523444194
 20
-1.338536884526791
 10
-2.540876147400012
 20
-1.359064867071636
 10
-2.541955003082958
 20
-1.367474401101553
  0
ELLIPSE
  5
108
330
8E
100
AcDbEntity
  8
AM_4
100
AcDbEllipse
 10
-2.413083295161997
 20
-1.393194290038769
 30
0.0
 11
-0.06957427803572663
 21
0.1205061844577977
 31
0.0
210
0.0
220
0.0
230
1.0
 40
0.9063077870366659
 41
1.237344679190404
 42
1.570796326794897
  0
ELLIPSE
  5
109
330
8E
100
AcDbEntity
  8
AM_4
100
AcDbEllipse
 10
-2.413083295161992
 20
-1.393194290038774
 30
0.0
 11
-0.06957427803572931
 21
0.1205061844578033
 31
0.0
210
0.0
220
0.0
230
1.0
 40
0.9063077870366565
 41
1.570796326794897
 42
7.520529986369955
  0
ELLIPSE
  5
10A
330
8E
100
AcDbEntity
  8
AM_4
100
AcDbEllipse
 10
-2.44107695735949
 20
-1.409356438444094
 30
0.0
 11
0.05174132036229517
 21
-0.08961859571819297
 31
0.0
210
0.0
220
0.0
230
1.0
 40
0.9063077870366506
 41
0.0
 42
6.283185307179586
  0
ENDBLK
  5
91
330
8E
100
AcDbEntity
  8
0
100
AcDbBlockEnd
  0
BLOCK
  5
10D
330
10B
100
AcDbEntity
  8
0
100
AcDbBlockBegin
  2
3_129522I_0_in_136174_0
 70
     2
 10
0.0
 20
0.0
 30
0.0
  3
3_129522I_0_in_136174_0
  1

  0
ATTDEF
  5
10F
330
10B
100
AcDbEntity
  8
AM_6
100
AcDbText
 10
6.65669862413356
 20
1.656698624133559
 30
0.0
 40
0.5
  1
INS-GT B
100
AcDbAttributeDefinition
  3

  2
NN
 70
     8
280
     0
  0
ATTDEF
  5
110
330
10B
100
AcDbEntity
  8
AM_6
100
AcDbText
 10
6.65669862413356
 20
1.156698624133559
 30
0.0
 40
0.5
  1
GT Normal Duty Bearing Inserts
100
AcDbAttributeDefinition
  3

  2
NT
 70
     8
280
     0
  0
ATTDEF
  5
111
330
10B
100
AcDbEntity
  8
AM_6
100
AcDbText
 10
6.65669862413356
 20
0.6566986241335591
 30
0.0
 40
0.5
  1
129522I
100
AcDbAttributeDefinition
  3

  2
NB
 70
     8
280
     0
  0
ATTDEF
  5
112
330
10B
100
AcDbEntity
  8
AM_6
100
AcDbText
 10
6.65669862413356
 20
0.1566986241335591
 30
0.0
 40
0.5
  1
$PN.I
100
AcDbAttributeDefinition
  3

  2
NBSYN
 70
     8
280
     0
  0
ATTDEF
  5
113
330
10B
100
AcDbEntity
  8
AM_6
100
AcDbText
 10
6.65669862413356
 20
-0.3433013758664409
 30
0.0
 40
0.5
  1
129522
100
AcDbAttributeDefinition
  3

  2
LINA
 70
     8
280
     0
  0
ATTDEF
  5
114
330
10B
100
AcDbEntity
  8
AM_6
100
AcDbText
 10
6.65669862413356
 20
-0.8433013758664409
 30
0.0
 40
0.5
  1
209
100
AcDbAttributeDefinition
  3

  2
SERIES
 70
     8
280
     0
  0
ATTDEF
  5
115
330
10B
100
AcDbEntity
  8
AM_6
100
AcDbText
 10
6.65669862413356
 20
-1.343301375866441
 30
0.0
 40
0.5
  1
129522
100
AcDbAttributeDefinition
  3

  2
PN
 70
     8
280
     0
  0
ATTDEF
  5
116
330
10B
100
AcDbEntity
  8
AM_6
100
AcDbText
 10
6.65669862413356
 20
-1.843301375866441
 30
0.0
 40
0.5
  1
INS-GT-09
100
AcDbAttributeDefinition
  3

  2
DESCRIPTION
 70
     8
280
     0
  0
ATTDEF
  5
117
330
10B
100
AcDbEntity
  8
AM_6
100
AcDbText
 10
6.65669862413356
 20
-2.343301375866441
 30
0.0
 40
0.5
  1
1.85
100
AcDbAttributeDefinition
  3

  2
A
 70
     8
280
     0
  0
ATTDEF
  5
118
330
10B
100
AcDbEntity
  8
AM_6
100
AcDbText
 10
6.65669862413356
 20
-2.843301375866441
 30
0.0
 40
0.5
  1
0.87
100
AcDbAttributeDefinition
  3

  2
C
 70
     8
280
     0
  0
ATTDEF
  5
119
330
10B
100
AcDbEntity
  8
AM_6
100
AcDbText
 10
6.65669862413356
 20
-3.343301375866441
 30
0.0
 40
0.5
  1
3.3465
100
AcDbAttributeDefinition
  3

  2
D
 70
     8
280
     0
  0
ATTDEF
  5
11A
330
10B
100
AcDbEntity
  8
AM_6
100
AcDbText
 10
6.65669862413356
 20
-3.843301375866441
 30
0.0
 40
0.5
  1
0.25
100
AcDbAttributeDefinition
  3

  2
J
 70
     8
280
     0
  0
ATTDEF
  5
11B
330
10B
100
AcDbEntity
  8
AM_6
100
AcDbText
 10
6.65669862413356
 20
-4.34330137586644
 30
0.0
 40
0.5
  1
2.86
100
AcDbAttributeDefinition
  3

  2
L
 70
     8
280
     0
  0
ATTDEF
  5
11C
330
10B
100
AcDbEntity
  8
AM_6
100
AcDbText
 10
6.65669862413356
 20
-4.84330137586644
 30
0.0
 40
0.5
  1
#10 - 32 x 1/4
100
AcDbAttributeDefinition
  3

  2
N
 70
     8
280
     0
  0
ATTDEF
  5
11D
330
10B
100
AcDbEntity
  8
AM_6
100
AcDbText
 10
6.65669862413356
 20
-5.34330137586644
 30
0.0
 40
0.5
  1
0.62000
100
AcDbAttributeDefinition
  3

  2
W
 70
     8
280
     0
  0
ATTDEF
  5
11E
330
10B
100
AcDbEntity
  8
AM_6
100
AcDbText
 10
6.65669862413356
 20
-5.84330137586644
 30
0.0
 40
0.5
  1
1.26
100
AcDbAttributeDefinition
  3

  2
X
 70
     8
280
     0
  0
ATTDEF
  5
11F
330
10B
100
AcDbEntity
  8
AM_6
100
AcDbText
 10
6.65669862413356
 20
-6.34330137586644
 30
0.0
 40
0.5
  1
1.23
100
AcDbAttributeDefinition
  3

  2
Y
 70
     8
280
     0
  0
ATTDEF
  5
120
330
10B
100
AcDbEntity
  8
AM_6
100
AcDbText
 10
6.65669862413356
 20
-6.84330137586644
 30
0.0
 40
0.5
  1
baldor
100
AcDbAttributeDefinition
  3

  2
COMPANY
 70
     8
280
     0
  0
CIRCLE
  5
121
330
10B
100
AcDbEntity
  8
AM_9
100
AcDbCircle
 10
0.0
 20
0.0
 30
0.0
 40
1.102811140132194
  0
CIRCLE
  5
122
330
10B
100
AcDbEntity
  8
AM_9
100
AcDbCircle
 10
0.0
 20
0.0
 30
0.0
 40
1.58625
  0
CIRCLE
  5
123
330
10B
100
AcDbEntity
  8
AM_9
100
AcDbCircle
 10
0.0
 20
0.0
 30
0.0
 40
1.621259545833585
  0
CIRCLE
  5
124
330
10B
100
AcDbEntity
  8
AM_9
100
AcDbCircle
 10
0.0
 20
0.0
 30
0.0
 40
1.168968213111111
  0
ARC
  5
125
330
10B
100
AcDbEntity
  8
AM_9
100
AcDbCircle
 10
0.0000000000000002
 20
0.0
 30
0.0
 40
1.271111111111111
100
AcDbArc
 50
5.598246852624981
 51
114.401753147375
  0
ARC
  5
126
330
10B
100
AcDbEntity
  8
AM_9
100
AcDbCircle
 10
0.0
 20
0.0
 30
0.0
 40
1.271111111111111
100
AcDbArc
 50
125.598246852625
 51
234.401753147375
  0
ARC
  5
127
330
10B
100
AcDbEntity
  8
AM_9
100
AcDbCircle
 10
0.0
 20
0.0000000000000004
 30
0.0
 40
1.271111111111112
100
AcDbArc
 50
245.598246852625
 51
354.401753147375
  0
CIRCLE
  5
128
330
10B
100
AcDbEntity
  8
AM_9
100
AcDbCircle
 10
0.0
 20
0.0
 30
0.0
 40
1.066825315111111
  0
CIRCLE
  5
129
330
10B
100
AcDbEntity
  8
AM_9
100
AcDbCircle
 10
0.0
 20
0.0
 30
0.0
 40
1.236311111111111
  0
CIRCLE
  5
12A
330
10B
100
AcDbEntity
  8
AM_4
100
AcDbCircle
 10
0.0
 20
0.0
 30
0.0
 40
1.656698624133559
  0
CIRCLE
  5
12B
330
10B
100
AcDbEntity
  8
AM_4
100
AcDbCircle
 10
0.0
 20
0.0
 30
0.0
 40
1.648125942409455
  0
CIRCLE
  5
12C
330
10B
100
AcDbEntity
  8
AM_4
100
AcDbCircle
 10
0.0
 20
0.0
 30
0.0
 40
1.629623961347176
  0
CIRCLE
  5
12D
330
10B
100
AcDbEntity
  8
AM_4
100
AcDbCircle
 10
0.0
 20
0.0
 30
0.0
 40
1.595184308300556
  0
CIRCLE
  5
12E
330
10B
100
AcDbEntity
  8
AM_4
100
AcDbCircle
 10
0.0
 20
0.0
 30
0.0
 40
1.562786330102177
  0
ARC
  5
12F
330
10B
100
AcDbEntity
  8
AM_4
100
AcDbCircle
 10
-0.0000000000000188
 20
0.0000000000000311
 30
0.0
 40
1.271111111111075
100
AcDbArc
 50
114.4017531473749
 51
125.5982468526251
  0
ARC
  5
130
330
10B
100
AcDbEntity
  8
AM_4
100
AcDbCircle
 10
-0.0000000000000031
 20
-0.0000000000000062
 30
0.0
 40
1.271111111111104
100
AcDbArc
 50
234.4017531473749
 51
245.598246852625
  0
ARC
  5
131
330
10B
100
AcDbEntity
  8
AM_4
100
AcDbCircle
 10
-0.0000000000000275
 20
0.0
 30
0.0
 40
1.271111111111139
100
AcDbArc
 50
354.4017531473751
 51
5.598246852624849
  0
ENDBLK
  5
10E
330
10B
100
AcDbEntity
  8
0
100
AcDbBlockEnd
  0
BLOCK
  5
134
330
132
100
AcDbEntity
  8
0
100
AcDbBlockBegin
  2
4_129928_0_in_136174_0
 70
     2
 10
0.0
 20
0.0
 30
0.0
  3
4_129928_0_in_136174_0
  1

  0
ATTDEF
  5
136
330
132
100
AcDbEntity
  8
AM_6
100
AcDbText
 10
6.330170291318465
 20
1.335931074693355
 30
0.0
 40
0.5
  1
Grip Tight Normal Duty Adapter and Nut Inch Bore
100
AcDbAttributeDefinition
  3

  2
NN
 70
     8
280
     0
  0
ATTDEF
  5
137
330
132
100
AcDbEntity
  8
AM_6
100
AcDbText
 10
6.330170291318465
 20
0.8359310746933546
 30
0.0
 40
0.5
  1
GT and GTM Adapter & Lock Nut Assemblies
100
AcDbAttributeDefinition
  3

  2
NT
 70
     8
280
     0
  0
ATTDEF
  5
138
330
132
100
AcDbEntity
  8
AM_6
100
AcDbText
 10
6.330170291318465
 20
0.3359310746933546
 30
0.0
 40
0.5
  1
129928
100
AcDbAttributeDefinition
  3

  2
NB
 70
     8
280
     0
  0
ATTDEF
  5
139
330
132
100
AcDbEntity
  8
AM_6
100
AcDbText
 10
6.330170291318465
 20
-0.1640689253066454
 30
0.0
 40
0.5
  1
$PN.
100
AcDbAttributeDefinition
  3

  2
NBSYN
 70
     8
280
     0
  0
ATTDEF
  5
13A
330
132
100
AcDbEntity
  8
AM_6
100
AcDbText
 10
6.330170291318465
 20
-0.6640689253066454
 30
0.0
 40
0.5
  1
129928
100
AcDbAttributeDefinition
  3

  2
LINA
 70
     8
280
     0
  0
ATTDEF
  5
13B
330
132
100
AcDbEntity
  8
AM_6
100
AcDbText
 10
6.330170291318465
 20
-1.164068925306645
 30
0.0
 40
0.5
  1
209
100
AcDbAttributeDefinition
  3

  2
SERIES
 70
     8
280
     0
  0
ATTDEF
  5
13C
330
132
100
AcDbEntity
  8
AM_6
100
AcDbText
 10
6.330170291318465
 20
-1.664068925306645
 30
0.0
 40
0.5
  1
1-1/2
100
AcDbAttributeDefinition
  3

  2
SS
 70
     8
280
     0
  0
ATTDEF
  5
13D
330
132
100
AcDbEntity
  8
AM_6
100
AcDbText
 10
6.330170291318465
 20
-2.164068925306645
 30
0.0
 40
0.5
  1
129928
100
AcDbAttributeDefinition
  3

  2
PN
 70
     8
280
     0
  0
ATTDEF
  5
13E
330
132
100
AcDbEntity
  8
AM_6
100
AcDbText
 10
6.330170291318465
 20
-2.664068925306645
 30
0.0
 40
0.5
  1
AN-GTM-09-108
100
AcDbAttributeDefinition
  3

  2
DESCRIPTION
 70
     8
280
     0
  0
ATTDEF
  5
13F
330
132
100
AcDbEntity
  8
AM_6
100
AcDbText
 10
6.330170291318465
 20
-3.164068925306645
 30
0.0
 40
0.5
  1
1-27/32
100
AcDbAttributeDefinition
  3

  2
A
 70
     8
280
     0
  0
ATTDEF
  5
140
330
132
100
AcDbEntity
  8
AM_6
100
AcDbText
 10
6.330170291318465
 20
-3.664068925306645
 30
0.0
 40
0.5
  1
0.8661
100
AcDbAttributeDefinition
  3

  2
C
 70
     8
280
     0
  0
ATTDEF
  5
141
330
132
100
AcDbEntity
  8
AM_6
100
AcDbText
 10
6.330170291318465
 20
-4.164068925306646
 30
0.0
 40
0.5
  1
3.3465
100
AcDbAttributeDefinition
  3

  2
D
 70
     8
280
     0
  0
ATTDEF
  5
142
330
132
100
AcDbEntity
  8
AM_6
100
AcDbText
 10
6.330170291318465
 20
-4.664068925306646
 30
0.0
 40
0.5
  1
0.248
100
AcDbAttributeDefinition
  3

  2
J
 70
     8
280
     0
  0
ATTDEF
  5
143
330
132
100
AcDbEntity
  8
AM_6
100
AcDbText
 10
6.330170291318465
 20
-5.164068925306646
 30
0.0
 40
0.5
  1
2-43/64
100
AcDbAttributeDefinition
  3

  2
L
 70
     8
280
     0
  0
ATTDEF
  5
144
330
132
100
AcDbEntity
  8
AM_6
100
AcDbText
 10
6.330170291318465
 20
-5.664068925306646
 30
0.0
 40
0.5
  1
10 - 32 x 1/4
100
AcDbAttributeDefinition
  3

  2
N
 70
     8
280
     0
  0
ATTDEF
  5
145
330
132
100
AcDbEntity
  8
AM_6
100
AcDbText
 10
6.330170291318465
 20
-6.164068925306646
 30
0.0
 40
0.5
  1
21/32
100
AcDbAttributeDefinition
  3

  2
W
 70
     8
280
     0
  0
ATTDEF
  5
146
330
132
100
AcDbEntity
  8
AM_6
100
AcDbText
 10
6.330170291318465
 20
-6.664068925306646
 30
0.0
 40
0.5
  1
1-5/32
100
AcDbAttributeDefinition
  3

  2
X
 70
     8
280
     0
  0
ATTDEF
  5
147
330
132
100
AcDbEntity
  8
AM_6
100
AcDbText
 10
6.330170291318465
 20
-7.164068925306646
 30
0.0
 40
0.5
  1
1-3/16
100
AcDbAttributeDefinition
  3

  2
Y
 70
     8
280
     0
  0
ATTDEF
  5
148
330
132
100
AcDbEntity
  8
AM_6
100
AcDbText
 10
6.330170291318465
 20
-7.664068925306646
 30
0.0
 40
0.5
  1
baldor
100
AcDbAttributeDefinition
  3

  2
COMPANY
 70
     8
280
     0
  0
LINE
  5
149
330
132
100
AcDbEntity
  8
AM_9
100
AcDbLine
 10
0.05
 20
0.9966587375143907
 30
0.0
 11
0.05
 21
1.03350119403169
 31
0.0
  0
LINE
  5
14A
330
132
100
AcDbEntity
  8
AM_9
100
AcDbLine
 10
-0.05
 20
0.9966587375143907
 30
0.0
 11
-0.05
 21
1.03350119403169
 31
0.0
  0
ARC
  5
14B
330
132
100
AcDbEntity
  8
AM_9
100
AcDbCircle
 10
0.0
 20
-0.0000000000000001
 30
0.0
 40
1.034709968090058
100
AcDbArc
 50
92.76976656096889
 51
87.23023343903112
  0
CIRCLE
  5
14C
330
132
100
AcDbEntity
  8
AM_9
100
AcDbCircle
 10
0.0
 20
0.0
 30
0.0
 40
1.092075892857143
  0
CIRCLE
  5
14D
330
132
100
AcDbEntity
  8
AM_9
100
AcDbCircle
 10
0.0
 20
0.0
 30
0.0
 40
1.1875
  0
LINE
  5
14E
330
132
100
AcDbEntity
  8
AM_9
100
AcDbLine
 10
-1.3133875
 20
-0.0724499999999998
 30
0.0
 11
-1.024503125
 21
-0.0724499999999998
 31
0.0
  0
LINE
  5
14F
330
132
100
AcDbEntity
  8
AM_9
100
AcDbLine
 10
-1.024503125
 20
0.0724499999999998
 30
0.0
 11
-1.3133875
 21
0.0724499999999998
 31
0.0
  0
LINE
  5
150
330
132
100
AcDbEntity
  8
AM_9
100
AcDbLine
 10
-1.024503125
 20
-0.0724499999999998
 30
0.0
 11
-1.001953125
 21
-0.0949999999999999
 31
0.0
  0
LINE
  5
151
330
132
100
AcDbEntity
  8
AM_9
100
AcDbLine
 10
-1.001953125
 20
0.0949999999999999
 30
0.0
 11
-1.024503125
 21
0.0724499999999998
 31
0.0
  0
LINE
  5
152
330
132
100
AcDbEntity
  8
AM_9
100
AcDbLine
 10
-1.001953125
 20
0.0949999999999999
 30
0.0
 11
-1.001953125
 21
-0.0949999999999999
 31
0.0
  0
LINE
  5
153
330
132
100
AcDbEntity
  8
AM_9
100
AcDbLine
 10
-1.024503125
 20
0.0724499999999998
 30
0.0
 11
-1.024503125
 21
-0.0724499999999998
 31
0.0
  0
LINE
  5
154
330
132
100
AcDbEntity
  8
AM_9
100
AcDbLine
 10
-1.3133875
 20
0.0724499999999998
 30
0.0
 11
-1.332266817013929
 21
0.0913293170139291
 31
0.0
  0
LINE
  5
155
330
132
100
AcDbEntity
  8
AM_9
100
AcDbLine
 10
-1.332682874943385
 20
-0.091745374943385
 30
0.0
 11
-1.3133875
 21
-0.0724499999999998
 31
0.0
  0
LINE
  5
156
330
132
100
AcDbEntity
  8
AM_9
100
AcDbLine
 10
-1.3133875
 20
0.0724499999999998
 30
0.0
 11
-1.3133875
 21
-0.0724499999999998
 31
0.0
  0
LWPOLYLINE
  5
157
330
132
100
AcDbEntity
  8
AM_9
100
AcDbPolyline
 90
        5
 70
     0
 43
0.0
 10
-1.335112951314985
 20
0.0469298533691068
 10
-1.334294849093667
 20
0.0662288425714977
 10
-1.333337727654533
 20
0.0833037089168167
 10
-1.332805783030466
 20
0.0914207231802305
 10
-1.332776993212757
 20
0.0918394809927235
  0
LWPOLYLINE
  5
158
330
132
100
AcDbEntity
  8
AM_9
100
AcDbPolyline
 90
        5
 70
     0
 43
0.0
 10
-1.332776992534397
 20
-0.0918394908371042
 10
-1.332777566492104
 20
-0.0918311611689395
 10
-1.33317158886753
 20
-0.0859215836834834
 10
-1.334123005184435
 20
-0.0696046761640653
 10
-1.335117182399109
 20
-0.0468093277981621
  0
LINE
  5
159
330
132
100
AcDbEntity
  8
AM_5
100
AcDbLine
 10
-1.332555441212954
 20
-0.0949999999999999
 30
0.0
 11
-1.001953125
 21
-0.0949999999999999
 31
0.0
  0
LINE
  5
15A
330
132
100
AcDbEntity
  8
AM_5
100
AcDbLine
 10
-1.332555441212954
 20
0.0950000000000001
 30
0.0
 11
-1.001953125
 21
0.0950000000000001
 31
0.0
  0
LWPOLYLINE
  5
15B
330
132
100
AcDbEntity
  8
AM_4
100
AcDbPolyline
 90
        6
 70
     0
 43
0.0
 10
-1.335117182399109
 20
-0.0468093277981621
 10
-1.335177184201761
 20
-0.0450654046171648
 10
-1.335843599075823
 20
-0.0158392775846615
 10
-1.335860601754623
 20
0.0143337568706445
 10
-1.335262164034195
 20
0.0424730173753754
 10
-1.335112951314985
 20
0.0469298533691068
  0
LINE
  5
15C
330
132
100
AcDbEntity
  8
AM_4
100
AcDbLine
 10
1.246874773780797
 20
-0.124
 30
0.0
 11
1.330170291318465
 21
-0.124
 31
0.0
  0
LINE
  5
15D
330
132
100
AcDbEntity
  8
AM_4
100
AcDbLine
 10
-0.557697995589962
 20
-1.213961263641138
 30
0.0
 11
-0.5160502368211282
 21
-1.141825229432146
 31
0.0
  0
ARC
  5
15E
330
132
100
AcDbEntity
  8
AM_4
100
AcDbCircle
 10
-0.0000000000000004
 20
0.0000000000000009
 30
0.0
 40
1.335937500000001
100
AcDbArc
 50
245.3257865106884
 51
354.6742134893115
  0
LINE
  5
15F
330
132
100
AcDbEntity
  8
AM_4
100
AcDbLine
 10
-0.7308245369596689
 20
-1.017825229432146
 30
0.0
 11
-0.7724722957285027
 21
-1.089961263641138
 31
0.0
  0
LINE
  5
160
330
132
100
AcDbEntity
  8
AM_4
100
AcDbLine
 10
-0.7724722957285031
 20
1.089961263641138
 30
0.0
 11
-0.7308245369596694
 21
1.017825229432145
 31
0.0
  0
ARC
  5
161
330
132
100
AcDbEntity
  8
AM_4
100
AcDbCircle
 10
-0.0000000000000033
 20
0.0000000000000016
 30
0.0
 40
1.335937499999997
100
AcDbArc
 50
125.3257865106883
 51
177.9969349085746
  0
LWPOLYLINE
  5
162
330
132
100
AcDbEntity
  8
AM_4
100
AcDbPolyline
 90
        5
 70
     0
 43
0.0
 10
-1.335121186890075
 20
0.0466949700020129
 10
-1.330964517398062
 20
0.0248317012479007
 10
-1.329340240356722
 20
0.0015177936210992
 10
-1.330679503085307
 20
-0.0225599630181107
 10
-1.335121186890075
 20
-0.0466949700020134
  0
ARC
  5
163
330
132
100
AcDbEntity
  8
AM_4
100
AcDbCircle
 10
0.0000000000000009
 20
0.0000000000000008
 30
0.0
 40
1.335937500000001
100
AcDbArc
 50
182.0030650914254
 51
234.6742134893116
  0
LINE
  5
164
330
132
100
AcDbEntity
  8
AM_4
100
AcDbLine
 10
-0.5160502368211286
 20
1.141825229432145
 30
0.0
 11
-0.5576979955899627
 21
1.213961263641138
 31
0.0
  0
LINE
  5
165
330
132
100
AcDbEntity
  8
AM_4
100
AcDbLine
 10
1.330170291318465
 20
0.124
 30
0.0
 11
1.246874773780797
 21
0.124
 31
0.0
  0
ARC
  5
166
330
132
100
AcDbEntity
  8
AM_4
100
AcDbCircle
 10
-0.0000000000000007
 20
-0.0000000000000008
 30
0.0
 40
1.335937500000001
100
AcDbArc
 50
5.325786510688354
 51
114.6742134893116
  0
LINE
  5
167
330
132
100
AcDbEntity
  8
AM_4
100
AcDbLine
 10
0.05
 20
0.7483314773547886
 30
0.0
 11
0.05
 21
0.9966517857142857
 31
0.0
  0
LINE
  5
168
330
132
100
AcDbEntity
  8
AM_4
100
AcDbLine
 10
-0.05
 20
0.7483314773547886
 30
0.0
 11
-0.05
 21
0.9966517857142857
 31
0.0
  0
LINE
  5
169
330
132
100
AcDbEntity
  8
AM_4
100
AcDbLine
 10
-0.5160502368211282
 20
-1.141825229432146
 30
0.0
 11
-0.7308245369596689
 21
-1.017825229432146
 31
0.0
  0
LINE
  5
16A
330
132
100
AcDbEntity
  8
AM_4
100
AcDbLine
 10
-0.05
 20
0.9966517857142857
 30
0.0
 11
0.05
 21
0.9966517857142857
 31
0.0
  0
LINE
  5
16B
330
132
100
AcDbEntity
  8
AM_4
100
AcDbLine
 10
1.246874773780797
 20
0.124
 30
0.0
 11
1.246874773780797
 21
-0.124
 31
0.0
  0
ARC
  5
16C
330
132
100
AcDbEntity
  8
AM_4
100
AcDbCircle
 10
-0.0000000000000002
 20
0.0000000000000001
 30
0.0
 40
1.3012935
100
AcDbArc
 50
5.467999916179482
 51
114.5320000838205
  0
LINE
  5
16D
330
132
100
AcDbEntity
  8
AM_4
100
AcDbLine
 10
-0.7308245369596694
 20
1.017825229432145
 30
0.0
 11
-0.5160502368211286
 21
1.141825229432145
 31
0.0
  0
ARC
  5
16E
330
132
100
AcDbEntity
  8
AM_4
100
AcDbCircle
 10
-0.0000000000000004
 20
0.0000000000000003
 30
0.0
 40
1.3012935
100
AcDbArc
 50
125.4679999161795
 51
234.5320000838206
  0
ARC
  5
16F
330
132
100
AcDbEntity
  8
AM_4
100
AcDbCircle
 10
-0.0000000000000001
 20
-0.0000000000000004
 30
0.0
 40
1.3012935
100
AcDbArc
 50
245.4679999161795
 51
354.5320000838206
  0
ARC
  5
170
330
132
100
AcDbEntity
  8
AM_4
100
AcDbCircle
 10
0.0
 20
0.0
 30
0.0
 40
0.9966517857142855
100
AcDbArc
 50
92.87562022709822
 51
87.1243797729018
  0
ARC
  5
171
330
132
100
AcDbEntity
  8
AM_4
100
AcDbCircle
 10
0.0
 20
0.0000000000000001
 30
0.0
 40
0.7500000000000001
100
AcDbArc
 50
93.82255372927435
 51
86.17744627072565
  0
ENDBLK
  5
135
330
132
100
AcDbEntity
  8
0
100
AcDbBlockEnd
  0
BLOCK
  5
174
330
172
100
AcDbEntity
  8
0
100
AcDbBlockBegin
  2
5_WSTU_GT_09I_0_in_136174_0
 70
     2
 10
0.0
 20
0.0
 30
0.0
  3
5_WSTU_GT_09I_0_in_136174_0
  1

  0
ATTDEF
  5
176
330
172
100
AcDbEntity
  8
AM_6
100
AcDbText
 10
9.471875
 20
2.37499525
 30
0.0
 40
0.5
  1
GTMMDWSTUB-Ib
100
AcDbAttributeDefinition
  3

  2
NN
 70
     8
280
     0
  0
ATTDEF
  5
177
330
172
100
AcDbEntity
  8
AM_6
100
AcDbText
 10
9.471875
 20
1.87499525
 30
0.0
 40
0.5
  1
Grip Tight Adapter Ball Bearings
100
AcDbAttributeDefinition
  3

  2
NT
 70
     8
280
     0
  0
ATTDEF
  5
178
330
172
100
AcDbEntity
  8
AM_6
100
AcDbText
 10
9.471875
 20
1.37499525
 30
0.0
 40
0.5
  1
WSTU-GT-09I
100
AcDbAttributeDefinition
  3

  2
NB
 70
     8
280
     0
  0
ATTDEF
  5
179
330
172
100
AcDbEntity
  8
AM_6
100
AcDbText
 10
9.471875
 20
0.87499525
 30
0.0
 40
0.5
  1
$PN.$LUBE.I
100
AcDbAttributeDefinition
  3

  2
NBSYN
 70
     8
280
     0
  0
ATTDEF
  5
17A
330
172
100
AcDbEntity
  8
AM_6
100
AcDbText
 10
9.471875
 20
0.37499525
 30
0.0
 40
0.5
  1
WSTU-GT-09
100
AcDbAttributeDefinition
  3

  2
LINA
 70
     8
280
     0
  0
ATTDEF
  5
17B
330
172
100
AcDbEntity
  8
AM_6
100
AcDbText
 10
9.471875
 20
-0.12500475
 30
0.0
 40
0.5
  1
209
100
AcDbAttributeDefinition
  3

  2
SERIES
 70
     8
280
     0
  0
ATTDEF
  5
17C
330
172
100
AcDbEntity
  8
AM_6
100
AcDbText
 10
9.471875
 20
-0.62500475
 30
0.0
 40
0.5
  1
WSTU-GT-09
100
AcDbAttributeDefinition
  3

  2
PN
 70
     8
280
     0
  0
ATTDEF
  5
17D
330
172
100
AcDbEntity
  8
AM_6
100
AcDbText
 10
9.471875
 20
-1.12500475
 30
0.0
 40
0.5
  1
WSTU-GT-09
100
AcDbAttributeDefinition
  3

  2
DESCRIPTION
 70
     8
280
     0
  0
ATTDEF
  5
17E
330
172
100
AcDbEntity
  8
AM_6
100
AcDbText
 10
9.471875
 20
-1.62500475
 30
0.0
 40
0.5
  1
7.2
100
AcDbAttributeDefinition
  3

  2
WEIGHT
 70
     8
280
     0
  0
ATTDEF
  5
17F
330
172
100
AcDbEntity
  8
AM_6
100
AcDbText
 10
9.471875
 20
-2.12500475
 30
0.0
 40
0.5
  1
85.0
100
AcDbAttributeDefinition
  3

  2
BOD
 70
     8
280
     0
  0
ATTDEF
  5
180
330
172
100
AcDbEntity
  8
AM_6
100
AcDbText
 10
9.471875
 20
-2.62500475
 30
0.0
 40
0.5
  1
1-27/32
100
AcDbAttributeDefinition
  3

  2
A
 70
     8
280
     0
  0
ATTDEF
  5
181
330
172
100
AcDbEntity
  8
AM_6
100
AcDbText
 10
9.471875
 20
-3.12500475
 30
0.0
 40
0.5
  1
5-5/8
100
AcDbAttributeDefinition
  3

  2
B
 70
     8
280
     0
  0
ATTDEF
  5
182
330
172
100
AcDbEntity
  8
AM_6
100
AcDbText
 10
9.471875
 20
-3.62500475
 30
0.0
 40
0.5
  1
0.673 / 0.703
100
AcDbAttributeDefinition
  3

  2
C
 70
     8
280
     0
  0
ATTDEF
  5
183
330
172
100
AcDbEntity
  8
AM_6
100
AcDbText
 10
9.471875
 20
-4.12500475
 30
0.0
 40
0.5
  1
3-7/16
100
AcDbAttributeDefinition
  3

  2
E
 70
     8
280
     0
  0
ATTDEF
  5
184
330
172
100
AcDbEntity
  8
AM_6
100
AcDbText
 10
9.471875
 20
-4.62500475
 30
0.0
 40
0.5
  1
1
100
AcDbAttributeDefinition
  3

  2
F
 70
     8
280
     0
  0
ATTDEF
  5
185
330
172
100
AcDbEntity
  8
AM_6
100
AcDbText
 10
9.471875
 20
-5.12500475
 30
0.0
 40
0.5
  1
5/8
100
AcDbAttributeDefinition
  3

  2
G
 70
     8
280
     0
  0
ATTDEF
  5
186
330
172
100
AcDbEntity
  8
AM_6
100
AcDbText
 10
9.471875
 20
-5.62500475
 30
0.0
 40
0.5
  1
3/4
100
AcDbAttributeDefinition
  3

  2
H
 70
     8
280
     0
  0
ATTDEF
  5
187
330
172
100
AcDbEntity
  8
AM_6
100
AcDbText
 10
9.471875
 20
-6.12500475
 30
0.0
 40
0.5
  1
3-1/4
100
AcDbAttributeDefinition
  3

  2
J
 70
     8
280
     0
  0
ATTDEF
  5
188
330
172
100
AcDbEntity
  8
AM_6
100
AcDbText
 10
9.471875
 20
-6.62500475
 30
0.0
 40
0.5
  1
1-15/16
100
AcDbAttributeDefinition
  3

  2
K
 70
     8
280
     0
  0
ATTDEF
  5
189
330
172
100
AcDbEntity
  8
AM_6
100
AcDbText
 10
9.471875
 20
-7.12500475
 30
0.0
 40
0.5
  1
2-43/64
100
AcDbAttributeDefinition
  3

  2
L
 70
     8
280
     0
  0
ATTDEF
  5
18A
330
172
100
AcDbEntity
  8
AM_6
100
AcDbText
 10
9.471875
 20
-7.62500475
 30
0.0
 40
0.5
  1
3.985 / 4.015
100
AcDbAttributeDefinition
  3

  2
M
 70
     8
280
     0
  0
ATTDEF
  5
18B
330
172
100
AcDbEntity
  8
AM_6
100
AcDbText
 10
9.471875
 20
-8.12500475
 30
0.0
 40
0.5
  1
4-3/4
100
AcDbAttributeDefinition
  3

  2
N
 70
     8
280
     0
  0
ATTDEF
  5
18C
330
172
100
AcDbEntity
  8
AM_6
100
AcDbText
 10
9.471875
 20
-8.62500475
 30
0.0
 40
0.5
  1
21/32
100
AcDbAttributeDefinition
  3

  2
R
 70
     8
280
     0
  0
ATTDEF
  5
18D
330
172
100
AcDbEntity
  8
AM_6
100
AcDbText
 10
9.471875
 20
-9.12500475
 30
0.0
 40
0.5
  1
1-3/16
100
AcDbAttributeDefinition
  3

  2
S
 70
     8
280
     0
  0
ATTDEF
  5
18E
330
172
100
AcDbEntity
  8
AM_6
100
AcDbText
 10
9.471875
 20
-9.62500475
 30
0.0
 40
0.5
  1
1-15/16
100
AcDbAttributeDefinition
  3

  2
T
 70
     8
280
     0
  0
ATTDEF
  5
18F
330
172
100
AcDbEntity
  8
AM_6
100
AcDbText
 10
9.471875
 20
-10.12500475
 30
0.0
 40
0.5
  1
1-5/32
100
AcDbAttributeDefinition
  3

  2
Z
 70
     8
280
     0
  0
ATTDEF
  5
190
330
172
100
AcDbEntity
  8
AM_6
100
AcDbText
 10
9.471875
 20
-10.62500475
 30
0.0
 40
0.5
  1
baldor
100
AcDbAttributeDefinition
  3

  2
COMPANY
 70
     8
280
     0
  0
LINE
  5
191
330
172
100
AcDbEntity
  8
AM_9
100
AcDbLine
 10
2.8125
 20
-0.499999
 30
0.0
 11
3.4375
 21
-0.499999
 31
0.0
  0
LINE
  5
192
330
172
100
AcDbEntity
  8
AM_9
100
AcDbLine
 10
3.4375
 20
0.499999
 30
0.0
 11
2.8125
 21
0.499999
 31
0.0
  0
LINE
  5
193
330
172
100
AcDbEntity
  8
AM_7
100
AcDbLine
 10
-1.7569125
 20
0.0
 30
0.0
 11
1.7569125
 21
0.0
 31
0.0
  0
LINE
  5
194
330
172
100
AcDbEntity
  8
AM_7
100
AcDbLine
 10
0.0
 20
-1.7569125
 30
0.0
 11
0.0
 21
1.7569125
 31
0.0
  0
LINE
  5
195
330
172
100
AcDbEntity
  8
AM_7
100
AcDbLine
 10
2.340625
 20
0.0
 30
0.0
 11
4.471875
 21
0.0
 31
0.0
  0
LINE
  5
196
330
172
100
AcDbEntity
  8
AM_7
100
AcDbLine
 10
-2.467901767846968
 20
-1.42484375
 30
0.0
 11
0.2833026364449976
 21
0.16356485341365
 31
0.0
  0
LINE
  5
197
330
172
100
AcDbEntity
  8
AM_4
100
AcDbLine
 10
-2.156033111156904
 20
-0.8406411086754463
 30
0.0
 11
-1.806033111308
 21
-1.446858891062848
 31
0.0
  0
ARC
  5
198
330
172
100
AcDbEntity
  8
AM_4
100
AcDbCircle
 10
-1.71943057077846
 20
-1.396858891324554
 30
0.0
 40
0.0999999999999998
100
AcDbArc
 50
210.0000000000001
 51
300.0000000000001
  0
ARC
  5
199
330
172
100
AcDbEntity
  8
AM_4
100
AcDbCircle
 10
-2.069430570778461
 20
-0.790641108675446
 30
0.0
 40
0.0999999999999989
100
AcDbArc
 50
119.9999999999997
 51
210.0000000000005
  0
LINE
  5
19A
330
172
100
AcDbEntity
  8
AM_4
100
AcDbLine
 10
-2.11943057077846
 20
-0.7040385682970024
 30
0.0
 11
-1.66943057077846
 21
-1.483461431702997
 31
0.0
  0
LINE
  5
19B
330
172
100
AcDbEntity
  8
AM_4
100
AcDbLine
 10
-1.66943057077846
 20
-1.483461431702997
 30
0.0
 11
-1.629191674133951
 21
-1.460229493893396
 31
0.0
  0
LINE
  5
19C
330
172
100
AcDbEntity
  8
AM_4
100
AcDbLine
 10
-2.079044266143868
 20
-0.6807215244446471
 30
0.0
 11
-2.11943057077846
 21
-0.7040385682970024
 31
0.0
  0
LINE
  5
19D
330
172
100
AcDbEntity
  8
AM_4
100
AcDbLine
 10
3.4375
 20
-1.549999999999999
 30
0.0
 11
3.4375
 21
1.55
 31
0.0
  0
LINE
  5
19E
330
172
100
AcDbEntity
  8
AM_4
100
AcDbLine
 10
2.8125
 20
-0.9312499999999999
 30
0.0
 11
2.8125
 21
0.9312499999999996
 31
0.0
  0
LINE
  5
19F
330
172
100
AcDbEntity
  8
AM_4
100
AcDbLine
 10
-1.625
 20
-1.464421814232497
 30
0.0
 11
-1.625
 21
-2.3375
 31
0.0
  0
LINE
  5
1A0
330
172
100
AcDbEntity
  8
AM_4
100
AcDbLine
 10
-1.625
 20
2.337500000558793
 30
0.0
 11
-1.625
 21
1.464421814232497
 31
0.0
  0
LINE
  5
1A1
330
172
100
AcDbEntity
  8
AM_4
100
AcDbLine
 10
1.625
 20
-2.337499999441206
 30
0.0
 11
1.625
 21
-1.7
 31
0.0
  0
CIRCLE
  5
1A2
330
172
100
AcDbEntity
  8
AM_4
100
AcDbCircle
 10
0.0
 20
0.0
 30
0.0
 40
1.67325
  0
ARC
  5
1A3
330
172
100
AcDbEntity
  8
AM_4
100
AcDbCircle
 10
2.775
 20
-0.9312499999999996
 30
0.0
 40
0.0375000000000004
100
AcDbArc
 50
270.0
 51
0.0
  0
LINE
  5
1A4
330
172
100
AcDbEntity
  8
AM_4
100
AcDbLine
 10
2.100000000000001
 20
-0.9687500000000001
 30
0.0
 11
2.775
 21
-0.96875
 31
0.0
  0
ARC
  5
1A5
330
172
100
AcDbEntity
  8
AM_4
100
AcDbCircle
 10
2.100000000000001
 20
-0.9312499999999996
 30
0.0
 40
0.0375000000000005
100
AcDbArc
 50
180.0
 51
270.0
  0
LINE
  5
1A6
330
172
100
AcDbEntity
  8
AM_4
100
AcDbLine
 10
2.0625
 20
0.9312500005587936
 30
0.0
 11
2.0625
 21
-0.9312499999999996
 31
0.0
  0
ARC
  5
1A7
330
172
100
AcDbEntity
  8
AM_4
100
AcDbCircle
 10
2.100000000000001
 20
0.9312499999999997
 30
0.0
 40
0.0375000000000003
100
AcDbArc
 50
90.0
 51
179.9999991462263
  0
LINE
  5
1A8
330
172
100
AcDbEntity
  8
AM_4
100
AcDbLine
 10
2.775
 20
0.96875
 30
0.0
 11
2.1
 21
0.96875
 31
0.0
  0
ARC
  5
1A9
330
172
100
AcDbEntity
  8
AM_4
100
AcDbCircle
 10
2.775000000000002
 20
0.9312500000000016
 30
0.0
 40
0.0374999999999983
100
AcDbArc
 50
0.0000008537736463
 51
90.0
  0
ARC
  5
1AA
330
172
100
AcDbEntity
  8
AM_4
100
AcDbCircle
 10
3.362499999999999
 20
1.549999999999999
 30
0.0
 40
0.0750000000000011
100
AcDbArc
 50
0.0
 51
90.0
  0
LINE
  5
1AB
330
172
100
AcDbEntity
  8
AM_4
100
AcDbLine
 10
3.362499999999999
 20
1.625
 30
0.0
 11
1.7
 21
1.625
 31
0.0
  0
ARC
  5
1AC
330
172
100
AcDbEntity
  8
AM_4
100
AcDbCircle
 10
1.700000000000001
 20
1.700000000000001
 30
0.0
 40
0.0750000000000011
100
AcDbArc
 50
180.0
 51
270.0
  0
ARC
  5
1AD
330
172
100
AcDbEntity
  8
AM_4
100
AcDbCircle
 10
-0.0000000000000013
 20
0.0
 30
0.0
 40
2.187499999999999
100
AcDbArc
 50
137.9753724206228
 51
222.0246275793772
  0
ARC
  5
1AE
330
172
100
AcDbEntity
  8
AM_4
100
AcDbCircle
 10
1.700000000000001
 20
-1.700000000000001
 30
0.0
 40
0.0750000000000011
100
AcDbArc
 50
90.0
 51
180.0
  0
LINE
  5
1AF
330
172
100
AcDbEntity
  8
AM_4
100
AcDbLine
 10
1.700000000000001
 20
-1.625
 30
0.0
 11
3.3625
 21
-1.625
 31
0.0
  0
ARC
  5
1B0
330
172
100
AcDbEntity
  8
AM_4
100
AcDbCircle
 10
3.362499999999999
 20
-1.549999999999999
 30
0.0
 40
0.0750000000000006
100
AcDbArc
 50
270.0
 51
0.0000008537736463
  0
LINE
  5
1B1
330
172
100
AcDbEntity
  8
AM_4
100
AcDbLine
 10
-0.2739479738029501
 20
2.151321301697135
 30
0.0
 11
-0.3290436469114161
 21
2.151321301697135
 31
0.0
  0
LINE
  5
1B2
330
172
100
AcDbEntity
  8
AM_4
100
AcDbLine
 10
-0.2617044956899841
 20
2.148407857424025
 30
0.0
 11
-0.2739479738029501
 21
2.151321301697135
 31
0.0
  0
LINE
  5
1B3
330
172
100
AcDbEntity
  8
AM_4
100
AcDbLine
 10
-0.2464001264987681
 20
2.066831425077221
 30
0.0
 11
-0.243339256920531
 21
2.078485201869612
 31
0.0
  0
LINE
  5
1B4
330
172
100
AcDbEntity
  8
AM_4
100
AcDbLine
 10
-0.252521865555308
 20
2.058091095157923
 30
0.0
 11
-0.2464001264987681
 21
2.066831425077221
 31
0.0
  0
LINE
  5
1B5
330
172
100
AcDbEntity
  8
AM_4
100
AcDbLine
 10
-0.243339256920531
 20
2.078485201869612
 30
0.0
 11
-0.243339256920531
 21
2.122186862266132
 31
0.0
  0
LINE
  5
1B6
330
172
100
AcDbEntity
  8
AM_4
100
AcDbLine
 10
-0.2739479738029503
 20
2.049350759838624
 30
0.0
 11
-0.2617044956899841
 21
2.052264204111734
 31
0.0
  0
LINE
  5
1B7
330
172
100
AcDbEntity
  8
AM_4
100
AcDbLine
 10
-0.252521865555308
 20
2.142580969077837
 30
0.0
 11
-0.2617044956899841
 21
2.148407857424025
 31
0.0
  0
LINE
  5
1B8
330
172
100
AcDbEntity
  8
AM_4
100
AcDbLine
 10
-0.243339256920531
 20
2.122186862266132
 30
0.0
 11
-0.2464001264987681
 21
2.133840636458539
 31
0.0
  0
LINE
  5
1B9
330
172
100
AcDbEntity
  8
AM_4
100
AcDbLine
 10
-0.2617044956899841
 20
2.052264204111734
 30
0.0
 11
-0.252521865555308
 21
2.058091095157923
 31
0.0
  0
LINE
  5
1BA
330
172
100
AcDbEntity
  8
AM_4
100
AcDbLine
 10
-0.3290436469114161
 20
2.151321301697135
 30
0.0
 11
-0.3290436469114161
 21
2.049350759838624
 31
0.0
  0
LINE
  5
1BB
330
172
100
AcDbEntity
  8
AM_4
100
AcDbLine
 10
-0.2464001264987681
 20
2.133840636458539
 30
0.0
 11
-0.252521865555308
 21
2.142580969077837
 31
0.0
  0
LINE
  5
1BC
330
172
100
AcDbEntity
  8
AM_4
100
AcDbLine
 10
-0.3290436469114161
 20
2.049350759838624
 30
0.0
 11
-0.2739479738029503
 21
2.049350759838624
 31
0.0
  0
LINE
  5
1BD
330
172
100
AcDbEntity
  8
AM_4
100
AcDbLine
 10
-0.0352000157998925
 20
2.151321301697135
 30
0.0
 11
-0.0352000157998925
 21
2.049350759838624
 31
0.0
  0
LINE
  5
1BE
330
172
100
AcDbEntity
  8
AM_4
100
AcDbLine
 10
0.0198956674085483
 20
2.151321301697135
 30
0.0
 11
-0.0352000157998925
 21
2.151321301697135
 31
0.0
  0
LINE
  5
1BF
330
172
100
AcDbEntity
  8
AM_4
100
AcDbLine
 10
0.0321391529215476
 20
2.148407857424025
 30
0.0
 11
0.0198956674085483
 21
2.151321301697135
 31
0.0
  0
LINE
  5
1C0
330
172
100
AcDbEntity
  8
AM_4
100
AcDbLine
 10
0.0413217655562739
 20
2.142580969077837
 30
0.0
 11
0.0321391529215476
 21
2.148407857424025
 31
0.0
  0
LINE
  5
1C1
330
172
100
AcDbEntity
  8
AM_4
100
AcDbLine
 10
0.0474435100127576
 20
2.133840636458539
 30
0.0
 11
0.0413217655562739
 21
2.142580969077837
 31
0.0
  0
LINE
  5
1C2
330
172
100
AcDbEntity
  8
AM_4
100
AcDbLine
 10
0.0505043795909926
 20
2.122186862266132
 30
0.0
 11
0.0474435100127576
 21
2.133840636458539
 31
0.0
  0
LINE
  5
1C3
330
172
100
AcDbEntity
  8
AM_4
100
AcDbLine
 10
0.0505043795909926
 20
2.078485201869612
 30
0.0
 11
0.0505043795909926
 21
2.122186862266132
 31
0.0
  0
LINE
  5
1C4
330
172
100
AcDbEntity
  8
AM_4
100
AcDbLine
 10
0.0474435100127576
 20
2.066831425077221
 30
0.0
 11
0.0505043795909926
 21
2.078485201869612
 31
0.0
  0
LINE
  5
1C5
330
172
100
AcDbEntity
  8
AM_4
100
AcDbLine
 10
0.0413217655562739
 20
2.058091095157923
 30
0.0
 11
0.0474435100127576
 21
2.066831425077221
 31
0.0
  0
LINE
  5
1C6
330
172
100
AcDbEntity
  8
AM_4
100
AcDbLine
 10
0.0321391529215476
 20
2.052264204111734
 30
0.0
 11
0.0413217655562739
 21
2.058091095157923
 31
0.0
  0
LINE
  5
1C7
330
172
100
AcDbEntity
  8
AM_4
100
AcDbLine
 10
0.0198956674085485
 20
2.049350759838624
 30
0.0
 11
0.0321391529215476
 21
2.052264204111734
 31
0.0
  0
LINE
  5
1C8
330
172
100
AcDbEntity
  8
AM_4
100
AcDbLine
 10
-0.0352000157998925
 20
2.049350759838624
 30
0.0
 11
0.0198956674085485
 21
2.049350759838624
 31
0.0
  0
LINE
  5
1C9
330
172
100
AcDbEntity
  8
AM_4
100
AcDbLine
 10
-0.1515131279731519
 20
2.049350759838624
 30
0.0
 11
-0.1270261501472169
 21
2.049350759838624
 31
0.0
  0
LINE
  5
1CA
330
172
100
AcDbEntity
  8
AM_4
100
AcDbLine
 10
-0.1790609752773919
 20
2.133840636458539
 30
0.0
 11
-0.1821218447556389
 21
2.122186862266132
 31
0.0
  0
LINE
  5
1CB
330
172
100
AcDbEntity
  8
AM_4
100
AcDbLine
 10
-0.1729392146209069
 20
2.142580969077837
 30
0.0
 11
-0.1790609752773919
 21
2.133840636458539
 31
0.0
  0
LINE
  5
1CC
330
172
100
AcDbEntity
  8
AM_4
100
AcDbLine
 10
-0.1637566060861759
 20
2.148407857424025
 30
0.0
 11
-0.1729392146209069
 21
2.142580969077837
 31
0.0
  0
LINE
  5
1CD
330
172
100
AcDbEntity
  8
AM_4
100
AcDbLine
 10
-0.1515131279731519
 20
2.151321301697135
 30
0.0
 11
-0.1637566060861759
 21
2.148407857424025
 31
0.0
  0
LINE
  5
1CE
330
172
100
AcDbEntity
  8
AM_4
100
AcDbLine
 10
-0.1270261501472169
 20
2.151321301697135
 30
0.0
 11
-0.1515131279731519
 21
2.151321301697135
 31
0.0
  0
LINE
  5
1CF
330
172
100
AcDbEntity
  8
AM_4
100
AcDbLine
 10
-0.1147826720341939
 20
2.148407857424025
 30
0.0
 11
-0.1270261501472169
 21
2.151321301697135
 31
0.0
  0
LINE
  5
1D0
330
172
100
AcDbEntity
  8
AM_4
100
AcDbLine
 10
-0.1056000526995169
 20
2.142580969077837
 30
0.0
 11
-0.1147826720341939
 21
2.148407857424025
 31
0.0
  0
LINE
  5
1D1
330
172
100
AcDbEntity
  8
AM_4
100
AcDbLine
 10
-0.0994783136429771
 20
2.133840636458539
 30
0.0
 11
-0.1056000526995169
 21
2.142580969077837
 31
0.0
  0
LINE
  5
1D2
330
172
100
AcDbEntity
  8
AM_4
100
AcDbLine
 10
-0.0964174440647421
 20
2.122186862266132
 30
0.0
 11
-0.0994783136429771
 21
2.133840636458539
 31
0.0
  0
LINE
  5
1D3
330
172
100
AcDbEntity
  8
AM_4
100
AcDbLine
 10
-0.1147826720341939
 20
2.052264204111734
 30
0.0
 11
-0.1056000526995169
 21
2.058091095157923
 31
0.0
  0
LINE
  5
1D4
330
172
100
AcDbEntity
  8
AM_4
100
AcDbLine
 10
-0.1270261501472169
 20
2.049350759838624
 30
0.0
 11
-0.1147826720341939
 21
2.052264204111734
 31
0.0
  0
LINE
  5
1D5
330
172
100
AcDbEntity
  8
AM_4
100
AcDbLine
 10
-0.1637566060861759
 20
2.052264204111734
 30
0.0
 11
-0.1515131279731519
 21
2.049350759838624
 31
0.0
  0
LINE
  5
1D6
330
172
100
AcDbEntity
  8
AM_4
100
AcDbLine
 10
-0.1729392146209069
 20
2.058091095157923
 30
0.0
 11
-0.1637566060861759
 21
2.052264204111734
 31
0.0
  0
LINE
  5
1D7
330
172
100
AcDbEntity
  8
AM_4
100
AcDbLine
 10
-0.1790609752773919
 20
2.066831425077221
 30
0.0
 11
-0.1729392146209069
 21
2.058091095157923
 31
0.0
  0
LINE
  5
1D8
330
172
100
AcDbEntity
  8
AM_4
100
AcDbLine
 10
-0.1821218447556393
 20
2.078485201869612
 30
0.0
 11
-0.1790609752773919
 21
2.066831425077221
 31
0.0
  0
LINE
  5
1D9
330
172
100
AcDbEntity
  8
AM_4
100
AcDbLine
 10
-0.1821218447556389
 20
2.122186862266132
 30
0.0
 11
-0.1821218447556393
 21
2.078485201869612
 31
0.0
  0
LINE
  5
1DA
330
172
100
AcDbEntity
  8
AM_4
100
AcDbLine
 10
-0.1056000526995169
 20
2.058091095157923
 30
0.0
 11
-0.0994783136429771
 21
2.066831425077221
 31
0.0
  0
LINE
  5
1DB
330
172
100
AcDbEntity
  8
AM_4
100
AcDbLine
 10
-0.0994783136429771
 20
2.066831425077221
 30
0.0
 11
-0.0964174440647421
 21
2.078485201869612
 31
0.0
  0
LINE
  5
1DC
330
172
100
AcDbEntity
  8
AM_4
100
AcDbLine
 10
-0.0964174440647421
 20
2.078485201869612
 30
0.0
 11
-0.0964174440647421
 21
2.122186862266132
 31
0.0
  0
LWPOLYLINE
  5
1DD
330
172
100
AcDbEntity
  8
AM_4
100
AcDbPolyline
 90
       19
 70
     0
 43
0.0
 10
1.588096847918233
 20
-2.37499525
 10
1.59136250309497
 20
-2.374800550530003
 10
1.594598762290911
 20
-2.374321971347785
 10
1.597780995619468
 20
-2.373563154729897
 10
1.600884984363527
 20
-2.372529875728985
 10
1.603887105294504
 20
-2.371229998222159
 10
1.606764510459386
 20
-2.369673415062132
 10
1.609495301067442
 20
-2.367871972786643
 10
1.612058694153249
 20
-2.365839381459149
 10
1.614435180747605
 20
-2.363591110326965
 10
1.616606674352564
 20
-2.36114427009095
 10
1.61855664859061
 20
-2.358517482682741
 10
1.620270262980365
 20
-2.355730739540614
 10
1.621734475881613
 20
-2.352805249462562
 10
1.62293814375006
 20
-2.349763277194537
 10
1.623872105946434
 20
-2.346627973982292
 10
1.624529254454476
 20
-2.343423201376421
 10
1.624904587977245
 20
-2.340173349631549
 10
1.625
 20
-2.337499999441206
  0
LWPOLYLINE
  5
1DE
330
172
100
AcDbEntity
  8
AM_4
100
AcDbPolyline
 90
       19
 70
     0
 43
0.0
 10
-1.625
 20
-2.337499999999999
 10
-1.624857301178441
 20
-2.340768340353037
 10
-1.624430290737958
 20
-2.344011806662509
 10
-1.62372221848584
 20
-2.347205714191344
 10
-1.622738473279472
 20
-2.350325755374712
 10
-1.621486542013875
 20
-2.353348184815276
 10
-1.619975952641917
 20
-2.35625
 10
-1.618218201660838
 20
-2.359009116363164
 10
-1.616226666616962
 20
-2.361604535363245
 10
-1.614016504294496
 20
-2.364016504294495
 10
-1.611604535363245
 20
-2.366226666616961
 10
-1.609009116363164
 20
-2.368218201660837
 10
-1.60625
 20
-2.369975952641916
 10
-1.603348184815276
 20
-2.371486542013874
 10
-1.600325755374713
 20
-2.372738473279471
 10
-1.597205714191345
 20
-2.37372221848584
 10
-1.59401180666251
 20
-2.374430290737958
 10
-1.590768340353037
 20
-2.37485730117844
 10
-1.588096847918233
 20
-2.37499525
  0
LINE
  5
1DF
330
172
100
AcDbEntity
  8
AM_4
100
AcDbLine
 10
1.588096847918228
 20
-2.37499525
 30
0.0
 11
-1.588096847918228
 21
-2.37499525
 31
0.0
  0
LINE
  5
1E0
330
172
100
AcDbEntity
  8
AM_4
100
AcDbLine
 10
1.625
 20
-2.33562515
 30
0.0
 11
-1.625
 21
-2.33562515
 31
0.0
  0
LINE
  5
1E1
330
172
100
AcDbEntity
  8
AM_4
100
AcDbLine
 10
1.625
 20
-1.992495249999999
 30
0.0
 11
-1.625
 21
-1.992495249999999
 31
0.0
  0
LINE
  5
1E2
330
172
100
AcDbEntity
  8
AM_4
100
AcDbLine
 10
1.625
 20
-1.87438525
 30
0.0
 11
-1.625
 21
-1.87438525
 31
0.0
  0
LINE
  5
1E3
330
172
100
AcDbEntity
  8
AM_4
100
AcDbLine
 10
0.1147826720341884
 20
2.133840636458539
 30
0.0
 11
0.1209044217906864
 21
2.142580969077837
 31
0.0
  0
LINE
  5
1E4
330
172
100
AcDbEntity
  8
AM_4
100
AcDbLine
 10
0.2372175178639888
 20
2.0318701
 30
0.0
 11
0.3474088855808208
 21
2.0318701
 31
0.0
  0
LINE
  5
1E5
330
172
100
AcDbEntity
  8
AM_4
100
AcDbLine
 10
0.1943653228685454
 20
2.133840636458539
 30
0.0
 11
0.2127305616379964
 21
2.133840636458539
 31
0.0
  0
LINE
  5
1E6
330
172
100
AcDbEntity
  8
AM_4
100
AcDbLine
 10
0.3351654074678528
 20
2.095965865808202
 30
0.0
 11
0.3351654074678528
 21
2.113446529646805
 31
0.0
  0
LINE
  5
1E7
330
172
100
AcDbEntity
  8
AM_4
100
AcDbLine
 10
0.1300870304254055
 20
2.052264204111734
 30
0.0
 11
0.1209044217906864
 21
2.058091095157923
 31
0.0
  0
LINE
  5
1E8
330
172
100
AcDbEntity
  8
AM_4
100
AcDbLine
 10
0.2555827565334539
 20
2.113446529646805
 30
0.0
 11
0.2555827565334539
 21
2.151321301697135
 31
0.0
  0
LINE
  5
1E9
330
172
100
AcDbEntity
  8
AM_4
100
AcDbLine
 10
0.2555827565334539
 20
2.151321301697135
 30
0.0
 11
0.3474088855808208
 21
2.151321301697135
 31
0.0
  0
LINE
  5
1EA
330
172
100
AcDbEntity
  8
AM_4
100
AcDbLine
 10
0.3474088855808208
 20
2.151321301697135
 30
0.0
 11
0.3474088855808207
 21
2.168801966935732
 31
0.0
  0
LINE
  5
1EB
330
172
100
AcDbEntity
  8
AM_4
100
AcDbLine
 10
0.3474088855808207
 20
2.168801966935732
 30
0.0
 11
0.2372175178639888
 21
2.168801966935732
 31
0.0
  0
LINE
  5
1EC
330
172
100
AcDbEntity
  8
AM_4
100
AcDbLine
 10
0.0474435100127576
 20
2.040610432619298
 30
0.0
 11
0.0596869935257813
 21
2.052264204111734
 31
0.0
  0
LINE
  5
1ED
330
172
100
AcDbEntity
  8
AM_4
100
AcDbLine
 10
0.1209044217906864
 20
2.142580969077837
 30
0.0
 11
0.1300870304254055
 21
2.148407857424025
 31
0.0
  0
LINE
  5
1EE
330
172
100
AcDbEntity
  8
AM_4
100
AcDbLine
 10
0.2555827565334539
 20
2.049350759838624
 30
0.0
 11
0.2555827565334539
 21
2.095965865808202
 31
0.0
  0
LINE
  5
1EF
330
172
100
AcDbEntity
  8
AM_4
100
AcDbLine
 10
-0.2739479738029501
 20
2.168801966935732
 30
0.0
 11
-0.3474088855808231
 21
2.168801966935732
 31
0.0
  0
LINE
  5
1F0
330
172
100
AcDbEntity
  8
AM_4
100
AcDbLine
 10
-0.3474088855808231
 20
2.168801966935732
 30
0.0
 11
-0.3474088855808231
 21
2.0318701
 31
0.0
  0
LINE
  5
1F1
330
172
100
AcDbEntity
  8
AM_4
100
AcDbLine
 10
-0.3474088855808231
 20
2.0318701
 30
0.0
 11
-0.2739479738029501
 21
2.0318701
 31
0.0
  0
LINE
  5
1F2
330
172
100
AcDbEntity
  8
AM_4
100
AcDbLine
 10
0.1209044217906864
 20
2.058091095157923
 30
0.0
 11
0.1147826720341884
 21
2.066831425077221
 31
0.0
  0
LINE
  5
1F3
330
172
100
AcDbEntity
  8
AM_4
100
AcDbLine
 10
0.1147826720341884
 20
2.066831425077221
 30
0.0
 11
0.1117218024558974
 21
2.078485201869612
 31
0.0
  0
LINE
  5
1F4
330
172
100
AcDbEntity
  8
AM_4
100
AcDbLine
 10
0.1117218024558974
 20
2.078485201869612
 30
0.0
 11
0.1117218024558974
 21
2.122186862266132
 31
0.0
  0
LINE
  5
1F5
330
172
100
AcDbEntity
  8
AM_4
100
AcDbLine
 10
0.1117218024558974
 20
2.122186862266132
 30
0.0
 11
0.1147826720341884
 21
2.133840636458539
 31
0.0
  0
LINE
  5
1F6
330
172
100
AcDbEntity
  8
AM_4
100
AcDbLine
 10
-0.22803490932926
 20
2.063917980904126
 30
0.0
 11
-0.224974039751081
 21
2.078485201869612
 31
0.0
  0
LINE
  5
1F7
330
172
100
AcDbEntity
  8
AM_4
100
AcDbLine
 10
-0.224974039751081
 20
2.078485201869612
 30
0.0
 11
-0.224974039751081
 21
2.122186862266132
 31
0.0
  0
LINE
  5
1F8
330
172
100
AcDbEntity
  8
AM_4
100
AcDbLine
 10
0.1300870304254055
 20
2.148407857424025
 30
0.0
 11
0.1423305193383725
 21
2.151321301697135
 31
0.0
  0
LINE
  5
1F9
330
172
100
AcDbEntity
  8
AM_4
100
AcDbLine
 10
0.3351654074678528
 20
2.113446529646805
 30
0.0
 11
0.2555827565334539
 21
2.113446529646805
 31
0.0
  0
LINE
  5
1FA
330
172
100
AcDbEntity
  8
AM_4
100
AcDbLine
 10
0.1913044533902994
 20
2.142580969077837
 30
0.0
 11
0.1943653228685454
 21
2.133840636458539
 31
0.0
  0
LINE
  5
1FB
330
172
100
AcDbEntity
  8
AM_4
100
AcDbLine
 10
0.2096696920597614
 20
2.148407857424025
 30
0.0
 11
0.1974261924467804
 21
2.160061634316433
 31
0.0
  0
LINE
  5
1FC
330
172
100
AcDbEntity
  8
AM_4
100
AcDbLine
 10
0.1974261924467804
 20
2.160061634316433
 30
0.0
 11
0.1851827143338154
 21
2.165888522662621
 31
0.0
  0
LINE
  5
1FD
330
172
100
AcDbEntity
  8
AM_4
100
AcDbLine
 10
0.1851827143338154
 20
2.165888522662621
 30
0.0
 11
0.1698783558425545
 21
2.168801966935732
 31
0.0
  0
LINE
  5
1FE
330
172
100
AcDbEntity
  8
AM_4
100
AcDbLine
 10
0.0658087379822068
 20
2.063917980904126
 30
0.0
 11
0.0688696074604557
 21
2.078485201869612
 31
0.0
  0
LINE
  5
1FF
330
172
100
AcDbEntity
  8
AM_4
100
AcDbLine
 10
0.1147826720341884
 20
2.160061634316433
 30
0.0
 11
0.1025391939211645
 21
2.148407857424025
 31
0.0
  0
LINE
  5
200
330
172
100
AcDbEntity
  8
AM_4
100
AcDbLine
 10
0.1025391939211645
 20
2.148407857424025
 30
0.0
 11
0.0964174494646811
 21
2.136754080631634
 31
0.0
  0
LINE
  5
201
330
172
100
AcDbEntity
  8
AM_4
100
AcDbLine
 10
0.2372175178639888
 20
2.168801966935732
 30
0.0
 11
0.2372175178639888
 21
2.0318701
 31
0.0
  0
LINE
  5
202
330
172
100
AcDbEntity
  8
AM_4
100
AcDbLine
 10
0.1147826720341884
 20
2.040610432619298
 30
0.0
 11
0.1270261609471564
 21
2.034783544173094
 31
0.0
  0
LINE
  5
203
330
172
100
AcDbEntity
  8
AM_4
100
AcDbLine
 10
0.0964174494646811
 20
2.136754080631634
 30
0.0
 11
0.0933565798864461
 21
2.122186862266132
 31
0.0
  0
LINE
  5
204
330
172
100
AcDbEntity
  8
AM_4
100
AcDbLine
 10
0.1270261609471564
 20
2.165888522662621
 30
0.0
 11
0.1147826720341884
 21
2.160061634316433
 31
0.0
  0
LINE
  5
205
330
172
100
AcDbEntity
  8
AM_4
100
AcDbLine
 10
0.1423305193383725
 20
2.168801966935732
 30
0.0
 11
0.1270261609471564
 21
2.165888522662621
 31
0.0
  0
LINE
  5
206
330
172
100
AcDbEntity
  8
AM_4
100
AcDbLine
 10
0.1698783558425545
 20
2.168801966935732
 30
0.0
 11
0.1423305193383725
 21
2.168801966935732
 31
0.0
  0
LINE
  5
207
330
172
100
AcDbEntity
  8
AM_4
100
AcDbLine
 10
0.2127305616379964
 20
2.133840636458539
 30
0.0
 11
0.2096696920597614
 21
2.148407857424025
 31
0.0
  0
LINE
  5
208
330
172
100
AcDbEntity
  8
AM_4
100
AcDbLine
 10
0.1821218447555225
 20
2.148407857424025
 30
0.0
 11
0.1913044533902994
 21
2.142580969077837
 31
0.0
  0
LINE
  5
209
330
172
100
AcDbEntity
  8
AM_4
100
AcDbLine
 10
0.1698783558425545
 20
2.151321301697135
 30
0.0
 11
0.1821218447555225
 21
2.148407857424025
 31
0.0
  0
LINE
  5
20A
330
172
100
AcDbEntity
  8
AM_4
100
AcDbLine
 10
0.1423305193383725
 20
2.151321301697135
 30
0.0
 11
0.1698783558425545
 21
2.151321301697135
 31
0.0
  0
LINE
  5
20B
330
172
100
AcDbEntity
  8
AM_4
100
AcDbLine
 10
0.1423305193383725
 20
2.049350759838624
 30
0.0
 11
0.1300870304254055
 21
2.052264204111734
 31
0.0
  0
LINE
  5
20C
330
172
100
AcDbEntity
  8
AM_4
100
AcDbLine
 10
0.1698783558425545
 20
2.049350759838624
 30
0.0
 11
0.1423305193383725
 21
2.049350759838624
 31
0.0
  0
LINE
  5
20D
330
172
100
AcDbEntity
  8
AM_4
100
AcDbLine
 10
0.1821218447555225
 20
2.052264204111734
 30
0.0
 11
0.1698783558425545
 21
2.049350759838624
 31
0.0
  0
LINE
  5
20E
330
172
100
AcDbEntity
  8
AM_4
100
AcDbLine
 10
0.1913044533902994
 20
2.058091095157923
 30
0.0
 11
0.1821218447555225
 21
2.052264204111734
 31
0.0
  0
LINE
  5
20F
330
172
100
AcDbEntity
  8
AM_4
100
AcDbLine
 10
0.1943653228685454
 20
2.066831425077221
 30
0.0
 11
0.1913044533902994
 21
2.058091095157923
 31
0.0
  0
LINE
  5
210
330
172
100
AcDbEntity
  8
AM_4
100
AcDbLine
 10
0.1943653228685454
 20
2.090138978062024
 30
0.0
 11
0.1943653228685454
 21
2.066831425077221
 31
0.0
  0
LINE
  5
211
330
172
100
AcDbEntity
  8
AM_4
100
AcDbLine
 10
0.1668174863643074
 20
2.090138978062024
 30
0.0
 11
0.1943653228685454
 21
2.090138978062024
 31
0.0
  0
LINE
  5
212
330
172
100
AcDbEntity
  8
AM_4
100
AcDbLine
 10
0.1668174863643074
 20
2.107619642000614
 30
0.0
 11
0.1668174863643074
 21
2.090138978062024
 31
0.0
  0
LINE
  5
213
330
172
100
AcDbEntity
  8
AM_4
100
AcDbLine
 10
0.2127305616379964
 20
2.107619642000614
 30
0.0
 11
0.1668174863643074
 21
2.107619642000614
 31
0.0
  0
LINE
  5
214
330
172
100
AcDbEntity
  8
AM_4
100
AcDbLine
 10
0.2127305616379964
 20
2.063917980904126
 30
0.0
 11
0.2127305616379964
 21
2.107619642000614
 31
0.0
  0
LINE
  5
215
330
172
100
AcDbEntity
  8
AM_4
100
AcDbLine
 10
0.2096696920597614
 20
2.052264204111734
 30
0.0
 11
0.2127305616379964
 21
2.063917980904126
 31
0.0
  0
LINE
  5
216
330
172
100
AcDbEntity
  8
AM_4
100
AcDbLine
 10
0.1974261924467804
 20
2.040610432619298
 30
0.0
 11
0.2096696920597614
 21
2.052264204111734
 31
0.0
  0
LINE
  5
217
330
172
100
AcDbEntity
  8
AM_4
100
AcDbLine
 10
0.1851827143338154
 20
2.034783544173094
 30
0.0
 11
0.1974261924467804
 21
2.040610432619298
 31
0.0
  0
LINE
  5
218
330
172
100
AcDbEntity
  8
AM_4
100
AcDbLine
 10
0.1698783558425545
 20
2.0318701
 30
0.0
 11
0.1851827143338154
 21
2.034783544173094
 31
0.0
  0
LINE
  5
219
330
172
100
AcDbEntity
  8
AM_4
100
AcDbLine
 10
0.1423305193383725
 20
2.0318701
 30
0.0
 11
0.1698783558425545
 21
2.0318701
 31
0.0
  0
LINE
  5
21A
330
172
100
AcDbEntity
  8
AM_4
100
AcDbLine
 10
0.1270261609471564
 20
2.034783544173094
 30
0.0
 11
0.1423305193383725
 21
2.0318701
 31
0.0
  0
LINE
  5
21B
330
172
100
AcDbEntity
  8
AM_4
100
AcDbLine
 10
0.1025391939211645
 20
2.052264204111734
 30
0.0
 11
0.1147826720341884
 21
2.040610432619298
 31
0.0
  0
LINE
  5
21C
330
172
100
AcDbEntity
  8
AM_4
100
AcDbLine
 10
0.0964174494646811
 20
2.063917980904126
 30
0.0
 11
0.1025391939211645
 21
2.052264204111734
 31
0.0
  0
LINE
  5
21D
330
172
100
AcDbEntity
  8
AM_4
100
AcDbLine
 10
0.0933565798864461
 20
2.078485201869612
 30
0.0
 11
0.0964174494646811
 21
2.063917980904126
 31
0.0
  0
LINE
  5
21E
330
172
100
AcDbEntity
  8
AM_4
100
AcDbLine
 10
0.0933565798864461
 20
2.122186862266132
 30
0.0
 11
0.0933565798864461
 21
2.078485201869612
 31
0.0
  0
LINE
  5
21F
330
172
100
AcDbEntity
  8
AM_4
100
AcDbLine
 10
-0.1974261924468419
 20
2.136754080631634
 30
0.0
 11
-0.2004870619250909
 21
2.122186862266132
 31
0.0
  0
LINE
  5
220
330
172
100
AcDbEntity
  8
AM_4
100
AcDbLine
 10
-0.1913044533903571
 20
2.148407857424026
 30
0.0
 11
-0.1974261924468419
 21
2.136754080631634
 31
0.0
  0
LINE
  5
221
330
172
100
AcDbEntity
  8
AM_4
100
AcDbLine
 10
-0.1790609752773919
 20
2.160061634316433
 30
0.0
 11
-0.1913044533903571
 21
2.148407857424026
 31
0.0
  0
LINE
  5
222
330
172
100
AcDbEntity
  8
AM_4
100
AcDbLine
 10
-0.1668174755644229
 20
2.165888522662621
 30
0.0
 11
-0.1790609752773919
 21
2.160061634316433
 31
0.0
  0
LINE
  5
223
330
172
100
AcDbEntity
  8
AM_4
100
AcDbLine
 10
-0.1515131279731519
 20
2.168801966935732
 30
0.0
 11
-0.1668174755644229
 21
2.165888522662621
 31
0.0
  0
LINE
  5
224
330
172
100
AcDbEntity
  8
AM_4
100
AcDbLine
 10
-0.1270261501472169
 20
2.168801966935732
 30
0.0
 11
-0.1515131279731519
 21
2.168801966935732
 31
0.0
  0
LINE
  5
225
330
172
100
AcDbEntity
  8
AM_4
100
AcDbLine
 10
-0.1117217917560009
 20
2.165888522662621
 30
0.0
 11
-0.1270261501472169
 21
2.168801966935732
 31
0.0
  0
LINE
  5
226
330
172
100
AcDbEntity
  8
AM_4
100
AcDbLine
 10
-0.0994783136429771
 20
2.160061634316433
 30
0.0
 11
-0.1117217917560009
 21
2.165888522662621
 31
0.0
  0
LINE
  5
227
330
172
100
AcDbEntity
  8
AM_4
100
AcDbLine
 10
-0.0872348247300096
 20
2.148407857424025
 30
0.0
 11
-0.0994783136429771
 21
2.160061634316433
 31
0.0
  0
LINE
  5
228
330
172
100
AcDbEntity
  8
AM_4
100
AcDbLine
 10
-0.0811130856735257
 20
2.136754080631634
 30
0.0
 11
-0.0872348247300096
 21
2.148407857424025
 31
0.0
  0
LINE
  5
229
330
172
100
AcDbEntity
  8
AM_4
100
AcDbLine
 10
-0.0780522160952907
 20
2.122186862266132
 30
0.0
 11
-0.0811130856735257
 21
2.136754080631634
 31
0.0
  0
LINE
  5
22A
330
172
100
AcDbEntity
  8
AM_4
100
AcDbLine
 10
-0.0780522160952907
 20
2.078485201869612
 30
0.0
 11
-0.0780522160952907
 21
2.122186862266132
 31
0.0
  0
LINE
  5
22B
330
172
100
AcDbEntity
  8
AM_4
100
AcDbLine
 10
-0.0811130856735257
 20
2.063917980904126
 30
0.0
 11
-0.0780522160952907
 21
2.078485201869612
 31
0.0
  0
LINE
  5
22C
330
172
100
AcDbEntity
  8
AM_4
100
AcDbLine
 10
-0.0872348247300096
 20
2.052264204111734
 30
0.0
 11
-0.0811130856735257
 21
2.063917980904126
 31
0.0
  0
LINE
  5
22D
330
172
100
AcDbEntity
  8
AM_4
100
AcDbLine
 10
-0.0994783136429771
 20
2.040610432619298
 30
0.0
 11
-0.0872348247300096
 21
2.052264204111734
 31
0.0
  0
LINE
  5
22E
330
172
100
AcDbEntity
  8
AM_4
100
AcDbLine
 10
-0.1117217917560009
 20
2.034783544173094
 30
0.0
 11
-0.0994783136429771
 21
2.040610432619298
 31
0.0
  0
LINE
  5
22F
330
172
100
AcDbEntity
  8
AM_4
100
AcDbLine
 10
-0.1270261501472169
 20
2.0318701
 30
0.0
 11
-0.1117217917560009
 21
2.034783544173094
 31
0.0
  0
LINE
  5
230
330
172
100
AcDbEntity
  8
AM_4
100
AcDbLine
 10
-0.1515131279731519
 20
2.0318701
 30
0.0
 11
-0.1270261501472169
 21
2.0318701
 31
0.0
  0
LINE
  5
231
330
172
100
AcDbEntity
  8
AM_4
100
AcDbLine
 10
-0.1668174755644229
 20
2.034783544173094
 30
0.0
 11
-0.1515131279731519
 21
2.0318701
 31
0.0
  0
LINE
  5
232
330
172
100
AcDbEntity
  8
AM_4
100
AcDbLine
 10
-0.1790609752773919
 20
2.040610432619298
 30
0.0
 11
-0.1668174755644229
 21
2.034783544173094
 31
0.0
  0
LINE
  5
233
330
172
100
AcDbEntity
  8
AM_4
100
AcDbLine
 10
-0.1913044533903579
 20
2.052264204111734
 30
0.0
 11
-0.1790609752773919
 21
2.040610432619298
 31
0.0
  0
LINE
  5
234
330
172
100
AcDbEntity
  8
AM_4
100
AcDbLine
 10
-0.1974261924468419
 20
2.063917980904126
 30
0.0
 11
-0.1913044533903579
 21
2.052264204111734
 31
0.0
  0
LINE
  5
235
330
172
100
AcDbEntity
  8
AM_4
100
AcDbLine
 10
-0.2004870619250909
 20
2.078485201869612
 30
0.0
 11
-0.1974261924468419
 21
2.063917980904126
 31
0.0
  0
LINE
  5
236
330
172
100
AcDbEntity
  8
AM_4
100
AcDbLine
 10
-0.2004870619250909
 20
2.122186862266132
 30
0.0
 11
-0.2004870619250909
 21
2.078485201869612
 31
0.0
  0
LINE
  5
237
330
172
100
AcDbEntity
  8
AM_4
100
AcDbLine
 10
-0.2586436261117469
 20
2.165888522662622
 30
0.0
 11
-0.2739479738029501
 21
2.168801966935732
 31
0.0
  0
LINE
  5
238
330
172
100
AcDbEntity
  8
AM_4
100
AcDbLine
 10
-0.2464001264987681
 20
2.160061634316433
 30
0.0
 11
-0.2586436261117469
 21
2.165888522662622
 31
0.0
  0
LINE
  5
239
330
172
100
AcDbEntity
  8
AM_4
100
AcDbLine
 10
-0.2341566483858001
 20
2.148407857424025
 30
0.0
 11
-0.2464001264987681
 21
2.160061634316433
 31
0.0
  0
LINE
  5
23A
330
172
100
AcDbEntity
  8
AM_4
100
AcDbLine
 10
-0.22803490932926
 20
2.136754080631634
 30
0.0
 11
-0.2341566483858001
 21
2.148407857424025
 31
0.0
  0
LINE
  5
23B
330
172
100
AcDbEntity
  8
AM_4
100
AcDbLine
 10
-0.224974039751081
 20
2.122186862266132
 30
0.0
 11
-0.22803490932926
 21
2.136754080631634
 31
0.0
  0
LINE
  5
23C
330
172
100
AcDbEntity
  8
AM_4
100
AcDbLine
 10
-0.2341566483858001
 20
2.052264204111734
 30
0.0
 11
-0.22803490932926
 21
2.063917980904126
 31
0.0
  0
LINE
  5
23D
330
172
100
AcDbEntity
  8
AM_4
100
AcDbLine
 10
-0.2464001264987681
 20
2.040610432619298
 30
0.0
 11
-0.2341566483858001
 21
2.052264204111734
 31
0.0
  0
LINE
  5
23E
330
172
100
AcDbEntity
  8
AM_4
100
AcDbLine
 10
-0.2586436261117471
 20
2.034783544173094
 30
0.0
 11
-0.2464001264987681
 21
2.040610432619298
 31
0.0
  0
LINE
  5
23F
330
172
100
AcDbEntity
  8
AM_4
100
AcDbLine
 10
-0.2739479738029501
 20
2.0318701
 30
0.0
 11
-0.2586436261117471
 21
2.034783544173094
 31
0.0
  0
LINE
  5
240
330
172
100
AcDbEntity
  8
AM_4
100
AcDbLine
 10
-0.0535652437692857
 20
2.168801966935732
 30
0.0
 11
-0.0535652437692857
 21
2.0318701
 31
0.0
  0
LINE
  5
241
330
172
100
AcDbEntity
  8
AM_4
100
AcDbLine
 10
0.0198956674085485
 20
2.168801966935732
 30
0.0
 11
-0.0535652437692857
 21
2.168801966935732
 31
0.0
  0
LINE
  5
242
330
172
100
AcDbEntity
  8
AM_4
100
AcDbLine
 10
0.035200023799789
 20
2.165888522662621
 30
0.0
 11
0.0198956674085485
 21
2.168801966935732
 31
0.0
  0
LINE
  5
243
330
172
100
AcDbEntity
  8
AM_4
100
AcDbLine
 10
0.0474435100127576
 20
2.160061634316433
 30
0.0
 11
0.035200023799789
 21
2.165888522662621
 31
0.0
  0
LINE
  5
244
330
172
100
AcDbEntity
  8
AM_4
100
AcDbLine
 10
0.0596869935257813
 20
2.148407857424025
 30
0.0
 11
0.0474435100127576
 21
2.160061634316433
 31
0.0
  0
LINE
  5
245
330
172
100
AcDbEntity
  8
AM_4
100
AcDbLine
 10
0.0658087379822068
 20
2.136754080631634
 30
0.0
 11
0.0596869935257813
 21
2.148407857424025
 31
0.0
  0
LINE
  5
246
330
172
100
AcDbEntity
  8
AM_4
100
AcDbLine
 10
0.0688696074604557
 20
2.122186862266132
 30
0.0
 11
0.0658087379822068
 21
2.136754080631634
 31
0.0
  0
LINE
  5
247
330
172
100
AcDbEntity
  8
AM_4
100
AcDbLine
 10
0.0688696074604557
 20
2.078485201869612
 30
0.0
 11
0.0688696074604557
 21
2.122186862266132
 31
0.0
  0
LINE
  5
248
330
172
100
AcDbEntity
  8
AM_4
100
AcDbLine
 10
0.0596869935257813
 20
2.052264204111734
 30
0.0
 11
0.0658087379822068
 21
2.063917980904126
 31
0.0
  0
LINE
  5
249
330
172
100
AcDbEntity
  8
AM_4
100
AcDbLine
 10
0.035200023799789
 20
2.034783544173094
 30
0.0
 11
0.0474435100127576
 21
2.040610432619298
 31
0.0
  0
LINE
  5
24A
330
172
100
AcDbEntity
  8
AM_4
100
AcDbLine
 10
0.0198956674085483
 20
2.0318701
 30
0.0
 11
0.035200023799789
 21
2.034783544173094
 31
0.0
  0
LINE
  5
24B
330
172
100
AcDbEntity
  8
AM_4
100
AcDbLine
 10
-0.0535652437692857
 20
2.0318701
 30
0.0
 11
0.0198956674085483
 21
2.0318701
 31
0.0
  0
LINE
  5
24C
330
172
100
AcDbEntity
  8
AM_4
100
AcDbLine
 10
0.2555827565334539
 20
2.095965865808202
 30
0.0
 11
0.3351654074678528
 21
2.095965865808202
 31
0.0
  0
LINE
  5
24D
330
172
100
AcDbEntity
  8
AM_4
100
AcDbLine
 10
0.3474088855808208
 20
2.049350759838624
 30
0.0
 11
0.2555827565334539
 21
2.049350759838624
 31
0.0
  0
LINE
  5
24E
330
172
100
AcDbEntity
  8
AM_4
100
AcDbLine
 10
0.3474088855808208
 20
2.0318701
 30
0.0
 11
0.3474088855808208
 21
2.049350759838624
 31
0.0
  0
LINE
  5
24F
330
172
100
AcDbEntity
  8
AM_4
100
AcDbLine
 10
1.625000000000001
 20
1.99249525
 30
0.0
 11
-1.625
 21
1.99249525
 31
0.0
  0
LINE
  5
250
330
172
100
AcDbEntity
  8
AM_4
100
AcDbLine
 10
1.625
 20
1.87438525
 30
0.0
 11
-1.624999999999998
 21
1.87438525
 31
0.0
  0
LINE
  5
251
330
172
100
AcDbEntity
  8
AM_4
100
AcDbLine
 10
1.625
 20
1.700000000000001
 30
0.0
 11
1.625
 21
2.3375
 31
0.0
  0
LWPOLYLINE
  5
252
330
172
100
AcDbEntity
  8
AM_4
100
AcDbPolyline
 90
       19
 70
     0
 43
0.0
 10
-1.588096847918236
 20
2.37499525
 10
-1.591362503094973
 20
2.374800550530003
 10
-1.594598762290914
 20
2.374321971347785
 10
-1.597780995619472
 20
2.373563154729896
 10
-1.60088498436353
 20
2.372529875728984
 10
-1.603887105294507
 20
2.371229998222157
 10
-1.606764510459388
 20
2.36967341506213
 10
-1.609495301067444
 20
2.367871972786642
 10
-1.612058694153251
 20
2.365839381459147
 10
-1.614435180747607
 20
2.363591110326963
 10
-1.616606674352566
 20
2.361144270090947
 10
-1.618556648590612
 20
2.358517482682739
 10
-1.620270262980366
 20
2.355730739540611
 10
-1.621734475881615
 20
2.352805249462559
 10
-1.622938143750062
 20
2.349763277194533
 10
-1.623872105946434
 20
2.346627973982289
 10
-1.624529254454477
 20
2.343423201376418
 10
-1.624904587977246
 20
2.340173349631545
 10
-1.625
 20
2.337500000558793
  0
LINE
  5
253
330
172
100
AcDbEntity
  8
AM_4
100
AcDbLine
 10
1.625
 20
2.33562515
 30
0.0
 11
-1.625
 21
2.33562515
 31
0.0
  0
LWPOLYLINE
  5
254
330
172
100
AcDbEntity
  8
AM_4
100
AcDbPolyline
 90
       19
 70
     0
 43
0.0
 10
1.625
 20
2.337499999999999
 10
1.624857301178441
 20
2.340768340353037
 10
1.624430290737958
 20
2.344011806662509
 10
1.62372221848584
 20
2.347205714191344
 10
1.622738473279472
 20
2.350325755374712
 10
1.621486542013875
 20
2.353348184815276
 10
1.619975952641917
 20
2.356249999999999
 10
1.618218201660838
 20
2.359009116363164
 10
1.616226666616962
 20
2.361604535363245
 10
1.614016504294496
 20
2.364016504294495
 10
1.611604535363245
 20
2.366226666616961
 10
1.609009116363165
 20
2.368218201660837
 10
1.60625
 20
2.369975952641916
 10
1.603348184815277
 20
2.371486542013874
 10
1.600325755374713
 20
2.372738473279471
 10
1.597205714191345
 20
2.37372221848584
 10
1.59401180666251
 20
2.374430290737958
 10
1.590768340353038
 20
2.37485730117844
 10
1.588096847918236
 20
2.37499525
  0
LINE
  5
255
330
172
100
AcDbEntity
  8
AM_4
100
AcDbLine
 10
1.588096847918237
 20
2.37499525
 30
0.0
 11
-1.588096847918232
 21
2.37499525
 31
0.0
  0
LINE
  5
256
330
172
100
AcDbEntity
  8
AM_4
100
AcDbLine
 10
3.4375
 20
-0.7414834279531161
 30
0.0
 11
2.812500000000001
 21
-0.7414834279531161
 31
0.0
  0
LINE
  5
257
330
172
100
AcDbEntity
  8
AM_4
100
AcDbLine
 10
3.4375
 20
0.7414834279531167
 30
0.0
 11
2.8125
 21
0.7414834279531167
 31
0.0
  0
ENDBLK
  5
175
330
172
100
AcDbEntity
  8
0
100
AcDbBlockEnd
  0
ENDSEC
  0
SECTION
  2
ENTITIES
  0
INSERT
  5
6F
330
1F
100
AcDbEntity
  8
0
100
AcDbBlockReference
  2
1_136174_0
 10
0.0
 20
0.0
 30
0.0
  0
POINT
  5
259
330
1F
100
AcDbEntity
  8
ConnectionPoints
100
AcDbPoint
 10
0.0
 20
0.0
 30
0.0
  0
POINT
  5
25A
330
1F
100
AcDbEntity
  8
ConnectionPoints
100
AcDbPoint
 10
0.0
 20
0.0
 30
0.0
  0
POINT
  5
25B
330
1F
100
AcDbEntity
  8
ConnectionPoints
100
AcDbPoint
 10
0.0
 20
0.0
 30
-0.65625
  0
POINT
  5
25C
330
1F
100
AcDbEntity
  8
ConnectionPoints
100
AcDbPoint
 10
0.0
 20
0.0
 30
0.0
  0
POINT
  5
25D
330
1F
100
AcDbEntity
  8
ConnectionPoints
100
AcDbPoint
 10
0.0
 20
0.0
 30
0.0
  0
POINT
  5
25E
330
1F
100
AcDbEntity
  8
ConnectionPoints
100
AcDbPoint
 10
0.0
 20
0.0
 30
0.0
  0
POINT
  5
25F
330
1F
100
AcDbEntity
  8
ConnectionPoints
100
AcDbPoint
 10
-1.981033111156904
 20
-1.14375
 30
0.0
  0
POINT
  5
260
330
1F
100
AcDbEntity
  8
ConnectionPoints
100
AcDbPoint
 10
0.0
 20
0.0
 30
0.65625
  0
ENDSEC
  0
SECTION
  2
OBJECTS
  0
DICTIONARY
  5
C
330
0
100
AcDbDictionary
281
     1
  3
ACAD_DETAILVIEWSTYLE
350
268
  3
ACAD_GROUP
350
D
  3
ACAD_LAYOUT
350
1A
  3
ACAD_MATERIAL
350
43
  3
ACAD_MLEADERSTYLE
350
6B
  3
ACAD_MLINESTYLE
350
17
  3
ACAD_PLOTSETTINGS
350
19
  3
ACAD_PLOTSTYLENAME
350
E
  3
ACAD_SCALELIST
350
47
  3
ACAD_SECTIONVIEWSTYLE
350
269
  3
ACAD_TABLESTYLE
350
69
  3
ACAD_VISUALSTYLE
350
2A
  3
ACDB_RECOMPOSE_DATA
350
265
  3
AcDbVariableDictionary
350
261
  0
SUN
  5
6D
330
29
100
AcDbSun
 90
        1
290
     0
 63
     7
421
 16777215
 40
1.0
291
     1
 91
  2455826
 92
 54000000
292
     0
 70
     2
 71
   256
280
     1
  0
DICTIONARY
  5
268
102
{ACAD_REACTORS
330
C
102
}
330
C
100
AcDbDictionary
281
     1
  0
DICTIONARY
  5
D
102
{ACAD_REACTORS
330
C
102
}
330
C
100
AcDbDictionary
281
     1
  0
DICTIONARY
  5
1A
102
{ACAD_REACTORS
330
C
102
}
330
C
100
AcDbDictionary
281
     1
  3
Layout1
350
1E
  3
Layout2
350
26
  3
Model
350
22
  0
DICTIONARY
  5
43
102
{ACAD_REACTORS
330
C
102
}
330
C
100
AcDbDictionary
281
     1
  3
ByBlock
350
45
  3
ByLayer
350
44
  3
Global
350
46
  0
DICTIONARY
  5
6B
102
{ACAD_REACTORS
330
C
102
}
330
C
100
AcDbDictionary
281
     1
  3
Standard
350
6C
  0
DICTIONARY
  5
17
102
{ACAD_REACTORS
330
C
102
}
330
C
100
AcDbDictionary
281
     1
  3
Standard
350
18
  0
DICTIONARY
  5
19
102
{ACAD_REACTORS
330
C
102
}
330
C
100
AcDbDictionary
281
     1
  0
ACDBDICTIONARYWDFLT
  5
E
102
{ACAD_REACTORS
330
C
102
}
330
C
100
AcDbDictionary
281
     1
  3
Normal
350
F
100
AcDbDictionaryWithDefault
340
F
  0
DICTIONARY
  5
47
102
{ACAD_REACTORS
330
C
102
}
330
C
100
AcDbDictionary
281
     1
  3
A0
350
48
  3
A1
350
49
  3
A2
350
4A
  3
A3
350
4B
  3
A4
350
4C
  3
A5
350
4D
  3
A6
350
4E
  3
A7
350
4F
  3
A8
350
50
  3
A9
350
51
  3
B0
350
52
  3
B1
350
53
  3
B2
350
54
  3
B3
350
55
  3
B4
350
56
  3
B5
350
57
  3
B6
350
58
  3
B7
350
59
  3
B8
350
5A
  3
B9
350
5B
  3
C0
350
5C
  3
C1
350
5D
  3
C2
350
5E
  3
C3
350
5F
  3
C4
350
60
  3
C5
350
61
  3
C6
350
62
  3
C7
350
63
  3
C8
350
64
  3
C9
350
65
  3
D0
350
66
  3
D1
350
67
  3
D2
350
68
  0
DICTIONARY
  5
269
102
{ACAD_REACTORS
330
C
102
}
330
C
100
AcDbDictionary
281
     1
  0
DICTIONARY
  5
69
102
{ACAD_REACTORS
330
C
102
}
330
C
100
AcDbDictionary
281
     1
  3
Standard
350
6A
  0
DICTIONARY
  5
2A
102
{ACAD_REACTORS
330
C
102
}
330
C
100
AcDbDictionary
281
     1
  3
2dWireframe
350
2F
  3
Basic
350
32
  3
Brighten
350
36
  3
ColorChange
350
3A
  3
Conceptual
350
34
  3
Dim
350
35
  3
EdgeColorOff
350
3D
  3
Facepattern
350
39
  3
Flat
350
2B
  3
FlatWithEdges
350
2C
  3
Gouraud
350
2D
  3
GouraudWithEdges
350
2E
  3
Hidden
350
31
  3
JitterOff
350
3B
  3
Linepattern
350
38
  3
OverhangOff
350
3C
  3
Realistic
350
33
  3
Shaded
350
42
  3
Shaded with edges
350
41
  3
Shades of Gray
350
3E
  3
Sketchy
350
3F
  3
Thicken
350
37
  3
Wireframe
350
30
  3
X-Ray
350
40
  0
XRECORD
  5
265
102
{ACAD_REACTORS
330
C
102
}
330
C
100
AcDbXrecord
280
     1
 90
        1
330
6A
  0
DICTIONARY
  5
261
102
{ACAD_REACTORS
330
C
102
}
330
C
100
AcDbDictionary
281
     1
  3
CANNOSCALE
350
262
  3
CMLEADERSTYLE
350
267
  3
CTABLESTYLE
350
266
  0
LAYOUT
  5
1E
102
{ACAD_REACTORS
330
1A
102
}
330
1A
100
AcDbPlotSettings
  1

  2
none_device
  4

  6

 40
0.0
 41
0.0
 42
0.0
 43
0.0
 44
0.0
 45
0.0
 46
0.0
 47
0.0
 48
0.0
 49
0.0
140
0.0
141
0.0
142
1.0
143
1.0
 70
   688
 72
     0
 73
     0
 74
     5
  7

 75
    16
 76
     0
 77
     2
 78
   300
147
1.0
148
0.0
149
0.0
100
AcDbLayout
  1
Layout1
 70
     1
 71
     1
 10
0.0
 20
0.0
 11
12.0
 21
9.0
 12
0.0
 22
0.0
 32
0.0
 14
1.000000000000000E+20
 24
1.000000000000000E+20
 34
1.000000000000000E+20
 15
-1.000000000000000E+20
 25
-1.000000000000000E+20
 35
-1.000000000000000E+20
146
0.0
 13
0.0
 23
0.0
 33
0.0
 16
1.0
 26
0.0
 36
0.0
 17
0.0
 27
1.0
 37
0.0
 76
     0
330
1B
  0
LAYOUT
  5
26
102
{ACAD_REACTORS
330
1A
102
}
330
1A
100
AcDbPlotSettings
  1

  2
none_device
  4

  6

 40
0.0
 41
0.0
 42
0.0
 43
0.0
 44
0.0
 45
0.0
 46
0.0
 47
0.0
 48
0.0
 49
0.0
140
0.0
141
0.0
142
1.0
143
1.0
 70
   688
 72
     0
 73
     0
 74
     5
  7

 75
    16
 76
     0
 77
     2
 78
   300
147
1.0
148
0.0
149
0.0
100
AcDbLayout
  1
Layout2
 70
     1
 71
     2
 10
0.0
 20
0.0
 11
0.0
 21
0.0
 12
0.0
 22
0.0
 32
0.0
 14
0.0
 24
0.0
 34
0.0
 15
0.0
 25
0.0
 35
0.0
146
0.0
 13
0.0
 23
0.0
 33
0.0
 16
1.0
 26
0.0
 36
0.0
 17
0.0
 27
1.0
 37
0.0
 76
     0
330
23
  0
LAYOUT
  5
22
102
{ACAD_REACTORS
330
1A
102
}
330
1A
100
AcDbPlotSettings
  1

  2
none_device
  4
Letter_(8.50_x_11.00_Inches)
  6

 40
6.35
 41
6.35
 42
6.35000508
 43
6.35000508
 44
215.9
 45
279.4
 46
0.0
 47
0.0
 48
0.0
 49
0.0
140
0.0
141
0.0
142
1.0
143
1.0
 70
  1712
 72
     0
 73
     0
 74
     0
  7

 75
     0
 76
     0
 77
     2
 78
   300
147
1.0
148
0.0
149
0.0
100
AcDbLayout
  1
Model
 70
     1
 71
     0
 10
0.0
 20
0.0
 11
12.0
 21
9.0
 12
0.0
 22
0.0
 32
0.0
 14
1.000000000000000E+20
 24
1.000000000000000E+20
 34
1.000000000000000E+20
 15
-1.000000000000000E+20
 25
-1.000000000000000E+20
 35
-1.000000000000000E+20
146
0.0
 13
0.0
 23
0.0
 33
0.0
 16
1.0
 26
0.0
 36
0.0
 17
0.0
 27
1.0
 37
0.0
 76
     0
330
1F
331
29
  0
MATERIAL
  5
45
102
{ACAD_REACTORS
330
43
102
}
330
43
100
AcDbMaterial
  1
ByBlock
 72
     1
 94
      127
  0
MATERIAL
  5
44
102
{ACAD_REACTORS
330
43
102
}
330
43
100
AcDbMaterial
  1
ByLayer
 72
     1
 94
      127
  0
MATERIAL
  5
46
102
{ACAD_REACTORS
330
43
102
}
330
43
100
AcDbMaterial
  1
Global
 72
     1
 94
      127
  0
MLEADERSTYLE
  5
6C
102
{ACAD_REACTORS
330
6B
102
}
330
6B
100
AcDbMLeaderStyle
179
     2
170
     2
171
     1
172
     0
 90
        2
 40
0.0
 41
0.0
173
     1
 91
-1056964608
340
14
 92
       -2
290
     1
 42
0.09
291
     1
 43
0.36
  3
Standard
341
0
 44
0.18
300

342
11
174
     1
178
     6
175
     1
176
     0
 93
-1056964608
 45
0.18
292
     0
297
     0
 46
0.18
343
0
 94
-1056964608
 47
1.0
 49
1.0
140
1.0
293
     1
141
0.0
294
     1
177
     0
142
1.0
295
     0
296
     0
143
0.125
271
     0
272
     9
273
     9
298
     0
  0
MLINESTYLE
  5
18
102
{ACAD_REACTORS
330
17
102
}
330
17
100
AcDbMlineStyle
  2
Standard
 70
     0
  3

 62
   256
 51
90.0
 52
90.0
 71
     2
 49
0.5
 62
   256
  6
BYLAYER
 49
-0.5
 62
   256
  6
BYLAYER
  0
ACDBPLACEHOLDER
  5
F
102
{ACAD_REACTORS
330
E
102
}
330
E
  0
SCALE
  5
48
102
{ACAD_REACTORS
330
47
102
}
330
47
100
AcDbScale
 70
     0
300
1:1
140
1.0
141
1.0
290
     1
  0
SCALE
  5
49
102
{ACAD_REACTORS
330
47
102
}
330
47
100
AcDbScale
 70
     0
300
1:2
140
1.0
141
2.0
290
     0
  0
SCALE
  5
4A
102
{ACAD_REACTORS
330
47
102
}
330
47
100
AcDbScale
 70
     0
300
1:4
140
1.0
141
4.0
290
     0
  0
SCALE
  5
4B
102
{ACAD_REACTORS
330
47
102
}
330
47
100
AcDbScale
 70
     0
300
1:5
140
1.0
141
5.0
290
     0
  0
SCALE
  5
4C
102
{ACAD_REACTORS
330
47
102
}
330
47
100
AcDbScale
 70
     0
300
1:8
140
1.0
141
8.0
290
     0
  0
SCALE
  5
4D
102
{ACAD_REACTORS
330
47
102
}
330
47
100
AcDbScale
 70
     0
300
1:10
140
1.0
141
10.0
290
     0
  0
SCALE
  5
4E
102
{ACAD_REACTORS
330
47
102
}
330
47
100
AcDbScale
 70
     0
300
1:16
140
1.0
141
16.0
290
     0
  0
SCALE
  5
4F
102
{ACAD_REACTORS
330
47
102
}
330
47
100
AcDbScale
 70
     0
300
1:20
140
1.0
141
20.0
290
     0
  0
SCALE
  5
50
102
{ACAD_REACTORS
330
47
102
}
330
47
100
AcDbScale
 70
     0
300
1:30
140
1.0
141
30.0
290
     0
  0
SCALE
  5
51
102
{ACAD_REACTORS
330
47
102
}
330
47
100
AcDbScale
 70
     0
300
1:40
140
1.0
141
40.0
290
     0
  0
SCALE
  5
52
102
{ACAD_REACTORS
330
47
102
}
330
47
100
AcDbScale
 70
     0
300
1:50
140
1.0
141
50.0
290
     0
  0
SCALE
  5
53
102
{ACAD_REACTORS
330
47
102
}
330
47
100
AcDbScale
 70
     0
300
1:100
140
1.0
141
100.0
290
     0
  0
SCALE
  5
54
102
{ACAD_REACTORS
330
47
102
}
330
47
100
AcDbScale
 70
     0
300
2:1
140
2.0
141
1.0
290
     0
  0
SCALE
  5
55
102
{ACAD_REACTORS
330
47
102
}
330
47
100
AcDbScale
 70
     0
300
4:1
140
4.0
141
1.0
290
     0
  0
SCALE
  5
56
102
{ACAD_REACTORS
330
47
102
}
330
47
100
AcDbScale
 70
     0
300
8:1
140
8.0
141
1.0
290
     0
  0
SCALE
  5
57
102
{ACAD_REACTORS
330
47
102
}
330
47
100
AcDbScale
 70
     0
300
10:1
140
10.0
141
1.0
290
     0
  0
SCALE
  5
58
102
{ACAD_REACTORS
330
47
102
}
330
47
100
AcDbScale
 70
     0
300
100:1
140
100.0
141
1.0
290
     0
  0
SCALE
  5
59
102
{ACAD_REACTORS
330
47
102
}
330
47
100
AcDbScale
 70
     0
300
1/128" = 1'-0"
140
0.0078125
141
12.0
290
     0
  0
SCALE
  5
5A
102
{ACAD_REACTORS
330
47
102
}
330
47
100
AcDbScale
 70
     0
300
1/64" = 1'-0"
140
0.015625
141
12.0
290
     0
  0
SCALE
  5
5B
102
{ACAD_REACTORS
330
47
102
}
330
47
100
AcDbScale
 70
     0
300
1/32" = 1'-0"
140
0.03125
141
12.0
290
     0
  0
SCALE
  5
5C
102
{ACAD_REACTORS
330
47
102
}
330
47
100
AcDbScale
 70
     0
300
1/16" = 1'-0"
140
0.0625
141
12.0
290
     0
  0
SCALE
  5
5D
102
{ACAD_REACTORS
330
47
102
}
330
47
100
AcDbScale
 70
     0
300
3/32" = 1'-0"
140
0.09375
141
12.0
290
     0
  0
SCALE
  5
5E
102
{ACAD_REACTORS
330
47
102
}
330
47
100
AcDbScale
 70
     0
300
1/8" = 1'-0"
140
0.125
141
12.0
290
     0
  0
SCALE
  5
5F
102
{ACAD_REACTORS
330
47
102
}
330
47
100
AcDbScale
 70
     0
300
3/16" = 1'-0"
140
0.1875
141
12.0
290
     0
  0
SCALE
  5
60
102
{ACAD_REACTORS
330
47
102
}
330
47
100
AcDbScale
 70
     0
300
1/4" = 1'-0"
140
0.25
141
12.0
290
     0
  0
SCALE
  5
61
102
{ACAD_REACTORS
330
47
102
}
330
47
100
AcDbScale
 70
     0
300
3/8" = 1'-0"
140
0.375
141
12.0
290
     0
  0
SCALE
  5
62
102
{ACAD_REACTORS
330
47
102
}
330
47
100
AcDbScale
 70
     0
300
1/2" = 1'-0"
140
0.5
141
12.0
290
     0
  0
SCALE
  5
63
102
{ACAD_REACTORS
330
47
102
}
330
47
100
AcDbScale
 70
     0
300
3/4" = 1'-0"
140
0.75
141
12.0
290
     0
  0
SCALE
  5
64
102
{ACAD_REACTORS
330
47
102
}
330
47
100
AcDbScale
 70
     0
300
1" = 1'-0"
140
1.0
141
12.0
290
     0
  0
SCALE
  5
65
102
{ACAD_REACTORS
330
47
102
}
330
47
100
AcDbScale
 70
     0
300
1-1/2" = 1'-0"
140
1.5
141
12.0
290
     0
  0
SCALE
  5
66
102
{ACAD_REACTORS
330
47
102
}
330
47
100
AcDbScale
 70
     0
300
3" = 1'-0"
140
3.0
141
12.0
290
     0
  0
SCALE
  5
67
102
{ACAD_REACTORS
330
47
102
}
330
47
100
AcDbScale
 70
     0
300
6" = 1'-0"
140
6.0
141
12.0
290
     0
  0
SCALE
  5
68
102
{ACAD_REACTORS
330
47
102
}
330
47
100
AcDbScale
 70
     0
300
1'-0" = 1'-0"
140
12.0
141
12.0
290
     0
  0
TABLESTYLE
  5
6A
102
{ACAD_REACTORS
330
69
102
}
102
{ACAD_XDICTIONARY
360
263
102
}
330
69
100
AcDbTableStyle
  3
Standard
 70
     0
 71
     0
 40
0.06
 41
0.06
280
     0
281
     0
  7
Standard
140
0.18
170
     2
 62
     0
 63
   257
283
     0
 90
        4
 91
        0
  1

274
    -2
284
     1
 64
     0
275
    -2
285
     1
 65
     0
276
    -2
286
     1
 66
     0
277
    -2
287
     1
 67
     0
278
    -2
288
     1
 68
     0
279
    -2
289
     1
 69
     0
  7
Standard
140
0.25
170
     5
 62
     0
 63
   257
283
     0
 90
        4
 91
        0
  1

274
    -2
284
     1
 64
     0
275
    -2
285
     1
 65
     0
276
    -2
286
     1
 66
     0
277
    -2
287
     1
 67
     0
278
    -2
288
     1
 68
     0
279
    -2
289
     1
 69
     0
  7
Standard
140
0.18
170
     5
 62
     0
 63
   257
283
     0
 90
        4
 91
        0
  1

274
    -2
284
     1
 64
     0
275
    -2
285
     1
 65
     0
276
    -2
286
     1
 66
     0
277
    -2
287
     1
 67
     0
278
    -2
288
     1
 68
     0
279
    -2
289
     1
 69
     0
  0
VISUALSTYLE
  5
2F
102
{ACAD_REACTORS
330
2A
102
}
330
2A
100
AcDbVisualStyle
  2
2dWireframe
 70
     4
177
     3
291
     0
 70
    58
 90
        0
176
     1
 90
        2
176
     1
 90
        0
176
     1
 90
        0
176
     1
 40
0.6
176
     1
 40
30.0
176
     1
 62
     7
420
 16777215
176
     1
 90
        1
176
     1
 90
        4
176
     1
 62
     7
176
     1
 62
   257
176
     1
 90
        1
176
     1
 90
        1
176
     1
 40
1.0
176
     1
 90
        0
176
     1
 62
   257
176
     1
 40
1.0
176
     1
 90
        1
176
     1
 90
        6
176
     1
 90
        2
176
     1
 62
     7
176
     1
 90
        5
176
     1
 90
        0
176
     1
 90
        0
176
     1
290
     0
176
     1
 90
        1
176
     1
 40
0.0
176
     1
 90
        0
176
     1
290
     1
176
     1
290
     1
176
     1
290
     0
176
     1
290
     0
176
     1
290
     0
176
     1
290
     0
176
     1
290
     0
176
     1
290
     0
176
     1
290
     0
176
     1
 90
       50
176
     1
 40
0.0
176
     1
 40
1.0
176
     1
 90
        0
176
     1
 62
    18
420
        0
176
     1
 90
       50
176
     1
 90
        3
176
     1
 62
     5
420
      255
176
     1
290
     0
176
     1
 90
       50
176
     1
 90
       50
176
     1
 90
       50
176
     1
290
     0
176
     1
 90
       50
176
     1
 62
   256
176
     0
 40
1.0
176
     0
 90
        2
176
     1
  1
strokes_ogs.tif
176
     1
290
     0
176
     1
 40
1.0
176
     1
 40
1.0
176
     1
  0
VISUALSTYLE
  5
32
102
{ACAD_REACTORS
330
2A
102
}
330
2A
100
AcDbVisualStyle
  2
Basic
 70
     7
177
     3
291
     1
 70
    58
 90
        1
176
     1
 90
        0
176
     1
 90
        1
176
     1
 90
        0
176
     1
 40
0.6
176
     1
 40
30.0
176
     1
 62
     7
420
 16777215
176
     1
 90
        0
176
     1
 90
        4
176
     1
 62
     7
176
     1
 62
   257
176
     1
 90
        1
176
     1
 90
        1
176
     1
 40
1.0
176
     1
 90
        8
176
     1
 62
     7
176
     1
 40
1.0
176
     1
 90
        1
176
     1
 90
        6
176
     1
 90
        2
176
     1
 62
     7
176
     1
 90
        5
176
     1
 90
        0
176
     1
 90
        0
176
     1
290
     0
176
     1
 90
        1
176
     1
 40
0.0
176
     1
 90
        0
176
     1
290
     0
176
     1
290
     1
176
     1
290
     1
176
     1
290
     0
176
     1
290
     0
176
     1
290
     0
176
     1
290
     0
176
     1
290
     0
176
     1
290
     0
176
     1
 90
       50
176
     1
 40
0.0
176
     1
 40
1.0
176
     1
 90
        0
176
     1
 62
    18
420
        0
176
     1
 90
       50
176
     1
 90
        3
176
     1
 62
     5
420
      255
176
     1
290
     0
176
     1
 90
       50
176
     1
 90
       50
176
     1
 90
       50
176
     1
290
     0
176
     1
 90
       50
176
     1
 62
   256
176
     0
 40
1.0
176
     0
 90
        2
176
     1
  1
strokes_ogs.tif
176
     1
290
     0
176
     1
 40
1.0
176
     1
 40
1.0
176
     1
  0
VISUALSTYLE
  5
36
102
{ACAD_REACTORS
330
2A
102
}
330
2A
100
AcDbVisualStyle
  2
Brighten
 70
    12
177
     3
291
     1
 70
    58
 90
        2
176
     1
 90
        2
176
     1
 90
        0
176
     1
 90
        0
176
     1
 40
0.6
176
     1
 40
30.0
176
     1
 62
     7
420
 16777215
176
     1
 90
        1
176
     1
 90
        4
176
     1
 62
     7
176
     1
 62
   257
176
     1
 90
        1
176
     1
 90
        1
176
     1
 40
1.0
176
     1
 90
        8
176
     1
 62
     7
176
     1
 40
1.0
176
     1
 90
        1
176
     1
 90
        6
176
     1
 90
        2
176
     1
 62
     7
176
     1
 90
        5
176
     1
 90
        0
176
     1
 90
        0
176
     1
290
     0
176
     1
 90
        1
176
     1
 40
50.0
176
     1
 90
        0
176
     1
290
     0
176
     1
290
     1
176
     1
290
     1
176
     1
290
     0
176
     1
290
     0
176
     1
290
     0
176
     1
290
     0
176
     1
290
     0
176
     1
290
     0
176
     1
 90
       50
176
     1
 40
0.0
176
     1
 40
1.0
176
     1
 90
        0
176
     1
 62
    18
420
        0
176
     1
 90
       50
176
     1
 90
        3
176
     1
 62
     5
420
      255
176
     1
290
     0
176
     1
 90
       50
176
     1
 90
       50
176
     1
 90
       50
176
     1
290
     0
176
     1
 90
       50
176
     1
 62
   256
176
     0
 40
1.0
176
     0
 90
        2
176
     1
  1
strokes_ogs.tif
176
     1
290
     0
176
     1
 40
1.0
176
     1
 40
1.0
176
     1
  0
VISUALSTYLE
  5
3A
102
{ACAD_REACTORS
330
2A
102
}
330
2A
100
AcDbVisualStyle
  2
ColorChange
 70
    16
177
     3
291
     1
 70
    58
 90
        2
176
     1
 90
        2
176
     1
 90
        3
176
     1
 90
        0
176
     1
 40
0.6
176
     1
 40
30.0
176
     1
 62
     8
420
  8421504
176
     1
 90
        1
176
     1
 90
        4
176
     1
 62
     7
176
     1
 62
   257
176
     1
 90
        1
176
     1
 90
        1
176
     1
 40
1.0
176
     1
 90
        8
176
     1
 62
     8
420
  8421504
176
     1
 40
1.0
176
     1
 90
        1
176
     1
 90
        6
176
     1
 90
        2
176
     1
 62
     7
176
     1
 90
        5
176
     1
 90
        0
176
     1
 90
        0
176
     1
290
     0
176
     1
 90
        1
176
     1
 40
0.0
176
     1
 90
        0
176
     1
290
     0
176
     1
290
     1
176
     1
290
     1
176
     1
290
     0
176
     1
290
     0
176
     1
290
     0
176
     1
290
     0
176
     1
290
     0
176
     1
290
     0
176
     1
 90
       50
176
     1
 40
0.0
176
     1
 40
1.0
176
     1
 90
        0
176
     1
 62
    18
420
        0
176
     1
 90
       50
176
     1
 90
        3
176
     1
 62
     5
420
      255
176
     1
290
     0
176
     1
 90
       50
176
     1
 90
       50
176
     1
 90
       50
176
     1
290
     0
176
     1
 90
       50
176
     1
 62
   256
176
     0
 40
1.0
176
     0
 90
        2
176
     1
  1
strokes_ogs.tif
176
     1
290
     0
176
     1
 40
1.0
176
     1
 40
1.0
176
     1
  0
VISUALSTYLE
  5
34
102
{ACAD_REACTORS
330
2A
102
}
330
2A
100
AcDbVisualStyle
  2
Conceptual
 70
     9
177
     3
291
     0
 70
    58
 90
        3
176
     1
 90
        2
176
     1
 90
        0
176
     1
 90
        0
176
     1
 40
0.6
176
     1
 40
30.0
176
     1
 62
     7
420
 16777215
176
     1
 90
        2
176
     1
 90
        2
176
     1
 62
     7
176
     1
 62
   257
176
     1
 90
        1
176
     1
 90
        1
176
     1
 40
179.0
176
     1
 90
        8
176
     1
 62
     7
176
     1
 40
1.0
176
     1
 90
        1
176
     1
 90
        6
176
     1
 90
        2
176
     1
 62
     7
176
     1
 90
        3
176
     1
 90
        0
176
     1
 90
        0
176
     1
290
     0
176
     1
 90
        1
176
     1
 40
0.0
176
     1
 90
        0
176
     1
290
     0
176
     1
290
     1
176
     1
290
     1
176
     1
290
     0
176
     1
290
     0
176
     1
290
     0
176
     1
290
     0
176
     1
290
     0
176
     1
290
     0
176
     1
 90
       50
176
     1
 40
0.0
176
     1
 40
1.0
176
     1
 90
        0
176
     1
 62
    18
420
        0
176
     1
 90
       50
176
     1
 90
        3
176
     1
 62
     5
420
      255
176
     1
290
     0
176
     1
 90
       50
176
     1
 90
       50
176
     1
 90
       50
176
     1
290
     0
176
     1
 90
       50
176
     1
 62
   256
176
     0
 40
1.0
176
     0
 90
        2
176
     1
  1
strokes_ogs.tif
176
     1
290
     0
176
     1
 40
1.0
176
     1
 40
1.0
176
     1
  0
VISUALSTYLE
  5
35
102
{ACAD_REACTORS
330
2A
102
}
330
2A
100
AcDbVisualStyle
  2
Dim
 70
    11
177
     3
291
     1
 70
    58
 90
        2
176
     1
 90
        2
176
     1
 90
        0
176
     1
 90
        0
176
     1
 40
0.6
176
     1
 40
30.0
176
     1
 62
     7
420
 16777215
176
     1
 90
        1
176
     1
 90
        4
176
     1
 62
     7
176
     1
 62
   257
176
     1
 90
        1
176
     1
 90
        1
176
     1
 40
1.0
176
     1
 90
        8
176
     1
 62
     7
176
     1
 40
1.0
176
     1
 90
        1
176
     1
 90
        6
176
     1
 90
        2
176
     1
 62
     7
176
     1
 90
        5
176
     1
 90
        0
176
     1
 90
        0
176
     1
290
     0
176
     1
 90
        1
176
     1
 40
-50.0
176
     1
 90
        0
176
     1
290
     0
176
     1
290
     1
176
     1
290
     1
176
     1
290
     0
176
     1
290
     0
176
     1
290
     0
176
     1
290
     0
176
     1
290
     0
176
     1
290
     0
176
     1
 90
       50
176
     1
 40
0.0
176
     1
 40
1.0
176
     1
 90
        0
176
     1
 62
    18
420
        0
176
     1
 90
       50
176
     1
 90
        3
176
     1
 62
     5
420
      255
176
     1
290
     0
176
     1
 90
       50
176
     1
 90
       50
176
     1
 90
       50
176
     1
290
     0
176
     1
 90
       50
176
     1
 62
   256
176
     0
 40
1.0
176
     0
 90
        2
176
     1
  1
strokes_ogs.tif
176
     1
290
     0
176
     1
 40
1.0
176
     1
 40
1.0
176
     1
  0
VISUALSTYLE
  5
3D
102
{ACAD_REACTORS
330
2A
102
}
330
2A
100
AcDbVisualStyle
  2
EdgeColorOff
 70
    22
177
     3
291
     1
 70
    58
 90
        2
176
     0
 90
        2
176
     0
 90
        0
176
     0
 90
        0
176
     0
 40
0.6
176
     0
 40
30.0
176
     0
 62
     7
420
 16777215
176
     0
 90
        1
176
     0
 90
        4
176
     0
 62
     7
176
     0
 62
   257
176
     0
 90
        1
176
     0
 90
        1
176
     0
 40
1.0
176
     0
 90
        8
176
     2
 62
     7
176
     0
 40
1.0
176
     0
 90
        1
176
     0
 90
        6
176
     0
 90
        2
176
     0
 62
     7
176
     0
 90
        5
176
     0
 90
        0
176
     0
 90
        0
176
     0
290
     0
176
     0
 90
        1
176
     0
 40
0.0
176
     0
 90
        0
176
     0
290
     0
176
     0
290
     1
176
     0
290
     1
176
     0
290
     0
176
     0
290
     0
176
     0
290
     0
176
     0
290
     0
176
     0
290
     0
176
     0
290
     0
176
     0
 90
       50
176
     0
 40
0.0
176
     0
 40
1.0
176
     0
 90
        0
176
     0
 62
    18
420
        0
176
     0
 90
       50
176
     0
 90
        3
176
     0
 62
     5
420
      255
176
     0
290
     0
176
     0
 90
       50
176
     0
 90
       50
176
     0
 90
       50
176
     0
290
     0
176
     0
 90
       50
176
     0
 62
   256
176
     0
 40
1.0
176
     0
 90
        2
176
     0
  1
strokes_ogs.tif
176
     0
290
     0
176
     0
 40
1.0
176
     0
 40
1.0
176
     0
  0
VISUALSTYLE
  5
39
102
{ACAD_REACTORS
330
2A
102
}
330
2A
100
AcDbVisualStyle
  2
Facepattern
 70
    15
177
     3
291
     1
 70
    58
 90
        2
176
     1
 90
        2
176
     1
 90
        0
176
     1
 90
        0
176
     1
 40
0.6
176
     1
 40
30.0
176
     1
 62
     7
420
 16777215
176
     1
 90
        1
176
     1
 90
        4
176
     1
 62
     7
176
     1
 62
   257
176
     1
 90
        1
176
     1
 90
        1
176
     1
 40
1.0
176
     1
 90
        8
176
     1
 62
     7
176
     1
 40
1.0
176
     1
 90
        1
176
     1
 90
        6
176
     1
 90
        2
176
     1
 62
     7
176
     1
 90
        5
176
     1
 90
        0
176
     1
 90
        0
176
     1
290
     0
176
     1
 90
        1
176
     1
 40
0.0
176
     1
 90
        0
176
     1
290
     0
176
     1
290
     1
176
     1
290
     1
176
     1
290
     0
176
     1
290
     0
176
     1
290
     0
176
     1
290
     0
176
     1
290
     0
176
     1
290
     0
176
     1
 90
       50
176
     1
 40
0.0
176
     1
 40
1.0
176
     1
 90
        0
176
     1
 62
    18
420
        0
176
     1
 90
       50
176
     1
 90
        3
176
     1
 62
     5
420
      255
176
     1
290
     0
176
     1
 90
       50
176
     1
 90
       50
176
     1
 90
       50
176
     1
290
     0
176
     1
 90
       50
176
     1
 62
   256
176
     0
 40
1.0
176
     0
 90
        2
176
     1
  1
strokes_ogs.tif
176
     1
290
     0
176
     1
 40
1.0
176
     1
 40
1.0
176
     1
  0
VISUALSTYLE
  5
2B
102
{ACAD_REACTORS
330
2A
102
}
330
2A
100
AcDbVisualStyle
  2
Flat
 70
     0
177
     3
291
     1
 70
    58
 90
        2
176
     1
 90
        1
176
     1
 90
        1
176
     1
 90
        2
176
     1
 40
0.6
176
     1
 40
30.0
176
     1
 62
     7
420
 16777215
176
     1
 90
        0
176
     1
 90
        0
176
     1
 62
     7
176
     1
 62
   257
176
     1
 90
        1
176
     1
 90
        1
176
     1
 40
1.0
176
     1
 90
        8
176
     1
 62
     7
176
     1
 40
1.0
176
     1
 90
        1
176
     1
 90
        6
176
     1
 90
        2
176
     1
 62
     7
176
     1
 90
        5
176
     1
 90
        0
176
     1
 90
        0
176
     1
290
     0
176
     1
 90
       13
176
     1
 40
0.0
176
     1
 90
        0
176
     1
290
     0
176
     1
290
     1
176
     1
290
     1
176
     1
290
     0
176
     1
290
     0
176
     1
290
     0
176
     1
290
     0
176
     1
290
     0
176
     1
290
     0
176
     1
 90
       50
176
     1
 40
0.0
176
     1
 40
1.0
176
     1
 90
        0
176
     1
 62
    18
420
        0
176
     1
 90
       50
176
     1
 90
        3
176
     1
 62
     5
420
      255
176
     1
290
     0
176
     1
 90
       50
176
     1
 90
       50
176
     1
 90
       50
176
     1
290
     0
176
     1
 90
       50
176
     1
 62
   256
176
     0
 40
1.0
176
     0
 90
        2
176
     1
  1
strokes_ogs.tif
176
     1
290
     0
176
     1
 40
1.0
176
     1
 40
1.0
176
     1
  0
VISUALSTYLE
  5
2C
102
{ACAD_REACTORS
330
2A
102
}
330
2A
100
AcDbVisualStyle
  2
FlatWithEdges
 70
     1
177
     3
291
     1
 70
    58
 90
        2
176
     1
 90
        1
176
     1
 90
        1
176
     1
 90
        2
176
     1
 40
0.6
176
     1
 40
30.0
176
     1
 62
     7
420
 16777215
176
     1
 90
        1
176
     1
 90
        0
176
     1
 62
     7
176
     1
 62
   257
176
     1
 90
        1
176
     1
 90
        1
176
     1
 40
1.0
176
     1
 90
        0
176
     1
 62
   257
176
     1
 40
1.0
176
     1
 90
        1
176
     1
 90
        6
176
     1
 90
        2
176
     1
 62
     7
176
     1
 90
        5
176
     1
 90
        0
176
     1
 90
        0
176
     1
290
     0
176
     1
 90
       13
176
     1
 40
0.0
176
     1
 90
        0
176
     1
290
     0
176
     1
290
     1
176
     1
290
     1
176
     1
290
     0
176
     1
290
     0
176
     1
290
     0
176
     1
290
     0
176
     1
290
     0
176
     1
290
     0
176
     1
 90
       50
176
     1
 40
0.0
176
     1
 40
1.0
176
     1
 90
        0
176
     1
 62
    18
420
        0
176
     1
 90
       50
176
     1
 90
        3
176
     1
 62
     5
420
      255
176
     1
290
     0
176
     1
 90
       50
176
     1
 90
       50
176
     1
 90
       50
176
     1
290
     0
176
     1
 90
       50
176
     1
 62
   256
176
     0
 40
1.0
176
     0
 90
        2
176
     1
  1
strokes_ogs.tif
176
     1
290
     0
176
     1
 40
1.0
176
     1
 40
1.0
176
     1
  0
VISUALSTYLE
  5
2D
102
{ACAD_REACTORS
330
2A
102
}
330
2A
100
AcDbVisualStyle
  2
Gouraud
 70
     2
177
     3
291
     1
 70
    58
 90
        2
176
     1
 90
        2
176
     1
 90
        1
176
     1
 90
        2
176
     1
 40
0.6
176
     1
 40
30.0
176
     1
 62
     7
420
 16777215
176
     1
 90
        0
176
     1
 90
        0
176
     1
 62
     7
176
     1
 62
   257
176
     1
 90
        1
176
     1
 90
        1
176
     1
 40
1.0
176
     1
 90
        0
176
     1
 62
     7
176
     1
 40
1.0
176
     1
 90
        1
176
     1
 90
        6
176
     1
 90
        2
176
     1
 62
     7
176
     1
 90
        5
176
     1
 90
        0
176
     1
 90
        0
176
     1
290
     0
176
     1
 90
       13
176
     1
 40
0.0
176
     1
 90
        0
176
     1
290
     0
176
     1
290
     1
176
     1
290
     1
176
     1
290
     0
176
     1
290
     0
176
     1
290
     0
176
     1
290
     0
176
     1
290
     0
176
     1
290
     0
176
     1
 90
       50
176
     1
 40
0.0
176
     1
 40
1.0
176
     1
 90
        0
176
     1
 62
    18
420
        0
176
     1
 90
       50
176
     1
 90
        3
176
     1
 62
     5
420
      255
176
     1
290
     0
176
     1
 90
       50
176
     1
 90
       50
176
     1
 90
       50
176
     1
290
     0
176
     1
 90
       50
176
     1
 62
   256
176
     0
 40
1.0
176
     0
 90
        2
176
     1
  1
strokes_ogs.tif
176
     1
290
     0
176
     1
 40
1.0
176
     1
 40
1.0
176
     1
  0
VISUALSTYLE
  5
2E
102
{ACAD_REACTORS
330
2A
102
}
330
2A
100
AcDbVisualStyle
  2
GouraudWithEdges
 70
     3
177
     3
291
     1
 70
    58
 90
        2
176
     1
 90
        2
176
     1
 90
        1
176
     1
 90
        2
176
     1
 40
0.6
176
     1
 40
30.0
176
     1
 62
     7
420
 16777215
176
     1
 90
        1
176
     1
 90
        0
176
     1
 62
     7
176
     1
 62
   257
176
     1
 90
        1
176
     1
 90
        1
176
     1
 40
1.0
176
     1
 90
        0
176
     1
 62
   257
176
     1
 40
1.0
176
     1
 90
        1
176
     1
 90
        6
176
     1
 90
        2
176
     1
 62
     7
176
     1
 90
        5
176
     1
 90
        0
176
     1
 90
        0
176
     1
290
     0
176
     1
 90
       13
176
     1
 40
0.0
176
     1
 90
        0
176
     1
290
     0
176
     1
290
     1
176
     1
290
     1
176
     1
290
     0
176
     1
290
     0
176
     1
290
     0
176
     1
290
     0
176
     1
290
     0
176
     1
290
     0
176
     1
 90
       50
176
     1
 40
0.0
176
     1
 40
1.0
176
     1
 90
        0
176
     1
 62
    18
420
        0
176
     1
 90
       50
176
     1
 90
        3
176
     1
 62
     5
420
      255
176
     1
290
     0
176
     1
 90
       50
176
     1
 90
       50
176
     1
 90
       50
176
     1
290
     0
176
     1
 90
       50
176
     1
 62
   256
176
     0
 40
1.0
176
     0
 90
        2
176
     1
  1
strokes_ogs.tif
176
     1
290
     0
176
     1
 40
1.0
176
     1
 40
1.0
176
     1
  0
VISUALSTYLE
  5
31
102
{ACAD_REACTORS
330
2A
102
}
330
2A
100
AcDbVisualStyle
  2
Hidden
 70
     6
177
     3
291
     0
 70
    58
 90
        1
176
     1
 90
        2
176
     1
 90
        2
176
     1
 90
        0
176
     1
 40
0.6
176
     1
 40
30.0
176
     1
 62
     7
420
 16777215
176
     1
 90
        2
176
     1
 90
        2
176
     1
 62
     7
176
     1
 62
   257
176
     1
 90
        2
176
     1
 90
        1
176
     1
 40
40.0
176
     1
 90
        0
176
     1
 62
   257
176
     1
 40
1.0
176
     1
 90
        1
176
     1
 90
        6
176
     1
 90
        2
176
     1
 62
     7
176
     1
 90
        3
176
     1
 90
        0
176
     1
 90
        0
176
     1
290
     0
176
     1
 90
        1
176
     1
 40
0.0
176
     1
 90
        0
176
     1
290
     0
176
     1
290
     1
176
     1
290
     1
176
     1
290
     0
176
     1
290
     0
176
     1
290
     0
176
     1
290
     0
176
     1
290
     0
176
     1
290
     0
176
     1
 90
       50
176
     1
 40
0.0
176
     1
 40
1.0
176
     1
 90
        0
176
     1
 62
    18
420
        0
176
     1
 90
       50
176
     1
 90
        3
176
     1
 62
     5
420
      255
176
     1
290
     0
176
     1
 90
       50
176
     1
 90
       50
176
     1
 90
       50
176
     1
290
     0
176
     1
 90
       50
176
     1
 62
   256
176
     0
 40
1.0
176
     0
 90
        2
176
     1
  1
strokes_ogs.tif
176
     1
290
     0
176
     1
 40
1.0
176
     1
 40
1.0
176
     1
  0
VISUALSTYLE
  5
3B
102
{ACAD_REACTORS
330
2A
102
}
330
2A
100
AcDbVisualStyle
  2
JitterOff
 70
    20
177
     3
291
     1
 70
    58
 90
        2
176
     0
 90
        2
176
     0
 90
        0
176
     0
 90
        0
176
     0
 40
0.6
176
     0
 40
30.0
176
     0
 62
     7
420
 16777215
176
     0
 90
        1
176
     0
 90
        4
176
     0
 62
     7
176
     0
 62
   257
176
     0
 90
        1
176
     0
 90
        1
176
     0
 40
1.0
176
     0
 90
       10
176
     2
 62
     7
176
     0
 40
1.0
176
     0
 90
        1
176
     0
 90
        6
176
     0
 90
        2
176
     0
 62
     7
176
     0
 90
        5
176
     0
 90
        0
176
     0
 90
        0
176
     0
290
     0
176
     0
 90
        1
176
     0
 40
0.0
176
     0
 90
        0
176
     0
290
     0
176
     0
290
     1
176
     0
290
     1
176
     0
290
     0
176
     0
290
     0
176
     0
290
     0
176
     0
290
     0
176
     0
290
     0
176
     0
290
     0
176
     0
 90
       50
176
     0
 40
0.0
176
     0
 40
1.0
176
     0
 90
        0
176
     0
 62
    18
420
        0
176
     0
 90
       50
176
     0
 90
        3
176
     0
 62
     5
420
      255
176
     0
290
     0
176
     0
 90
       50
176
     0
 90
       50
176
     0
 90
       50
176
     0
290
     0
176
     0
 90
       50
176
     0
 62
   256
176
     0
 40
1.0
176
     0
 90
        2
176
     0
  1
strokes_ogs.tif
176
     0
290
     0
176
     0
 40
1.0
176
     0
 40
1.0
176
     0
  0
VISUALSTYLE
  5
38
102
{ACAD_REACTORS
330
2A
102
}
330
2A
100
AcDbVisualStyle
  2
Linepattern
 70
    14
177
     3
291
     1
 70
    58
 90
        2
176
     1
 90
        2
176
     1
 90
        0
176
     1
 90
        0
176
     1
 40
0.6
176
     1
 40
30.0
176
     1
 62
     7
420
 16777215
176
     1
 90
        1
176
     1
 90
        4
176
     1
 62
     7
176
     1
 62
   257
176
     1
 90
        7
176
     1
 90
        7
176
     1
 40
1.0
176
     1
 90
        8
176
     1
 62
     7
176
     1
 40
1.0
176
     1
 90
        1
176
     1
 90
        6
176
     1
 90
        2
176
     1
 62
     7
176
     1
 90
        5
176
     1
 90
        0
176
     1
 90
        0
176
     1
290
     0
176
     1
 90
        1
176
     1
 40
0.0
176
     1
 90
        0
176
     1
290
     0
176
     1
290
     1
176
     1
290
     1
176
     1
290
     0
176
     1
290
     0
176
     1
290
     0
176
     1
290
     0
176
     1
290
     0
176
     1
290
     0
176
     1
 90
       50
176
     1
 40
0.0
176
     1
 40
1.0
176
     1
 90
        0
176
     1
 62
    18
420
        0
176
     1
 90
       50
176
     1
 90
        3
176
     1
 62
     5
420
      255
176
     1
290
     0
176
     1
 90
       50
176
     1
 90
       50
176
     1
 90
       50
176
     1
290
     0
176
     1
 90
       50
176
     1
 62
   256
176
     0
 40
1.0
176
     0
 90
        2
176
     1
  1
strokes_ogs.tif
176
     1
290
     0
176
     1
 40
1.0
176
     1
 40
1.0
176
     1
  0
VISUALSTYLE
  5
3C
102
{ACAD_REACTORS
330
2A
102
}
330
2A
100
AcDbVisualStyle
  2
OverhangOff
 70
    21
177
     3
291
     1
 70
    58
 90
        2
176
     0
 90
        2
176
     0
 90
        0
176
     0
 90
        0
176
     0
 40
0.6
176
     0
 40
30.0
176
     0
 62
     7
420
 16777215
176
     0
 90
        1
176
     0
 90
        4
176
     0
 62
     7
176
     0
 62
   257
176
     0
 90
        1
176
     0
 90
        1
176
     0
 40
1.0
176
     0
 90
        9
176
     2
 62
     7
176
     0
 40
1.0
176
     0
 90
        1
176
     0
 90
        6
176
     0
 90
        2
176
     0
 62
     7
176
     0
 90
        5
176
     0
 90
        0
176
     0
 90
        0
176
     0
290
     0
176
     0
 90
        1
176
     0
 40
0.0
176
     0
 90
        0
176
     0
290
     0
176
     0
290
     1
176
     0
290
     1
176
     0
290
     0
176
     0
290
     0
176
     0
290
     0
176
     0
290
     0
176
     0
290
     0
176
     0
290
     0
176
     0
 90
       50
176
     0
 40
0.0
176
     0
 40
1.0
176
     0
 90
        0
176
     0
 62
    18
420
        0
176
     0
 90
       50
176
     0
 90
        3
176
     0
 62
     5
420
      255
176
     0
290
     0
176
     0
 90
       50
176
     0
 90
       50
176
     0
 90
       50
176
     0
290
     0
176
     0
 90
       50
176
     0
 62
   256
176
     0
 40
1.0
176
     0
 90
        2
176
     0
  1
strokes_ogs.tif
176
     0
290
     0
176
     0
 40
1.0
176
     0
 40
1.0
176
     0
  0
VISUALSTYLE
  5
33
102
{ACAD_REACTORS
330
2A
102
}
330
2A
100
AcDbVisualStyle
  2
Realistic
 70
     8
177
     3
291
     0
 70
    58
 90
        2
176
     1
 90
        3
176
     1
 90
        0
176
     1
 90
        2
176
     1
 40
0.6
176
     1
 40
30.0
176
     1
 62
     7
420
 16777215
176
     1
 90
        0
176
     1
 90
        0
176
     1
 62
     7
176
     1
 62
   257
176
     1
 90
        1
176
     1
 90
        1
176
     1
 40
1.0
176
     1
 90
        8
176
     1
 62
   257
176
     1
 40
1.0
176
     1
 90
        1
176
     1
 90
        6
176
     1
 90
        2
176
     1
 62
     7
176
     1
 90
        3
176
     1
 90
        0
176
     1
 90
        0
176
     1
290
     0
176
     1
 90
       13
176
     1
 40
0.0
176
     1
 90
        0
176
     1
290
     0
176
     1
290
     1
176
     1
290
     1
176
     1
290
     0
176
     1
290
     0
176
     1
290
     0
176
     1
290
     0
176
     1
290
     0
176
     1
290
     0
176
     1
 90
       50
176
     1
 40
0.0
176
     1
 40
1.0
176
     1
 90
        0
176
     1
 62
    18
420
        0
176
     1
 90
       50
176
     1
 90
        3
176
     1
 62
     5
420
      255
176
     1
290
     0
176
     1
 90
       50
176
     1
 90
       50
176
     1
 90
       50
176
     1
290
     0
176
     1
 90
       50
176
     1
 62
   256
176
     0
 40
1.0
176
     0
 90
        2
176
     1
  1
strokes_ogs.tif
176
     1
290
     0
176
     1
 40
1.0
176
     1
 40
1.0
176
     1
  0
VISUALSTYLE
  5
42
102
{ACAD_REACTORS
330
2A
102
}
330
2A
100
AcDbVisualStyle
  2
Shaded
 70
    27
177
     3
291
     0
 70
    58
 90
        2
176
     1
 90
        2
176
     1
 90
        1
176
     1
 90
        2
176
     1
 40
0.6
176
     1
 40
30.0
176
     1
 62
     7
420
 16777215
176
     1
 90
        0
176
     1
 90
        4
176
     1
 62
     7
176
     1
 62
   257
176
     1
 90
        1
176
     1
 90
        1
176
     1
 40
1.0
176
     1
 90
        8
176
     1
 62
   257
176
     1
 40
1.0
176
     1
 90
        1
176
     1
 90
        6
176
     1
 90
        2
176
     1
 62
     8
420
  7895160
176
     1
 90
        3
176
     1
 90
        0
176
     1
 90
        0
176
     1
290
     0
176
     1
 90
        5
176
     1
 40
0.0
176
     1
 90
        0
176
     1
290
     0
176
     1
290
     1
176
     1
290
     1
176
     1
290
     0
176
     1
290
     0
176
     1
290
     0
176
     1
290
     0
176
     1
290
     0
176
     1
290
     0
176
     1
 90
       50
176
     1
 40
0.0
176
     1
 40
1.0
176
     1
 90
        0
176
     1
 62
    18
420
        0
176
     1
 90
       50
176
     1
 90
        3
176
     1
 62
     5
420
      255
176
     1
290
     0
176
     1
 90
       50
176
     1
 90
       50
176
     1
 90
       50
176
     1
290
     0
176
     1
 90
       50
176
     1
 62
   256
176
     0
 40
1.0
176
     0
 90
        2
176
     1
  1
strokes_ogs.tif
176
     1
290
     0
176
     1
 40
1.0
176
     1
 40
1.0
176
     1
  0
VISUALSTYLE
  5
41
102
{ACAD_REACTORS
330
2A
102
}
330
2A
100
AcDbVisualStyle
  2
Shaded with edges
 70
    26
177
     3
291
     0
 70
    58
 90
        2
176
     1
 90
        2
176
     1
 90
        1
176
     1
 90
        2
176
     1
 40
0.6
176
     1
 40
30.0
176
     1
 62
     7
420
 16777215
176
     1
 90
        1
176
     1
 90
       10
176
     1
 62
     7
176
     1
 62
   257
176
     1
 90
        2
176
     1
 90
        1
176
     1
 40
1.0
176
     1
 90
        8
176
     1
 62
   257
176
     1
 40
1.0
176
     1
 90
        1
176
     1
 90
        6
176
     1
 90
        2
176
     1
 62
     7
176
     1
 90
        3
176
     1
 90
        0
176
     1
 90
        0
176
     1
290
     0
176
     1
 90
        5
176
     1
 40
0.0
176
     1
 90
        0
176
     1
290
     0
176
     1
290
     1
176
     1
290
     1
176
     1
290
     0
176
     1
290
     0
176
     1
290
     0
176
     1
290
     0
176
     1
290
     0
176
     1
290
     0
176
     1
 90
       50
176
     1
 40
0.0
176
     1
 40
1.0
176
     1
 90
        0
176
     1
 62
    18
420
        0
176
     1
 90
       50
176
     1
 90
        3
176
     1
 62
     5
420
      255
176
     1
290
     0
176
     1
 90
       50
176
     1
 90
       50
176
     1
 90
       50
176
     1
290
     0
176
     1
 90
       50
176
     1
 62
   256
176
     0
 40
1.0
176
     0
 90
        2
176
     1
  1
strokes_ogs.tif
176
     1
290
     0
176
     1
 40
1.0
176
     1
 40
1.0
176
     1
  0
VISUALSTYLE
  5
3E
102
{ACAD_REACTORS
330
2A
102
}
330
2A
100
AcDbVisualStyle
  2
Shades of Gray
 70
    23
177
     3
291
     0
 70
    58
 90
        2
176
     1
 90
        2
176
     1
 90
        3
176
     1
 90
        0
176
     1
 40
0.6
176
     1
 40
30.0
176
     1
 62
     7
420
 16777215
176
     1
 90
        2
176
     1
 90
        2
176
     1
 62
     7
176
     1
 62
     7
176
     1
 90
        1
176
     1
 90
        1
176
     1
 40
40.0
176
     1
 90
        8
176
     1
 62
     7
176
     1
 40
1.0
176
     1
 90
        1
176
     1
 90
        6
176
     1
 90
        2
176
     1
 62
     7
176
     1
 90
        3
176
     1
 90
        0
176
     1
 90
        0
176
     1
290
     0
176
     1
 90
        1
176
     1
 40
0.0
176
     1
 90
        0
176
     1
290
     0
176
     1
290
     1
176
     1
290
     1
176
     1
290
     0
176
     1
290
     0
176
     1
290
     0
176
     1
290
     0
176
     1
290
     0
176
     1
290
     0
176
     1
 90
       50
176
     1
 40
0.0
176
     1
 40
1.0
176
     1
 90
        0
176
     1
 62
    18
420
        0
176
     1
 90
       50
176
     1
 90
        3
176
     1
 62
     5
420
      255
176
     1
290
     0
176
     1
 90
       50
176
     1
 90
       50
176
     1
 90
       50
176
     1
290
     0
176
     1
 90
       50
176
     1
 62
   256
176
     0
 40
1.0
176
     0
 90
        2
176
     1
  1
strokes_ogs.tif
176
     1
290
     0
176
     1
 40
1.0
176
     1
 40
1.0
176
     1
  0
VISUALSTYLE
  5
3F
102
{ACAD_REACTORS
330
2A
102
}
330
2A
100
AcDbVisualStyle
  2
Sketchy
 70
    24
177
     3
291
     0
 70
    58
 90
        1
176
     1
 90
        2
176
     1
 90
        2
176
     1
 90
        0
176
     1
 40
0.6
176
     1
 40
30.0
176
     1
 62
     7
420
 16777215
176
     1
 90
        2
176
     1
 90
        2
176
     1
 62
     7
176
     1
 62
     7
176
     1
 90
        1
176
     1
 90
        1
176
     1
 40
40.0
176
     1
 90
       11
176
     1
 62
     7
176
     1
 40
1.0
176
     1
 90
        1
176
     1
 90
        6
176
     1
 90
        2
176
     1
 62
     7
176
     1
 90
        6
176
     1
 90
        0
176
     1
 90
        0
176
     1
290
     0
176
     1
 90
        1
176
     1
 40
0.0
176
     1
 90
        0
176
     1
290
     0
176
     1
290
     1
176
     1
290
     1
176
     1
290
     0
176
     1
290
     0
176
     1
290
     0
176
     1
290
     0
176
     1
290
     0
176
     1
290
     0
176
     1
 90
       50
176
     1
 40
0.0
176
     1
 40
1.0
176
     1
 90
        0
176
     1
 62
    18
420
        0
176
     1
 90
       50
176
     1
 90
        3
176
     1
 62
     5
420
      255
176
     1
290
     0
176
     1
 90
       50
176
     1
 90
       50
176
     1
 90
       50
176
     1
290
     0
176
     1
 90
       50
176
     1
 62
   256
176
     0
 40
1.0
176
     0
 90
        2
176
     1
  1
strokes_ogs.tif
176
     1
290
     0
176
     1
 40
1.0
176
     1
 40
1.0
176
     1
  0
VISUALSTYLE
  5
37
102
{ACAD_REACTORS
330
2A
102
}
330
2A
100
AcDbVisualStyle
  2
Thicken
 70
    13
177
     3
291
     1
 70
    58
 90
        2
176
     1
 90
        2
176
     1
 90
        0
176
     1
 90
        0
176
     1
 40
0.6
176
     1
 40
30.0
176
     1
 62
     7
420
 16777215
176
     1
 90
        1
176
     1
 90
        4
176
     1
 62
     7
176
     1
 62
   257
176
     1
 90
        1
176
     1
 90
        1
176
     1
 40
1.0
176
     1
 90
       12
176
     1
 62
     7
176
     1
 40
1.0
176
     1
 90
        1
176
     1
 90
        6
176
     1
 90
        2
176
     1
 62
     7
176
     1
 90
        5
176
     1
 90
        0
176
     1
 90
        0
176
     1
290
     0
176
     1
 90
        1
176
     1
 40
0.0
176
     1
 90
        0
176
     1
290
     0
176
     1
290
     1
176
     1
290
     1
176
     1
290
     0
176
     1
290
     0
176
     1
290
     0
176
     1
290
     0
176
     1
290
     0
176
     1
290
     0
176
     1
 90
       50
176
     1
 40
0.0
176
     1
 40
1.0
176
     1
 90
        0
176
     1
 62
    18
420
        0
176
     1
 90
       50
176
     1
 90
        3
176
     1
 62
     5
420
      255
176
     1
290
     0
176
     1
 90
       50
176
     1
 90
       50
176
     1
 90
       50
176
     1
290
     0
176
     1
 90
       50
176
     1
 62
   256
176
     0
 40
1.0
176
     0
 90
        2
176
     1
  1
strokes_ogs.tif
176
     1
290
     0
176
     1
 40
1.0
176
     1
 40
1.0
176
     1
  0
VISUALSTYLE
  5
30
102
{ACAD_REACTORS
330
2A
102
}
330
2A
100
AcDbVisualStyle
  2
Wireframe
 70
     5
177
     3
291
     0
 70
    58
 90
        0
176
     1
 90
        2
176
     1
 90
        0
176
     1
 90
        0
176
     1
 40
0.6
176
     1
 40
30.0
176
     1
 62
     7
420
 16777215
176
     1
 90
        1
176
     1
 90
        4
176
     1
 62
     7
176
     1
 62
   257
176
     1
 90
        1
176
     1
 90
        1
176
     1
 40
1.0
176
     1
 90
        0
176
     1
 62
   257
176
     1
 40
1.0
176
     1
 90
        1
176
     1
 90
        6
176
     1
 90
        2
176
     1
 62
     7
176
     1
 90
        3
176
     1
 90
        0
176
     1
 90
        0
176
     1
290
     0
176
     1
 90
        1
176
     1
 40
0.0
176
     1
 90
        0
176
     1
290
     0
176
     1
290
     1
176
     1
290
     1
176
     1
290
     0
176
     1
290
     0
176
     1
290
     0
176
     1
290
     0
176
     1
290
     0
176
     1
290
     0
176
     1
 90
       50
176
     1
 40
0.0
176
     1
 40
1.0
176
     1
 90
        0
176
     1
 62
    18
420
        0
176
     1
 90
       50
176
     1
 90
        3
176
     1
 62
     5
420
      255
176
     1
290
     0
176
     1
 90
       50
176
     1
 90
       50
176
     1
 90
       50
176
     1
290
     0
176
     1
 90
       50
176
     1
 62
   256
176
     0
 40
1.0
176
     0
 90
        2
176
     1
  1
strokes_ogs.tif
176
     1
290
     0
176
     1
 40
1.0
176
     1
 40
1.0
176
     1
  0
VISUALSTYLE
  5
40
102
{ACAD_REACTORS
330
2A
102
}
330
2A
100
AcDbVisualStyle
  2
X-Ray
 70
    25
177
     3
291
     0
 70
    58
 90
        2
176
     1
 90
        2
176
     1
 90
        1
176
     1
 90
        1
176
     1
 40
0.5
176
     1
 40
30.0
176
     1
 62
     7
420
 16777215
176
     1
 90
        1
176
     1
 90
        0
176
     1
 62
     7
176
     1
 62
   257
176
     1
 90
        1
176
     1
 90
        1
176
     1
 40
1.0
176
     1
 90
        8
176
     1
 62
     7
176
     1
 40
1.0
176
     1
 90
        1
176
     1
 90
        6
176
     1
 90
        2
176
     1
 62
     7
176
     1
 90
        3
176
     1
 90
        0
176
     1
 90
        0
176
     1
290
     0
176
     1
 90
       13
176
     1
 40
0.0
176
     1
 90
        0
176
     1
290
     0
176
     1
290
     1
176
     1
290
     1
176
     1
290
     0
176
     1
290
     0
176
     1
290
     0
176
     1
290
     0
176
     1
290
     0
176
     1
290
     0
176
     1
 90
       50
176
     1
 40
0.0
176
     1
 40
1.0
176
     1
 90
        0
176
     1
 62
    18
420
        0
176
     1
 90
       50
176
     1
 90
        3
176
     1
 62
     5
420
      255
176
     1
290
     0
176
     1
 90
       50
176
     1
 90
       50
176
     1
 90
       50
176
     1
290
     0
176
     1
 90
       50
176
     1
 62
   256
176
     0
 40
1.0
176
     0
 90
        2
176
     1
  1
strokes_ogs.tif
176
     1
290
     0
176
     1
 40
1.0
176
     1
 40
1.0
176
     1
  0
DICTIONARYVAR
  5
262
102
{ACAD_REACTORS
330
261
102
}
330
261
100
DictionaryVariables
280
     0
  1
1:1
  0
DICTIONARYVAR
  5
267
102
{ACAD_REACTORS
330
261
102
}
330
261
100
DictionaryVariables
280
     0
  1
Standard
  0
DICTIONARYVAR
  5
266
102
{ACAD_REACTORS
330
261
102
}
330
261
100
DictionaryVariables
280
     0
  1
Standard
  0
DICTIONARY
  5
263
330
6A
100
AcDbDictionary
280
     1
281
     1
  3
ACAD_ROUNDTRIP_2008_TABLESTYLE_CELLSTYLEMAP
360
264
  0
CELLSTYLEMAP
  5
264
102
{ACAD_REACTORS
330
263
102
}
330
263
100
AcDbCellStyleMap
 90
        3
300
CELLSTYLE
  1
TABLEFORMAT_BEGIN
 90
        5
170
     1
 91
        0
 92
    32768
 62
   257
 93
        1
300
CONTENTFORMAT
  1
CONTENTFORMAT_BEGIN
 90
        0
 91
        0
 92
        4
 93
        0
300

 40
0.0
140
1.0
 94
        5
 62
     0
340
11
144
0.25
309
CONTENTFORMAT_END
171
     1
301
MARGIN
  1
CELLMARGIN_BEGIN
 40
0.06
 40
0.06
 40
0.06
 40
0.06
 40
0.06
 40
0.06
309
CELLMARGIN_END
 94
        6
 95
        1
302
GRIDFORMAT
  1
GRIDFORMAT_BEGIN
 90
        0
 91
        1
 62
     0
 92
       -2
340
14
 93
        0
 40
0.045
309
GRIDFORMAT_END
 95
        2
302
GRIDFORMAT
  1
GRIDFORMAT_BEGIN
 90
        0
 91
        1
 62
     0
 92
       -2
340
14
 93
        0
 40
0.045
309
GRIDFORMAT_END
 95
        4
302
GRIDFORMAT
  1
GRIDFORMAT_BEGIN
 90
        0
 91
        1
 62
     0
 92
       -2
340
14
 93
        0
 40
0.045
309
GRIDFORMAT_END
 95
        8
302
GRIDFORMAT
  1
GRIDFORMAT_BEGIN
 90
        0
 91
        1
 62
     0
 92
       -2
340
14
 93
        0
 40
0.045
309
GRIDFORMAT_END
 95
       16
302
GRIDFORMAT
  1
GRIDFORMAT_BEGIN
 90
        0
 91
        1
 62
     0
 92
       -2
340
14
 93
        0
 40
0.045
309
GRIDFORMAT_END
 95
       32
302
GRIDFORMAT
  1
GRIDFORMAT_BEGIN
 90
        0
 91
        1
 62
     0
 92
       -2
340
14
 93
        0
 40
0.045
309
GRIDFORMAT_END
309
TABLEFORMAT_END
  1
CELLSTYLE_BEGIN
 90
        1
 91
        1
300
_TITLE
309
CELLSTYLE_END
300
CELLSTYLE
  1
TABLEFORMAT_BEGIN
 90
        5
170
     1
 91
        0
 92
        0
 62
   257
 93
        1
300
CONTENTFORMAT
  1
CONTENTFORMAT_BEGIN
 90
        0
 91
        0
 92
        4
 93
        0
300

 40
0.0
140
1.0
 94
        5
 62
     0
340
11
144
0.18
309
CONTENTFORMAT_END
171
     1
301
MARGIN
  1
CELLMARGIN_BEGIN
 40
0.06
 40
0.06
 40
0.06
 40
0.06
 40
0.06
 40
0.06
309
CELLMARGIN_END
 94
        6
 95
        1
302
GRIDFORMAT
  1
GRIDFORMAT_BEGIN
 90
        0
 91
        1
 62
     0
 92
       -2
340
14
 93
        0
 40
0.045
309
GRIDFORMAT_END
 95
        2
302
GRIDFORMAT
  1
GRIDFORMAT_BEGIN
 90
        0
 91
        1
 62
     0
 92
       -2
340
14
 93
        0
 40
0.045
309
GRIDFORMAT_END
 95
        4
302
GRIDFORMAT
  1
GRIDFORMAT_BEGIN
 90
        0
 91
        1
 62
     0
 92
       -2
340
14
 93
        0
 40
0.045
309
GRIDFORMAT_END
 95
        8
302
GRIDFORMAT
  1
GRIDFORMAT_BEGIN
 90
        0
 91
        1
 62
     0
 92
       -2
340
14
 93
        0
 40
0.045
309
GRIDFORMAT_END
 95
       16
302
GRIDFORMAT
  1
GRIDFORMAT_BEGIN
 90
        0
 91
        1
 62
     0
 92
       -2
340
14
 93
        0
 40
0.045
309
GRIDFORMAT_END
 95
       32
302
GRIDFORMAT
  1
GRIDFORMAT_BEGIN
 90
        0
 91
        1
 62
     0
 92
       -2
340
14
 93
        0
 40
0.045
309
GRIDFORMAT_END
309
TABLEFORMAT_END
  1
CELLSTYLE_BEGIN
 90
        2
 91
        1
300
_HEADER
309
CELLSTYLE_END
300
CELLSTYLE
  1
TABLEFORMAT_BEGIN
 90
        5
170
     1
 91
        0
 92
        0
 62
   257
 93
        1
300
CONTENTFORMAT
  1
CONTENTFORMAT_BEGIN
 90
        0
 91
        0
 92
        4
 93
        0
300

 40
0.0
140
1.0
 94
        2
 62
     0
340
11
144
0.18
309
CONTENTFORMAT_END
171
     1
301
MARGIN
  1
CELLMARGIN_BEGIN
 40
0.06
 40
0.06
 40
0.06
 40
0.06
 40
0.06
 40
0.06
309
CELLMARGIN_END
 94
        6
 95
        1
302
GRIDFORMAT
  1
GRIDFORMAT_BEGIN
 90
        0
 91
        1
 62
     0
 92
       -2
340
14
 93
        0
 40
0.045
309
GRIDFORMAT_END
 95
        2
302
GRIDFORMAT
  1
GRIDFORMAT_BEGIN
 90
        0
 91
        1
 62
     0
 92
       -2
340
14
 93
        0
 40
0.045
309
GRIDFORMAT_END
 95
        4
302
GRIDFORMAT
  1
GRIDFORMAT_BEGIN
 90
        0
 91
        1
 62
     0
 92
       -2
340
14
 93
        0
 40
0.045
309
GRIDFORMAT_END
 95
        8
302
GRIDFORMAT
  1
GRIDFORMAT_BEGIN
 90
        0
 91
        1
 62
     0
 92
       -2
340
14
 93
        0
 40
0.045
309
GRIDFORMAT_END
 95
       16
302
GRIDFORMAT
  1
GRIDFORMAT_BEGIN
 90
        0
 91
        1
 62
     0
 92
       -2
340
14
 93
        0
 40
0.045
309
GRIDFORMAT_END
 95
       32
302
GRIDFORMAT
  1
GRIDFORMAT_BEGIN
 90
        0
 91
        1
 62
     0
 92
       -2
340
14
 93
        0
 40
0.045
309
GRIDFORMAT_END
309
TABLEFORMAT_END
  1
CELLSTYLE_BEGIN
 90
        3
 91
        2
300
_DATA
309
CELLSTYLE_END
  0
ENDSEC
  0
EOF