0
SECTION
  2
HEADER
  9
$ACADVER
  1
AC1027
  9
$ACADMAINTVER
 70
     8
  9
$DWGCODEPAGE
  3
ANSI_1252
  9
$REQUIREDVERSIONS
160
                 0
  9
$COMMENTS
  1
File was created by Cadenas
  9
$CUSTOMPROPERTYTAG
  1
NN
  9
$CUSTOMPROPERTY
  1
Grip Tight Wide Slot Take Up Inch Bore
  9
$CUSTOMPROPERTYTAG
  1
NT
  9
$CUSTOMPROPERTY
  1
GT Wide Slot Take-Up Bearings -(Normal Duty)
  9
$CUSTOMPROPERTYTAG
  1
NB
  9
$CUSTOMPROPERTY
  1
136151
  9
$CUSTOMPROPERTYTAG
  1
NBSYN
  9
$CUSTOMPROPERTY
  1
$PN.
  9
$CUSTOMPROPERTYTAG
  1
LINA
  9
$CUSTOMPROPERTY
  1
136151
  9
$CUSTOMPROPERTYTAG
  1
SERIES
  9
$CUSTOMPROPERTY
  1
215
  9
$CUSTOMPROPERTYTAG
  1
SS
  9
$CUSTOMPROPERTY
  1
2-15/16
  9
$CUSTOMPROPERTYTAG
  1
PN
  9
$CUSTOMPROPERTY
  1
136151
  9
$CUSTOMPROPERTYTAG
  1
DESCRIPTION
  9
$CUSTOMPROPERTY
  1
WSTU-GT-215
  9
$CUSTOMPROPERTYTAG
  1
A
  9
$CUSTOMPROPERTY
  1
2-9/16
  9
$CUSTOMPROPERTYTAG
  1
B
  9
$CUSTOMPROPERTY
  1
9-1/8
  9
$CUSTOMPROPERTYTAG
  1
C
  9
$CUSTOMPROPERTY
  1
1.047 / 1.077
  9
$CUSTOMPROPERTYTAG
  1
D
  9
$CUSTOMPROPERTY
  1
4-3/4
  9
$CUSTOMPROPERTYTAG
  1
E
  9
$CUSTOMPROPERTY
  1
5-1/2
  9
$CUSTOMPROPERTYTAG
  1
F
  9
$CUSTOMPROPERTY
  1
1-1/2
  9
$CUSTOMPROPERTYTAG
  1
G
  9
$CUSTOMPROPERTY
  1
13/16
  9
$CUSTOMPROPERTYTAG
  1
H
  9
$CUSTOMPROPERTY
  1
1-1/4
  9
$CUSTOMPROPERTYTAG
  1
J
  9
$CUSTOMPROPERTY
  1
4-3/8
  9
$CUSTOMPROPERTYTAG
  1
K
  9
$CUSTOMPROPERTY
  1
2-3/4
  9
$CUSTOMPROPERTYTAG
  1
L
  9
$CUSTOMPROPERTY
  1
4-1/4
  9
$CUSTOMPROPERTYTAG
  1
M
  9
$CUSTOMPROPERTY
  1
5.923 / 5.953
  9
$CUSTOMPROPERTYTAG
  1
N
  9
$CUSTOMPROPERTY
  1
6-11/16
  9
$CUSTOMPROPERTYTAG
  1
R
  9
$CUSTOMPROPERTY
  1
57/64
  9
$CUSTOMPROPERTYTAG
  1
S
  9
$CUSTOMPROPERTY
  1
1-43/64
  9
$CUSTOMPROPERTYTAG
  1
T
  9
$CUSTOMPROPERTY
  1
2-3/4
  9
$CUSTOMPROPERTYTAG
  1
Z
  9
$CUSTOMPROPERTY
  1
1-5/8
  9
$CUSTOMPROPERTYTAG
  1
COMPANY
  9
$CUSTOMPROPERTY
  1
baldor
  9
$INSBASE
 10
0.0
 20
0.0
 30
0.0
  9
$EXTMIN
 10
1.000000000000000E+20
 20
1.000000000000000E+20
 30
1.000000000000000E+20
  9
$EXTMAX
 10
-1.000000000000000E+20
 20
-1.000000000000000E+20
 30
-1.000000000000000E+20
  9
$LIMMIN
 10
0.0
 20
0.0
  9
$LIMMAX
 10
12.0
 20
9.0
  9
$ORTHOMODE
 70
     0
  9
$REGENMODE
 70
     1
  9
$FILLMODE
 70
     1
  9
$QTEXTMODE
 70
     0
  9
$MIRRTEXT
 70
     1
  9
$LTSCALE
 40
1.0
  9
$ATTMODE
 70
     1
  9
$TEXTSIZE
 40
0.2
  9
$TRACEWID
 40
0.05
  9
$TEXTSTYLE
  7
Standard
  9
$CLAYER
  8
0
  9
$CELTYPE
  6
ByLayer
  9
$CECOLOR
 62
   256
  9
$CELTSCALE
 40
1.0
  9
$DISPSILH
 70
     0
  9
$DIMSCALE
 40
1.0
  9
$DIMASZ
 40
0.18
  9
$DIMEXO
 40
0.0625
  9
$DIMDLI
 40
0.38
  9
$DIMRND
 40
0.0
  9
$DIMDLE
 40
0.0
  9
$DIMEXE
 40
0.18
  9
$DIMTP
 40
0.0
  9
$DIMTM
 40
0.0
  9
$DIMTXT
 40
0.18
  9
$DIMCEN
 40
0.09
  9
$DIMTSZ
 40
0.0
  9
$DIMTOL
 70
     0
  9
$DIMLIM
 70
     0
  9
$DIMTIH
 70
     1
  9
$DIMTOH
 70
     1
  9
$DIMSE1
 70
     0
  9
$DIMSE2
 70
     0
  9
$DIMTAD
 70
     0
  9
$DIMZIN
 70
     0
  9
$DIMBLK
  1

  9
$DIMASO
 70
     1
  9
$DIMSHO
 70
     1
  9
$DIMPOST
  1

  9
$DIMAPOST
  1

  9
$DIMALT
 70
     0
  9
$DIMALTD
 70
     2
  9
$DIMALTF
 40
25.4
  9
$DIMLFAC
 40
1.0
  9
$DIMTOFL
 70
     0
  9
$DIMTVP
 40
0.0
  9
$DIMTIX
 70
     0
  9
$DIMSOXD
 70
     0
  9
$DIMSAH
 70
     0
  9
$DIMBLK1
  1

  9
$DIMBLK2
  1

  9
$DIMSTYLE
  2
Standard
  9
$DIMCLRD
 70
     0
  9
$DIMCLRE
 70
     0
  9
$DIMCLRT
 70
     0
  9
$DIMTFAC
 40
1.0
  9
$DIMGAP
 40
0.09
  9
$DIMJUST
 70
     0
  9
$DIMSD1
 70
     0
  9
$DIMSD2
 70
     0
  9
$DIMTOLJ
 70
     1
  9
$DIMTZIN
 70
     0
  9
$DIMALTZ
 70
     0
  9
$DIMALTTZ
 70
     0
  9
$DIMUPT
 70
     0
  9
$DIMDEC
 70
     4
  9
$DIMTDEC
 70
     4
  9
$DIMALTU
 70
     2
  9
$DIMALTTD
 70
     2
  9
$DIMTXSTY
  7
Standard
  9
$DIMAUNIT
 70
     0
  9
$DIMADEC
 70
     0
  9
$DIMALTRND
 40
0.0
  9
$DIMAZIN
 70
     0
  9
$DIMDSEP
 70
    46
  9
$DIMATFIT
 70
     3
  9
$DIMFRAC
 70
     0
  9
$DIMLDRBLK
  1

  9
$DIMLUNIT
 70
     2
  9
$DIMLWD
 70
    -2
  9
$DIMLWE
 70
    -2
  9
$DIMTMOVE
 70
     0
  9
$DIMFXL
 40
1.0
  9
$DIMFXLON
 70
     0
  9
$DIMJOGANG
 40
0.7853981633974483
  9
$DIMTFILL
 70
     0
  9
$DIMTFILLCLR
 70
     0
  9
$DIMARCSYM
 70
     0
  9
$DIMLTYPE
  6

  9
$DIMLTEX1
  6

  9
$DIMLTEX2
  6

  9
$DIMTXTDIRECTION
 70
     0
  9
$LUNITS
 70
     2
  9
$LUPREC
 70
     4
  9
$SKETCHINC
 40
0.1
  9
$FILLETRAD
 40
0.5
  9
$AUNITS
 70
     0
  9
$AUPREC
 70
     0
  9
$MENU
  1
.
  9
$ELEVATION
 40
0.0
  9
$PELEVATION
 40
0.0
  9
$THICKNESS
 40
0.0
  9
$LIMCHECK
 70
     0
  9
$CHAMFERA
 40
0.0
  9
$CHAMFERB
 40
0.0
  9
$CHAMFERC
 40
0.0
  9
$CHAMFERD
 40
0.0
  9
$SKPOLY
 70
     0
  9
$TDCREATE
 40
2458168.993984352
  9
$TDUCREATE
 40
2458168.952317685
  9
$TDUPDATE
 40
2458168.993984526
  9
$TDUUPDATE
 40
2458168.952317859
  9
$TDINDWG
 40
0.0000000116
  9
$TDUSRTIMER
 40
0.0000000116
  9
$USRTIMER
 70
     1
  9
$ANGBASE
 50
0.0
  9
$ANGDIR
 70
     0
  9
$PDMODE
 70
     0
  9
$PDSIZE
 40
0.0
  9
$PLINEWID
 40
0.0
  9
$SPLFRAME
 70
     0
  9
$SPLINETYPE
 70
     6
  9
$SPLINESEGS
 70
     8
  9
$HANDSEED
  5
228
  9
$SURFTAB1
 70
     6
  9
$SURFTAB2
 70
     6
  9
$SURFTYPE
 70
     6
  9
$SURFU
 70
     6
  9
$SURFV
 70
     6
  9
$UCSBASE
  2

  9
$UCSNAME
  2

  9
$UCSORG
 10
0.0
 20
0.0
 30
0.0
  9
$UCSXDIR
 10
1.0
 20
0.0
 30
0.0
  9
$UCSYDIR
 10
0.0
 20
1.0
 30
0.0
  9
$UCSORTHOREF
  2

  9
$UCSORTHOVIEW
 70
     0
  9
$UCSORGTOP
 10
0.0
 20
0.0
 30
0.0
  9
$UCSORGBOTTOM
 10
0.0
 20
0.0
 30
0.0
  9
$UCSORGLEFT
 10
0.0
 20
0.0
 30
0.0
  9
$UCSORGRIGHT
 10
0.0
 20
0.0
 30
0.0
  9
$UCSORGFRONT
 10
0.0
 20
0.0
 30
0.0
  9
$UCSORGBACK
 10
0.0
 20
0.0
 30
0.0
  9
$PUCSBASE
  2

  9
$PUCSNAME
  2

  9
$PUCSORG
 10
0.0
 20
0.0
 30
0.0
  9
$PUCSXDIR
 10
1.0
 20
0.0
 30
0.0
  9
$PUCSYDIR
 10
0.0
 20
1.0
 30
0.0
  9
$PUCSORTHOREF
  2

  9
$PUCSORTHOVIEW
 70
     0
  9
$PUCSORGTOP
 10
0.0
 20
0.0
 30
0.0
  9
$PUCSORGBOTTOM
 10
0.0
 20
0.0
 30
0.0
  9
$PUCSORGLEFT
 10
0.0
 20
0.0
 30
0.0
  9
$PUCSORGRIGHT
 10
0.0
 20
0.0
 30
0.0
  9
$PUCSORGFRONT
 10
0.0
 20
0.0
 30
0.0
  9
$PUCSORGBACK
 10
0.0
 20
0.0
 30
0.0
  9
$USERI1
 70
     0
  9
$USERI2
 70
     0
  9
$USERI3
 70
     0
  9
$USERI4
 70
     0
  9
$USERI5
 70
     0
  9
$USERR1
 40
0.0
  9
$USERR2
 40
0.0
  9
$USERR3
 40
0.0
  9
$USERR4
 40
0.0
  9
$USERR5
 40
0.0
  9
$WORLDVIEW
 70
     1
  9
$SHADEDGE
 70
     3
  9
$SHADEDIF
 70
    70
  9
$TILEMODE
 70
     1
  9
$MAXACTVP
 70
    64
  9
$PINSBASE
 10
0.0
 20
0.0
 30
0.0
  9
$PLIMCHECK
 70
     0
  9
$PEXTMIN
 10
1.000000000000000E+20
 20
1.000000000000000E+20
 30
1.000000000000000E+20
  9
$PEXTMAX
 10
-1.000000000000000E+20
 20
-1.000000000000000E+20
 30
-1.000000000000000E+20
  9
$PLIMMIN
 10
0.0
 20
0.0
  9
$PLIMMAX
 10
12.0
 20
9.0
  9
$UNITMODE
 70
     0
  9
$VISRETAIN
 70
     1
  9
$PLINEGEN
 70
     0
  9
$PSLTSCALE
 70
     1
  9
$TREEDEPTH
 70
  3020
  9
$CMLSTYLE
  2
Standard
  9
$CMLJUST
 70
     0
  9
$CMLSCALE
 40
1.0
  9
$PROXYGRAPHICS
 70
     1
  9
$MEASUREMENT
 70
     0
  9
$CELWEIGHT
370
    -1
  9
$ENDCAPS
280
     0
  9
$JOINSTYLE
280
     0
  9
$LWDISPLAY
290
     0
  9
$INSUNITS
 70
     1
  9
$HYPERLINKBASE
  1

  9
$STYLESHEET
  1

  9
$XEDIT
290
     1
  9
$CEPSNTYPE
380
     0
  9
$PSTYLEMODE
290
     1
  9
$FINGERPRINTGUID
  2
{66116519-06CD-459D-964D-0F7E3477AD61}
  9
$VERSIONGUID
  2
{FAEB1C32-E019-11D5-929B-00C0DF256EC4}
  9
$EXTNAMES
290
     1
  9
$PSVPSCALE
 40
0.0
  9
$OLESTARTUP
290
     0
  9
$SORTENTS
280
   127
  9
$INDEXCTL
280
     0
  9
$HIDETEXT
280
     1
  9
$XCLIPFRAME
280
     2
  9
$HALOGAP
280
     0
  9
$OBSCOLOR
 70
   257
  9
$OBSLTYPE
280
     0
  9
$INTERSECTIONDISPLAY
280
     0
  9
$INTERSECTIONCOLOR
 70
   257
  9
$DIMASSOC
280
     2
  9
$PROJECTNAME
  1

  9
$CAMERADISPLAY
290
     0
  9
$LENSLENGTH
 40
50.0
  9
$CAMERAHEIGHT
 40
0.0
  9
$STEPSPERSEC
 40
2.0
  9
$STEPSIZE
 40
6.0
  9
$3DDWFPREC
 40
2.0
  9
$PSOLWIDTH
 40
0.25
  9
$PSOLHEIGHT
 40
4.0
  9
$LOFTANG1
 40
1.570796326794897
  9
$LOFTANG2
 40
1.570796326794897
  9
$LOFTMAG1
 40
0.0
  9
$LOFTMAG2
 40
0.0
  9
$LOFTPARAM
 70
     7
  9
$LOFTNORMALS
280
     1
  9
$LATITUDE
 40
37.795
  9
$LONGITUDE
 40
-122.394
  9
$NORTHDIRECTION
 40
0.0
  9
$TIMEZONE
 70
 -8000
  9
$LIGHTGLYPHDISPLAY
280
     1
  9
$TILEMODELIGHTSYNCH
280
     1
  9
$CMATERIAL
347
44
  9
$SOLIDHIST
280
     0
  9
$SHOWHIST
280
     1
  9
$DWFFRAME
280
     2
  9
$DGNFRAME
280
     2
  9
$REALWORLDSCALE
290
     1
  9
$INTERFERECOLOR
 62
   256
  9
$CSHADOW
280
     0
  9
$SHADOWPLANELOCATION
 40
0.0
  0
ENDSEC
  0
SECTION
  2
CLASSES
  0
CLASS
  1
ACDBDICTIONARYWDFLT
  2
AcDbDictionaryWithDefault
  3
ObjectDBX Classes
 90
        0
 91
        4
280
     0
281
     0
  0
CLASS
  1
VISUALSTYLE
  2
AcDbVisualStyle
  3
ObjectDBX Classes
 90
     4095
 91
        4
280
     0
281
     0
  0
CLASS
  1
MATERIAL
  2
AcDbMaterial
  3
ObjectDBX Classes
 90
     1153
 91
        4
280
     0
281
     0
  0
CLASS
  1
SCALE
  2
AcDbScale
  3
ObjectDBX Classes
 90
     1153
 91
        4
280
     0
281
     0
  0
CLASS
  1
TABLESTYLE
  2
AcDbTableStyle
  3
ObjectDBX Classes
 90
     4095
 91
        4
280
     0
281
     0
  0
CLASS
  1
MLEADERSTYLE
  2
AcDbMLeaderStyle
  3
ACDB_MLEADERSTYLE_CLASS
 90
     4095
 91
        4
280
     0
281
     0
  0
CLASS
  1
SUN
  2
AcDbSun
  3
SCENEOE
 90
     1153
 91
        4
280
     0
281
     0
  0
CLASS
  1
DICTIONARYVAR
  2
AcDbDictionaryVar
  3
ObjectDBX Classes
 90
        0
 91
        4
280
     0
281
     0
  0
CLASS
  1
CELLSTYLEMAP
  2
AcDbCellStyleMap
  3
ObjectDBX Classes
 90
     1152
 91
        4
280
     0
281
     0
  0
ENDSEC
  0
SECTION
  2
TABLES
  0
TABLE
  2
VPORT
  5
8
330
0
100
AcDbSymbolTable
 70
     1
  0
VPORT
  5
29
330
8
100
AcDbSymbolTableRecord
100
AcDbViewportTableRecord
  2
*Active
 70
     0
 10
0.0
 20
0.0
 11
1.0
 21
1.0
 12
-0.1484388709068298
 22
0.0
 13
0.0
 23
0.0
 14
0.5
 24
0.5
 15
0.5
 25
0.5
 16
0.0
 26
0.0
 36
1.0
 17
0.0
 27
0.0
 37
0.0
 40
6.821236357500002
 41
0.8556079792698148
 42
50.0
 43
0.0
 44
0.0
 50
0.0
 51
0.0
 71
     0
 72
   100
 73
     1
 74
     3
 75
     0
 76
     0
 77
     0
 78
     0
281
     0
 65
     1
110
0.0
120
0.0
130
0.0
111
1.0
121
0.0
131
0.0
112
0.0
122
1.0
132
0.0
 79
     0
146
0.0
348
2F
 60
     3
 61
     5
292
     1
282
     1
141
0.0
142
0.0
 63
   250
361
6D
  0
ENDTAB
  0
TABLE
  2
LTYPE
  5
5
330
0
100
AcDbSymbolTable
 70
     3
  0
LTYPE
  5
14
330
5
100
AcDbSymbolTableRecord
100
AcDbLinetypeTableRecord
  2
ByBlock
 70
     0
  3

 72
    65
 73
     0
 40
0.0
  0
LTYPE
  5
15
330
5
100
AcDbSymbolTableRecord
100
AcDbLinetypeTableRecord
  2
ByLayer
 70
     0
  3

 72
    65
 73
     0
 40
0.0
  0
LTYPE
  5
16
330
5
100
AcDbSymbolTableRecord
100
AcDbLinetypeTableRecord
  2
Continuous
 70
     0
  3
Solid line
 72
    65
 73
     0
 40
0.0
  0
LTYPE
  5
9F
330
5
100
AcDbSymbolTableRecord
100
AcDbLinetypeTableRecord
  2
Dashed
 70
     0
  3

 72
    65
 73
     2
 40
2.0
 49
1.0
 74
     0
 49
-1.0
 74
     0
  0
LTYPE
  5
186
330
5
100
AcDbSymbolTableRecord
100
AcDbLinetypeTableRecord
  2
Center
 70
     0
  3

 72
    65
 73
     4
 40
1.5
 49
0.45
 74
     0
 49
-0.5
 74
     0
 49
0.05
 74
     0
 49
-0.5
 74
     0
  0
ENDTAB
  0
TABLE
  2
LAYER
  5
2
330
0
100
AcDbSymbolTable
 70
     7
  0
LAYER
  5
10
330
2
100
AcDbSymbolTableRecord
100
AcDbLayerTableRecord
  2
0
 70
     0
 62
     7
  6
Continuous
370
    -3
390
F
347
46
348
0
  0
LAYER
  5
72
330
2
100
AcDbSymbolTableRecord
100
AcDbLayerTableRecord
  2
AM_6
 70
     0
 62
    -2
  6
Continuous
370
    35
390
F
347
46
348
0
  0
LAYER
  5
A0
330
2
100
AcDbSymbolTableRecord
100
AcDbLayerTableRecord
  2
AM_9
 70
     0
 62
     6
  6
Dashed
370
    25
390
F
347
46
348
0
  0
LAYER
  5
187
330
2
100
AcDbSymbolTableRecord
100
AcDbLayerTableRecord
  2
AM_7
 70
     0
 62
     7
  6
Center
370
    25
390
F
347
46
348
0
  0
LAYER
  5
189
330
2
100
AcDbSymbolTableRecord
100
AcDbLayerTableRecord
  2
AM_4
 70
     0
 62
     7
  6
Continuous
370
    50
390
F
347
46
348
0
  0
LAYER
  5
19E
330
2
100
AcDbSymbolTableRecord
100
AcDbLayerTableRecord
  2
AM_5
 70
     0
 62
     3
  6
Continuous
370
    25
390
F
347
46
348
0
  0
LAYER
  5
216
330
2
100
AcDbSymbolTableRecord
100
AcDbLayerTableRecord
  2
ConnectionPoints
 70
     0
 62
     7
  6
Continuous
370
    50
390
F
347
46
348
0
  0
ENDTAB
  0
TABLE
  2
STYLE
  5
3
330
0
100
AcDbSymbolTable
 70
     1
  0
STYLE
  5
11
330
3
100
AcDbSymbolTableRecord
100
AcDbTextStyleTableRecord
  2
Standard
 70
     0
 40
0.0
 41
1.0
 50
0.0
 71
     0
 42
0.2
  3
txt
  4

  0
ENDTAB
  0
TABLE
  2
VIEW
  5
6
330
0
100
AcDbSymbolTable
 70
     0
  0
ENDTAB
  0
TABLE
  2
UCS
  5
7
330
0
100
AcDbSymbolTable
 70
     0
  0
ENDTAB
  0
TABLE
  2
APPID
  5
9
330
0
100
AcDbSymbolTable
 70
     1
  0
APPID
  5
12
330
9
100
AcDbSymbolTableRecord
100
AcDbRegAppTableRecord
  2
ACAD
 70
     0
  0
ENDTAB
  0
TABLE
  2
DIMSTYLE
  5
A
330
0
100
AcDbSymbolTable
 70
     1
100
AcDbDimStyleTable
  0
DIMSTYLE
105
27
330
A
100
AcDbSymbolTableRecord
100
AcDbDimStyleTableRecord
  2
Standard
 70
     0
178
     0
340
11
  0
ENDTAB
  0
TABLE
  2
BLOCK_RECORD
  5
1
330
0
100
AcDbSymbolTable
 70
     6
  0
BLOCK_RECORD
  5
1F
330
1
100
AcDbSymbolTableRecord
100
AcDbBlockTableRecord
  2
*Model_Space
340
22
 70
     0
280
     1
281
     0
  0
BLOCK_RECORD
  5
1B
330
1
100
AcDbSymbolTableRecord
100
AcDbBlockTableRecord
  2
*Paper_Space
340
1E
 70
     0
280
     1
281
     0
  0
BLOCK_RECORD
  5
23
330
1
100
AcDbSymbolTableRecord
100
AcDbBlockTableRecord
  2
*Paper_Space0
340
26
 70
     0
280
     1
281
     0
  0
BLOCK_RECORD
  5
6E
330
1
100
AcDbSymbolTableRecord
100
AcDbBlockTableRecord
  2
1_136151_2
340
0
102
{BLKREFS
331
6F
102
}
 70
     0
280
     1
281
     0
  0
BLOCK_RECORD
  5
8E
330
1
100
AcDbSymbolTableRecord
100
AcDbBlockTableRecord
  2
2_405016_Inch_0_in_136151_2
340
0
102
{BLKREFS
331
8F
102
}
 70
     0
280
     1
281
     0
  0
BLOCK_RECORD
  5
103
330
1
100
AcDbSymbolTableRecord
100
AcDbBlockTableRecord
  2
3_129527I_0_in_136151_2
340
0
102
{BLKREFS
331
104
102
}
 70
     0
280
     1
281
     0
  0
BLOCK_RECORD
  5
146
330
1
100
AcDbSymbolTableRecord
100
AcDbBlockTableRecord
  2
4_129923_0_in_136151_2
340
0
102
{BLKREFS
331
147
102
}
 70
     0
280
     1
281
     0
  0
BLOCK_RECORD
  5
1A0
330
1
100
AcDbSymbolTableRecord
100
AcDbBlockTableRecord
  2
5_WSTU_GT_15I_0_in_136151_2
340
0
102
{BLKREFS
331
1A1
102
}
 70
     0
280
     1
281
     0
  0
ENDTAB
  0
ENDSEC
  0
SECTION
  2
BLOCKS
  0
BLOCK
  5
20
330
1F
100
AcDbEntity
  8
0
100
AcDbBlockBegin
  2
*Model_Space
 70
     0
 10
0.0
 20
0.0
 30
0.0
  3
*Model_Space
  1

  0
ENDBLK
  5
21
330
1F
100
AcDbEntity
  8
0
100
AcDbBlockEnd
  0
BLOCK
  5
1C
330
1B
100
AcDbEntity
 67
     1
  8
0
100
AcDbBlockBegin
  2
*Paper_Space
 70
     0
 10
0.0
 20
0.0
 30
0.0
  3
*Paper_Space
  1

  0
ENDBLK
  5
1D
330
1B
100
AcDbEntity
 67
     1
  8
0
100
AcDbBlockEnd
  0
BLOCK
  5
24
330
23
100
AcDbEntity
  8
0
100
AcDbBlockBegin
  2
*Paper_Space0
 70
     0
 10
0.0
 20
0.0
 30
0.0
  3
*Paper_Space0
  1

  0
ENDBLK
  5
25
330
23
100
AcDbEntity
  8
0
100
AcDbBlockEnd
  0
BLOCK
  5
70
330
6E
100
AcDbEntity
  8
0
100
AcDbBlockBegin
  2
1_136151_2
 70
     2
 10
0.0
 20
0.0
 30
0.0
  3
1_136151_2
  1

  0
ATTDEF
  5
73
330
6E
100
AcDbEntity
  8
AM_6
100
AcDbText
 10
7.712494587898254
 20
3.3437433125
 30
0.0
 40
0.5
  1
Grip Tight Wide Slot Take Up Inch Bore
100
AcDbAttributeDefinition
  3

  2
NN
 70
     8
280
     0
  0
ATTDEF
  5
74
330
6E
100
AcDbEntity
  8
AM_6
100
AcDbText
 10
7.712494587898254
 20
2.8437433125
 30
0.0
 40
0.5
  1
GT Wide Slot Take-Up Bearings -(Normal Duty)
100
AcDbAttributeDefinition
  3

  2
NT
 70
     8
280
     0
  0
ATTDEF
  5
75
330
6E
100
AcDbEntity
  8
AM_6
100
AcDbText
 10
7.712494587898254
 20
2.3437433125
 30
0.0
 40
0.5
  1
136151
100
AcDbAttributeDefinition
  3

  2
NB
 70
     8
280
     0
  0
ATTDEF
  5
76
330
6E
100
AcDbEntity
  8
AM_6
100
AcDbText
 10
7.712494587898254
 20
1.8437433125
 30
0.0
 40
0.5
  1
$PN.
100
AcDbAttributeDefinition
  3

  2
NBSYN
 70
     8
280
     0
  0
ATTDEF
  5
77
330
6E
100
AcDbEntity
  8
AM_6
100
AcDbText
 10
7.712494587898254
 20
1.3437433125
 30
0.0
 40
0.5
  1
136151
100
AcDbAttributeDefinition
  3

  2
LINA
 70
     8
280
     0
  0
ATTDEF
  5
78
330
6E
100
AcDbEntity
  8
AM_6
100
AcDbText
 10
7.712494587898254
 20
0.8437433125000005
 30
0.0
 40
0.5
  1
215
100
AcDbAttributeDefinition
  3

  2
SERIES
 70
     8
280
     0
  0
ATTDEF
  5
79
330
6E
100
AcDbEntity
  8
AM_6
100
AcDbText
 10
7.712494587898254
 20
0.3437433125000005
 30
0.0
 40
0.5
  1
2-15/16
100
AcDbAttributeDefinition
  3

  2
SS
 70
     8
280
     0
  0
ATTDEF
  5
7A
330
6E
100
AcDbEntity
  8
AM_6
100
AcDbText
 10
7.712494587898254
 20
-0.1562566874999995
 30
0.0
 40
0.5
  1
136151
100
AcDbAttributeDefinition
  3

  2
PN
 70
     8
280
     0
  0
ATTDEF
  5
7B
330
6E
100
AcDbEntity
  8
AM_6
100
AcDbText
 10
7.712494587898254
 20
-0.6562566874999995
 30
0.0
 40
0.5
  1
WSTU-GT-215
100
AcDbAttributeDefinition
  3

  2
DESCRIPTION
 70
     8
280
     0
  0
ATTDEF
  5
7C
330
6E
100
AcDbEntity
  8
AM_6
100
AcDbText
 10
7.712494587898254
 20
-1.1562566875
 30
0.0
 40
0.5
  1
2-9/16
100
AcDbAttributeDefinition
  3

  2
A
 70
     8
280
     0
  0
ATTDEF
  5
7D
330
6E
100
AcDbEntity
  8
AM_6
100
AcDbText
 10
7.712494587898254
 20
-1.6562566875
 30
0.0
 40
0.5
  1
9-1/8
100
AcDbAttributeDefinition
  3

  2
B
 70
     8
280
     0
  0
ATTDEF
  5
7E
330
6E
100
AcDbEntity
  8
AM_6
100
AcDbText
 10
7.712494587898254
 20
-2.1562566875
 30
0.0
 40
0.5
  1
1.047 / 1.077
100
AcDbAttributeDefinition
  3

  2
C
 70
     8
280
     0
  0
ATTDEF
  5
7F
330
6E
100
AcDbEntity
  8
AM_6
100
AcDbText
 10
7.712494587898254
 20
-2.6562566875
 30
0.0
 40
0.5
  1
4-3/4
100
AcDbAttributeDefinition
  3

  2
D
 70
     8
280
     0
  0
ATTDEF
  5
80
330
6E
100
AcDbEntity
  8
AM_6
100
AcDbText
 10
7.712494587898254
 20
-3.1562566875
 30
0.0
 40
0.5
  1
5-1/2
100
AcDbAttributeDefinition
  3

  2
E
 70
     8
280
     0
  0
ATTDEF
  5
81
330
6E
100
AcDbEntity
  8
AM_6
100
AcDbText
 10
7.712494587898254
 20
-3.6562566875
 30
0.0
 40
0.5
  1
1-1/2
100
AcDbAttributeDefinition
  3

  2
F
 70
     8
280
     0
  0
ATTDEF
  5
82
330
6E
100
AcDbEntity
  8
AM_6
100
AcDbText
 10
7.712494587898254
 20
-4.156256687499999
 30
0.0
 40
0.5
  1
13/16
100
AcDbAttributeDefinition
  3

  2
G
 70
     8
280
     0
  0
ATTDEF
  5
83
330
6E
100
AcDbEntity
  8
AM_6
100
AcDbText
 10
7.712494587898254
 20
-4.656256687499999
 30
0.0
 40
0.5
  1
1-1/4
100
AcDbAttributeDefinition
  3

  2
H
 70
     8
280
     0
  0
ATTDEF
  5
84
330
6E
100
AcDbEntity
  8
AM_6
100
AcDbText
 10
7.712494587898254
 20
-5.156256687499999
 30
0.0
 40
0.5
  1
4-3/8
100
AcDbAttributeDefinition
  3

  2
J
 70
     8
280
     0
  0
ATTDEF
  5
85
330
6E
100
AcDbEntity
  8
AM_6
100
AcDbText
 10
7.712494587898254
 20
-5.656256687499999
 30
0.0
 40
0.5
  1
2-3/4
100
AcDbAttributeDefinition
  3

  2
K
 70
     8
280
     0
  0
ATTDEF
  5
86
330
6E
100
AcDbEntity
  8
AM_6
100
AcDbText
 10
7.712494587898254
 20
-6.156256687499999
 30
0.0
 40
0.5
  1
4-1/4
100
AcDbAttributeDefinition
  3

  2
L
 70
     8
280
     0
  0
ATTDEF
  5
87
330
6E
100
AcDbEntity
  8
AM_6
100
AcDbText
 10
7.712494587898254
 20
-6.656256687499999
 30
0.0
 40
0.5
  1
5.923 / 5.953
100
AcDbAttributeDefinition
  3

  2
M
 70
     8
280
     0
  0
ATTDEF
  5
88
330
6E
100
AcDbEntity
  8
AM_6
100
AcDbText
 10
7.712494587898254
 20
-7.156256687499999
 30
0.0
 40
0.5
  1
6-11/16
100
AcDbAttributeDefinition
  3

  2
N
 70
     8
280
     0
  0
ATTDEF
  5
89
330
6E
100
AcDbEntity
  8
AM_6
100
AcDbText
 10
7.712494587898254
 20
-7.656256687499999
 30
0.0
 40
0.5
  1
57/64
100
AcDbAttributeDefinition
  3

  2
R
 70
     8
280
     0
  0
ATTDEF
  5
8A
330
6E
100
AcDbEntity
  8
AM_6
100
AcDbText
 10
7.712494587898254
 20
-8.156256687499999
 30
0.0
 40
0.5
  1
1-43/64
100
AcDbAttributeDefinition
  3

  2
S
 70
     8
280
     0
  0
ATTDEF
  5
8B
330
6E
100
AcDbEntity
  8
AM_6
100
AcDbText
 10
7.712494587898254
 20
-8.656256687499999
 30
0.0
 40
0.5
  1
2-3/4
100
AcDbAttributeDefinition
  3

  2
T
 70
     8
280
     0
  0
ATTDEF
  5
8C
330
6E
100
AcDbEntity
  8
AM_6
100
AcDbText
 10
7.712494587898254
 20
-9.156256687499999
 30
0.0
 40
0.5
  1
1-5/8
100
AcDbAttributeDefinition
  3

  2
Z
 70
     8
280
     0
  0
ATTDEF
  5
8D
330
6E
100
AcDbEntity
  8
AM_6
100
AcDbText
 10
7.712494587898254
 20
-9.656256687499999
 30
0.0
 40
0.5
  1
baldor
100
AcDbAttributeDefinition
  3

  2
COMPANY
 70
     8
280
     0
  0
INSERT
  5
8F
330
6E
100
AcDbEntity
  8
0
100
AcDbBlockReference
  2
2_405016_Inch_0_in_136151_2
 10
0.0
 20
0.0
 30
0.0
  0
INSERT
  5
104
330
6E
100
AcDbEntity
  8
0
100
AcDbBlockReference
  2
3_129527I_0_in_136151_2
 10
0.0
 20
0.0
 30
0.0
  0
INSERT
  5
147
330
6E
100
AcDbEntity
  8
0
100
AcDbBlockReference
  2
4_129923_0_in_136151_2
 10
0.0
 20
0.0
 30
0.0
  0
INSERT
  5
1A1
330
6E
100
AcDbEntity
  8
0
100
AcDbBlockReference
  2
5_WSTU_GT_15I_0_in_136151_2
 10
0.0
 20
0.0
 30
0.0
  0
ENDBLK
  5
71
330
6E
100
AcDbEntity
  8
0
100
AcDbBlockEnd
  0
BLOCK
  5
90
330
8E
100
AcDbEntity
  8
0
100
AcDbBlockBegin
  2
2_405016_Inch_0_in_136151_2
 70
     2
 10
0.0
 20
0.0
 30
0.0
  3
2_405016_Inch_0_in_136151_2
  1

  0
ATTDEF
  5
92
330
8E
100
AcDbEntity
  8
AM_6
100
AcDbText
 10
5.218750000000001
 20
-1.60442569835516
 30
0.0
 40
0.5
  1
405016 -Inch
100
AcDbAttributeDefinition
  3

  2
NN
 70
     8
280
     0
  0
ATTDEF
  5
93
330
8E
100
AcDbEntity
  8
AM_6
100
AcDbText
 10
5.218750000000001
 20
-2.10442569835516
 30
0.0
 40
0.5
  1
Grease Fitting
100
AcDbAttributeDefinition
  3

  2
NT
 70
     8
280
     0
  0
ATTDEF
  5
94
330
8E
100
AcDbEntity
  8
AM_6
100
AcDbText
 10
5.218750000000001
 20
-2.60442569835516
 30
0.0
 40
0.5
  1
405016-Inch
100
AcDbAttributeDefinition
  3

  2
NB
 70
     8
280
     0
  0
ATTDEF
  5
95
330
8E
100
AcDbEntity
  8
AM_6
100
AcDbText
 10
5.218750000000001
 20
-3.10442569835516
 30
0.0
 40
0.5
  1
$MN.-Inch
100
AcDbAttributeDefinition
  3

  2
NBSYN
 70
     8
280
     0
  0
ATTDEF
  5
96
330
8E
100
AcDbEntity
  8
AM_6
100
AcDbText
 10
5.218750000000001
 20
-3.60442569835516
 30
0.0
 40
0.5
  1
405016
100
AcDbAttributeDefinition
  3

  2
LINA
 70
     8
280
     0
  0
ATTDEF
  5
97
330
8E
100
AcDbEntity
  8
AM_6
100
AcDbText
 10
5.218750000000001
 20
-4.10442569835516
 30
0.0
 40
0.5
  1
405016
100
AcDbAttributeDefinition
  3

  2
MN
 70
     8
280
     0
  0
ATTDEF
  5
98
330
8E
100
AcDbEntity
  8
AM_6
100
AcDbText
 10
5.218750000000001
 20
-4.60442569835516
 30
0.0
 40
0.5
  1
7/16 HEX
100
AcDbAttributeDefinition
  3

  2
H
 70
     8
280
     0
  0
ATTDEF
  5
99
330
8E
100
AcDbEntity
  8
AM_6
100
AcDbText
 10
5.218750000000001
 20
-5.10442569835516
 30
0.0
 40
0.5
  1
0.383
100
AcDbAttributeDefinition
  3

  2
NDR
 70
     8
280
     0
  0
ATTDEF
  5
9A
330
8E
100
AcDbEntity
  8
AM_6
100
AcDbText
 10
5.218750000000001
 20
-5.60442569835516
 30
0.0
 40
0.5
  1
0.337
100
AcDbAttributeDefinition
  3

  2
KDR
 70
     8
280
     0
  0
ATTDEF
  5
9B
330
8E
100
AcDbEntity
  8
AM_6
100
AcDbText
 10
5.218750000000001
 20
-6.10442569835516
 30
0.0
 40
0.5
  1
0.1575
100
AcDbAttributeDefinition
  3

  2
BZE
 70
     8
280
     0
  0
ATTDEF
  5
9C
330
8E
100
AcDbEntity
  8
AM_6
100
AcDbText
 10
5.218750000000001
 20
-6.60442569835516
 30
0.0
 40
0.5
  1
0.4375
100
AcDbAttributeDefinition
  3

  2
HEX
 70
     8
280
     0
  0
ATTDEF
  5
9D
330
8E
100
AcDbEntity
  8
AM_6
100
AcDbText
 10
5.218750000000001
 20
-7.10442569835516
 30
0.0
 40
0.5
  1
0.281250
100
AcDbAttributeDefinition
  3

  2
HEX2
 70
     8
280
     0
  0
ATTDEF
  5
9E
330
8E
100
AcDbEntity
  8
AM_6
100
AcDbText
 10
5.218750000000001
 20
-7.60442569835516
 30
0.0
 40
0.5
  1
baldor
100
AcDbAttributeDefinition
  3

  2
COMPANY
 70
     8
280
     0
  0
LWPOLYLINE
  5
A1
330
8E
100
AcDbEntity
  8
AM_9
100
AcDbPolyline
 90
        5
 70
     0
 43
0.0
 10
-0.1791093260592889
 20
-2.209238809059826
 10
-0.1842540823997056
 20
-2.176170119967152
 10
-0.1862220679364953
 20
-2.141812409178915
 10
-0.1844124966919383
 20
-2.105626446285356
 10
-0.1791093260592889
 20
-2.068613809059826
  0
LINE
  5
A2
330
8E
100
AcDbEntity
  8
AM_9
100
AcDbLine
 10
-0.1510741298357572
 20
-2.06207729571137
 30
0.0
 11
-0.1791093260592889
 21
-2.068613809059826
 31
0.0
  0
LWPOLYLINE
  5
A3
330
8E
100
AcDbEntity
  8
AM_9
100
AcDbPolyline
 90
        5
 70
     0
 43
0.0
 10
-0.1791093260592889
 20
-2.068613809059826
 10
-0.1988355121406941
 20
-2.037188517736611
 10
-0.2156330920108726
 20
-2.004497724328328
 10
-0.2290462109660023
 20
-1.970006153690794
 10
-0.2389369657326278
 20
-1.934669092407283
  0
LINE
  5
A4
330
8E
100
AcDbEntity
  8
AM_9
100
AcDbLine
 10
-0.2099962668917055
 20
-1.927921457656344
 30
0.0
 11
-0.2389369657326278
 21
-1.934669092407283
 31
0.0
  0
LINE
  5
A5
330
8E
100
AcDbEntity
  8
AM_9
100
AcDbLine
 10
-0.2389369657326278
 20
-1.934669092407283
 30
0.0
 11
-0.2711532636537958
 21
-1.939118123437406
 31
0.0
  0
LWPOLYLINE
  5
A6
330
8E
100
AcDbEntity
  8
AM_9
100
AcDbPolyline
 90
        3
 70
     0
 43
0.0
 10
-0.2813919000363601
 20
-1.940253048956784
 10
-0.2911775952746244
 20
-1.94105559349426
 10
-0.2987675689889719
 20
-1.941350066725467
  0
LWPOLYLINE
  5
A7
330
8E
100
AcDbEntity
  8
AM_9
100
AcDbPolyline
 90
        5
 70
     0
 43
0.0
 10
-0.2389369657326278
 20
-2.215919092407284
 10
-0.2295338871417798
 20
-2.21549806213629
 10
-0.2166871171046322
 20
-2.214302555641742
 10
-0.199640205705468
 20
-2.212176787031713
 10
-0.1791093260592889
 20
-2.209238809059826
  0
LINE
  5
A8
330
8E
100
AcDbEntity
  8
AM_9
100
AcDbLine
 10
-0.1510741298357572
 20
-2.20270229571137
 30
0.0
 11
-0.1791093260592889
 21
-2.209238809059826
 31
0.0
  0
LINE
  5
A9
330
8E
100
AcDbEntity
  8
AM_9
100
AcDbLine
 10
-0.452415808934145
 20
-2.228754016496842
 30
0.0
 11
-0.377466453400095
 21
-2.247280662014441
 31
0.0
  0
LINE
  5
AA
330
8E
100
AcDbEntity
  8
AM_9
100
AcDbLine
 10
-0.4395859245204076
 20
-1.980849390582632
 30
0.0
 11
-0.4986131040655764
 21
-2.030613178260487
 31
0.0
  0
LWPOLYLINE
  5
AB
330
8E
100
AcDbEntity
  8
AM_9
100
AcDbPolyline
 90
        3
 70
     0
 43
0.0
 10
-0.2689146070947224
 20
-1.934389734350518
 10
-0.2512755937295761
 20
-1.931738843014547
 10
-0.2360765106845276
 20
-1.929687592413266
  0
LWPOLYLINE
  5
AC
330
8E
100
AcDbEntity
  8
AM_9
100
AcDbPolyline
 90
        9
 70
     0
 43
0.0
 10
-0.378985423169757
 20
-1.984663965546654
 10
-0.3829450505521062
 20
-1.981522838496616
 10
-0.3919423164394839
 20
-1.97597316175377
 10
-0.4008921971637682
 20
-1.972498422358144
 10
-0.4098903233300887
 20
-1.970944115570994
 10
-0.4188482357716998
 20
-1.971314614049746
 10
-0.4280959123550469
 20
-1.973861382144314
 10
-0.4362050105567374
 20
-1.978261445992188
 10
-0.4398248179719181
 20
-1.981052188821963
  0
LWPOLYLINE
  5
AD
330
8E
100
AcDbEntity
  8
AM_9
100
AcDbPolyline
 90
        9
 70
     0
 43
0.0
 10
-0.3788372535770732
 20
-2.246919432968525
 10
-0.3765461428578082
 20
-2.247498091771872
 10
-0.3675421644131285
 20
-2.248568986149566
 10
-0.3586291094094006
 20
-2.247706288186337
 10
-0.3496340677830174
 20
-2.244695138882769
 10
-0.3418107832018417
 20
-2.239929202700172
 10
-0.335136698110314
 20
-2.233699572845873
 10
-0.3294388118818036
 20
-2.226001290749505
 10
-0.3249086085003222
 20
-2.217303370155867
  0
LWPOLYLINE
  5
AE
330
8E
100
AcDbEntity
  8
AM_9
100
AcDbPolyline
 90
        3
 70
     0
 43
0.0
 10
-0.0000000000000002
 20
-1.728278700151693
 10
0.0544416102741494
 20
-1.758826042662265
 10
0.1093749999999998
 20
-1.7875
  0
LWPOLYLINE
  5
AF
330
8E
100
AcDbEntity
  8
AM_9
100
AcDbPolyline
 90
        3
 70
     0
 43
0.0
 10
-0.1093750000000001
 20
-1.7875
 10
-0.0546875000000002
 20
-1.758959559607483
 10
-0.0000000000000002
 20
-1.728278700151693
  0
LWPOLYLINE
  5
B0
330
8E
100
AcDbEntity
  8
AM_9
100
AcDbPolyline
 90
        6
 70
     0
 43
0.0
 10
-0.1510741298357572
 20
-2.20270229571137
 10
-0.1564222384464444
 20
-2.202646258798399
 10
-0.1639940363880806
 20
-2.203085121917566
 10
-0.1744063212866124
 20
-2.204146289109958
 10
-0.1876759562813859
 20
-2.205863121169831
 10
-0.2099962668917055
 20
-2.209171457656343
  0
LINE
  5
B1
330
8E
100
AcDbEntity
  8
AM_9
100
AcDbLine
 10
-0.1423545805581757
 20
-2.116203832086743
 30
0.0
 11
-0.1419585098156051
 21
-2.130269408754154
 31
0.0
  0
LWPOLYLINE
  5
B2
330
8E
100
AcDbEntity
  8
AM_9
100
AcDbPolyline
 90
        4
 70
     0
 43
0.0
 10
-0.1510741298357572
 20
-2.06207729571137
 10
-0.1458778226760522
 20
-2.086010622598914
 10
-0.1427138007556464
 20
-2.110867212109331
 10
-0.1423545805581757
 20
-2.116203832086743
  0
LINE
  5
B3
330
8E
100
AcDbEntity
  8
AM_9
100
AcDbLine
 10
-0.1797032714087015
 20
-1.975560295382857
 30
0.0
 11
-0.1765789831125445
 21
-1.981705855542361
 31
0.0
  0
LINE
  5
B4
330
8E
100
AcDbEntity
  8
AM_9
100
AcDbLine
 10
-0.1820873930278513
 20
-1.971100615863807
 30
0.0
 11
-0.1797032714087015
 21
-1.975560295382857
 31
0.0
  0
LWPOLYLINE
  5
B5
330
8E
100
AcDbEntity
  8
AM_9
100
AcDbPolyline
 90
        3
 70
     0
 43
0.0
 10
-0.2099962668917055
 20
-1.927921457656344
 10
-0.194357301502906
 20
-1.950492854288234
 10
-0.1820873930278513
 20
-1.971100615863807
  0
LWPOLYLINE
  5
B6
330
8E
100
AcDbEntity
  8
AM_9
100
AcDbPolyline
 90
        3
 70
     0
 43
0.0
 10
-0.2258378743019628
 20
-1.928552666893888
 10
-0.2189176876709016
 20
-1.928010369847584
 10
-0.2099962668917055
 20
-1.927921457656344
  0
LWPOLYLINE
  5
B7
330
8E
100
AcDbEntity
  8
AM_9
100
AcDbPolyline
 90
        3
 70
     0
 43
0.0
 10
-0.1423945114578713
 20
-2.145217843594223
 10
-0.1441228263802216
 20
-2.164095324422914
 10
-0.1510741298357572
 20
-2.20270229571137
  0
LWPOLYLINE
  5
B8
330
8E
100
AcDbEntity
  8
AM_9
100
AcDbPolyline
 90
        3
 70
     0
 43
0.0
 10
-0.1419585098156051
 20
-2.130269408754154
 10
-0.1420496512545708
 20
-2.137066312422038
 10
-0.1421852677343159
 20
-2.141018632047162
  0
LINE
  5
B9
330
8E
100
AcDbEntity
  8
AM_9
100
AcDbLine
 10
-0.1595515871084753
 20
-2.025351290450284
 30
0.0
 11
-0.1510741298357572
 21
-2.06207729571137
 31
0.0
  0
LWPOLYLINE
  5
BA
330
8E
100
AcDbEntity
  8
AM_9
100
AcDbPolyline
 90
        3
 70
     0
 43
0.0
 10
-0.1765789831125445
 20
-1.981705855542361
 10
-0.1688997677199811
 20
-1.998710167846305
 10
-0.1677071084470749
 20
-2.001664377752726
  0
ELLIPSE
  5
BB
330
8E
100
AcDbEntity
  8
AM_9
100
AcDbEllipse
 10
-0.2013892028241865
 20
-2.06577024483734
 30
0.0
 11
-0.03193085011438221
 21
0.1369518580960916
 31
0.0
210
0.0
220
0.0
230
1.0
 40
0.3659981507706609
 41
2.150416404658175
 42
6.13994693963692
  0
LWPOLYLINE
  5
BC
330
8E
100
AcDbEntity
  8
AM_9
100
AcDbPolyline
 90
        3
 70
     0
 43
0.0
 10
-0.3055458577949632
 20
-2.030352494962034
 10
-0.303075367049781
 20
-2.056422855181632
 10
-0.2987675689889719
 20
-2.081975066725466
  0
LWPOLYLINE
  5
BD
330
8E
100
AcDbEntity
  8
AM_9
100
AcDbPolyline
 90
        3
 70
     0
 43
0.0
 10
-0.260230468443121
 20
-1.985567949924796
 10
-0.2616913382589205
 20
-1.9709112730526
 10
-0.2689146070947224
 20
-1.934389734350518
  0
LINE
  5
BE
330
8E
100
AcDbEntity
  8
AM_9
100
AcDbLine
 10
-0.2689146070947224
 20
-1.934389734350518
 30
0.0
 11
-0.2987675689889719
 21
-1.941350066725467
 31
0.0
  0
LWPOLYLINE
  5
BF
330
8E
100
AcDbEntity
  8
AM_9
100
AcDbPolyline
 90
        3
 70
     0
 43
0.0
 10
-0.2987675689889719
 20
-1.941350066725467
 10
-0.3030606061861225
 20
-1.968794122408012
 10
-0.3055458577949632
 20
-1.996133406468319
  0
LINE
  5
C0
330
8E
100
AcDbEntity
  8
AM_9
100
AcDbLine
 10
-0.2711532636537958
 20
-1.939118123437406
 30
0.0
 11
-0.2813919000363601
 21
-1.940253048956784
 31
0.0
  0
ELLIPSE
  5
C1
330
8E
100
AcDbEntity
  8
AM_9
100
AcDbEllipse
 10
-0.2467045921760208
 20
-2.076335701380858
 30
0.0
 11
-0.03193085011438276
 21
0.1369518580960944
 31
0.0
210
0.0
220
0.0
230
1.0
 40
0.3659981507706682
 41
2.20207272704666
 42
6.139946939636897
  0
ELLIPSE
  5
C2
330
8E
100
AcDbEntity
  8
AM_9
100
AcDbEllipse
 10
-0.246704592176019
 20
-2.076335701380857
 30
0.0
 11
-0.03193085011438317
 21
0.136951858096098
 31
0.0
210
0.0
220
0.0
230
1.0
 40
0.3659981507706715
 41
1.174235257216866
 42
1.951156734850502
  0
LINE
  5
C3
330
8E
100
AcDbEntity
  8
AM_9
100
AcDbLine
 10
-0.3055458577949632
 20
-1.996133406468319
 30
0.0
 11
-0.3055458577949632
 21
-2.030352494962034
 31
0.0
  0
ELLIPSE
  5
C4
330
8E
100
AcDbEntity
  8
AM_9
100
AcDbEllipse
 10
-0.2467045921760254
 20
-2.07633570138085
 30
0.0
 11
-0.03193085011438106
 21
0.1369518580960812
 31
0.0
210
0.0
220
0.0
230
1.0
 40
0.3659981507706682
 41
0.056021302264929
 42
0.8626327579757719
  0
LWPOLYLINE
  5
C5
330
8E
100
AcDbEntity
  8
AM_9
100
AcDbPolyline
 90
       14
 70
     0
 43
0.0
 10
-0.3250175698193689
 20
-2.217551664085343
 10
-0.3248196754919847
 20
-2.217137801915772
 10
-0.323656250152312
 20
-2.215122576129247
 10
-0.3208014472006094
 20
-2.211251892030877
 10
-0.3158843250324614
 20
-2.20617592652459
 10
-0.3085812731117095
 20
-2.200632363802578
 10
-0.2989284282060868
 20
-2.195603383976373
 10
-0.287671315362529
 20
-2.192130849178436
 10
-0.2761438170347166
 20
-2.190799898093236
 10
-0.2657267577544861
 20
-2.191453690309479
 10
-0.2573516374841548
 20
-2.193379660880543
 10
-0.2513780108828055
 20
-2.195702078905405
 10
-0.247686007200391
 20
-2.197699189525196
 10
-0.2459544612555858
 20
-2.19888781730893
  0
LWPOLYLINE
  5
C6
330
8E
100
AcDbEntity
  8
AM_9
100
AcDbPolyline
 90
        3
 70
     0
 43
0.0
 10
-0.2457249882508971
 20
-2.199071960916105
 10
-0.2458802813228145
 20
-2.198931402568586
 10
-0.2469387920598662
 20
-2.197866061199039
  0
LWPOLYLINE
  5
C7
330
8E
100
AcDbEntity
  8
AM_9
100
AcDbPolyline
 90
        3
 70
     0
 43
0.0
 10
-0.3007464205168767
 20
-1.967716926632274
 10
-0.3001862927676456
 20
-1.966019972669118
 10
-0.3001080482840257
 20
-1.965822263717043
  0
LWPOLYLINE
  5
C8
330
8E
100
AcDbEntity
  8
AM_9
100
AcDbPolyline
 90
       14
 70
     0
 43
0.0
 10
-0.300226391477637
 20
-1.966076515172509
 10
-0.3013941841662011
 20
-1.968135669119169
 10
-0.3041844257208345
 20
-1.971957717934492
 10
-0.3090165869243262
 20
-1.97700027654887
 10
-0.316226360044706
 20
-1.982542505848933
 10
-0.3257986817072702
 20
-1.987611002961705
 10
-0.3370173671276648
 20
-1.991157664434411
 10
-0.3485603782957422
 20
-1.992571464847254
 10
-0.3590405481728381
 20
-1.991982276351533
 10
-0.3675032274026799
 20
-1.990088445339292
 10
-0.3735680955720443
 20
-1.987766303602099
 10
-0.3773411395201103
 20
-1.985746732286599
 10
-0.3791411039728737
 20
-1.984520702586416
 10
-0.3793971064466095
 20
-1.984316620287827
  0
LINE
  5
C9
330
8E
100
AcDbEntity
  8
AM_9
100
AcDbLine
 10
-0.177120771554662
 20
-1.947161692407327
 30
0.0
 11
-0.2263662233581054
 21
-1.958643458059951
 31
0.0
  0
LINE
  5
CA
330
8E
100
AcDbEntity
  8
AM_9
100
AcDbLine
 10
-0.1764121822902711
 20
-2.17289703161473
 30
0.0
 11
-0.1343592486638228
 21
-2.163092229115782
 31
0.0
  0
LWPOLYLINE
  5
CB
330
8E
100
AcDbEntity
  8
AM_9
100
AcDbPolyline
 90
       20
 70
     0
 43
0.0
 10
-0.1343659249938089
 20
-2.16309378540361
 10
-0.1293028157827818
 20
-2.160490967168628
 10
-0.1247141396218194
 20
-2.154917196040507
 10
-0.1208880884981783
 20
-2.146297239076489
 10
-0.118154598914599
 20
-2.135380991490922
 10
-0.1164278875396129
 20
-2.121836212655024
 10
-0.1158549073091556
 20
-2.106830271317741
 10
-0.1164156227038169
 20
-2.089908286749774
 10
-0.1180609686233503
 20
-2.072504703027538
 10
-0.1208367673933813
 20
-2.054107393511457
 10
-0.1245107513506024
 20
-2.036247455120003
 10
-0.1291842652280564
 20
-2.018422481606625
 10
-0.1344729790611521
 20
-2.0020960564441
 10
-0.1405186270901961
 20
-1.986828872764631
 10
-0.1468270783017122
 20
-1.973870478489193
 10
-0.1535654953592166
 20
-1.962881372029879
 10
-0.1601799433259585
 20
-1.954768942862664
 10
-0.1668493358980663
 20
-1.949320477436415
 10
-0.1731116383367607
 20
-1.946980939756072
 10
-0.1746804060938508
 20
-1.946878354671149
  0
LINE
  5
CC
330
8E
100
AcDbEntity
  8
AM_9
100
AcDbLine
 10
-0.1771125901748265
 20
-1.947159785344162
 30
0.0
 11
-0.1790373738502116
 21
-1.947804054033761
 31
0.0
  0
LWPOLYLINE
  5
CD
330
8E
100
AcDbEntity
  8
AM_9
100
AcDbPolyline
 90
        3
 70
     0
 43
0.0
 10
-0.2689146070947224
 20
-2.075014734350518
 10
-0.263430848399753
 20
-2.047390958955647
 10
-0.2602304684431307
 20
-2.019787038418516
  0
LWPOLYLINE
  5
CE
330
8E
100
AcDbEntity
  8
AM_9
100
AcDbPolyline
 90
        5
 70
     0
 43
0.0
 10
-0.179037373850178
 20
-2.102195945966246
 10
-0.1733931390117469
 20
-2.117709976006311
 10
-0.1670729780242513
 20
-2.13185797563067
 10
-0.1606047421316797
 20
-2.143455943415793
 10
-0.1546046988024258
 20
-2.151875390726806
  0
ARC
  5
CF
330
8E
100
AcDbEntity
  8
AM_9
100
AcDbCircle
 10
-0.0000000000000002
 20
-2.025
 30
0.0
 40
0.1999999999999998
100
AcDbArc
 50
219.3375453701153
 51
0.0
  0
LWPOLYLINE
  5
D0
330
8E
100
AcDbEntity
  8
AM_9
100
AcDbPolyline
 90
        6
 70
     0
 43
0.0
 10
-0.1546046988024258
 20
-2.151875390726806
 10
-0.1538031670974778
 20
-2.152834802540261
 10
-0.1472336073736394
 20
-2.159212011960484
 10
-0.1407130262602578
 20
-2.162761709638181
 10
-0.1347930597680669
 20
-2.163184256104104
 10
-0.1343659249938089
 20
-2.16309378540361
  0
LINE
  5
D1
330
8E
100
AcDbEntity
  8
AM_9
100
AcDbLine
 10
-0.2360765106845276
 20
-1.929687592413266
 30
0.0
 11
-0.2258378743019628
 21
-1.928552666893888
 31
0.0
  0
ELLIPSE
  5
D2
330
8E
100
AcDbEntity
  8
AM_9
100
AcDbEllipse
 10
-0.2013892028241877
 20
-2.065770244837346
 30
0.0
 11
-0.03193085011438319
 21
0.1369518580961
 31
0.0
210
0.0
220
0.0
230
1.0
 40
0.3659981507705654
 41
0.0560213022650222
 42
0.8626327579757221
  0
LINE
  5
D3
330
8E
100
AcDbEntity
  8
AM_9
100
AcDbLine
 10
-0.2602304684431307
 20
-2.019787038418516
 30
0.0
 11
-0.260230468443121
 21
-1.985567949924796
 31
0.0
  0
ELLIPSE
  5
D4
330
8E
100
AcDbEntity
  8
AM_9
100
AcDbEllipse
 10
-0.2013892028241858
 20
-2.065770244837341
 30
0.0
 11
-0.03193085011438399
 21
0.1369518580960993
 31
0.0
210
0.0
220
0.0
230
1.0
 40
0.3659981507706708
 41
1.144545279139749
 42
1.951156734850477
  0
LWPOLYLINE
  5
D5
330
8E
100
AcDbEntity
  8
AM_9
100
AcDbPolyline
 90
        3
 70
     0
 43
0.0
 10
-0.2099962668917055
 20
-2.209171457656343
 10
-0.2163479371246914
 20
-2.179839189975666
 10
-0.2258378743019631
 20
-2.15055747759944
  0
LINE
  5
D6
330
8E
100
AcDbEntity
  8
AM_9
100
AcDbLine
 10
-0.2258378743019631
 20
-2.15055747759944
 30
0.0
 11
-0.2360765106845279
 21
-2.127465725501071
 31
0.0
  0
LWPOLYLINE
  5
D7
330
8E
100
AcDbEntity
  8
AM_9
100
AcDbPolyline
 90
        3
 70
     0
 43
0.0
 10
-0.2360765106845279
 20
-2.127465725501071
 10
-0.2462091938631852
 20
-2.108921611213502
 10
-0.2689146070947224
 20
-2.075014734350518
  0
LINE
  5
D8
330
8E
100
AcDbEntity
  8
AM_9
100
AcDbLine
 10
-0.2689146070947224
 20
-2.075014734350518
 30
0.0
 11
-0.2987675689889719
 21
-2.081975066725466
 31
0.0
  0
LWPOLYLINE
  5
D9
330
8E
100
AcDbEntity
  8
AM_9
100
AcDbPolyline
 90
        3
 70
     0
 43
0.0
 10
-0.2987675689889719
 20
-2.081975066725466
 10
-0.2912216284034026
 20
-2.110076183495197
 10
-0.2813919000363601
 20
-2.138031182044589
  0
LINE
  5
DA
330
8E
100
AcDbEntity
  8
AM_9
100
AcDbLine
 10
-0.2813919000363601
 20
-2.138031182044589
 30
0.0
 11
-0.2711532636537958
 21
-2.161122934142958
 31
0.0
  0
LWPOLYLINE
  5
DB
330
8E
100
AcDbEntity
  8
AM_9
100
AcDbPolyline
 90
        3
 70
     0
 43
0.0
 10
-0.2711532636537958
 20
-2.161122934142958
 10
-0.2561815527589922
 20
-2.188827936735335
 10
-0.2389369657326278
 20
-2.215919092407284
  0
LINE
  5
DC
330
8E
100
AcDbEntity
  8
AM_9
100
AcDbLine
 10
-0.2099962668917055
 20
-2.209171457656343
 30
0.0
 11
-0.2389369657326278
 21
-2.215919092407284
 31
0.0
  0
LWPOLYLINE
  5
DD
330
8E
100
AcDbEntity
  8
AM_9
100
AcDbPolyline
 90
        3
 70
     0
 43
0.0
 10
0.1093749999999998
 20
-1.7375
 10
0.0546874999999998
 20
-1.711352940392517
 10
-0.0000000000000002
 20
-1.687346299848307
  0
LWPOLYLINE
  5
DE
330
8E
100
AcDbEntity
  8
AM_9
100
AcDbPolyline
 90
        3
 70
     0
 43
0.0
 10
-0.0000000000000002
 20
-1.687346299848307
 10
-0.0544416102741498
 20
-1.711240567611885
 10
-0.1093750000000002
 20
-1.7375
  0
LWPOLYLINE
  5
DF
330
8E
100
AcDbEntity
  8
AM_9
100
AcDbPolyline
 90
        3
 70
     0
 43
0.0
 10
0.1093749999999998
 20
-1.7875
 10
0.1640624999999998
 20
-1.813647059607483
 10
0.2187499999999998
 20
-1.837653700151693
  0
LWPOLYLINE
  5
E0
330
8E
100
AcDbEntity
  8
AM_9
100
AcDbPolyline
 90
        3
 70
     0
 43
0.0
 10
-0.2187500000000002
 20
-1.837653700151693
 10
-0.1643083897258506
 20
-1.813759432388115
 10
-0.1093750000000001
 20
-1.7875
  0
LINE
  5
E1
330
8E
100
AcDbEntity
  8
AM_9
100
AcDbLine
 10
-0.0000000000000002
 20
-1.728278700151693
 30
0.0
 11
-0.0000000000000002
 21
-1.687346299848307
 31
0.0
  0
LWPOLYLINE
  5
E2
330
8E
100
AcDbEntity
  8
AM_9
100
AcDbPolyline
 90
        3
 70
     0
 43
0.0
 10
0.2187499999999998
 20
-1.796721299848307
 10
0.1643083897258502
 20
-1.766173957337735
 10
0.1093749999999998
 20
-1.7375
  0
LWPOLYLINE
  5
E3
330
8E
100
AcDbEntity
  8
AM_9
100
AcDbPolyline
 90
        3
 70
     0
 43
0.0
 10
-0.1093750000000002
 20
-1.7375
 10
-0.1640625000000002
 20
-1.766040440392517
 10
-0.2187500000000002
 20
-1.796721299848307
  0
ELLIPSE
  5
E4
330
8E
100
AcDbEntity
  8
AM_9
100
AcDbEllipse
 10
-0.0000000000000002
 20
-2.025
 30
0.0
 11
-0.2
 21
2.449293598294707E-17
 31
0.0
210
0.0
220
0.0
230
1.0
 40
0.8660254037844384
 41
0.4619460205669661
 42
5.82123928661262
  0
LWPOLYLINE
  5
E5
330
8E
100
AcDbEntity
  8
AM_9
100
AcDbPolyline
 90
        7
 70
     0
 43
0.0
 10
-0.1790373738501786
 20
-2.102195945966246
 10
-0.1842628795203942
 20
-2.086201216295605
 10
-0.1891729979031394
 20
-2.070144458256412
 10
-0.1936098952159725
 20
-2.053377825105295
 10
-0.1971856748420373
 20
-2.035929808725254
 10
-0.1994144431868156
 20
-2.018457633207593
 10
-0.199999999969953
 20
-2.00475755900097
  0
LINE
  5
E6
330
8E
100
AcDbEntity
  8
AM_9
100
AcDbLine
 10
-0.2000000000000002
 20
-1.9515625
 30
0.0
 11
-0.2000000000000002
 21
-2.004846885409147
 31
0.0
  0
LINE
  5
E7
330
8E
100
AcDbEntity
  8
AM_9
100
AcDbLine
 10
0.1999999999999997
 20
-2.025
 30
0.0
 11
0.1999999999999998
 21
-1.9515625
 31
0.0
  0
LWPOLYLINE
  5
E8
330
8E
100
AcDbEntity
  8
AM_9
100
AcDbPolyline
 90
        8
 70
     0
 43
0.0
 10
-0.199999999969953
 20
-2.00475755900097
 10
-0.1999786710855129
 20
-2.002247492794571
 10
-0.1988321115509054
 20
-1.986977046299115
 10
-0.196164942998426
 20
-1.974047828583382
 10
-0.1920694300574959
 20
-1.962995849846331
 10
-0.1870948030566197
 20
-1.954726804053058
 10
-0.1815005947613932
 20
-1.949203487144151
 10
-0.1790373738501785
 20
-1.947804054033754
  0
LWPOLYLINE
  5
E9
330
8E
100
AcDbEntity
  8
AM_9
100
AcDbPolyline
 90
        3
 70
     0
 43
0.0
 10
0.1093749999999998
 20
-2.115625
 10
0.0546874999999998
 20
-2.141772059607483
 10
-0.0000000000000002
 20
-2.165778700151693
  0
LWPOLYLINE
  5
EA
330
8E
100
AcDbEntity
  8
AM_9
100
AcDbPolyline
 90
        3
 70
     0
 43
0.0
 10
0.2187499999999998
 20
-2.056403700151693
 10
0.1643083897258502
 20
-2.086951042662265
 10
0.1093749999999998
 20
-2.115625
  0
LINE
  5
EB
330
8E
100
AcDbEntity
  8
AM_9
100
AcDbLine
 10
0.2187499999999998
 20
-2.056403700151693
 30
0.0
 11
0.2187499999999998
 21
-1.796721299848307
 31
0.0
  0
LWPOLYLINE
  5
EC
330
8E
100
AcDbEntity
  8
AM_9
100
AcDbPolyline
 90
        3
 70
     0
 43
0.0
 10
0.1093749999999998
 20
-2.065625
 10
0.1640624999999998
 20
-2.039477940392517
 10
0.2187499999999998
 20
-2.015471299848307
  0
LWPOLYLINE
  5
ED
330
8E
100
AcDbEntity
  8
AM_9
100
AcDbPolyline
 90
        3
 70
     0
 43
0.0
 10
-0.0000000000000002
 20
-2.124846299848307
 10
0.0544416102741494
 20
-2.094298957337735
 10
0.1093749999999998
 20
-2.065625
  0
LINE
  5
EE
330
8E
100
AcDbEntity
  8
AM_9
100
AcDbLine
 10
-0.2187500000000002
 20
-2.056403700151693
 30
0.0
 11
-0.2187500000000002
 21
-1.796721299848307
 31
0.0
  0
LWPOLYLINE
  5
EF
330
8E
100
AcDbEntity
  8
AM_9
100
AcDbPolyline
 90
        3
 70
     0
 43
0.0
 10
-0.1093750000000001
 20
-2.115625
 10
-0.1640625000000002
 20
-2.087084559607483
 10
-0.2187500000000002
 20
-2.056403700151693
  0
LWPOLYLINE
  5
F0
330
8E
100
AcDbEntity
  8
AM_9
100
AcDbPolyline
 90
        3
 70
     0
 43
0.0
 10
-0.0000000000000002
 20
-2.165778700151693
 10
-0.0544416102741498
 20
-2.141884432388115
 10
-0.1093750000000001
 20
-2.115625
  0
LINE
  5
F1
330
8E
100
AcDbEntity
  8
AM_9
100
AcDbLine
 10
-0.0000000000000002
 20
-2.165778700151693
 30
0.0
 11
-0.0000000000000002
 21
-2.124846299848307
 31
0.0
  0
LWPOLYLINE
  5
F2
330
8E
100
AcDbEntity
  8
AM_9
100
AcDbPolyline
 90
        3
 70
     0
 43
0.0
 10
-0.1093750000000002
 20
-2.065625
 10
-0.0546875000000002
 20
-2.094165440392517
 10
-0.0000000000000002
 20
-2.124846299848307
  0
LWPOLYLINE
  5
F3
330
8E
100
AcDbEntity
  8
AM_9
100
AcDbPolyline
 90
        3
 70
     0
 43
0.0
 10
-0.2187500000000002
 20
-2.015471299848307
 10
-0.1643083897258506
 20
-2.039365567611885
 10
-0.1093750000000002
 20
-2.065625
  0
LINE
  5
F4
330
8E
100
AcDbEntity
  8
AM_9
100
AcDbLine
 10
-0.2000000000000001
 20
-1.8625
 30
0.0
 11
-0.2000000000000001
 21
-1.9015625
 31
0.0
  0
LINE
  5
F5
330
8E
100
AcDbEntity
  8
AM_9
100
AcDbLine
 10
0.1999999999999997
 20
-1.9015625
 30
0.0
 11
0.1999999999999997
 21
-1.8625
 31
0.0
  0
LINE
  5
F6
330
8E
100
AcDbEntity
  8
AM_9
100
AcDbLine
 10
-0.1851454569549803
 20
-1.756309912570727
 30
0.0
 11
-0.1912304659644925
 21
-1.853522462287446
 31
0.0
  0
LINE
  5
F7
330
8E
100
AcDbEntity
  8
AM_9
100
AcDbLine
 10
0.1912304659644921
 20
-1.853522462287446
 30
0.0
 11
0.1851454569549799
 21
-1.756309912570727
 31
0.0
  0
ELLIPSE
  5
F8
330
8E
100
AcDbEntity
  8
AM_9
100
AcDbEllipse
 10
-0.0000000000000002
 20
-1.753125
 30
0.0
 11
0.1616637258772237
 21
0.0
 31
0.0
210
0.0
220
0.0
230
1.0
 40
0.8660254037844384
 41
0.0
 42
6.283185307179586
  0
ELLIPSE
  5
F9
330
8E
100
AcDbEntity
  8
AM_9
100
AcDbEllipse
 10
-0.4687499999999987
 20
-2.128106438444097
 30
0.0
 11
-0.02349716402074479
 21
0.100779661709673
 31
0.0
210
0.0
220
0.0
230
1.0
 40
0.3659981507706652
 41
0.0
 42
6.283185307179586
  0
ELLIPSE
  5
FA
330
8E
100
AcDbEntity
  8
AM_9
100
AcDbEllipse
 10
-0.372996256974665
 20
-2.105781086609233
 30
0.0
 11
-0.03024351534849265
 21
0.1297148559307603
 31
0.0
210
0.0
220
0.0
230
1.0
 40
0.3659981507706651
 41
0.0
 42
6.283185307179586
  0
ELLIPSE
  5
FB
330
8E
100
AcDbEntity
  8
AM_9
100
AcDbEllipse
 10
-0.2013892028241882
 20
-2.065770244837341
 30
0.0
 11
-0.02497702053391707
 21
0.1071267867773893
 31
0.0
210
0.0
220
0.0
230
1.0
 40
0.3659981507706686
 41
0.0
 42
6.283185307179586
  0
ELLIPSE
  5
FC
330
8E
100
AcDbEntity
  8
AM_9
100
AcDbEllipse
 10
0.0000000000000001
 20
-1.951562499999999
 30
0.0
 11
-0.2000000000000004
 21
2.449293598294711E-17
 31
0.0
210
0.0
220
0.0
230
1.0
 40
0.8660254037844389
 41
0.0
 42
6.283185307179586
  0
ELLIPSE
  5
FD
330
8E
100
AcDbEntity
  8
AM_9
100
AcDbEllipse
 10
-0.0000000000000002
 20
-1.951562499999999
 30
0.0
 11
-0.218750000000001
 21
3.259629037943339E-9
 31
0.0
210
0.0
220
0.0
230
1.0
 40
0.8660254037844398
 41
0.0
 42
6.283185307179586
  0
ELLIPSE
  5
FE
330
8E
100
AcDbEntity
  8
AM_9
100
AcDbEllipse
 10
-0.0000000000000002
 20
-1.901562500000001
 30
0.0
 11
-0.21875
 21
2.678914873134835E-17
 31
0.0
210
0.0
220
0.0
230
1.0
 40
0.8660254037844328
 41
0.0
 42
6.283185307179586
  0
ELLIPSE
  5
FF
330
8E
100
AcDbEntity
  8
AM_9
100
AcDbEllipse
 10
-0.0000000000000003
 20
-1.9015625
 30
0.0
 11
-0.1999999999999998
 21
2.449293598294704E-17
 31
0.0
210
0.0
220
0.0
230
1.0
 40
0.8660254037844368
 41
0.0
 42
6.283185307179586
  0
ELLIPSE
  5
100
330
8E
100
AcDbEntity
  8
AM_9
100
AcDbEllipse
 10
-0.0000000000000002
 20
-1.8625
 30
0.0
 11
-0.1999999999999998
 21
2.449293598294704E-17
 31
0.0
210
0.0
220
0.0
230
1.0
 40
0.8660254037844382
 41
0.0
 42
6.283185307179586
  0
ELLIPSE
  5
101
330
8E
100
AcDbEntity
  8
AM_9
100
AcDbEllipse
 10
-0.0000000000000001
 20
-1.8625
 30
0.0
 11
-0.1915112338502297
 21
2.345336195354441E-17
 31
0.0
210
0.0
220
0.0
230
1.0
 40
0.8660254037844385
 41
0.0
 42
6.283185307179586
  0
ELLIPSE
  5
102
330
8E
100
AcDbEntity
  8
AM_9
100
AcDbEllipse
 10
-0.0000000000000002
 20
-1.765001782423881
 30
0.0
 11
-0.1854172907249858
 21
2.270706915929280E-17
 31
0.0
210
0.0
220
0.0
230
1.0
 40
0.8660254037844293
 41
0.0
 42
6.283185307179586
  0
ENDBLK
  5
91
330
8E
100
AcDbEntity
  8
0
100
AcDbBlockEnd
  0
BLOCK
  5
105
330
103
100
AcDbEntity
  8
0
100
AcDbBlockBegin
  2
3_129527I_0_in_136151_2
 70
     2
 10
0.0
 20
0.0
 30
0.0
  3
3_129527I_0_in_136151_2
  1

  0
ATTDEF
  5
107
330
103
100
AcDbEntity
  8
AM_6
100
AcDbText
 10
5.774
 20
2.558475058037382
 30
0.0
 40
0.5
  1
INS-GT B
100
AcDbAttributeDefinition
  3

  2
NN
 70
     8
280
     0
  0
ATTDEF
  5
108
330
103
100
AcDbEntity
  8
AM_6
100
AcDbText
 10
5.774
 20
2.058475058037382
 30
0.0
 40
0.5
  1
GT Normal Duty Bearing Inserts
100
AcDbAttributeDefinition
  3

  2
NT
 70
     8
280
     0
  0
ATTDEF
  5
109
330
103
100
AcDbEntity
  8
AM_6
100
AcDbText
 10
5.774
 20
1.558475058037382
 30
0.0
 40
0.5
  1
129527I
100
AcDbAttributeDefinition
  3

  2
NB
 70
     8
280
     0
  0
ATTDEF
  5
10A
330
103
100
AcDbEntity
  8
AM_6
100
AcDbText
 10
5.774
 20
1.058475058037382
 30
0.0
 40
0.5
  1
$PN.I
100
AcDbAttributeDefinition
  3

  2
NBSYN
 70
     8
280
     0
  0
ATTDEF
  5
10B
330
103
100
AcDbEntity
  8
AM_6
100
AcDbText
 10
5.774
 20
0.5584750580373816
 30
0.0
 40
0.5
  1
129527
100
AcDbAttributeDefinition
  3

  2
LINA
 70
     8
280
     0
  0
ATTDEF
  5
10C
330
103
100
AcDbEntity
  8
AM_6
100
AcDbText
 10
5.774
 20
0.0584750580373816
 30
0.0
 40
0.5
  1
215
100
AcDbAttributeDefinition
  3

  2
SERIES
 70
     8
280
     0
  0
ATTDEF
  5
10D
330
103
100
AcDbEntity
  8
AM_6
100
AcDbText
 10
5.774
 20
-0.4415249419626184
 30
0.0
 40
0.5
  1
129527
100
AcDbAttributeDefinition
  3

  2
PN
 70
     8
280
     0
  0
ATTDEF
  5
10E
330
103
100
AcDbEntity
  8
AM_6
100
AcDbText
 10
5.774
 20
-0.9415249419626184
 30
0.0
 40
0.5
  1
INS-GT-15
100
AcDbAttributeDefinition
  3

  2
DESCRIPTION
 70
     8
280
     0
  0
ATTDEF
  5
10F
330
103
100
AcDbEntity
  8
AM_6
100
AcDbText
 10
5.774
 20
-1.441524941962618
 30
0.0
 40
0.5
  1
2.46
100
AcDbAttributeDefinition
  3

  2
A
 70
     8
280
     0
  0
ATTDEF
  5
110
330
103
100
AcDbEntity
  8
AM_6
100
AcDbText
 10
5.774
 20
-1.941524941962618
 30
0.0
 40
0.5
  1
1.14
100
AcDbAttributeDefinition
  3

  2
C
 70
     8
280
     0
  0
ATTDEF
  5
111
330
103
100
AcDbEntity
  8
AM_6
100
AcDbText
 10
5.774
 20
-2.441524941962618
 30
0.0
 40
0.5
  1
5.1181
100
AcDbAttributeDefinition
  3

  2
D
 70
     8
280
     0
  0
ATTDEF
  5
112
330
103
100
AcDbEntity
  8
AM_6
100
AcDbText
 10
5.774
 20
-2.941524941962618
 30
0.0
 40
0.5
  1
0.28
100
AcDbAttributeDefinition
  3

  2
J
 70
     8
280
     0
  0
ATTDEF
  5
113
330
103
100
AcDbEntity
  8
AM_6
100
AcDbText
 10
5.774
 20
-3.441524941962618
 30
0.0
 40
0.5
  1
4.44
100
AcDbAttributeDefinition
  3

  2
L
 70
     8
280
     0
  0
ATTDEF
  5
114
330
103
100
AcDbEntity
  8
AM_6
100
AcDbText
 10
5.774
 20
-3.941524941962618
 30
0.0
 40
0.5
  1
#10 - 32 x 1/4
100
AcDbAttributeDefinition
  3

  2
N
 70
     8
280
     0
  0
ATTDEF
  5
115
330
103
100
AcDbEntity
  8
AM_6
100
AcDbText
 10
5.774
 20
-4.441524941962618
 30
0.0
 40
0.5
  1
0.86000
100
AcDbAttributeDefinition
  3

  2
W
 70
     8
280
     0
  0
ATTDEF
  5
116
330
103
100
AcDbEntity
  8
AM_6
100
AcDbText
 10
5.774
 20
-4.941524941962618
 30
0.0
 40
0.5
  1
1.60
100
AcDbAttributeDefinition
  3

  2
X
 70
     8
280
     0
  0
ATTDEF
  5
117
330
103
100
AcDbEntity
  8
AM_6
100
AcDbText
 10
5.774
 20
-5.441524941962618
 30
0.0
 40
0.5
  1
1.60
100
AcDbAttributeDefinition
  3

  2
Y
 70
     8
280
     0
  0
ATTDEF
  5
118
330
103
100
AcDbEntity
  8
AM_6
100
AcDbText
 10
5.774
 20
-5.941524941962618
 30
0.0
 40
0.5
  1
baldor
100
AcDbAttributeDefinition
  3

  2
COMPANY
 70
     8
280
     0
  0
LINE
  5
119
330
103
100
AcDbEntity
  8
AM_9
100
AcDbLine
 10
-1.199998983997968
 20
-1.656190349333333
 30
0.0
 11
-0.5999989839979688
 21
-1.656190349333333
 31
0.0
  0
LINE
  5
11A
330
103
100
AcDbEntity
  8
AM_9
100
AcDbLine
 10
-0.5999989839979688
 20
1.656190349333333
 30
0.0
 11
-1.199998983997968
 21
1.656190349333333
 31
0.0
  0
LINE
  5
11B
330
103
100
AcDbEntity
  8
AM_9
100
AcDbLine
 10
-0.5999989839979688
 20
1.656190349333333
 30
0.0
 11
-0.5999989839979688
 21
-1.656190349333333
 31
0.0
  0
LINE
  5
11C
330
103
100
AcDbEntity
  8
AM_9
100
AcDbLine
 10
-0.5999989839979688
 20
-1.656190349333333
 30
0.0
 11
0.7739999999999999
 21
-1.704171451135422
 31
0.0
  0
LINE
  5
11D
330
103
100
AcDbEntity
  8
AM_9
100
AcDbLine
 10
0.7739999999999999
 20
1.704171451135422
 30
0.0
 11
-0.5999989839979688
 21
1.656190349333333
 31
0.0
  0
LINE
  5
11E
330
103
100
AcDbEntity
  8
AM_9
100
AcDbLine
 10
-0.9999989839979684
 20
-1.814761841333333
 30
0.0
 11
-0.7999989839979683
 21
-1.814761841333333
 31
0.0
  0
LINE
  5
11F
330
103
100
AcDbEntity
  8
AM_9
100
AcDbLine
 10
-0.7999989839979683
 20
1.814761841333333
 30
0.0
 11
-0.9999989839979684
 21
1.814761841333333
 31
0.0
  0
LINE
  5
120
330
103
100
AcDbEntity
  8
AM_9
100
AcDbLine
 10
-0.9999989839979684
 20
1.973333333333334
 30
0.0
 11
-0.9999989839979684
 21
-1.973333333333334
 31
0.0
  0
LINE
  5
121
330
103
100
AcDbEntity
  8
AM_9
100
AcDbLine
 10
-1.154398983997968
 20
-1.973333333333334
 30
0.0
 11
-0.9999989839979684
 21
-1.973333333333334
 31
0.0
  0
LINE
  5
122
330
103
100
AcDbEntity
  8
AM_9
100
AcDbLine
 10
-0.9999989839979684
 20
1.973333333333334
 30
0.0
 11
-1.154398983997968
 21
1.973333333333334
 31
0.0
  0
LINE
  5
123
330
103
100
AcDbEntity
  8
AM_9
100
AcDbLine
 10
-0.7999989839979683
 20
1.973333333333334
 30
0.0
 11
-0.7999989839979683
 21
-1.973333333333334
 31
0.0
  0
LINE
  5
124
330
103
100
AcDbEntity
  8
AM_9
100
AcDbLine
 10
-0.7999989839979683
 20
-1.973333333333334
 30
0.0
 11
-0.5699999999999998
 21
-1.973333333333334
 31
0.0
  0
LINE
  5
125
330
103
100
AcDbEntity
  8
AM_9
100
AcDbLine
 10
-0.5699999999999998
 20
1.973333333333334
 30
0.0
 11
-0.7999989839979683
 21
1.973333333333334
 31
0.0
  0
LINE
  5
126
330
103
100
AcDbEntity
  8
AM_9
100
AcDbLine
 10
-1.199998983997968
 20
1.927733333333334
 30
0.0
 11
-1.199998983997968
 21
-1.927733333333334
 31
0.0
  0
LINE
  5
127
330
103
100
AcDbEntity
  8
AM_9
100
AcDbLine
 10
-1.154398983997968
 20
1.973333333333334
 30
0.0
 11
-1.154398983997968
 21
-1.973333333333334
 31
0.0
  0
LINE
  5
128
330
103
100
AcDbEntity
  8
AM_9
100
AcDbLine
 10
-1.199998983997968
 20
-1.927733333333334
 30
0.0
 11
-1.154398983997968
 21
-1.973333333333334
 31
0.0
  0
LINE
  5
129
330
103
100
AcDbEntity
  8
AM_9
100
AcDbLine
 10
-1.154398983997968
 20
1.973333333333334
 30
0.0
 11
-1.199998983997968
 21
1.927733333333334
 31
0.0
  0
LINE
  5
12A
330
103
100
AcDbEntity
  8
AM_9
100
AcDbLine
 10
0.7739999999999999
 20
1.927733333333334
 30
0.0
 11
0.7739999999999999
 21
-1.927733333333334
 31
0.0
  0
LINE
  5
12B
330
103
100
AcDbEntity
  8
AM_9
100
AcDbLine
 10
0.7739999999999999
 20
1.927733333333334
 30
0.0
 11
0.7283999999999999
 21
1.973333333333334
 31
0.0
  0
LINE
  5
12C
330
103
100
AcDbEntity
  8
AM_9
100
AcDbLine
 10
0.7283999999999999
 20
-1.973333333333334
 30
0.0
 11
0.7739999999999999
 21
-1.927733333333334
 31
0.0
  0
LINE
  5
12D
330
103
100
AcDbEntity
  8
AM_9
100
AcDbLine
 10
0.7283999999999999
 20
1.973333333333334
 30
0.0
 11
0.7283999999999999
 21
-1.973333333333334
 31
0.0
  0
LINE
  5
12E
330
103
100
AcDbEntity
  8
AM_9
100
AcDbLine
 10
0.57
 20
-1.973333333333334
 30
0.0
 11
0.7283999999999999
 21
-1.973333333333334
 31
0.0
  0
LINE
  5
12F
330
103
100
AcDbEntity
  8
AM_9
100
AcDbLine
 10
0.7283999999999999
 20
1.973333333333334
 30
0.0
 11
0.57
 21
1.973333333333334
 31
0.0
  0
LINE
  5
130
330
103
100
AcDbEntity
  8
AM_9
100
AcDbLine
 10
-0.3360000000000001
 20
-2.44505
 30
0.0
 11
-0.224
 21
-2.44505
 31
0.0
  0
LINE
  5
131
330
103
100
AcDbEntity
  8
AM_9
100
AcDbLine
 10
-0.224
 20
2.44505
 30
0.0
 11
-0.3360000000000001
 21
2.44505
 31
0.0
  0
LINE
  5
132
330
103
100
AcDbEntity
  8
AM_9
100
AcDbLine
 10
0.57
 20
2.414304500833706
 30
0.0
 11
0.57
 21
-2.414304500833124
 31
0.0
  0
ARC
  5
133
330
103
100
AcDbEntity
  8
AM_9
100
AcDbCircle
 10
0.5244000000000009
 20
-2.414304500833706
 30
0.0
 40
0.0455999999999992
100
AcDbArc
 50
291.4124799720998
 51
0.0
  0
ARC
  5
134
330
103
100
AcDbEntity
  8
AM_9
100
AcDbCircle
 10
0.5244000000000009
 20
2.414304500833706
 30
0.0
 40
0.0455999999999991
100
AcDbArc
 50
0.0
 51
68.58752002790018
  0
LINE
  5
135
330
103
100
AcDbEntity
  8
AM_9
100
AcDbLine
 10
-0.5700000000000001
 20
2.414304501513198
 30
0.0
 11
-0.5700000000000001
 21
-2.414304501512616
 31
0.0
  0
ARC
  5
136
330
103
100
AcDbEntity
  8
AM_9
100
AcDbCircle
 10
-0.5244000000000018
 20
-2.414304500833705
 30
0.0
 40
0.0455999999999983
100
AcDbArc
 50
180.0
 51
248.5875329531176
  0
ARC
  5
137
330
103
100
AcDbEntity
  8
AM_9
100
AcDbCircle
 10
-0.5244000000000018
 20
2.414304500833705
 30
0.0
 40
0.0455999999999984
100
AcDbArc
 50
111.4124670468824
 51
180.0
  0
LINE
  5
138
330
103
100
AcDbEntity
  8
AM_9
100
AcDbLine
 10
-0.541047619047619
 20
2.456757024669695
 30
0.0
 11
-0.541047619047619
 21
-2.456757024669695
 31
0.0
  0
ARC
  5
139
330
103
100
AcDbEntity
  8
AM_9
100
AcDbCircle
 10
0.0000000000000635
 20
-1.077049999999811
 30
0.0
 40
1.482000000000199
100
AcDbArc
 50
248.5875329531163
 51
256.3358553527519
  0
ARC
  5
13A
330
103
100
AcDbEntity
  8
AM_9
100
AcDbCircle
 10
0.0000000000000633
 20
1.077049999999812
 30
0.0
 40
1.482000000000198
100
AcDbArc
 50
103.6641446472481
 51
111.4124670468837
  0
LINE
  5
13B
330
103
100
AcDbEntity
  8
AM_9
100
AcDbLine
 10
-0.350093023255814
 20
2.517105163897413
 30
0.0
 11
-0.350093023255814
 21
-2.517105163897413
 31
0.0
  0
LINE
  5
13C
330
103
100
AcDbEntity
  8
AM_9
100
AcDbLine
 10
-0.3360000000000001
 20
2.506027816482817
 30
0.0
 11
-0.3360000000000001
 21
-2.506027816480792
 31
0.0
  0
ARC
  5
13D
330
103
100
AcDbEntity
  8
AM_9
100
AcDbCircle
 10
-0.3474000000000004
 20
-2.506027816482817
 30
0.0
 40
0.0114000000000004
100
AcDbArc
 50
256.3358553527548
 51
0.0
  0
ARC
  5
13E
330
103
100
AcDbEntity
  8
AM_9
100
AcDbCircle
 10
-0.3474000000000004
 20
2.506027816482817
 30
0.0
 40
0.0114000000000003
100
AcDbArc
 50
0.0
 51
103.6641446472451
  0
LINE
  5
13F
330
103
100
AcDbEntity
  8
AM_9
100
AcDbLine
 10
-0.224
 20
2.532201401057636
 30
0.0
 11
-0.224
 21
-2.532201401055872
 31
0.0
  0
ARC
  5
140
330
103
100
AcDbEntity
  8
AM_9
100
AcDbCircle
 10
-0.212599999999999
 20
-2.532201401057635
 30
0.0
 40
0.0114000000000009
100
AcDbArc
 50
180.0
 51
261.6878031357814
  0
ARC
  5
141
330
103
100
AcDbEntity
  8
AM_9
100
AcDbCircle
 10
-0.212599999999999
 20
2.532201401057635
 30
0.0
 40
0.0114000000000009
100
AcDbArc
 50
98.3121968642186
 51
180.0
  0
LINE
  5
142
330
103
100
AcDbEntity
  8
AM_9
100
AcDbLine
 10
-0.2142480620155041
 20
2.543481644476687
 30
0.0
 11
-0.2142480620155041
 21
-2.543481644476687
 31
0.0
  0
LINE
  5
143
330
103
100
AcDbEntity
  8
AM_9
100
AcDbLine
 10
0.5410476286243809
 20
2.456757020914199
 30
0.0
 11
0.5410476286243809
 21
-2.456757020914199
 31
0.0
  0
ARC
  5
144
330
103
100
AcDbEntity
  8
AM_9
100
AcDbCircle
 10
0.0000000000000022
 20
-1.077050000000027
 30
0.0
 40
1.481999999999974
100
AcDbArc
 50
261.6878031357866
 51
291.4124674445833
  0
ARC
  5
145
330
103
100
AcDbEntity
  8
AM_9
100
AcDbCircle
 10
-0.0000000000000164
 20
1.077049999999866
 30
0.0
 40
1.482000000000131
100
AcDbArc
 50
68.5875325554183
 51
98.31219686421181
  0
ENDBLK
  5
106
330
103
100
AcDbEntity
  8
0
100
AcDbBlockEnd
  0
BLOCK
  5
148
330
146
100
AcDbEntity
  8
0
100
AcDbBlockBegin
  2
4_129923_0_in_136151_2
 70
     2
 10
0.0
 20
0.0
 30
0.0
  3
4_129923_0_in_136151_2
  1

  0
ATTDEF
  5
14A
330
146
100
AcDbEntity
  8
AM_6
100
AcDbText
 10
5.890625
 20
2.125
 30
0.0
 40
0.5
  1
Grip Tight Normal Duty Adapter and Nut Inch Bore
100
AcDbAttributeDefinition
  3

  2
NN
 70
     8
280
     0
  0
ATTDEF
  5
14B
330
146
100
AcDbEntity
  8
AM_6
100
AcDbText
 10
5.890625
 20
1.625
 30
0.0
 40
0.5
  1
GT and GTM Adapter & Lock Nut Assemblies
100
AcDbAttributeDefinition
  3

  2
NT
 70
     8
280
     0
  0
ATTDEF
  5
14C
330
146
100
AcDbEntity
  8
AM_6
100
AcDbText
 10
5.890625
 20
1.125
 30
0.0
 40
0.5
  1
129923
100
AcDbAttributeDefinition
  3

  2
NB
 70
     8
280
     0
  0
ATTDEF
  5
14D
330
146
100
AcDbEntity
  8
AM_6
100
AcDbText
 10
5.890625
 20
0.625
 30
0.0
 40
0.5
  1
$PN.
100
AcDbAttributeDefinition
  3

  2
NBSYN
 70
     8
280
     0
  0
ATTDEF
  5
14E
330
146
100
AcDbEntity
  8
AM_6
100
AcDbText
 10
5.890625
 20
0.125
 30
0.0
 40
0.5
  1
129923
100
AcDbAttributeDefinition
  3

  2
LINA
 70
     8
280
     0
  0
ATTDEF
  5
14F
330
146
100
AcDbEntity
  8
AM_6
100
AcDbText
 10
5.890625
 20
-0.375
 30
0.0
 40
0.5
  1
215
100
AcDbAttributeDefinition
  3

  2
SERIES
 70
     8
280
     0
  0
ATTDEF
  5
150
330
146
100
AcDbEntity
  8
AM_6
100
AcDbText
 10
5.890625
 20
-0.875
 30
0.0
 40
0.5
  1
2-15/16
100
AcDbAttributeDefinition
  3

  2
SS
 70
     8
280
     0
  0
ATTDEF
  5
151
330
146
100
AcDbEntity
  8
AM_6
100
AcDbText
 10
5.890625
 20
-1.375
 30
0.0
 40
0.5
  1
129923
100
AcDbAttributeDefinition
  3

  2
PN
 70
     8
280
     0
  0
ATTDEF
  5
152
330
146
100
AcDbEntity
  8
AM_6
100
AcDbText
 10
5.890625
 20
-1.875
 30
0.0
 40
0.5
  1
AN-GT-15-215
100
AcDbAttributeDefinition
  3

  2
DESCRIPTION
 70
     8
280
     0
  0
ATTDEF
  5
153
330
146
100
AcDbEntity
  8
AM_6
100
AcDbText
 10
5.890625
 20
-2.375
 30
0.0
 40
0.5
  1
2-9/16
100
AcDbAttributeDefinition
  3

  2
A
 70
     8
280
     0
  0
ATTDEF
  5
154
330
146
100
AcDbEntity
  8
AM_6
100
AcDbText
 10
5.890625
 20
-2.875
 30
0.0
 40
0.5
  1
1.1420
100
AcDbAttributeDefinition
  3

  2
C
 70
     8
280
     0
  0
ATTDEF
  5
155
330
146
100
AcDbEntity
  8
AM_6
100
AcDbText
 10
5.890625
 20
-3.375
 30
0.0
 40
0.5
  1
5.1181
100
AcDbAttributeDefinition
  3

  2
D
 70
     8
280
     0
  0
ATTDEF
  5
156
330
146
100
AcDbEntity
  8
AM_6
100
AcDbText
 10
5.890625
 20
-3.875
 30
0.0
 40
0.5
  1
0.265
100
AcDbAttributeDefinition
  3

  2
J
 70
     8
280
     0
  0
ATTDEF
  5
157
330
146
100
AcDbEntity
  8
AM_6
100
AcDbText
 10
5.890625
 20
-4.375
 30
0.0
 40
0.5
  1
4-1/4
100
AcDbAttributeDefinition
  3

  2
L
 70
     8
280
     0
  0
ATTDEF
  5
158
330
146
100
AcDbEntity
  8
AM_6
100
AcDbText
 10
5.890625
 20
-4.875
 30
0.0
 40
0.5
  1
10 - 32 x 1/4
100
AcDbAttributeDefinition
  3

  2
N
 70
     8
280
     0
  0
ATTDEF
  5
159
330
146
100
AcDbEntity
  8
AM_6
100
AcDbText
 10
5.890625
 20
-5.375
 30
0.0
 40
0.5
  1
57/64
100
AcDbAttributeDefinition
  3

  2
W
 70
     8
280
     0
  0
ATTDEF
  5
15A
330
146
100
AcDbEntity
  8
AM_6
100
AcDbText
 10
5.890625
 20
-5.875
 30
0.0
 40
0.5
  1
1-5/8
100
AcDbAttributeDefinition
  3

  2
X
 70
     8
280
     0
  0
ATTDEF
  5
15B
330
146
100
AcDbEntity
  8
AM_6
100
AcDbText
 10
5.890625
 20
-6.375
 30
0.0
 40
0.5
  1
1-43/64
100
AcDbAttributeDefinition
  3

  2
Y
 70
     8
280
     0
  0
ATTDEF
  5
15C
330
146
100
AcDbEntity
  8
AM_6
100
AcDbText
 10
5.890625
 20
-6.875
 30
0.0
 40
0.5
  1
baldor
100
AcDbAttributeDefinition
  3

  2
COMPANY
 70
     8
280
     0
  0
LWPOLYLINE
  5
15D
330
146
100
AcDbEntity
  8
AM_9
100
AcDbPolyline
 90
       11
 70
     0
 43
0.0
 10
-1.366810446802344
 20
0.0528673826540006
 10
-1.373904047848077
 20
0.0617110242013055
 10
-1.385321673526122
 20
0.072356209995634
 10
-1.39832549484532
 20
0.0809958035362246
 10
-1.412882464344797
 20
0.0874982075981333
 10
-1.428310130726837
 20
0.0915279920780769
 10
-1.444464137224987
 20
0.0929551533227608
 10
-1.460631624579972
 20
0.0916893181202418
 10
-1.476460432122479
 20
0.0876896970397261
 10
-1.491392654941782
 20
0.0810937894790698
 10
-1.511330898058728
 20
0.0664957955347035
  0
LWPOLYLINE
  5
15E
330
146
100
AcDbEntity
  8
AM_9
100
AcDbPolyline
 90
       11
 70
     0
 43
0.0
 10
-1.51909749541141
 20
-0.0581079025787112
 10
-1.509079335129957
 20
-0.0685791959498792
 10
-1.496539450548416
 20
-0.0780469253431006
 10
-1.482619877395846
 20
-0.0853408099815501
 10
-1.467373081283093
 20
-0.0903281270760734
 10
-1.451512519746178
 20
-0.0927431782381411
 10
-1.435242686080298
 20
-0.0924695325509082
 10
-1.419245194458636
 20
-0.089496782887825
 10
-1.403937307563777
 20
-0.0838425703062025
 10
-1.389801843804777
 20
-0.075693327312154
 10
-1.378756258844587
 20
-0.0666777293491137
  0
LINE
  5
15F
330
146
100
AcDbEntity
  8
AM_9
100
AcDbLine
 10
-1.511330898058728
 20
0.0664957955347035
 30
0.0
 11
-1.527982340522257
 21
0.0451594138325395
 31
0.0
  0
LINE
  5
160
330
146
100
AcDbEntity
  8
AM_9
100
AcDbLine
 10
-1.57932
 20
-0.1325
 30
0.0
 11
-1.57932
 21
0.1325
 31
0.0
  0
LINE
  5
161
330
146
100
AcDbEntity
  8
AM_9
100
AcDbLine
 10
-0.8125
 20
1.651366739213705
 30
0.0
 11
-1.625
 21
1.651366739213705
 31
0.0
  0
LINE
  5
162
330
146
100
AcDbEntity
  8
AM_9
100
AcDbLine
 10
-0.8125000000000001
 20
1.730834182585779
 30
0.0
 11
-0.8581799999999998
 21
1.770473050026867
 31
0.0
  0
LINE
  5
163
330
146
100
AcDbEntity
  8
AM_9
100
AcDbLine
 10
-0.8581799999999998
 20
1.770473050026867
 30
0.0
 11
-1.57932
 21
1.770473050026867
 31
0.0
  0
LINE
  5
164
330
146
100
AcDbEntity
  8
AM_9
100
AcDbLine
 10
-1.57932
 20
1.770473050026867
 30
0.0
 11
-1.625
 21
1.730834182585779
 31
0.0
  0
LINE
  5
165
330
146
100
AcDbEntity
  8
AM_9
100
AcDbLine
 10
-0.8125
 20
-1.651366739213706
 30
0.0
 11
-1.625
 21
-1.651366739213706
 31
0.0
  0
LINE
  5
166
330
146
100
AcDbEntity
  8
AM_9
100
AcDbLine
 10
-1.625
 20
-1.73083418258578
 30
0.0
 11
-1.57932
 21
-1.770473050026868
 31
0.0
  0
LINE
  5
167
330
146
100
AcDbEntity
  8
AM_9
100
AcDbLine
 10
-1.57932
 20
-1.770473050026868
 30
0.0
 11
-0.8581799999999998
 21
-1.770473050026869
 31
0.0
  0
LINE
  5
168
330
146
100
AcDbEntity
  8
AM_9
100
AcDbLine
 10
-0.8581799999999998
 20
-1.770473050026869
 30
0.0
 11
-0.8125000000000003
 21
-1.73083418258578
 31
0.0
  0
LINE
  5
169
330
146
100
AcDbEntity
  8
AM_9
100
AcDbLine
 10
-0.8125
 20
1.783866739213705
 30
0.0
 11
-1.625
 21
1.783866739213705
 31
0.0
  0
LINE
  5
16A
330
146
100
AcDbEntity
  8
AM_9
100
AcDbLine
 10
-0.8125
 20
-1.783866739213706
 30
0.0
 11
-1.625
 21
-1.783866739213706
 31
0.0
  0
LINE
  5
16B
330
146
100
AcDbEntity
  8
AM_9
100
AcDbLine
 10
-0.6093749999999999
 20
1.584528778529252
 30
0.0
 11
-1.625
 21
1.58531746031746
 31
0.0
  0
LINE
  5
16C
330
146
100
AcDbEntity
  8
AM_9
100
AcDbLine
 10
0.890625
 20
1.467898689453737
 30
0.0
 11
-1.671875
 21
1.467898689453737
 31
0.0
  0
LINE
  5
16D
330
146
100
AcDbEntity
  8
AM_9
100
AcDbLine
 10
-1.671875
 20
-1.46875
 30
0.0
 11
0.8906249999999998
 21
-1.46875
 31
0.0
  0
LINE
  5
16E
330
146
100
AcDbEntity
  8
AM_9
100
AcDbLine
 10
-1.21875
 20
-1.58531746031746
 30
0.0
 11
-0.6093749999999999
 21
-1.58531746031746
 31
0.0
  0
LINE
  5
16F
330
146
100
AcDbEntity
  8
AM_9
100
AcDbLine
 10
-0.6093749999999999
 20
1.584528778529252
 30
0.0
 11
0.8460946399167353
 21
1.635379410030676
 31
0.0
  0
LINE
  5
170
330
146
100
AcDbEntity
  8
AM_9
100
AcDbLine
 10
-0.6093749999999999
 20
1.584528778529252
 30
0.0
 11
-0.6093749999999999
 21
-1.58531746031746
 31
0.0
  0
LINE
  5
171
330
146
100
AcDbEntity
  8
AM_9
100
AcDbLine
 10
0.8906250000000001
 20
1.047570783709895
 30
0.0
 11
0.8906250000000001
 21
-1.047570783709895
 31
0.0
  0
LINE
  5
172
330
146
100
AcDbEntity
  8
AM_9
100
AcDbLine
 10
-0.6093749999999999
 20
-1.58531746031746
 30
0.0
 11
0.8460946406250006
 21
-1.636143580139963
 31
0.0
  0
LINE
  5
173
330
146
100
AcDbEntity
  8
AM_9
100
AcDbLine
 10
-1.015625
 20
-1.737103174603175
 30
0.0
 11
-0.8125000000000001
 21
-1.737103174603175
 31
0.0
  0
LINE
  5
174
330
146
100
AcDbEntity
  8
AM_9
100
AcDbLine
 10
-0.8125000000000001
 20
1.737103174603175
 30
0.0
 11
-1.015625
 21
1.737103174603175
 31
0.0
  0
LINE
  5
175
330
146
100
AcDbEntity
  8
AM_9
100
AcDbLine
 10
-1.015625
 20
1.888888888888889
 30
0.0
 11
-1.015625
 21
-1.888888888888889
 31
0.0
  0
LINE
  5
176
330
146
100
AcDbEntity
  8
AM_9
100
AcDbLine
 10
-1.21875
 20
1.888888888888889
 30
0.0
 11
-1.21875
 21
-1.888888888888889
 31
0.0
  0
LINE
  5
177
330
146
100
AcDbEntity
  8
AM_9
100
AcDbLine
 10
-1.21875
 20
-1.888888888888889
 30
0.0
 11
-1.015625
 21
-1.888888888888889
 31
0.0
  0
LINE
  5
178
330
146
100
AcDbEntity
  8
AM_9
100
AcDbLine
 10
-1.015625
 20
1.888888888888889
 30
0.0
 11
-1.21875
 21
1.888888888888889
 31
0.0
  0
LINE
  5
179
330
146
100
AcDbEntity
  8
AM_9
100
AcDbLine
 10
-0.8125
 20
0.1325
 30
0.0
 11
-1.368598256431581
 21
0.1325
 31
0.0
  0
LINE
  5
17A
330
146
100
AcDbEntity
  8
AM_9
100
AcDbLine
 10
-0.8581799999999997
 20
1.902973050026867
 30
0.0
 11
-0.8125
 21
1.863334182585779
 31
0.0
  0
LINE
  5
17B
330
146
100
AcDbEntity
  8
AM_9
100
AcDbLine
 10
-0.8125000000000001
 20
2.07932
 30
0.0
 11
-0.846094640625
 21
2.112914640625
 31
0.0
  0
LINE
  5
17C
330
146
100
AcDbEntity
  8
AM_9
100
AcDbLine
 10
-0.8125000000000001
 20
2.07932
 30
0.0
 11
-0.8125000000000001
 21
-2.07932
 31
0.0
  0
LINE
  5
17D
330
146
100
AcDbEntity
  8
AM_9
100
AcDbLine
 10
-1.368598256431581
 20
-0.1325
 30
0.0
 11
-0.8125
 21
-0.1325
 31
0.0
  0
LINE
  5
17E
330
146
100
AcDbEntity
  8
AM_9
100
AcDbLine
 10
-0.8581799999999997
 20
-1.902973050026868
 30
0.0
 11
-1.57932
 21
-1.902973050026868
 31
0.0
  0
LINE
  5
17F
330
146
100
AcDbEntity
  8
AM_9
100
AcDbLine
 10
-1.57932
 20
-1.902973050026868
 30
0.0
 11
-1.625
 21
-1.86333418258578
 31
0.0
  0
LINE
  5
180
330
146
100
AcDbEntity
  8
AM_9
100
AcDbLine
 10
-1.57932
 20
1.902973050026867
 30
0.0
 11
-0.8581799999999997
 21
1.902973050026867
 31
0.0
  0
LINE
  5
181
330
146
100
AcDbEntity
  8
AM_9
100
AcDbLine
 10
-0.8581799999999996
 20
1.074311186345727
 30
0.0
 11
-0.8581799999999996
 21
-1.074311186345727
 31
0.0
  0
LINE
  5
182
330
146
100
AcDbEntity
  8
AM_9
100
AcDbLine
 10
-0.8125000000000001
 20
-1.86333418258578
 30
0.0
 11
-0.8581799999999997
 21
-1.902973050026868
 31
0.0
  0
LINE
  5
183
330
146
100
AcDbEntity
  8
AM_9
100
AcDbLine
 10
-0.846094640625
 20
-2.112914640625
 30
0.0
 11
-0.8125000000000001
 21
-2.07932
 31
0.0
  0
LINE
  5
184
330
146
100
AcDbEntity
  8
AM_9
100
AcDbLine
 10
-1.625
 20
1.863334182585779
 30
0.0
 11
-1.57932
 21
1.902973050026867
 31
0.0
  0
CIRCLE
  5
185
330
146
100
AcDbEntity
  8
AM_9
100
AcDbCircle
 10
-1.444948158390483
 20
0.0000000000000002
 30
0.0
 40
0.07245
  0
LINE
  5
188
330
146
100
AcDbEntity
  8
AM_7
100
AcDbLine
 10
-1.444948158390484
 20
-0.0997499999999999
 30
0.0
 11
-1.444948158390484
 21
0.0997499999999999
 31
0.0
  0
LINE
  5
18A
330
146
100
AcDbEntity
  8
AM_4
100
AcDbLine
 10
-1.671875
 20
1.584528778529252
 30
0.0
 11
-1.671875
 21
-1.58531746031746
 31
0.0
  0
LINE
  5
18B
330
146
100
AcDbEntity
  8
AM_4
100
AcDbLine
 10
-1.671875
 20
1.584528778529252
 30
0.0
 11
-1.625
 21
1.584528778529252
 31
0.0
  0
LINE
  5
18C
330
146
100
AcDbEntity
  8
AM_4
100
AcDbLine
 10
-1.671875
 20
-1.58531746031746
 30
0.0
 11
-1.625
 21
-1.58531746031746
 31
0.0
  0
LINE
  5
18D
330
146
100
AcDbEntity
  8
AM_4
100
AcDbLine
 10
0.8460946399167353
 20
1.635379410030676
 30
0.0
 11
0.890625
 21
1.636935170407073
 31
0.0
  0
LINE
  5
18E
330
146
100
AcDbEntity
  8
AM_4
100
AcDbLine
 10
0.8906250000000001
 20
-1.047570783709895
 30
0.0
 11
0.890625
 21
-1.637698614555082
 31
0.0
  0
LINE
  5
18F
330
146
100
AcDbEntity
  8
AM_4
100
AcDbLine
 10
0.890625
 20
1.636935170407073
 30
0.0
 11
0.8906250000000001
 21
1.047570783709895
 31
0.0
  0
LINE
  5
190
330
146
100
AcDbEntity
  8
AM_4
100
AcDbLine
 10
0.8460946406250006
 20
-1.636143580139963
 30
0.0
 11
0.890625
 21
-1.637698614555082
 31
0.0
  0
LINE
  5
191
330
146
100
AcDbEntity
  8
AM_4
100
AcDbLine
 10
-0.846094640625
 20
2.112914640625
 30
0.0
 11
-0.8581799999999997
 21
2.125
 31
0.0
  0
LINE
  5
192
330
146
100
AcDbEntity
  8
AM_4
100
AcDbLine
 10
-1.625
 20
-0.1325
 30
0.0
 11
-1.368598256431581
 21
-0.1325
 31
0.0
  0
LINE
  5
193
330
146
100
AcDbEntity
  8
AM_4
100
AcDbLine
 10
-1.57932
 20
-2.125
 30
0.0
 11
-0.8581799999999997
 21
-2.125
 31
0.0
  0
LINE
  5
194
330
146
100
AcDbEntity
  8
AM_4
100
AcDbLine
 10
-1.57932
 20
-0.1325
 30
0.0
 11
-1.57932
 21
-2.125
 31
0.0
  0
LINE
  5
195
330
146
100
AcDbEntity
  8
AM_4
100
AcDbLine
 10
-1.625
 20
2.07932
 30
0.0
 11
-1.625
 21
-2.07932
 31
0.0
  0
LINE
  5
196
330
146
100
AcDbEntity
  8
AM_4
100
AcDbLine
 10
-1.625
 20
-2.07932
 30
0.0
 11
-1.57932
 21
-2.125
 31
0.0
  0
LINE
  5
197
330
146
100
AcDbEntity
  8
AM_4
100
AcDbLine
 10
-1.368598256431581
 20
0.1325
 30
0.0
 11
-1.625
 21
0.1325
 31
0.0
  0
LINE
  5
198
330
146
100
AcDbEntity
  8
AM_4
100
AcDbLine
 10
-0.8581799999999997
 20
2.125
 30
0.0
 11
-1.57932
 21
2.125
 31
0.0
  0
LINE
  5
199
330
146
100
AcDbEntity
  8
AM_4
100
AcDbLine
 10
-0.8581799999999997
 20
2.125
 30
0.0
 11
-0.8581799999999996
 21
1.074311186345727
 31
0.0
  0
LINE
  5
19A
330
146
100
AcDbEntity
  8
AM_4
100
AcDbLine
 10
-0.8581799999999996
 20
-1.074311186345727
 30
0.0
 11
-0.8581799999999997
 21
-2.125
 31
0.0
  0
LINE
  5
19B
330
146
100
AcDbEntity
  8
AM_4
100
AcDbLine
 10
-0.8581799999999997
 20
-2.125
 30
0.0
 11
-0.846094640625
 21
-2.112914640625
 31
0.0
  0
LINE
  5
19C
330
146
100
AcDbEntity
  8
AM_4
100
AcDbLine
 10
-1.57932
 20
2.125
 30
0.0
 11
-1.625
 21
2.07932
 31
0.0
  0
LINE
  5
19D
330
146
100
AcDbEntity
  8
AM_4
100
AcDbLine
 10
-1.57932
 20
2.125
 30
0.0
 11
-1.57932
 21
0.1325
 31
0.0
  0
ARC
  5
19F
330
146
100
AcDbEntity
  8
AM_5
100
AcDbCircle
 10
-1.444948158390484
 20
0.0000000000000002
 30
0.0
 40
0.0949999999999999
100
AcDbArc
 50
74.99999999999979
 51
14.99999999999982
  0
ENDBLK
  5
149
330
146
100
AcDbEntity
  8
0
100
AcDbBlockEnd
  0
BLOCK
  5
1A2
330
1A0
100
AcDbEntity
  8
0
100
AcDbBlockBegin
  2
5_WSTU_GT_15I_0_in_136151_2
 70
     2
 10
0.0
 20
0.0
 30
0.0
  3
5_WSTU_GT_15I_0_in_136151_2
  1

  0
ATTDEF
  5
1A4
330
1A0
100
AcDbEntity
  8
AM_6
100
AcDbText
 10
7.712494587898254
 20
3.3437433125
 30
0.0
 40
0.5
  1
GTMMDWSTUB-Ib
100
AcDbAttributeDefinition
  3

  2
NN
 70
     8
280
     0
  0
ATTDEF
  5
1A5
330
1A0
100
AcDbEntity
  8
AM_6
100
AcDbText
 10
7.712494587898254
 20
2.8437433125
 30
0.0
 40
0.5
  1
Grip Tight Adapter Ball Bearings
100
AcDbAttributeDefinition
  3

  2
NT
 70
     8
280
     0
  0
ATTDEF
  5
1A6
330
1A0
100
AcDbEntity
  8
AM_6
100
AcDbText
 10
7.712494587898254
 20
2.3437433125
 30
0.0
 40
0.5
  1
WSTU-GT-15I
100
AcDbAttributeDefinition
  3

  2
NB
 70
     8
280
     0
  0
ATTDEF
  5
1A7
330
1A0
100
AcDbEntity
  8
AM_6
100
AcDbText
 10
7.712494587898254
 20
1.8437433125
 30
0.0
 40
0.5
  1
$PN.$LUBE.I
100
AcDbAttributeDefinition
  3

  2
NBSYN
 70
     8
280
     0
  0
ATTDEF
  5
1A8
330
1A0
100
AcDbEntity
  8
AM_6
100
AcDbText
 10
7.712494587898254
 20
1.3437433125
 30
0.0
 40
0.5
  1
WSTU-GT-15
100
AcDbAttributeDefinition
  3

  2
LINA
 70
     8
280
     0
  0
ATTDEF
  5
1A9
330
1A0
100
AcDbEntity
  8
AM_6
100
AcDbText
 10
7.712494587898254
 20
0.8437433125000005
 30
0.0
 40
0.5
  1
215
100
AcDbAttributeDefinition
  3

  2
SERIES
 70
     8
280
     0
  0
ATTDEF
  5
1AA
330
1A0
100
AcDbEntity
  8
AM_6
100
AcDbText
 10
7.712494587898254
 20
0.3437433125000005
 30
0.0
 40
0.5
  1
WSTU-GT-15
100
AcDbAttributeDefinition
  3

  2
PN
 70
     8
280
     0
  0
ATTDEF
  5
1AB
330
1A0
100
AcDbEntity
  8
AM_6
100
AcDbText
 10
7.712494587898254
 20
-0.1562566874999995
 30
0.0
 40
0.5
  1
WSTU-GT-15
100
AcDbAttributeDefinition
  3

  2
DESCRIPTION
 70
     8
280
     0
  0
ATTDEF
  5
1AC
330
1A0
100
AcDbEntity
  8
AM_6
100
AcDbText
 10
7.712494587898254
 20
-0.6562566874999995
 30
0.0
 40
0.5
  1
20.2
100
AcDbAttributeDefinition
  3

  2
WEIGHT
 70
     8
280
     0
  0
ATTDEF
  5
1AD
330
1A0
100
AcDbEntity
  8
AM_6
100
AcDbText
 10
7.712494587898254
 20
-1.1562566875
 30
0.0
 40
0.5
  1
5.118100
100
AcDbAttributeDefinition
  3

  2
BOD1
 70
     8
280
     0
  0
ATTDEF
  5
1AE
330
1A0
100
AcDbEntity
  8
AM_6
100
AcDbText
 10
7.712494587898254
 20
-1.6562566875
 30
0.0
 40
0.5
  1
1.000
100
AcDbAttributeDefinition
  3

  2
VERS
 70
     8
280
     0
  0
ATTDEF
  5
1AF
330
1A0
100
AcDbEntity
  8
AM_6
100
AcDbText
 10
7.712494587898254
 20
-2.1562566875
 30
0.0
 40
0.5
  1
2-9/16
100
AcDbAttributeDefinition
  3

  2
A
 70
     8
280
     0
  0
ATTDEF
  5
1B0
330
1A0
100
AcDbEntity
  8
AM_6
100
AcDbText
 10
7.712494587898254
 20
-2.6562566875
 30
0.0
 40
0.5
  1
9-1/8
100
AcDbAttributeDefinition
  3

  2
B
 70
     8
280
     0
  0
ATTDEF
  5
1B1
330
1A0
100
AcDbEntity
  8
AM_6
100
AcDbText
 10
7.712494587898254
 20
-3.1562566875
 30
0.0
 40
0.5
  1
1.047 / 1.077
100
AcDbAttributeDefinition
  3

  2
C
 70
     8
280
     0
  0
ATTDEF
  5
1B2
330
1A0
100
AcDbEntity
  8
AM_6
100
AcDbText
 10
7.712494587898254
 20
-3.6562566875
 30
0.0
 40
0.5
  1
5-1/2
100
AcDbAttributeDefinition
  3

  2
E
 70
     8
280
     0
  0
ATTDEF
  5
1B3
330
1A0
100
AcDbEntity
  8
AM_6
100
AcDbText
 10
7.712494587898254
 20
-4.156256687499999
 30
0.0
 40
0.5
  1
1-1/2
100
AcDbAttributeDefinition
  3

  2
F
 70
     8
280
     0
  0
ATTDEF
  5
1B4
330
1A0
100
AcDbEntity
  8
AM_6
100
AcDbText
 10
7.712494587898254
 20
-4.656256687499999
 30
0.0
 40
0.5
  1
13/16
100
AcDbAttributeDefinition
  3

  2
G
 70
     8
280
     0
  0
ATTDEF
  5
1B5
330
1A0
100
AcDbEntity
  8
AM_6
100
AcDbText
 10
7.712494587898254
 20
-5.156256687499999
 30
0.0
 40
0.5
  1
1-1/4
100
AcDbAttributeDefinition
  3

  2
H
 70
     8
280
     0
  0
ATTDEF
  5
1B6
330
1A0
100
AcDbEntity
  8
AM_6
100
AcDbText
 10
7.712494587898254
 20
-5.656256687499999
 30
0.0
 40
0.5
  1
4-3/8
100
AcDbAttributeDefinition
  3

  2
J
 70
     8
280
     0
  0
ATTDEF
  5
1B7
330
1A0
100
AcDbEntity
  8
AM_6
100
AcDbText
 10
7.712494587898254
 20
-6.156256687499999
 30
0.0
 40
0.5
  1
2-3/4
100
AcDbAttributeDefinition
  3

  2
K
 70
     8
280
     0
  0
ATTDEF
  5
1B8
330
1A0
100
AcDbEntity
  8
AM_6
100
AcDbText
 10
7.712494587898254
 20
-6.656256687499999
 30
0.0
 40
0.5
  1
4-1/4
100
AcDbAttributeDefinition
  3

  2
L
 70
     8
280
     0
  0
ATTDEF
  5
1B9
330
1A0
100
AcDbEntity
  8
AM_6
100
AcDbText
 10
7.712494587898254
 20
-7.156256687499999
 30
0.0
 40
0.5
  1
5.923 / 5.953
100
AcDbAttributeDefinition
  3

  2
M
 70
     8
280
     0
  0
ATTDEF
  5
1BA
330
1A0
100
AcDbEntity
  8
AM_6
100
AcDbText
 10
7.712494587898254
 20
-7.656256687499999
 30
0.0
 40
0.5
  1
6-11/16
100
AcDbAttributeDefinition
  3

  2
N
 70
     8
280
     0
  0
ATTDEF
  5
1BB
330
1A0
100
AcDbEntity
  8
AM_6
100
AcDbText
 10
7.712494587898254
 20
-8.156256687499999
 30
0.0
 40
0.5
  1
57/64
100
AcDbAttributeDefinition
  3

  2
R
 70
     8
280
     0
  0
ATTDEF
  5
1BC
330
1A0
100
AcDbEntity
  8
AM_6
100
AcDbText
 10
7.712494587898254
 20
-8.656256687499999
 30
0.0
 40
0.5
  1
1-43/64
100
AcDbAttributeDefinition
  3

  2
S
 70
     8
280
     0
  0
ATTDEF
  5
1BD
330
1A0
100
AcDbEntity
  8
AM_6
100
AcDbText
 10
7.712494587898254
 20
-9.156256687499999
 30
0.0
 40
0.5
  1
2-3/4
100
AcDbAttributeDefinition
  3

  2
T
 70
     8
280
     0
  0
ATTDEF
  5
1BE
330
1A0
100
AcDbEntity
  8
AM_6
100
AcDbText
 10
7.712494587898254
 20
-9.656256687499999
 30
0.0
 40
0.5
  1
1-5/8
100
AcDbAttributeDefinition
  3

  2
Z
 70
     8
280
     0
  0
ATTDEF
  5
1BF
330
1A0
100
AcDbEntity
  8
AM_6
100
AcDbText
 10
7.712494587898254
 20
-10.1562566875
 30
0.0
 40
0.5
  1
baldor
100
AcDbAttributeDefinition
  3

  2
COMPANY
 70
     8
280
     0
  0
LWPOLYLINE
  5
1C0
330
1A0
100
AcDbEntity
  8
AM_9
100
AcDbPolyline
 90
        4
 70
     0
 43
0.0
 10
0.4299810350397028
 20
-1.696340200535128
 10
0.4384529695041756
 20
-1.724075498617662
 10
0.4470938771731974
 20
-1.768174038084606
 10
0.4500000000000005
 20
-1.8125
  0
LWPOLYLINE
  5
1C1
330
1A0
100
AcDbEntity
  8
AM_9
100
AcDbPolyline
 90
       26
 70
     0
 43
0.0
 10
-0.4406772523380652
 20
-1.7330116658921
 10
-0.4388366677001004
 20
-1.725549791594015
 10
-0.4250011301657353
 20
-1.682997151833013
 10
-0.4058643744292995
 20
-1.641644706166514
 10
-0.3817872895116179
 20
-1.602296925983505
 10
-0.3527730551471112
 20
-1.565210758027506
 10
-0.3192684914246001
 20
-1.530956612469623
 10
-0.2818933742369096
 20
-1.50022334395449
 10
-0.2407024666764411
 20
-1.473267520027217
 10
-0.1963267377149949
 20
-1.450528239213122
 10
-0.1495979393559315
 20
-1.432488656101119
 10
-0.1010576137294174
 20
-1.419469706730751
 10
-0.0510738027828246
 20
-1.411504690108264
 10
-0.0005980015735978
 20
-1.408769198478868
 10
0.0495407642508207
 20
-1.411343630113982
 10
0.0992125056350725
 20
-1.419078304026138
 10
0.147484347415898
 20
-1.431804964492989
 10
0.193862798109031
 20
-1.449433422614783
 10
0.2379632514867956
 20
-1.471685094016916
 10
0.2789748720474873
 20
-1.498095879906585
 10
0.3167151338263882
 20
-1.52863586151062
 10
0.3505987218999511
 20
-1.562746110761168
 10
0.3799960515576498
 20
-1.599736809054594
 10
0.4046386020714601
 20
-1.639379099136868
 10
0.4242501339924941
 20
-1.681101873124287
 10
0.4299810350397028
 20
-1.696340200535128
  0
LWPOLYLINE
  5
1C2
330
1A0
100
AcDbEntity
  8
AM_9
100
AcDbPolyline
 90
        3
 70
     0
 43
0.0
 10
-0.4500000000000005
 20
-1.8125
 10
-0.4471910670894879
 20
-1.768919786591724
 10
-0.4406772523380652
 20
-1.7330116658921
  0
ELLIPSE
  5
1C3
330
1A0
100
AcDbEntity
  8
AM_9
100
AcDbEllipse
 10
-0.0000000000000002
 20
-1.862499999999999
 30
0.0
 11
-0.3500000000000001
 21
4.286263797015737E-17
 31
0.0
210
0.0
220
0.0
230
1.0
 40
0.8660254037844388
 41
0.0
 42
6.283185307179586
  0
ELLIPSE
  5
1C4
330
1A0
100
AcDbEntity
  8
AM_9
100
AcDbEllipse
 10
-0.0000000000000513
 20
-1.812499999999989
 30
0.0
 11
0.4499999999999492
 21
6.705522537230689E-9
 31
0.0
210
0.0
220
0.0
230
1.0
 40
0.8660254037844408
 41
2.936163454494506
 42
3.141592638688632
  0
LINE
  5
1C5
330
1A0
100
AcDbEntity
  8
AM_9
100
AcDbLine
 10
0.4499482870070527
 20
-1.818622885740134
 30
0.0
 11
0.4499992998356686
 21
-1.811787526323902
 31
0.0
  0
LWPOLYLINE
  5
1C6
330
1A0
100
AcDbEntity
  8
AM_9
100
AcDbPolyline
 90
       46
 70
     0
 43
0.0
 10
-0.4499921024570514
 20
-1.814892836717904
 10
-0.449889874210557
 20
-1.821434834370781
 10
-0.4480953780135311
 20
-1.849619810220028
 10
-0.444115729917976
 20
-1.877597975436238
 10
-0.437974014720903
 20
-1.905238644680731
 10
-0.4297011912668387
 20
-1.932414432051901
 10
-0.419336101803841
 20
-1.958999959996252
 10
-0.4069256690121745
 20
-1.984871765868228
 10
-0.3925252540490647
 20
-2.00990835257575
 10
-0.3761990964491849
 20
-2.03399043683107
 10
-0.3580207412169971
 20
-2.057001421286167
 10
-0.3380733562124748
 20
-2.078828083919221
 10
-0.3164498560589167
 20
-2.099361444653944
 10
-0.2932527760744292
 20
-2.118497741791036
 10
-0.268593876208886
 20
-2.136139435275986
 10
-0.2425934930597267
 20
-2.15219615335557
 10
-0.2153796897504481
 20
-2.166585513167552
 10
-0.187087272904571
 20
-2.179233770011271
 10
-0.1578567509947644
 20
-2.190076278154219
 10
-0.1278333006982633
 20
-2.199057771840609
 10
-0.0971657918470171
 20
-2.206132494355915
 10
-0.0660059021754994
 20
-2.211264213860037
 10
-0.0345073345537245
 20
-2.214426167843684
 10
-0.0028251342857318
 20
-2.215600975486696
 10
0.0288849068329273
 20
-2.214780551257073
 10
0.0604663169256362
 20
-2.211966101799725
 10
0.0917626760885433
 20
-2.20716821732981
 10
0.1226189249146328
 20
-2.200406786209656
 10
0.1528812044910191
 20
-2.191711115830139
 10
0.1823974247859808
 20
-2.181120103889804
 10
0.2110179224778019
 20
-2.168682436809011
 10
0.2385962346753114
 20
-2.154456784365504
 10
0.2649900074563012
 20
-2.138511947612147
 10
0.2900620444040099
 20
-2.120926906739916
 10
0.3136814802531809
 20
-2.101790709865061
 10
0.3357250398105177
 20
-2.081202146293243
 10
0.3560783162975968
 20
-2.059269161473723
 10
0.3746369820675486
 20
-2.03610799623969
 10
0.3913078348677352
 20
-2.011842067290581
 10
0.406009589487528
 20
-1.986600642967869
 10
0.4186733489034756
 20
-1.960517399906786
 10
0.4292427270870672
 20
-1.933728964437076
 10
0.4376736395493084
 20
-1.906373543376767
 10
0.4439338181000002
 20
-1.87858973269401
 10
0.4480021355573821
 20
-1.850515564246987
 10
0.4493243066170088
 20
-1.834624732882524
  0
LINE
  5
1C7
330
1A0
100
AcDbEntity
  8
AM_9
100
AcDbLine
 10
-0.449999123882963
 20
-1.81329698445645
 30
0.0
 11
-0.4499921024570514
 21
-1.814892836717904
 31
0.0
  0
LWPOLYLINE
  5
1C8
330
1A0
100
AcDbEntity
  8
AM_9
100
AcDbPolyline
 90
       15
 70
     0
 43
0.0
 10
-0.0149648757446645
 20
-2.187991704707452
 10
-0.0504515077082784
 20
-2.185911580322795
 10
-0.0998840817623158
 20
-2.179136134369208
 10
-0.1482173135375518
 20
-2.16794364958588
 10
-0.1945512845068132
 20
-2.152516714167166
 10
-0.2385411126540984
 20
-2.132849985488587
 10
-0.2796868264851531
 20
-2.109170331152487
 10
-0.3172326849164046
 20
-2.08186236840381
 10
-0.3509965677986578
 20
-2.050851005347723
 10
-0.3804489286286414
 20
-2.016587050486777
 10
-0.40503624470286
 20
-1.979653084047731
 10
-0.4244567098011345
 20
-1.94029269756758
 10
-0.4385832409426667
 20
-1.898883793400087
 10
-0.4471412379391123
 20
-1.856181238129983
 10
-0.4500000000000005
 20
-1.8125
  0
LWPOLYLINE
  5
1C9
330
1A0
100
AcDbEntity
  8
AM_9
100
AcDbPolyline
 90
       13
 70
     0
 43
0.0
 10
0.4295977438860776
 20
-1.927276306358614
 10
0.4248591015271115
 20
-1.939419466061762
 10
0.4056444092389889
 20
-1.978524688135646
 10
0.3813297901884248
 20
-2.015420941152185
 10
0.3523709147636624
 20
-2.049475695610178
 10
0.3188081342345793
 20
-2.080527497143758
 10
0.2811405341530608
 20
-2.108222540815575
 10
0.2400658677231307
 20
-2.132104331029589
 10
0.1957686871555275
 20
-2.152010767952447
 10
0.148836713679253
 20
-2.16776758428878
 10
0.1001560964383839
 20
-2.17911359628937
 10
0.0504327934925657
 20
-2.18588587385889
 10
0.014664375899607
 20
-2.187999658011895
  0
LWPOLYLINE
  5
1CA
330
1A0
100
AcDbEntity
  8
AM_9
100
AcDbPolyline
 90
        4
 70
     0
 43
0.0
 10
0.4500000000000005
 20
-1.8125
 10
0.4471521824568539
 20
-1.855817871740899
 10
0.4387174985863991
 20
-1.898385430405887
 10
0.4295977438860776
 20
-1.927276306358614
  0
ELLIPSE
  5
1CB
330
1A0
100
AcDbEntity
  8
AM_9
100
AcDbEllipse
 10
0.0000000000000012
 20
-1.8125
 30
0.0
 11
0.4499999999999993
 21
0.0
 31
0.0
210
0.0
220
0.0
230
1.0
 40
0.8660254037844364
 41
3.497467016118526
 42
9.219348778701473
  0
LINE
  5
1CC
330
1A0
100
AcDbEntity
  8
AM_9
100
AcDbLine
 10
-0.8460946406250004
 20
-2.738612787525831
 30
0.0
 11
0.8460946406250001
 21
-2.738612787525831
 31
0.0
  0
LINE
  5
1CD
330
1A0
100
AcDbEntity
  8
AM_9
100
AcDbLine
 10
-0.8460946406250004
 20
2.738612787525831
 30
0.0
 11
0.8460946406250001
 21
2.738612787525831
 31
0.0
  0
LINE
  5
1CE
330
1A0
100
AcDbEntity
  8
AM_9
100
AcDbLine
 10
-0.9796875
 20
3.105754080631634
 30
0.0
 11
-0.8015625000000001
 21
3.105754080631634
 31
0.0
  0
LINE
  5
1CF
330
1A0
100
AcDbEntity
  8
AM_9
100
AcDbLine
 10
-0.9796875
 20
3.047485201869613
 30
0.0
 11
-0.8015625000000001
 21
3.047485201869613
 31
0.0
  0
LINE
  5
1D0
330
1A0
100
AcDbEntity
  8
AM_9
100
AcDbLine
 10
-0.9796875
 20
3.091186862266132
 30
0.0
 11
-0.8015625000000001
 21
3.091186862266132
 31
0.0
  0
LINE
  5
1D1
330
1A0
100
AcDbEntity
  8
AM_9
100
AcDbLine
 10
-0.9796875
 20
3.003783544173094
 30
0.0
 11
-0.8015625000000001
 21
3.003783544173094
 31
0.0
  0
LINE
  5
1D2
330
1A0
100
AcDbEntity
  8
AM_9
100
AcDbLine
 10
-0.9796875
 20
3.134888522662622
 30
0.0
 11
-0.8015625000000001
 21
3.134888522662622
 31
0.0
  0
LINE
  5
1D3
330
1A0
100
AcDbEntity
  8
AM_9
100
AcDbLine
 10
-0.9796875
 20
3.059138978062024
 30
0.0
 11
-0.8015625000000001
 21
3.059138978062024
 31
0.0
  0
LINE
  5
1D4
330
1A0
100
AcDbEntity
  8
AM_9
100
AcDbLine
 10
-0.9796875
 20
3.111580969077837
 30
0.0
 11
-0.8015625000000001
 21
3.111580969077837
 31
0.0
  0
LINE
  5
1D5
330
1A0
100
AcDbEntity
  8
AM_9
100
AcDbLine
 10
-0.9796875
 20
3.027091095157922
 30
0.0
 11
-0.8015625000000001
 21
3.027091095157922
 31
0.0
  0
LINE
  5
1D6
330
1A0
100
AcDbEntity
  8
AM_9
100
AcDbLine
 10
-0.9796875
 20
3.035831425077221
 30
0.0
 11
-0.8015625000000001
 21
3.035831425077221
 31
0.0
  0
LINE
  5
1D7
330
1A0
100
AcDbEntity
  8
AM_9
100
AcDbLine
 10
-0.9796875
 20
3.129061634316434
 30
0.0
 11
-0.8015625000000001
 21
3.129061634316434
 31
0.0
  0
LINE
  5
1D8
330
1A0
100
AcDbEntity
  8
AM_9
100
AcDbLine
 10
-0.9796875
 20
3.009610432619298
 30
0.0
 11
-0.8015625000000001
 21
3.009610432619298
 31
0.0
  0
LINE
  5
1D9
330
1A0
100
AcDbEntity
  8
AM_9
100
AcDbLine
 10
-0.9796875
 20
3.117407857424026
 30
0.0
 11
-0.8015625000000001
 21
3.117407857424026
 31
0.0
  0
LINE
  5
1DA
330
1A0
100
AcDbEntity
  8
AM_9
100
AcDbLine
 10
-0.9796875
 20
3.021264204111735
 30
0.0
 11
-0.8015625000000001
 21
3.021264204111735
 31
0.0
  0
LINE
  5
1DB
330
1A0
100
AcDbEntity
  8
AM_9
100
AcDbLine
 10
-0.9796875
 20
3.102840636458539
 30
0.0
 11
-0.8015625000000001
 21
3.102840636458539
 31
0.0
  0
LINE
  5
1DC
330
1A0
100
AcDbEntity
  8
AM_9
100
AcDbLine
 10
-0.9796875
 20
3.032917980904127
 30
0.0
 11
-0.8015625000000001
 21
3.032917980904127
 31
0.0
  0
LINE
  5
1DD
330
1A0
100
AcDbEntity
  8
AM_9
100
AcDbLine
 10
-0.9796875
 20
3.076619642000614
 30
0.0
 11
-0.8015625000000001
 21
3.076619642000614
 31
0.0
  0
LINE
  5
1DE
330
1A0
100
AcDbEntity
  8
AM_9
100
AcDbLine
 10
-0.9796875
 20
3.064965865808202
 30
0.0
 11
-0.8015625000000001
 21
3.064965865808202
 31
0.0
  0
LINE
  5
1DF
330
1A0
100
AcDbEntity
  8
AM_9
100
AcDbLine
 10
-0.9796875
 20
3.082446529646805
 30
0.0
 11
-0.8015625000000001
 21
3.082446529646805
 31
0.0
  0
LINE
  5
1E0
330
1A0
100
AcDbEntity
  8
AM_9
100
AcDbLine
 10
-0.9796875
 20
3.137801966935732
 30
0.0
 11
-0.8015625000000001
 21
3.137801966935732
 31
0.0
  0
LINE
  5
1E1
330
1A0
100
AcDbEntity
  8
AM_9
100
AcDbLine
 10
-0.8015625000000001
 20
3.0008701
 30
0.0
 11
-0.8015625000000001
 21
3.137801966935732
 31
0.0
  0
LINE
  5
1E2
330
1A0
100
AcDbEntity
  8
AM_9
100
AcDbLine
 10
-0.9796875
 20
3.0008701
 30
0.0
 11
-0.8015625000000001
 21
3.0008701
 31
0.0
  0
LINE
  5
1E3
330
1A0
100
AcDbEntity
  8
AM_9
100
AcDbLine
 10
-0.9796875
 20
3.018350759838625
 30
0.0
 11
-0.8015625000000001
 21
3.018350759838625
 31
0.0
  0
LINE
  5
1E4
330
1A0
100
AcDbEntity
  8
AM_9
100
AcDbLine
 10
-0.9796875
 20
3.120321301697135
 30
0.0
 11
-0.8015625000000001
 21
3.120321301697135
 31
0.0
  0
LINE
  5
1E5
330
1A0
100
AcDbEntity
  8
AM_9
100
AcDbLine
 10
-0.846094640625
 20
-2.55905
 30
0.0
 11
0.8460946406249997
 21
-2.55905
 31
0.0
  0
LINE
  5
1E6
330
1A0
100
AcDbEntity
  8
AM_9
100
AcDbLine
 10
0.8460946406249997
 20
2.55905
 30
0.0
 11
-0.846094640625
 21
2.55905
 31
0.0
  0
LINE
  5
1E7
330
1A0
100
AcDbEntity
  8
AM_9
100
AcDbLine
 10
-0.8460946406249997
 20
1.083854831890883
 30
0.0
 11
-0.8460946406249997
 21
-1.083854831890883
 31
0.0
  0
LINE
  5
1E8
330
1A0
100
AcDbEntity
  8
AM_9
100
AcDbLine
 10
0.8460946406250003
 20
-1.083854831890883
 30
0.0
 11
0.8460946406250005
 21
1.083854831890884
 31
0.0
  0
LINE
  5
1E9
330
1A0
100
AcDbEntity
  8
AM_9
100
AcDbLine
 10
-0.8460946406249997
 20
-1.3125
 30
0.0
 11
0.8460946406250005
 21
-1.3125
 31
0.0
  0
LINE
  5
1EA
330
1A0
100
AcDbEntity
  8
AM_9
100
AcDbLine
 10
-0.8460946406249997
 20
-1.375
 30
0.0
 11
0.8460946406250005
 21
-1.375
 31
0.0
  0
LINE
  5
1EB
330
1A0
100
AcDbEntity
  8
AM_9
100
AcDbLine
 10
-0.8460946406249997
 20
1.375
 30
0.0
 11
0.8460946406250005
 21
1.375
 31
0.0
  0
LINE
  5
1EC
330
1A0
100
AcDbEntity
  8
AM_9
100
AcDbLine
 10
-0.8460946406249997
 20
1.3125
 30
0.0
 11
0.8460946406250005
 21
1.3125
 31
0.0
  0
LINE
  5
1ED
330
1A0
100
AcDbEntity
  8
AM_7
100
AcDbLine
 10
0.0000000000000003
 20
-0.787498425
 30
0.0
 11
0.0000000000000003
 21
0.787498425
 31
0.0
  0
LINE
  5
1EE
330
1A0
100
AcDbEntity
  8
AM_7
100
AcDbLine
 10
2.712494587898254
 20
0.0
 30
0.0
 11
-3.009372329711914
 21
0.0
 31
0.0
  0
LINE
  5
1EF
330
1A0
100
AcDbEntity
  8
AM_4
100
AcDbLine
 10
0.9796875000000003
 20
3.304373212499999
 30
0.0
 11
0.9796875000000003
 21
2.9614933125
 31
0.0
  0
LINE
  5
1F0
330
1A0
100
AcDbEntity
  8
AM_4
100
AcDbLine
 10
0.5234989530000002
 20
2.9614933125
 30
0.0
 11
0.5234989529999998
 21
3.3437433125
 31
0.0
  0
LINE
  5
1F1
330
1A0
100
AcDbEntity
  8
AM_4
100
AcDbLine
 10
0.9403174000000002
 20
3.3437433125
 30
0.0
 11
0.9796875000000004
 21
3.304373212499999
 31
0.0
  0
LINE
  5
1F2
330
1A0
100
AcDbEntity
  8
AM_4
100
AcDbLine
 10
0.5234989529999998
 20
3.3437433125
 30
0.0
 11
0.9403174
 21
3.3437433125
 31
0.0
  0
LINE
  5
1F3
330
1A0
100
AcDbEntity
  8
AM_4
100
AcDbLine
 10
-0.9796874999999999
 20
2.9614933125
 30
0.0
 11
-0.9796874999999998
 21
3.304373212499999
 31
0.0
  0
LINE
  5
1F4
330
1A0
100
AcDbEntity
  8
AM_4
100
AcDbLine
 10
-0.523498953
 20
3.3437433125
 30
0.0
 11
-0.5234989529999999
 21
2.9614933125
 31
0.0
  0
LINE
  5
1F5
330
1A0
100
AcDbEntity
  8
AM_4
100
AcDbLine
 10
-0.9403174
 20
3.3437433125
 30
0.0
 11
-0.523498953
 21
3.3437433125
 31
0.0
  0
LINE
  5
1F6
330
1A0
100
AcDbEntity
  8
AM_4
100
AcDbLine
 10
-0.9796874999999996
 20
3.304373212499999
 30
0.0
 11
-0.9403173999999995
 21
3.3437433125
 31
0.0
  0
LINE
  5
1F7
330
1A0
100
AcDbEntity
  8
AM_4
100
AcDbLine
 10
0.9796875000000003
 20
2.9614933125
 30
0.0
 11
0.8460946406250001
 21
2.8433833125
 31
0.0
  0
LINE
  5
1F8
330
1A0
100
AcDbEntity
  8
AM_4
100
AcDbLine
 10
0.5234989529999998
 20
3.28125
 30
0.0
 11
0.9796875000000006
 21
3.28125
 31
0.0
  0
LINE
  5
1F9
330
1A0
100
AcDbEntity
  8
AM_4
100
AcDbLine
 10
-0.5234989529999999
 20
2.9614933125
 30
0.0
 11
0.5234989530000002
 21
2.9614933125
 31
0.0
  0
LINE
  5
1FA
330
1A0
100
AcDbEntity
  8
AM_4
100
AcDbLine
 10
-0.9796874999999998
 20
3.28125
 30
0.0
 11
-0.523498953
 21
3.28125
 31
0.0
  0
LINE
  5
1FB
330
1A0
100
AcDbEntity
  8
AM_4
100
AcDbLine
 10
-0.8460946406249998
 20
2.8433833125
 30
0.0
 11
-0.9796874999999999
 21
2.9614933125
 31
0.0
  0
LINE
  5
1FC
330
1A0
100
AcDbEntity
  8
AM_4
100
AcDbLine
 10
-0.9796874999999999
 20
-3.304373212499998
 30
0.0
 11
-0.9796874999999999
 21
-2.961493312499998
 31
0.0
  0
LINE
  5
1FD
330
1A0
100
AcDbEntity
  8
AM_4
100
AcDbLine
 10
-0.9403173999999997
 20
-3.3437433125
 30
0.0
 11
-0.9796874999999999
 21
-3.304373212499998
 31
0.0
  0
LINE
  5
1FE
330
1A0
100
AcDbEntity
  8
AM_4
100
AcDbLine
 10
-0.523498953
 20
-3.3437433125
 30
0.0
 11
-0.9403173999999996
 21
-3.3437433125
 31
0.0
  0
LINE
  5
1FF
330
1A0
100
AcDbEntity
  8
AM_4
100
AcDbLine
 10
-0.5234989529999999
 20
-2.961493312499998
 30
0.0
 11
-0.523498953
 21
-3.3437433125
 31
0.0
  0
LINE
  5
200
330
1A0
100
AcDbEntity
  8
AM_4
100
AcDbLine
 10
0.5234989529999998
 20
-3.3437433125
 30
0.0
 11
0.5234989530000002
 21
-2.9614933125
 31
0.0
  0
LINE
  5
201
330
1A0
100
AcDbEntity
  8
AM_4
100
AcDbLine
 10
0.9403174000000002
 20
-3.3437433125
 30
0.0
 11
0.5234989529999998
 21
-3.3437433125
 31
0.0
  0
LINE
  5
202
330
1A0
100
AcDbEntity
  8
AM_4
100
AcDbLine
 10
0.9796874999999999
 20
-3.304373212499999
 30
0.0
 11
0.9403173999999997
 21
-3.3437433125
 31
0.0
  0
LINE
  5
203
330
1A0
100
AcDbEntity
  8
AM_4
100
AcDbLine
 10
0.9796875000000003
 20
-2.9614933125
 30
0.0
 11
0.9796875000000006
 21
-3.304373212499999
 31
0.0
  0
LINE
  5
204
330
1A0
100
AcDbEntity
  8
AM_4
100
AcDbLine
 10
-0.9796874999999999
 20
-2.961493312499998
 30
0.0
 11
-0.8460946406249998
 21
-2.843383312499999
 31
0.0
  0
LINE
  5
205
330
1A0
100
AcDbEntity
  8
AM_4
100
AcDbLine
 10
-0.9796874999999998
 20
-3.281249999999998
 30
0.0
 11
-0.523498953
 21
-3.281249999999998
 31
0.0
  0
LINE
  5
206
330
1A0
100
AcDbEntity
  8
AM_4
100
AcDbLine
 10
0.5234989530000002
 20
-2.9614933125
 30
0.0
 11
-0.5234989529999999
 21
-2.961493312499998
 31
0.0
  0
LINE
  5
207
330
1A0
100
AcDbEntity
  8
AM_4
100
AcDbLine
 10
0.5234989529999998
 20
-3.281249999999998
 30
0.0
 11
0.9796875000000006
 21
-3.281249999999998
 31
0.0
  0
LINE
  5
208
330
1A0
100
AcDbEntity
  8
AM_4
100
AcDbLine
 10
0.8460946406250001
 20
-2.8433833125
 30
0.0
 11
0.9796875000000003
 21
-2.9614933125
 31
0.0
  0
LINE
  5
209
330
1A0
100
AcDbEntity
  8
AM_4
100
AcDbLine
 10
-0.8460946406250001
 20
2.312500000000001
 30
0.0
 11
0.8460946406250004
 21
2.312500000000001
 31
0.0
  0
LINE
  5
20A
330
1A0
100
AcDbEntity
  8
AM_4
100
AcDbLine
 10
-0.8460946406250001
 20
-2.3125
 30
0.0
 11
0.8460946406250004
 21
-2.3125
 31
0.0
  0
LINE
  5
20B
330
1A0
100
AcDbEntity
  8
AM_4
100
AcDbLine
 10
-0.846094640625
 20
-2.1875
 30
0.0
 11
0.8460946406250005
 21
-2.1875
 31
0.0
  0
ARC
  5
20C
330
1A0
100
AcDbEntity
  8
AM_4
100
AcDbCircle
 10
0.0
 20
0.0000000000000002
 30
0.0
 40
1.37499725
100
AcDbArc
 50
127.9768320625092
 51
232.0231679374908
  0
ARC
  5
20D
330
1A0
100
AcDbEntity
  8
AM_4
100
AcDbCircle
 10
0.0
 20
0.0000000000000002
 30
0.0
 40
1.374997250000001
100
AcDbArc
 50
307.9768320625092
 51
52.02316793749079
  0
LINE
  5
20E
330
1A0
100
AcDbEntity
  8
AM_4
100
AcDbLine
 10
-0.8460946406249997
 20
1.083854831890883
 30
0.0
 11
-0.8460946406249998
 21
2.8433833125
 31
0.0
  0
LINE
  5
20F
330
1A0
100
AcDbEntity
  8
AM_4
100
AcDbLine
 10
-0.8460946406249998
 20
-2.843383312499999
 30
0.0
 11
-0.8460946406249997
 21
-1.083854831890883
 31
0.0
  0
LINE
  5
210
330
1A0
100
AcDbEntity
  8
AM_4
100
AcDbLine
 10
0.8460946406250003
 20
-1.083854831890883
 30
0.0
 11
0.8460946406250001
 21
-2.8433833125
 31
0.0
  0
LINE
  5
211
330
1A0
100
AcDbEntity
  8
AM_4
100
AcDbLine
 10
0.8460946406250001
 20
2.8433833125
 30
0.0
 11
0.8460946406250003
 21
1.083854831890884
 31
0.0
  0
CIRCLE
  5
212
330
1A0
100
AcDbEntity
  8
AM_4
100
AcDbCircle
 10
0.0000000000000003
 20
0.0
 30
0.0
 40
0.7499985
  0
LINE
  5
213
330
1A0
100
AcDbEntity
  8
AM_4
100
AcDbLine
 10
-0.846094640625
 20
-2.0625
 30
0.0
 11
0.8460946406250005
 21
-2.0625
 31
0.0
  0
LINE
  5
214
330
1A0
100
AcDbEntity
  8
AM_4
100
AcDbLine
 10
-0.846094640625
 20
2.0625
 30
0.0
 11
0.8460946406250005
 21
2.0625
 31
0.0
  0
LINE
  5
215
330
1A0
100
AcDbEntity
  8
AM_4
100
AcDbLine
 10
-0.846094640625
 20
2.187500000000001
 30
0.0
 11
0.8460946406250005
 21
2.187500000000001
 31
0.0
  0
ENDBLK
  5
1A3
330
1A0
100
AcDbEntity
  8
0
100
AcDbBlockEnd
  0
ENDSEC
  0
SECTION
  2
ENTITIES
  0
INSERT
  5
6F
330
1F
100
AcDbEntity
  8
0
100
AcDbBlockReference
  2
1_136151_2
 10
0.0
 20
0.0
 30
0.0
  0
POINT
  5
217
330
1F
100
AcDbEntity
  8
ConnectionPoints
100
AcDbPoint
 10
0.0
 20
0.0
 30
0.0
  0
POINT
  5
218
330
1F
100
AcDbEntity
  8
ConnectionPoints
100
AcDbPoint
 10
0.0
 20
0.0
 30
0.0
  0
POINT
  5
219
330
1F
100
AcDbEntity
  8
ConnectionPoints
100
AcDbPoint
 10
0.890625
 20
0.0
 30
-0.0000000000000001
  0
POINT
  5
21A
330
1F
100
AcDbEntity
  8
ConnectionPoints
100
AcDbPoint
 10
0.0
 20
0.0
 30
0.0
  0
POINT
  5
21B
330
1F
100
AcDbEntity
  8
ConnectionPoints
100
AcDbPoint
 10
0.0
 20
0.0
 30
0.0
  0
POINT
  5
21C
330
1F
100
AcDbEntity
  8
ConnectionPoints
100
AcDbPoint
 10
0.0
 20
0.0
 30
0.0
  0
POINT
  5
21D
330
1F
100
AcDbEntity
  8
ConnectionPoints
100
AcDbPoint
 10
-0.0000000000000002
 20
-1.8625
 30
-3.225944629097034
  0
POINT
  5
21E
330
1F
100
AcDbEntity
  8
ConnectionPoints
100
AcDbPoint
 10
-0.890625
 20
0.0
 30
0.0000000000000001
  0
ENDSEC
  0
SECTION
  2
OBJECTS
  0
DICTIONARY
  5
C
330
0
100
AcDbDictionary
281
     1
  3
ACAD_DETAILVIEWSTYLE
350
226
  3
ACAD_GROUP
350
D
  3
ACAD_LAYOUT
350
1A
  3
ACAD_MATERIAL
350
43
  3
ACAD_MLEADERSTYLE
350
6B
  3
ACAD_MLINESTYLE
350
17
  3
ACAD_PLOTSETTINGS
350
19
  3
ACAD_PLOTSTYLENAME
350
E
  3
ACAD_SCALELIST
350
47
  3
ACAD_SECTIONVIEWSTYLE
350
227
  3
ACAD_TABLESTYLE
350
69
  3
ACAD_VISUALSTYLE
350
2A
  3
ACDB_RECOMPOSE_DATA
350
223
  3
AcDbVariableDictionary
350
21F
  0
SUN
  5
6D
330
29
100
AcDbSun
 90
        1
290
     0
 63
     7
421
 16777215
 40
1.0
291
     1
 91
  2455826
 92
 54000000
292
     0
 70
     2
 71
   256
280
     1
  0
DICTIONARY
  5
226
102
{ACAD_REACTORS
330
C
102
}
330
C
100
AcDbDictionary
281
     1
  0
DICTIONARY
  5
D
102
{ACAD_REACTORS
330
C
102
}
330
C
100
AcDbDictionary
281
     1
  0
DICTIONARY
  5
1A
102
{ACAD_REACTORS
330
C
102
}
330
C
100
AcDbDictionary
281
     1
  3
Layout1
350
1E
  3
Layout2
350
26
  3
Model
350
22
  0
DICTIONARY
  5
43
102
{ACAD_REACTORS
330
C
102
}
330
C
100
AcDbDictionary
281
     1
  3
ByBlock
350
45
  3
ByLayer
350
44
  3
Global
350
46
  0
DICTIONARY
  5
6B
102
{ACAD_REACTORS
330
C
102
}
330
C
100
AcDbDictionary
281
     1
  3
Standard
350
6C
  0
DICTIONARY
  5
17
102
{ACAD_REACTORS
330
C
102
}
330
C
100
AcDbDictionary
281
     1
  3
Standard
350
18
  0
DICTIONARY
  5
19
102
{ACAD_REACTORS
330
C
102
}
330
C
100
AcDbDictionary
281
     1
  0
ACDBDICTIONARYWDFLT
  5
E
102
{ACAD_REACTORS
330
C
102
}
330
C
100
AcDbDictionary
281
     1
  3
Normal
350
F
100
AcDbDictionaryWithDefault
340
F
  0
DICTIONARY
  5
47
102
{ACAD_REACTORS
330
C
102
}
330
C
100
AcDbDictionary
281
     1
  3
A0
350
48
  3
A1
350
49
  3
A2
350
4A
  3
A3
350
4B
  3
A4
350
4C
  3
A5
350
4D
  3
A6
350
4E
  3
A7
350
4F
  3
A8
350
50
  3
A9
350
51
  3
B0
350
52
  3
B1
350
53
  3
B2
350
54
  3
B3
350
55
  3
B4
350
56
  3
B5
350
57
  3
B6
350
58
  3
B7
350
59
  3
B8
350
5A
  3
B9
350
5B
  3
C0
350
5C
  3
C1
350
5D
  3
C2
350
5E
  3
C3
350
5F
  3
C4
350
60
  3
C5
350
61
  3
C6
350
62
  3
C7
350
63
  3
C8
350
64
  3
C9
350
65
  3
D0
350
66
  3
D1
350
67
  3
D2
350
68
  0
DICTIONARY
  5
227
102
{ACAD_REACTORS
330
C
102
}
330
C
100
AcDbDictionary
281
     1
  0
DICTIONARY
  5
69
102
{ACAD_REACTORS
330
C
102
}
330
C
100
AcDbDictionary
281
     1
  3
Standard
350
6A
  0
DICTIONARY
  5
2A
102
{ACAD_REACTORS
330
C
102
}
330
C
100
AcDbDictionary
281
     1
  3
2dWireframe
350
2F
  3
Basic
350
32
  3
Brighten
350
36
  3
ColorChange
350
3A
  3
Conceptual
350
34
  3
Dim
350
35
  3
EdgeColorOff
350
3D
  3
Facepattern
350
39
  3
Flat
350
2B
  3
FlatWithEdges
350
2C
  3
Gouraud
350
2D
  3
GouraudWithEdges
350
2E
  3
Hidden
350
31
  3
JitterOff
350
3B
  3
Linepattern
350
38
  3
OverhangOff
350
3C
  3
Realistic
350
33
  3
Shaded
350
42
  3
Shaded with edges
350
41
  3
Shades of Gray
350
3E
  3
Sketchy
350
3F
  3
Thicken
350
37
  3
Wireframe
350
30
  3
X-Ray
350
40
  0
XRECORD
  5
223
102
{ACAD_REACTORS
330
C
102
}
330
C
100
AcDbXrecord
280
     1
 90
        1
330
6A
  0
DICTIONARY
  5
21F
102
{ACAD_REACTORS
330
C
102
}
330
C
100
AcDbDictionary
281
     1
  3
CANNOSCALE
350
220
  3
CMLEADERSTYLE
350
225
  3
CTABLESTYLE
350
224
  0
LAYOUT
  5
1E
102
{ACAD_REACTORS
330
1A
102
}
330
1A
100
AcDbPlotSettings
  1

  2
none_device
  4

  6

 40
0.0
 41
0.0
 42
0.0
 43
0.0
 44
0.0
 45
0.0
 46
0.0
 47
0.0
 48
0.0
 49
0.0
140
0.0
141
0.0
142
1.0
143
1.0
 70
   688
 72
     0
 73
     0
 74
     5
  7

 75
    16
 76
     0
 77
     2
 78
   300
147
1.0
148
0.0
149
0.0
100
AcDbLayout
  1
Layout1
 70
     1
 71
     1
 10
0.0
 20
0.0
 11
12.0
 21
9.0
 12
0.0
 22
0.0
 32
0.0
 14
1.000000000000000E+20
 24
1.000000000000000E+20
 34
1.000000000000000E+20
 15
-1.000000000000000E+20
 25
-1.000000000000000E+20
 35
-1.000000000000000E+20
146
0.0
 13
0.0
 23
0.0
 33
0.0
 16
1.0
 26
0.0
 36
0.0
 17
0.0
 27
1.0
 37
0.0
 76
     0
330
1B
  0
LAYOUT
  5
26
102
{ACAD_REACTORS
330
1A
102
}
330
1A
100
AcDbPlotSettings
  1

  2
none_device
  4

  6

 40
0.0
 41
0.0
 42
0.0
 43
0.0
 44
0.0
 45
0.0
 46
0.0
 47
0.0
 48
0.0
 49
0.0
140
0.0
141
0.0
142
1.0
143
1.0
 70
   688
 72
     0
 73
     0
 74
     5
  7

 75
    16
 76
     0
 77
     2
 78
   300
147
1.0
148
0.0
149
0.0
100
AcDbLayout
  1
Layout2
 70
     1
 71
     2
 10
0.0
 20
0.0
 11
0.0
 21
0.0
 12
0.0
 22
0.0
 32
0.0
 14
0.0
 24
0.0
 34
0.0
 15
0.0
 25
0.0
 35
0.0
146
0.0
 13
0.0
 23
0.0
 33
0.0
 16
1.0
 26
0.0
 36
0.0
 17
0.0
 27
1.0
 37
0.0
 76
     0
330
23
  0
LAYOUT
  5
22
102
{ACAD_REACTORS
330
1A
102
}
330
1A
100
AcDbPlotSettings
  1

  2
none_device
  4
Letter_(8.50_x_11.00_Inches)
  6

 40
6.35
 41
6.35
 42
6.35000508
 43
6.35000508
 44
215.9
 45
279.4
 46
0.0
 47
0.0
 48
0.0
 49
0.0
140
0.0
141
0.0
142
1.0
143
1.0
 70
  1712
 72
     0
 73
     0
 74
     0
  7

 75
     0
 76
     0
 77
     2
 78
   300
147
1.0
148
0.0
149
0.0
100
AcDbLayout
  1
Model
 70
     1
 71
     0
 10
0.0
 20
0.0
 11
12.0
 21
9.0
 12
0.0
 22
0.0
 32
0.0
 14
1.000000000000000E+20
 24
1.000000000000000E+20
 34
1.000000000000000E+20
 15
-1.000000000000000E+20
 25
-1.000000000000000E+20
 35
-1.000000000000000E+20
146
0.0
 13
0.0
 23
0.0
 33
0.0
 16
1.0
 26
0.0
 36
0.0
 17
0.0
 27
1.0
 37
0.0
 76
     0
330
1F
331
29
  0
MATERIAL
  5
45
102
{ACAD_REACTORS
330
43
102
}
330
43
100
AcDbMaterial
  1
ByBlock
 72
     1
 94
      127
  0
MATERIAL
  5
44
102
{ACAD_REACTORS
330
43
102
}
330
43
100
AcDbMaterial
  1
ByLayer
 72
     1
 94
      127
  0
MATERIAL
  5
46
102
{ACAD_REACTORS
330
43
102
}
330
43
100
AcDbMaterial
  1
Global
 72
     1
 94
      127
  0
MLEADERSTYLE
  5
6C
102
{ACAD_REACTORS
330
6B
102
}
330
6B
100
AcDbMLeaderStyle
179
     2
170
     2
171
     1
172
     0
 90
        2
 40
0.0
 41
0.0
173
     1
 91
-1056964608
340
14
 92
       -2
290
     1
 42
0.09
291
     1
 43
0.36
  3
Standard
341
0
 44
0.18
300

342
11
174
     1
178
     6
175
     1
176
     0
 93
-1056964608
 45
0.18
292
     0
297
     0
 46
0.18
343
0
 94
-1056964608
 47
1.0
 49
1.0
140
1.0
293
     1
141
0.0
294
     1
177
     0
142
1.0
295
     0
296
     0
143
0.125
271
     0
272
     9
273
     9
298
     0
  0
MLINESTYLE
  5
18
102
{ACAD_REACTORS
330
17
102
}
330
17
100
AcDbMlineStyle
  2
Standard
 70
     0
  3

 62
   256
 51
90.0
 52
90.0
 71
     2
 49
0.5
 62
   256
  6
BYLAYER
 49
-0.5
 62
   256
  6
BYLAYER
  0
ACDBPLACEHOLDER
  5
F
102
{ACAD_REACTORS
330
E
102
}
330
E
  0
SCALE
  5
48
102
{ACAD_REACTORS
330
47
102
}
330
47
100
AcDbScale
 70
     0
300
1:1
140
1.0
141
1.0
290
     1
  0
SCALE
  5
49
102
{ACAD_REACTORS
330
47
102
}
330
47
100
AcDbScale
 70
     0
300
1:2
140
1.0
141
2.0
290
     0
  0
SCALE
  5
4A
102
{ACAD_REACTORS
330
47
102
}
330
47
100
AcDbScale
 70
     0
300
1:4
140
1.0
141
4.0
290
     0
  0
SCALE
  5
4B
102
{ACAD_REACTORS
330
47
102
}
330
47
100
AcDbScale
 70
     0
300
1:5
140
1.0
141
5.0
290
     0
  0
SCALE
  5
4C
102
{ACAD_REACTORS
330
47
102
}
330
47
100
AcDbScale
 70
     0
300
1:8
140
1.0
141
8.0
290
     0
  0
SCALE
  5
4D
102
{ACAD_REACTORS
330
47
102
}
330
47
100
AcDbScale
 70
     0
300
1:10
140
1.0
141
10.0
290
     0
  0
SCALE
  5
4E
102
{ACAD_REACTORS
330
47
102
}
330
47
100
AcDbScale
 70
     0
300
1:16
140
1.0
141
16.0
290
     0
  0
SCALE
  5
4F
102
{ACAD_REACTORS
330
47
102
}
330
47
100
AcDbScale
 70
     0
300
1:20
140
1.0
141
20.0
290
     0
  0
SCALE
  5
50
102
{ACAD_REACTORS
330
47
102
}
330
47
100
AcDbScale
 70
     0
300
1:30
140
1.0
141
30.0
290
     0
  0
SCALE
  5
51
102
{ACAD_REACTORS
330
47
102
}
330
47
100
AcDbScale
 70
     0
300
1:40
140
1.0
141
40.0
290
     0
  0
SCALE
  5
52
102
{ACAD_REACTORS
330
47
102
}
330
47
100
AcDbScale
 70
     0
300
1:50
140
1.0
141
50.0
290
     0
  0
SCALE
  5
53
102
{ACAD_REACTORS
330
47
102
}
330
47
100
AcDbScale
 70
     0
300
1:100
140
1.0
141
100.0
290
     0
  0
SCALE
  5
54
102
{ACAD_REACTORS
330
47
102
}
330
47
100
AcDbScale
 70
     0
300
2:1
140
2.0
141
1.0
290
     0
  0
SCALE
  5
55
102
{ACAD_REACTORS
330
47
102
}
330
47
100
AcDbScale
 70
     0
300
4:1
140
4.0
141
1.0
290
     0
  0
SCALE
  5
56
102
{ACAD_REACTORS
330
47
102
}
330
47
100
AcDbScale
 70
     0
300
8:1
140
8.0
141
1.0
290
     0
  0
SCALE
  5
57
102
{ACAD_REACTORS
330
47
102
}
330
47
100
AcDbScale
 70
     0
300
10:1
140
10.0
141
1.0
290
     0
  0
SCALE
  5
58
102
{ACAD_REACTORS
330
47
102
}
330
47
100
AcDbScale
 70
     0
300
100:1
140
100.0
141
1.0
290
     0
  0
SCALE
  5
59
102
{ACAD_REACTORS
330
47
102
}
330
47
100
AcDbScale
 70
     0
300
1/128" = 1'-0"
140
0.0078125
141
12.0
290
     0
  0
SCALE
  5
5A
102
{ACAD_REACTORS
330
47
102
}
330
47
100
AcDbScale
 70
     0
300
1/64" = 1'-0"
140
0.015625
141
12.0
290
     0
  0
SCALE
  5
5B
102
{ACAD_REACTORS
330
47
102
}
330
47
100
AcDbScale
 70
     0
300
1/32" = 1'-0"
140
0.03125
141
12.0
290
     0
  0
SCALE
  5
5C
102
{ACAD_REACTORS
330
47
102
}
330
47
100
AcDbScale
 70
     0
300
1/16" = 1'-0"
140
0.0625
141
12.0
290
     0
  0
SCALE
  5
5D
102
{ACAD_REACTORS
330
47
102
}
330
47
100
AcDbScale
 70
     0
300
3/32" = 1'-0"
140
0.09375
141
12.0
290
     0
  0
SCALE
  5
5E
102
{ACAD_REACTORS
330
47
102
}
330
47
100
AcDbScale
 70
     0
300
1/8" = 1'-0"
140
0.125
141
12.0
290
     0
  0
SCALE
  5
5F
102
{ACAD_REACTORS
330
47
102
}
330
47
100
AcDbScale
 70
     0
300
3/16" = 1'-0"
140
0.1875
141
12.0
290
     0
  0
SCALE
  5
60
102
{ACAD_REACTORS
330
47
102
}
330
47
100
AcDbScale
 70
     0
300
1/4" = 1'-0"
140
0.25
141
12.0
290
     0
  0
SCALE
  5
61
102
{ACAD_REACTORS
330
47
102
}
330
47
100
AcDbScale
 70
     0
300
3/8" = 1'-0"
140
0.375
141
12.0
290
     0
  0
SCALE
  5
62
102
{ACAD_REACTORS
330
47
102
}
330
47
100
AcDbScale
 70
     0
300
1/2" = 1'-0"
140
0.5
141
12.0
290
     0
  0
SCALE
  5
63
102
{ACAD_REACTORS
330
47
102
}
330
47
100
AcDbScale
 70
     0
300
3/4" = 1'-0"
140
0.75
141
12.0
290
     0
  0
SCALE
  5
64
102
{ACAD_REACTORS
330
47
102
}
330
47
100
AcDbScale
 70
     0
300
1" = 1'-0"
140
1.0
141
12.0
290
     0
  0
SCALE
  5
65
102
{ACAD_REACTORS
330
47
102
}
330
47
100
AcDbScale
 70
     0
300
1-1/2" = 1'-0"
140
1.5
141
12.0
290
     0
  0
SCALE
  5
66
102
{ACAD_REACTORS
330
47
102
}
330
47
100
AcDbScale
 70
     0
300
3" = 1'-0"
140
3.0
141
12.0
290
     0
  0
SCALE
  5
67
102
{ACAD_REACTORS
330
47
102
}
330
47
100
AcDbScale
 70
     0
300
6" = 1'-0"
140
6.0
141
12.0
290
     0
  0
SCALE
  5
68
102
{ACAD_REACTORS
330
47
102
}
330
47
100
AcDbScale
 70
     0
300
1'-0" = 1'-0"
140
12.0
141
12.0
290
     0
  0
TABLESTYLE
  5
6A
102
{ACAD_REACTORS
330
69
102
}
102
{ACAD_XDICTIONARY
360
221
102
}
330
69
100
AcDbTableStyle
  3
Standard
 70
     0
 71
     0
 40
0.06
 41
0.06
280
     0
281
     0
  7
Standard
140
0.18
170
     2
 62
     0
 63
   257
283
     0
 90
        4
 91
        0
  1

274
    -2
284
     1
 64
     0
275
    -2
285
     1
 65
     0
276
    -2
286
     1
 66
     0
277
    -2
287
     1
 67
     0
278
    -2
288
     1
 68
     0
279
    -2
289
     1
 69
     0
  7
Standard
140
0.25
170
     5
 62
     0
 63
   257
283
     0
 90
        4
 91
        0
  1

274
    -2
284
     1
 64
     0
275
    -2
285
     1
 65
     0
276
    -2
286
     1
 66
     0
277
    -2
287
     1
 67
     0
278
    -2
288
     1
 68
     0
279
    -2
289
     1
 69
     0
  7
Standard
140
0.18
170
     5
 62
     0
 63
   257
283
     0
 90
        4
 91
        0
  1

274
    -2
284
     1
 64
     0
275
    -2
285
     1
 65
     0
276
    -2
286
     1
 66
     0
277
    -2
287
     1
 67
     0
278
    -2
288
     1
 68
     0
279
    -2
289
     1
 69
     0
  0
VISUALSTYLE
  5
2F
102
{ACAD_REACTORS
330
2A
102
}
330
2A
100
AcDbVisualStyle
  2
2dWireframe
 70
     4
177
     3
291
     0
 70
    58
 90
        0
176
     1
 90
        2
176
     1
 90
        0
176
     1
 90
        0
176
     1
 40
0.6
176
     1
 40
30.0
176
     1
 62
     7
420
 16777215
176
     1
 90
        1
176
     1
 90
        4
176
     1
 62
     7
176
     1
 62
   257
176
     1
 90
        1
176
     1
 90
        1
176
     1
 40
1.0
176
     1
 90
        0
176
     1
 62
   257
176
     1
 40
1.0
176
     1
 90
        1
176
     1
 90
        6
176
     1
 90
        2
176
     1
 62
     7
176
     1
 90
        5
176
     1
 90
        0
176
     1
 90
        0
176
     1
290
     0
176
     1
 90
        1
176
     1
 40
0.0
176
     1
 90
        0
176
     1
290
     1
176
     1
290
     1
176
     1
290
     0
176
     1
290
     0
176
     1
290
     0
176
     1
290
     0
176
     1
290
     0
176
     1
290
     0
176
     1
290
     0
176
     1
 90
       50
176
     1
 40
0.0
176
     1
 40
1.0
176
     1
 90
        0
176
     1
 62
    18
420
        0
176
     1
 90
       50
176
     1
 90
        3
176
     1
 62
     5
420
      255
176
     1
290
     0
176
     1
 90
       50
176
     1
 90
       50
176
     1
 90
       50
176
     1
290
     0
176
     1
 90
       50
176
     1
 62
   256
176
     0
 40
1.0
176
     0
 90
        2
176
     1
  1
strokes_ogs.tif
176
     1
290
     0
176
     1
 40
1.0
176
     1
 40
1.0
176
     1
  0
VISUALSTYLE
  5
32
102
{ACAD_REACTORS
330
2A
102
}
330
2A
100
AcDbVisualStyle
  2
Basic
 70
     7
177
     3
291
     1
 70
    58
 90
        1
176
     1
 90
        0
176
     1
 90
        1
176
     1
 90
        0
176
     1
 40
0.6
176
     1
 40
30.0
176
     1
 62
     7
420
 16777215
176
     1
 90
        0
176
     1
 90
        4
176
     1
 62
     7
176
     1
 62
   257
176
     1
 90
        1
176
     1
 90
        1
176
     1
 40
1.0
176
     1
 90
        8
176
     1
 62
     7
176
     1
 40
1.0
176
     1
 90
        1
176
     1
 90
        6
176
     1
 90
        2
176
     1
 62
     7
176
     1
 90
        5
176
     1
 90
        0
176
     1
 90
        0
176
     1
290
     0
176
     1
 90
        1
176
     1
 40
0.0
176
     1
 90
        0
176
     1
290
     0
176
     1
290
     1
176
     1
290
     1
176
     1
290
     0
176
     1
290
     0
176
     1
290
     0
176
     1
290
     0
176
     1
290
     0
176
     1
290
     0
176
     1
 90
       50
176
     1
 40
0.0
176
     1
 40
1.0
176
     1
 90
        0
176
     1
 62
    18
420
        0
176
     1
 90
       50
176
     1
 90
        3
176
     1
 62
     5
420
      255
176
     1
290
     0
176
     1
 90
       50
176
     1
 90
       50
176
     1
 90
       50
176
     1
290
     0
176
     1
 90
       50
176
     1
 62
   256
176
     0
 40
1.0
176
     0
 90
        2
176
     1
  1
strokes_ogs.tif
176
     1
290
     0
176
     1
 40
1.0
176
     1
 40
1.0
176
     1
  0
VISUALSTYLE
  5
36
102
{ACAD_REACTORS
330
2A
102
}
330
2A
100
AcDbVisualStyle
  2
Brighten
 70
    12
177
     3
291
     1
 70
    58
 90
        2
176
     1
 90
        2
176
     1
 90
        0
176
     1
 90
        0
176
     1
 40
0.6
176
     1
 40
30.0
176
     1
 62
     7
420
 16777215
176
     1
 90
        1
176
     1
 90
        4
176
     1
 62
     7
176
     1
 62
   257
176
     1
 90
        1
176
     1
 90
        1
176
     1
 40
1.0
176
     1
 90
        8
176
     1
 62
     7
176
     1
 40
1.0
176
     1
 90
        1
176
     1
 90
        6
176
     1
 90
        2
176
     1
 62
     7
176
     1
 90
        5
176
     1
 90
        0
176
     1
 90
        0
176
     1
290
     0
176
     1
 90
        1
176
     1
 40
50.0
176
     1
 90
        0
176
     1
290
     0
176
     1
290
     1
176
     1
290
     1
176
     1
290
     0
176
     1
290
     0
176
     1
290
     0
176
     1
290
     0
176
     1
290
     0
176
     1
290
     0
176
     1
 90
       50
176
     1
 40
0.0
176
     1
 40
1.0
176
     1
 90
        0
176
     1
 62
    18
420
        0
176
     1
 90
       50
176
     1
 90
        3
176
     1
 62
     5
420
      255
176
     1
290
     0
176
     1
 90
       50
176
     1
 90
       50
176
     1
 90
       50
176
     1
290
     0
176
     1
 90
       50
176
     1
 62
   256
176
     0
 40
1.0
176
     0
 90
        2
176
     1
  1
strokes_ogs.tif
176
     1
290
     0
176
     1
 40
1.0
176
     1
 40
1.0
176
     1
  0
VISUALSTYLE
  5
3A
102
{ACAD_REACTORS
330
2A
102
}
330
2A
100
AcDbVisualStyle
  2
ColorChange
 70
    16
177
     3
291
     1
 70
    58
 90
        2
176
     1
 90
        2
176
     1
 90
        3
176
     1
 90
        0
176
     1
 40
0.6
176
     1
 40
30.0
176
     1
 62
     8
420
  8421504
176
     1
 90
        1
176
     1
 90
        4
176
     1
 62
     7
176
     1
 62
   257
176
     1
 90
        1
176
     1
 90
        1
176
     1
 40
1.0
176
     1
 90
        8
176
     1
 62
     8
420
  8421504
176
     1
 40
1.0
176
     1
 90
        1
176
     1
 90
        6
176
     1
 90
        2
176
     1
 62
     7
176
     1
 90
        5
176
     1
 90
        0
176
     1
 90
        0
176
     1
290
     0
176
     1
 90
        1
176
     1
 40
0.0
176
     1
 90
        0
176
     1
290
     0
176
     1
290
     1
176
     1
290
     1
176
     1
290
     0
176
     1
290
     0
176
     1
290
     0
176
     1
290
     0
176
     1
290
     0
176
     1
290
     0
176
     1
 90
       50
176
     1
 40
0.0
176
     1
 40
1.0
176
     1
 90
        0
176
     1
 62
    18
420
        0
176
     1
 90
       50
176
     1
 90
        3
176
     1
 62
     5
420
      255
176
     1
290
     0
176
     1
 90
       50
176
     1
 90
       50
176
     1
 90
       50
176
     1
290
     0
176
     1
 90
       50
176
     1
 62
   256
176
     0
 40
1.0
176
     0
 90
        2
176
     1
  1
strokes_ogs.tif
176
     1
290
     0
176
     1
 40
1.0
176
     1
 40
1.0
176
     1
  0
VISUALSTYLE
  5
34
102
{ACAD_REACTORS
330
2A
102
}
330
2A
100
AcDbVisualStyle
  2
Conceptual
 70
     9
177
     3
291
     0
 70
    58
 90
        3
176
     1
 90
        2
176
     1
 90
        0
176
     1
 90
        0
176
     1
 40
0.6
176
     1
 40
30.0
176
     1
 62
     7
420
 16777215
176
     1
 90
        2
176
     1
 90
        2
176
     1
 62
     7
176
     1
 62
   257
176
     1
 90
        1
176
     1
 90
        1
176
     1
 40
179.0
176
     1
 90
        8
176
     1
 62
     7
176
     1
 40
1.0
176
     1
 90
        1
176
     1
 90
        6
176
     1
 90
        2
176
     1
 62
     7
176
     1
 90
        3
176
     1
 90
        0
176
     1
 90
        0
176
     1
290
     0
176
     1
 90
        1
176
     1
 40
0.0
176
     1
 90
        0
176
     1
290
     0
176
     1
290
     1
176
     1
290
     1
176
     1
290
     0
176
     1
290
     0
176
     1
290
     0
176
     1
290
     0
176
     1
290
     0
176
     1
290
     0
176
     1
 90
       50
176
     1
 40
0.0
176
     1
 40
1.0
176
     1
 90
        0
176
     1
 62
    18
420
        0
176
     1
 90
       50
176
     1
 90
        3
176
     1
 62
     5
420
      255
176
     1
290
     0
176
     1
 90
       50
176
     1
 90
       50
176
     1
 90
       50
176
     1
290
     0
176
     1
 90
       50
176
     1
 62
   256
176
     0
 40
1.0
176
     0
 90
        2
176
     1
  1
strokes_ogs.tif
176
     1
290
     0
176
     1
 40
1.0
176
     1
 40
1.0
176
     1
  0
VISUALSTYLE
  5
35
102
{ACAD_REACTORS
330
2A
102
}
330
2A
100
AcDbVisualStyle
  2
Dim
 70
    11
177
     3
291
     1
 70
    58
 90
        2
176
     1
 90
        2
176
     1
 90
        0
176
     1
 90
        0
176
     1
 40
0.6
176
     1
 40
30.0
176
     1
 62
     7
420
 16777215
176
     1
 90
        1
176
     1
 90
        4
176
     1
 62
     7
176
     1
 62
   257
176
     1
 90
        1
176
     1
 90
        1
176
     1
 40
1.0
176
     1
 90
        8
176
     1
 62
     7
176
     1
 40
1.0
176
     1
 90
        1
176
     1
 90
        6
176
     1
 90
        2
176
     1
 62
     7
176
     1
 90
        5
176
     1
 90
        0
176
     1
 90
        0
176
     1
290
     0
176
     1
 90
        1
176
     1
 40
-50.0
176
     1
 90
        0
176
     1
290
     0
176
     1
290
     1
176
     1
290
     1
176
     1
290
     0
176
     1
290
     0
176
     1
290
     0
176
     1
290
     0
176
     1
290
     0
176
     1
290
     0
176
     1
 90
       50
176
     1
 40
0.0
176
     1
 40
1.0
176
     1
 90
        0
176
     1
 62
    18
420
        0
176
     1
 90
       50
176
     1
 90
        3
176
     1
 62
     5
420
      255
176
     1
290
     0
176
     1
 90
       50
176
     1
 90
       50
176
     1
 90
       50
176
     1
290
     0
176
     1
 90
       50
176
     1
 62
   256
176
     0
 40
1.0
176
     0
 90
        2
176
     1
  1
strokes_ogs.tif
176
     1
290
     0
176
     1
 40
1.0
176
     1
 40
1.0
176
     1
  0
VISUALSTYLE
  5
3D
102
{ACAD_REACTORS
330
2A
102
}
330
2A
100
AcDbVisualStyle
  2
EdgeColorOff
 70
    22
177
     3
291
     1
 70
    58
 90
        2
176
     0
 90
        2
176
     0
 90
        0
176
     0
 90
        0
176
     0
 40
0.6
176
     0
 40
30.0
176
     0
 62
     7
420
 16777215
176
     0
 90
        1
176
     0
 90
        4
176
     0
 62
     7
176
     0
 62
   257
176
     0
 90
        1
176
     0
 90
        1
176
     0
 40
1.0
176
     0
 90
        8
176
     2
 62
     7
176
     0
 40
1.0
176
     0
 90
        1
176
     0
 90
        6
176
     0
 90
        2
176
     0
 62
     7
176
     0
 90
        5
176
     0
 90
        0
176
     0
 90
        0
176
     0
290
     0
176
     0
 90
        1
176
     0
 40
0.0
176
     0
 90
        0
176
     0
290
     0
176
     0
290
     1
176
     0
290
     1
176
     0
290
     0
176
     0
290
     0
176
     0
290
     0
176
     0
290
     0
176
     0
290
     0
176
     0
290
     0
176
     0
 90
       50
176
     0
 40
0.0
176
     0
 40
1.0
176
     0
 90
        0
176
     0
 62
    18
420
        0
176
     0
 90
       50
176
     0
 90
        3
176
     0
 62
     5
420
      255
176
     0
290
     0
176
     0
 90
       50
176
     0
 90
       50
176
     0
 90
       50
176
     0
290
     0
176
     0
 90
       50
176
     0
 62
   256
176
     0
 40
1.0
176
     0
 90
        2
176
     0
  1
strokes_ogs.tif
176
     0
290
     0
176
     0
 40
1.0
176
     0
 40
1.0
176
     0
  0
VISUALSTYLE
  5
39
102
{ACAD_REACTORS
330
2A
102
}
330
2A
100
AcDbVisualStyle
  2
Facepattern
 70
    15
177
     3
291
     1
 70
    58
 90
        2
176
     1
 90
        2
176
     1
 90
        0
176
     1
 90
        0
176
     1
 40
0.6
176
     1
 40
30.0
176
     1
 62
     7
420
 16777215
176
     1
 90
        1
176
     1
 90
        4
176
     1
 62
     7
176
     1
 62
   257
176
     1
 90
        1
176
     1
 90
        1
176
     1
 40
1.0
176
     1
 90
        8
176
     1
 62
     7
176
     1
 40
1.0
176
     1
 90
        1
176
     1
 90
        6
176
     1
 90
        2
176
     1
 62
     7
176
     1
 90
        5
176
     1
 90
        0
176
     1
 90
        0
176
     1
290
     0
176
     1
 90
        1
176
     1
 40
0.0
176
     1
 90
        0
176
     1
290
     0
176
     1
290
     1
176
     1
290
     1
176
     1
290
     0
176
     1
290
     0
176
     1
290
     0
176
     1
290
     0
176
     1
290
     0
176
     1
290
     0
176
     1
 90
       50
176
     1
 40
0.0
176
     1
 40
1.0
176
     1
 90
        0
176
     1
 62
    18
420
        0
176
     1
 90
       50
176
     1
 90
        3
176
     1
 62
     5
420
      255
176
     1
290
     0
176
     1
 90
       50
176
     1
 90
       50
176
     1
 90
       50
176
     1
290
     0
176
     1
 90
       50
176
     1
 62
   256
176
     0
 40
1.0
176
     0
 90
        2
176
     1
  1
strokes_ogs.tif
176
     1
290
     0
176
     1
 40
1.0
176
     1
 40
1.0
176
     1
  0
VISUALSTYLE
  5
2B
102
{ACAD_REACTORS
330
2A
102
}
330
2A
100
AcDbVisualStyle
  2
Flat
 70
     0
177
     3
291
     1
 70
    58
 90
        2
176
     1
 90
        1
176
     1
 90
        1
176
     1
 90
        2
176
     1
 40
0.6
176
     1
 40
30.0
176
     1
 62
     7
420
 16777215
176
     1
 90
        0
176
     1
 90
        0
176
     1
 62
     7
176
     1
 62
   257
176
     1
 90
        1
176
     1
 90
        1
176
     1
 40
1.0
176
     1
 90
        8
176
     1
 62
     7
176
     1
 40
1.0
176
     1
 90
        1
176
     1
 90
        6
176
     1
 90
        2
176
     1
 62
     7
176
     1
 90
        5
176
     1
 90
        0
176
     1
 90
        0
176
     1
290
     0
176
     1
 90
       13
176
     1
 40
0.0
176
     1
 90
        0
176
     1
290
     0
176
     1
290
     1
176
     1
290
     1
176
     1
290
     0
176
     1
290
     0
176
     1
290
     0
176
     1
290
     0
176
     1
290
     0
176
     1
290
     0
176
     1
 90
       50
176
     1
 40
0.0
176
     1
 40
1.0
176
     1
 90
        0
176
     1
 62
    18
420
        0
176
     1
 90
       50
176
     1
 90
        3
176
     1
 62
     5
420
      255
176
     1
290
     0
176
     1
 90
       50
176
     1
 90
       50
176
     1
 90
       50
176
     1
290
     0
176
     1
 90
       50
176
     1
 62
   256
176
     0
 40
1.0
176
     0
 90
        2
176
     1
  1
strokes_ogs.tif
176
     1
290
     0
176
     1
 40
1.0
176
     1
 40
1.0
176
     1
  0
VISUALSTYLE
  5
2C
102
{ACAD_REACTORS
330
2A
102
}
330
2A
100
AcDbVisualStyle
  2
FlatWithEdges
 70
     1
177
     3
291
     1
 70
    58
 90
        2
176
     1
 90
        1
176
     1
 90
        1
176
     1
 90
        2
176
     1
 40
0.6
176
     1
 40
30.0
176
     1
 62
     7
420
 16777215
176
     1
 90
        1
176
     1
 90
        0
176
     1
 62
     7
176
     1
 62
   257
176
     1
 90
        1
176
     1
 90
        1
176
     1
 40
1.0
176
     1
 90
        0
176
     1
 62
   257
176
     1
 40
1.0
176
     1
 90
        1
176
     1
 90
        6
176
     1
 90
        2
176
     1
 62
     7
176
     1
 90
        5
176
     1
 90
        0
176
     1
 90
        0
176
     1
290
     0
176
     1
 90
       13
176
     1
 40
0.0
176
     1
 90
        0
176
     1
290
     0
176
     1
290
     1
176
     1
290
     1
176
     1
290
     0
176
     1
290
     0
176
     1
290
     0
176
     1
290
     0
176
     1
290
     0
176
     1
290
     0
176
     1
 90
       50
176
     1
 40
0.0
176
     1
 40
1.0
176
     1
 90
        0
176
     1
 62
    18
420
        0
176
     1
 90
       50
176
     1
 90
        3
176
     1
 62
     5
420
      255
176
     1
290
     0
176
     1
 90
       50
176
     1
 90
       50
176
     1
 90
       50
176
     1
290
     0
176
     1
 90
       50
176
     1
 62
   256
176
     0
 40
1.0
176
     0
 90
        2
176
     1
  1
strokes_ogs.tif
176
     1
290
     0
176
     1
 40
1.0
176
     1
 40
1.0
176
     1
  0
VISUALSTYLE
  5
2D
102
{ACAD_REACTORS
330
2A
102
}
330
2A
100
AcDbVisualStyle
  2
Gouraud
 70
     2
177
     3
291
     1
 70
    58
 90
        2
176
     1
 90
        2
176
     1
 90
        1
176
     1
 90
        2
176
     1
 40
0.6
176
     1
 40
30.0
176
     1
 62
     7
420
 16777215
176
     1
 90
        0
176
     1
 90
        0
176
     1
 62
     7
176
     1
 62
   257
176
     1
 90
        1
176
     1
 90
        1
176
     1
 40
1.0
176
     1
 90
        0
176
     1
 62
     7
176
     1
 40
1.0
176
     1
 90
        1
176
     1
 90
        6
176
     1
 90
        2
176
     1
 62
     7
176
     1
 90
        5
176
     1
 90
        0
176
     1
 90
        0
176
     1
290
     0
176
     1
 90
       13
176
     1
 40
0.0
176
     1
 90
        0
176
     1
290
     0
176
     1
290
     1
176
     1
290
     1
176
     1
290
     0
176
     1
290
     0
176
     1
290
     0
176
     1
290
     0
176
     1
290
     0
176
     1
290
     0
176
     1
 90
       50
176
     1
 40
0.0
176
     1
 40
1.0
176
     1
 90
        0
176
     1
 62
    18
420
        0
176
     1
 90
       50
176
     1
 90
        3
176
     1
 62
     5
420
      255
176
     1
290
     0
176
     1
 90
       50
176
     1
 90
       50
176
     1
 90
       50
176
     1
290
     0
176
     1
 90
       50
176
     1
 62
   256
176
     0
 40
1.0
176
     0
 90
        2
176
     1
  1
strokes_ogs.tif
176
     1
290
     0
176
     1
 40
1.0
176
     1
 40
1.0
176
     1
  0
VISUALSTYLE
  5
2E
102
{ACAD_REACTORS
330
2A
102
}
330
2A
100
AcDbVisualStyle
  2
GouraudWithEdges
 70
     3
177
     3
291
     1
 70
    58
 90
        2
176
     1
 90
        2
176
     1
 90
        1
176
     1
 90
        2
176
     1
 40
0.6
176
     1
 40
30.0
176
     1
 62
     7
420
 16777215
176
     1
 90
        1
176
     1
 90
        0
176
     1
 62
     7
176
     1
 62
   257
176
     1
 90
        1
176
     1
 90
        1
176
     1
 40
1.0
176
     1
 90
        0
176
     1
 62
   257
176
     1
 40
1.0
176
     1
 90
        1
176
     1
 90
        6
176
     1
 90
        2
176
     1
 62
     7
176
     1
 90
        5
176
     1
 90
        0
176
     1
 90
        0
176
     1
290
     0
176
     1
 90
       13
176
     1
 40
0.0
176
     1
 90
        0
176
     1
290
     0
176
     1
290
     1
176
     1
290
     1
176
     1
290
     0
176
     1
290
     0
176
     1
290
     0
176
     1
290
     0
176
     1
290
     0
176
     1
290
     0
176
     1
 90
       50
176
     1
 40
0.0
176
     1
 40
1.0
176
     1
 90
        0
176
     1
 62
    18
420
        0
176
     1
 90
       50
176
     1
 90
        3
176
     1
 62
     5
420
      255
176
     1
290
     0
176
     1
 90
       50
176
     1
 90
       50
176
     1
 90
       50
176
     1
290
     0
176
     1
 90
       50
176
     1
 62
   256
176
     0
 40
1.0
176
     0
 90
        2
176
     1
  1
strokes_ogs.tif
176
     1
290
     0
176
     1
 40
1.0
176
     1
 40
1.0
176
     1
  0
VISUALSTYLE
  5
31
102
{ACAD_REACTORS
330
2A
102
}
330
2A
100
AcDbVisualStyle
  2
Hidden
 70
     6
177
     3
291
     0
 70
    58
 90
        1
176
     1
 90
        2
176
     1
 90
        2
176
     1
 90
        0
176
     1
 40
0.6
176
     1
 40
30.0
176
     1
 62
     7
420
 16777215
176
     1
 90
        2
176
     1
 90
        2
176
     1
 62
     7
176
     1
 62
   257
176
     1
 90
        2
176
     1
 90
        1
176
     1
 40
40.0
176
     1
 90
        0
176
     1
 62
   257
176
     1
 40
1.0
176
     1
 90
        1
176
     1
 90
        6
176
     1
 90
        2
176
     1
 62
     7
176
     1
 90
        3
176
     1
 90
        0
176
     1
 90
        0
176
     1
290
     0
176
     1
 90
        1
176
     1
 40
0.0
176
     1
 90
        0
176
     1
290
     0
176
     1
290
     1
176
     1
290
     1
176
     1
290
     0
176
     1
290
     0
176
     1
290
     0
176
     1
290
     0
176
     1
290
     0
176
     1
290
     0
176
     1
 90
       50
176
     1
 40
0.0
176
     1
 40
1.0
176
     1
 90
        0
176
     1
 62
    18
420
        0
176
     1
 90
       50
176
     1
 90
        3
176
     1
 62
     5
420
      255
176
     1
290
     0
176
     1
 90
       50
176
     1
 90
       50
176
     1
 90
       50
176
     1
290
     0
176
     1
 90
       50
176
     1
 62
   256
176
     0
 40
1.0
176
     0
 90
        2
176
     1
  1
strokes_ogs.tif
176
     1
290
     0
176
     1
 40
1.0
176
     1
 40
1.0
176
     1
  0
VISUALSTYLE
  5
3B
102
{ACAD_REACTORS
330
2A
102
}
330
2A
100
AcDbVisualStyle
  2
JitterOff
 70
    20
177
     3
291
     1
 70
    58
 90
        2
176
     0
 90
        2
176
     0
 90
        0
176
     0
 90
        0
176
     0
 40
0.6
176
     0
 40
30.0
176
     0
 62
     7
420
 16777215
176
     0
 90
        1
176
     0
 90
        4
176
     0
 62
     7
176
     0
 62
   257
176
     0
 90
        1
176
     0
 90
        1
176
     0
 40
1.0
176
     0
 90
       10
176
     2
 62
     7
176
     0
 40
1.0
176
     0
 90
        1
176
     0
 90
        6
176
     0
 90
        2
176
     0
 62
     7
176
     0
 90
        5
176
     0
 90
        0
176
     0
 90
        0
176
     0
290
     0
176
     0
 90
        1
176
     0
 40
0.0
176
     0
 90
        0
176
     0
290
     0
176
     0
290
     1
176
     0
290
     1
176
     0
290
     0
176
     0
290
     0
176
     0
290
     0
176
     0
290
     0
176
     0
290
     0
176
     0
290
     0
176
     0
 90
       50
176
     0
 40
0.0
176
     0
 40
1.0
176
     0
 90
        0
176
     0
 62
    18
420
        0
176
     0
 90
       50
176
     0
 90
        3
176
     0
 62
     5
420
      255
176
     0
290
     0
176
     0
 90
       50
176
     0
 90
       50
176
     0
 90
       50
176
     0
290
     0
176
     0
 90
       50
176
     0
 62
   256
176
     0
 40
1.0
176
     0
 90
        2
176
     0
  1
strokes_ogs.tif
176
     0
290
     0
176
     0
 40
1.0
176
     0
 40
1.0
176
     0
  0
VISUALSTYLE
  5
38
102
{ACAD_REACTORS
330
2A
102
}
330
2A
100
AcDbVisualStyle
  2
Linepattern
 70
    14
177
     3
291
     1
 70
    58
 90
        2
176
     1
 90
        2
176
     1
 90
        0
176
     1
 90
        0
176
     1
 40
0.6
176
     1
 40
30.0
176
     1
 62
     7
420
 16777215
176
     1
 90
        1
176
     1
 90
        4
176
     1
 62
     7
176
     1
 62
   257
176
     1
 90
        7
176
     1
 90
        7
176
     1
 40
1.0
176
     1
 90
        8
176
     1
 62
     7
176
     1
 40
1.0
176
     1
 90
        1
176
     1
 90
        6
176
     1
 90
        2
176
     1
 62
     7
176
     1
 90
        5
176
     1
 90
        0
176
     1
 90
        0
176
     1
290
     0
176
     1
 90
        1
176
     1
 40
0.0
176
     1
 90
        0
176
     1
290
     0
176
     1
290
     1
176
     1
290
     1
176
     1
290
     0
176
     1
290
     0
176
     1
290
     0
176
     1
290
     0
176
     1
290
     0
176
     1
290
     0
176
     1
 90
       50
176
     1
 40
0.0
176
     1
 40
1.0
176
     1
 90
        0
176
     1
 62
    18
420
        0
176
     1
 90
       50
176
     1
 90
        3
176
     1
 62
     5
420
      255
176
     1
290
     0
176
     1
 90
       50
176
     1
 90
       50
176
     1
 90
       50
176
     1
290
     0
176
     1
 90
       50
176
     1
 62
   256
176
     0
 40
1.0
176
     0
 90
        2
176
     1
  1
strokes_ogs.tif
176
     1
290
     0
176
     1
 40
1.0
176
     1
 40
1.0
176
     1
  0
VISUALSTYLE
  5
3C
102
{ACAD_REACTORS
330
2A
102
}
330
2A
100
AcDbVisualStyle
  2
OverhangOff
 70
    21
177
     3
291
     1
 70
    58
 90
        2
176
     0
 90
        2
176
     0
 90
        0
176
     0
 90
        0
176
     0
 40
0.6
176
     0
 40
30.0
176
     0
 62
     7
420
 16777215
176
     0
 90
        1
176
     0
 90
        4
176
     0
 62
     7
176
     0
 62
   257
176
     0
 90
        1
176
     0
 90
        1
176
     0
 40
1.0
176
     0
 90
        9
176
     2
 62
     7
176
     0
 40
1.0
176
     0
 90
        1
176
     0
 90
        6
176
     0
 90
        2
176
     0
 62
     7
176
     0
 90
        5
176
     0
 90
        0
176
     0
 90
        0
176
     0
290
     0
176
     0
 90
        1
176
     0
 40
0.0
176
     0
 90
        0
176
     0
290
     0
176
     0
290
     1
176
     0
290
     1
176
     0
290
     0
176
     0
290
     0
176
     0
290
     0
176
     0
290
     0
176
     0
290
     0
176
     0
290
     0
176
     0
 90
       50
176
     0
 40
0.0
176
     0
 40
1.0
176
     0
 90
        0
176
     0
 62
    18
420
        0
176
     0
 90
       50
176
     0
 90
        3
176
     0
 62
     5
420
      255
176
     0
290
     0
176
     0
 90
       50
176
     0
 90
       50
176
     0
 90
       50
176
     0
290
     0
176
     0
 90
       50
176
     0
 62
   256
176
     0
 40
1.0
176
     0
 90
        2
176
     0
  1
strokes_ogs.tif
176
     0
290
     0
176
     0
 40
1.0
176
     0
 40
1.0
176
     0
  0
VISUALSTYLE
  5
33
102
{ACAD_REACTORS
330
2A
102
}
330
2A
100
AcDbVisualStyle
  2
Realistic
 70
     8
177
     3
291
     0
 70
    58
 90
        2
176
     1
 90
        3
176
     1
 90
        0
176
     1
 90
        2
176
     1
 40
0.6
176
     1
 40
30.0
176
     1
 62
     7
420
 16777215
176
     1
 90
        0
176
     1
 90
        0
176
     1
 62
     7
176
     1
 62
   257
176
     1
 90
        1
176
     1
 90
        1
176
     1
 40
1.0
176
     1
 90
        8
176
     1
 62
   257
176
     1
 40
1.0
176
     1
 90
        1
176
     1
 90
        6
176
     1
 90
        2
176
     1
 62
     7
176
     1
 90
        3
176
     1
 90
        0
176
     1
 90
        0
176
     1
290
     0
176
     1
 90
       13
176
     1
 40
0.0
176
     1
 90
        0
176
     1
290
     0
176
     1
290
     1
176
     1
290
     1
176
     1
290
     0
176
     1
290
     0
176
     1
290
     0
176
     1
290
     0
176
     1
290
     0
176
     1
290
     0
176
     1
 90
       50
176
     1
 40
0.0
176
     1
 40
1.0
176
     1
 90
        0
176
     1
 62
    18
420
        0
176
     1
 90
       50
176
     1
 90
        3
176
     1
 62
     5
420
      255
176
     1
290
     0
176
     1
 90
       50
176
     1
 90
       50
176
     1
 90
       50
176
     1
290
     0
176
     1
 90
       50
176
     1
 62
   256
176
     0
 40
1.0
176
     0
 90
        2
176
     1
  1
strokes_ogs.tif
176
     1
290
     0
176
     1
 40
1.0
176
     1
 40
1.0
176
     1
  0
VISUALSTYLE
  5
42
102
{ACAD_REACTORS
330
2A
102
}
330
2A
100
AcDbVisualStyle
  2
Shaded
 70
    27
177
     3
291
     0
 70
    58
 90
        2
176
     1
 90
        2
176
     1
 90
        1
176
     1
 90
        2
176
     1
 40
0.6
176
     1
 40
30.0
176
     1
 62
     7
420
 16777215
176
     1
 90
        0
176
     1
 90
        4
176
     1
 62
     7
176
     1
 62
   257
176
     1
 90
        1
176
     1
 90
        1
176
     1
 40
1.0
176
     1
 90
        8
176
     1
 62
   257
176
     1
 40
1.0
176
     1
 90
        1
176
     1
 90
        6
176
     1
 90
        2
176
     1
 62
     8
420
  7895160
176
     1
 90
        3
176
     1
 90
        0
176
     1
 90
        0
176
     1
290
     0
176
     1
 90
        5
176
     1
 40
0.0
176
     1
 90
        0
176
     1
290
     0
176
     1
290
     1
176
     1
290
     1
176
     1
290
     0
176
     1
290
     0
176
     1
290
     0
176
     1
290
     0
176
     1
290
     0
176
     1
290
     0
176
     1
 90
       50
176
     1
 40
0.0
176
     1
 40
1.0
176
     1
 90
        0
176
     1
 62
    18
420
        0
176
     1
 90
       50
176
     1
 90
        3
176
     1
 62
     5
420
      255
176
     1
290
     0
176
     1
 90
       50
176
     1
 90
       50
176
     1
 90
       50
176
     1
290
     0
176
     1
 90
       50
176
     1
 62
   256
176
     0
 40
1.0
176
     0
 90
        2
176
     1
  1
strokes_ogs.tif
176
     1
290
     0
176
     1
 40
1.0
176
     1
 40
1.0
176
     1
  0
VISUALSTYLE
  5
41
102
{ACAD_REACTORS
330
2A
102
}
330
2A
100
AcDbVisualStyle
  2
Shaded with edges
 70
    26
177
     3
291
     0
 70
    58
 90
        2
176
     1
 90
        2
176
     1
 90
        1
176
     1
 90
        2
176
     1
 40
0.6
176
     1
 40
30.0
176
     1
 62
     7
420
 16777215
176
     1
 90
        1
176
     1
 90
       10
176
     1
 62
     7
176
     1
 62
   257
176
     1
 90
        2
176
     1
 90
        1
176
     1
 40
1.0
176
     1
 90
        8
176
     1
 62
   257
176
     1
 40
1.0
176
     1
 90
        1
176
     1
 90
        6
176
     1
 90
        2
176
     1
 62
     7
176
     1
 90
        3
176
     1
 90
        0
176
     1
 90
        0
176
     1
290
     0
176
     1
 90
        5
176
     1
 40
0.0
176
     1
 90
        0
176
     1
290
     0
176
     1
290
     1
176
     1
290
     1
176
     1
290
     0
176
     1
290
     0
176
     1
290
     0
176
     1
290
     0
176
     1
290
     0
176
     1
290
     0
176
     1
 90
       50
176
     1
 40
0.0
176
     1
 40
1.0
176
     1
 90
        0
176
     1
 62
    18
420
        0
176
     1
 90
       50
176
     1
 90
        3
176
     1
 62
     5
420
      255
176
     1
290
     0
176
     1
 90
       50
176
     1
 90
       50
176
     1
 90
       50
176
     1
290
     0
176
     1
 90
       50
176
     1
 62
   256
176
     0
 40
1.0
176
     0
 90
        2
176
     1
  1
strokes_ogs.tif
176
     1
290
     0
176
     1
 40
1.0
176
     1
 40
1.0
176
     1
  0
VISUALSTYLE
  5
3E
102
{ACAD_REACTORS
330
2A
102
}
330
2A
100
AcDbVisualStyle
  2
Shades of Gray
 70
    23
177
     3
291
     0
 70
    58
 90
        2
176
     1
 90
        2
176
     1
 90
        3
176
     1
 90
        0
176
     1
 40
0.6
176
     1
 40
30.0
176
     1
 62
     7
420
 16777215
176
     1
 90
        2
176
     1
 90
        2
176
     1
 62
     7
176
     1
 62
     7
176
     1
 90
        1
176
     1
 90
        1
176
     1
 40
40.0
176
     1
 90
        8
176
     1
 62
     7
176
     1
 40
1.0
176
     1
 90
        1
176
     1
 90
        6
176
     1
 90
        2
176
     1
 62
     7
176
     1
 90
        3
176
     1
 90
        0
176
     1
 90
        0
176
     1
290
     0
176
     1
 90
        1
176
     1
 40
0.0
176
     1
 90
        0
176
     1
290
     0
176
     1
290
     1
176
     1
290
     1
176
     1
290
     0
176
     1
290
     0
176
     1
290
     0
176
     1
290
     0
176
     1
290
     0
176
     1
290
     0
176
     1
 90
       50
176
     1
 40
0.0
176
     1
 40
1.0
176
     1
 90
        0
176
     1
 62
    18
420
        0
176
     1
 90
       50
176
     1
 90
        3
176
     1
 62
     5
420
      255
176
     1
290
     0
176
     1
 90
       50
176
     1
 90
       50
176
     1
 90
       50
176
     1
290
     0
176
     1
 90
       50
176
     1
 62
   256
176
     0
 40
1.0
176
     0
 90
        2
176
     1
  1
strokes_ogs.tif
176
     1
290
     0
176
     1
 40
1.0
176
     1
 40
1.0
176
     1
  0
VISUALSTYLE
  5
3F
102
{ACAD_REACTORS
330
2A
102
}
330
2A
100
AcDbVisualStyle
  2
Sketchy
 70
    24
177
     3
291
     0
 70
    58
 90
        1
176
     1
 90
        2
176
     1
 90
        2
176
     1
 90
        0
176
     1
 40
0.6
176
     1
 40
30.0
176
     1
 62
     7
420
 16777215
176
     1
 90
        2
176
     1
 90
        2
176
     1
 62
     7
176
     1
 62
     7
176
     1
 90
        1
176
     1
 90
        1
176
     1
 40
40.0
176
     1
 90
       11
176
     1
 62
     7
176
     1
 40
1.0
176
     1
 90
        1
176
     1
 90
        6
176
     1
 90
        2
176
     1
 62
     7
176
     1
 90
        6
176
     1
 90
        0
176
     1
 90
        0
176
     1
290
     0
176
     1
 90
        1
176
     1
 40
0.0
176
     1
 90
        0
176
     1
290
     0
176
     1
290
     1
176
     1
290
     1
176
     1
290
     0
176
     1
290
     0
176
     1
290
     0
176
     1
290
     0
176
     1
290
     0
176
     1
290
     0
176
     1
 90
       50
176
     1
 40
0.0
176
     1
 40
1.0
176
     1
 90
        0
176
     1
 62
    18
420
        0
176
     1
 90
       50
176
     1
 90
        3
176
     1
 62
     5
420
      255
176
     1
290
     0
176
     1
 90
       50
176
     1
 90
       50
176
     1
 90
       50
176
     1
290
     0
176
     1
 90
       50
176
     1
 62
   256
176
     0
 40
1.0
176
     0
 90
        2
176
     1
  1
strokes_ogs.tif
176
     1
290
     0
176
     1
 40
1.0
176
     1
 40
1.0
176
     1
  0
VISUALSTYLE
  5
37
102
{ACAD_REACTORS
330
2A
102
}
330
2A
100
AcDbVisualStyle
  2
Thicken
 70
    13
177
     3
291
     1
 70
    58
 90
        2
176
     1
 90
        2
176
     1
 90
        0
176
     1
 90
        0
176
     1
 40
0.6
176
     1
 40
30.0
176
     1
 62
     7
420
 16777215
176
     1
 90
        1
176
     1
 90
        4
176
     1
 62
     7
176
     1
 62
   257
176
     1
 90
        1
176
     1
 90
        1
176
     1
 40
1.0
176
     1
 90
       12
176
     1
 62
     7
176
     1
 40
1.0
176
     1
 90
        1
176
     1
 90
        6
176
     1
 90
        2
176
     1
 62
     7
176
     1
 90
        5
176
     1
 90
        0
176
     1
 90
        0
176
     1
290
     0
176
     1
 90
        1
176
     1
 40
0.0
176
     1
 90
        0
176
     1
290
     0
176
     1
290
     1
176
     1
290
     1
176
     1
290
     0
176
     1
290
     0
176
     1
290
     0
176
     1
290
     0
176
     1
290
     0
176
     1
290
     0
176
     1
 90
       50
176
     1
 40
0.0
176
     1
 40
1.0
176
     1
 90
        0
176
     1
 62
    18
420
        0
176
     1
 90
       50
176
     1
 90
        3
176
     1
 62
     5
420
      255
176
     1
290
     0
176
     1
 90
       50
176
     1
 90
       50
176
     1
 90
       50
176
     1
290
     0
176
     1
 90
       50
176
     1
 62
   256
176
     0
 40
1.0
176
     0
 90
        2
176
     1
  1
strokes_ogs.tif
176
     1
290
     0
176
     1
 40
1.0
176
     1
 40
1.0
176
     1
  0
VISUALSTYLE
  5
30
102
{ACAD_REACTORS
330
2A
102
}
330
2A
100
AcDbVisualStyle
  2
Wireframe
 70
     5
177
     3
291
     0
 70
    58
 90
        0
176
     1
 90
        2
176
     1
 90
        0
176
     1
 90
        0
176
     1
 40
0.6
176
     1
 40
30.0
176
     1
 62
     7
420
 16777215
176
     1
 90
        1
176
     1
 90
        4
176
     1
 62
     7
176
     1
 62
   257
176
     1
 90
        1
176
     1
 90
        1
176
     1
 40
1.0
176
     1
 90
        0
176
     1
 62
   257
176
     1
 40
1.0
176
     1
 90
        1
176
     1
 90
        6
176
     1
 90
        2
176
     1
 62
     7
176
     1
 90
        3
176
     1
 90
        0
176
     1
 90
        0
176
     1
290
     0
176
     1
 90
        1
176
     1
 40
0.0
176
     1
 90
        0
176
     1
290
     0
176
     1
290
     1
176
     1
290
     1
176
     1
290
     0
176
     1
290
     0
176
     1
290
     0
176
     1
290
     0
176
     1
290
     0
176
     1
290
     0
176
     1
 90
       50
176
     1
 40
0.0
176
     1
 40
1.0
176
     1
 90
        0
176
     1
 62
    18
420
        0
176
     1
 90
       50
176
     1
 90
        3
176
     1
 62
     5
420
      255
176
     1
290
     0
176
     1
 90
       50
176
     1
 90
       50
176
     1
 90
       50
176
     1
290
     0
176
     1
 90
       50
176
     1
 62
   256
176
     0
 40
1.0
176
     0
 90
        2
176
     1
  1
strokes_ogs.tif
176
     1
290
     0
176
     1
 40
1.0
176
     1
 40
1.0
176
     1
  0
VISUALSTYLE
  5
40
102
{ACAD_REACTORS
330
2A
102
}
330
2A
100
AcDbVisualStyle
  2
X-Ray
 70
    25
177
     3
291
     0
 70
    58
 90
        2
176
     1
 90
        2
176
     1
 90
        1
176
     1
 90
        1
176
     1
 40
0.5
176
     1
 40
30.0
176
     1
 62
     7
420
 16777215
176
     1
 90
        1
176
     1
 90
        0
176
     1
 62
     7
176
     1
 62
   257
176
     1
 90
        1
176
     1
 90
        1
176
     1
 40
1.0
176
     1
 90
        8
176
     1
 62
     7
176
     1
 40
1.0
176
     1
 90
        1
176
     1
 90
        6
176
     1
 90
        2
176
     1
 62
     7
176
     1
 90
        3
176
     1
 90
        0
176
     1
 90
        0
176
     1
290
     0
176
     1
 90
       13
176
     1
 40
0.0
176
     1
 90
        0
176
     1
290
     0
176
     1
290
     1
176
     1
290
     1
176
     1
290
     0
176
     1
290
     0
176
     1
290
     0
176
     1
290
     0
176
     1
290
     0
176
     1
290
     0
176
     1
 90
       50
176
     1
 40
0.0
176
     1
 40
1.0
176
     1
 90
        0
176
     1
 62
    18
420
        0
176
     1
 90
       50
176
     1
 90
        3
176
     1
 62
     5
420
      255
176
     1
290
     0
176
     1
 90
       50
176
     1
 90
       50
176
     1
 90
       50
176
     1
290
     0
176
     1
 90
       50
176
     1
 62
   256
176
     0
 40
1.0
176
     0
 90
        2
176
     1
  1
strokes_ogs.tif
176
     1
290
     0
176
     1
 40
1.0
176
     1
 40
1.0
176
     1
  0
DICTIONARYVAR
  5
220
102
{ACAD_REACTORS
330
21F
102
}
330
21F
100
DictionaryVariables
280
     0
  1
1:1
  0
DICTIONARYVAR
  5
225
102
{ACAD_REACTORS
330
21F
102
}
330
21F
100
DictionaryVariables
280
     0
  1
Standard
  0
DICTIONARYVAR
  5
224
102
{ACAD_REACTORS
330
21F
102
}
330
21F
100
DictionaryVariables
280
     0
  1
Standard
  0
DICTIONARY
  5
221
330
6A
100
AcDbDictionary
280
     1
281
     1
  3
ACAD_ROUNDTRIP_2008_TABLESTYLE_CELLSTYLEMAP
360
222
  0
CELLSTYLEMAP
  5
222
102
{ACAD_REACTORS
330
221
102
}
330
221
100
AcDbCellStyleMap
 90
        3
300
CELLSTYLE
  1
TABLEFORMAT_BEGIN
 90
        5
170
     1
 91
        0
 92
    32768
 62
   257
 93
        1
300
CONTENTFORMAT
  1
CONTENTFORMAT_BEGIN
 90
        0
 91
        0
 92
        4
 93
        0
300

 40
0.0
140
1.0
 94
        5
 62
     0
340
11
144
0.25
309
CONTENTFORMAT_END
171
     1
301
MARGIN
  1
CELLMARGIN_BEGIN
 40
0.06
 40
0.06
 40
0.06
 40
0.06
 40
0.06
 40
0.06
309
CELLMARGIN_END
 94
        6
 95
        1
302
GRIDFORMAT
  1
GRIDFORMAT_BEGIN
 90
        0
 91
        1
 62
     0
 92
       -2
340
14
 93
        0
 40
0.045
309
GRIDFORMAT_END
 95
        2
302
GRIDFORMAT
  1
GRIDFORMAT_BEGIN
 90
        0
 91
        1
 62
     0
 92
       -2
340
14
 93
        0
 40
0.045
309
GRIDFORMAT_END
 95
        4
302
GRIDFORMAT
  1
GRIDFORMAT_BEGIN
 90
        0
 91
        1
 62
     0
 92
       -2
340
14
 93
        0
 40
0.045
309
GRIDFORMAT_END
 95
        8
302
GRIDFORMAT
  1
GRIDFORMAT_BEGIN
 90
        0
 91
        1
 62
     0
 92
       -2
340
14
 93
        0
 40
0.045
309
GRIDFORMAT_END
 95
       16
302
GRIDFORMAT
  1
GRIDFORMAT_BEGIN
 90
        0
 91
        1
 62
     0
 92
       -2
340
14
 93
        0
 40
0.045
309
GRIDFORMAT_END
 95
       32
302
GRIDFORMAT
  1
GRIDFORMAT_BEGIN
 90
        0
 91
        1
 62
     0
 92
       -2
340
14
 93
        0
 40
0.045
309
GRIDFORMAT_END
309
TABLEFORMAT_END
  1
CELLSTYLE_BEGIN
 90
        1
 91
        1
300
_TITLE
309
CELLSTYLE_END
300
CELLSTYLE
  1
TABLEFORMAT_BEGIN
 90
        5
170
     1
 91
        0
 92
        0
 62
   257
 93
        1
300
CONTENTFORMAT
  1
CONTENTFORMAT_BEGIN
 90
        0
 91
        0
 92
        4
 93
        0
300

 40
0.0
140
1.0
 94
        5
 62
     0
340
11
144
0.18
309
CONTENTFORMAT_END
171
     1
301
MARGIN
  1
CELLMARGIN_BEGIN
 40
0.06
 40
0.06
 40
0.06
 40
0.06
 40
0.06
 40
0.06
309
CELLMARGIN_END
 94
        6
 95
        1
302
GRIDFORMAT
  1
GRIDFORMAT_BEGIN
 90
        0
 91
        1
 62
     0
 92
       -2
340
14
 93
        0
 40
0.045
309
GRIDFORMAT_END
 95
        2
302
GRIDFORMAT
  1
GRIDFORMAT_BEGIN
 90
        0
 91
        1
 62
     0
 92
       -2
340
14
 93
        0
 40
0.045
309
GRIDFORMAT_END
 95
        4
302
GRIDFORMAT
  1
GRIDFORMAT_BEGIN
 90
        0
 91
        1
 62
     0
 92
       -2
340
14
 93
        0
 40
0.045
309
GRIDFORMAT_END
 95
        8
302
GRIDFORMAT
  1
GRIDFORMAT_BEGIN
 90
        0
 91
        1
 62
     0
 92
       -2
340
14
 93
        0
 40
0.045
309
GRIDFORMAT_END
 95
       16
302
GRIDFORMAT
  1
GRIDFORMAT_BEGIN
 90
        0
 91
        1
 62
     0
 92
       -2
340
14
 93
        0
 40
0.045
309
GRIDFORMAT_END
 95
       32
302
GRIDFORMAT
  1
GRIDFORMAT_BEGIN
 90
        0
 91
        1
 62
     0
 92
       -2
340
14
 93
        0
 40
0.045
309
GRIDFORMAT_END
309
TABLEFORMAT_END
  1
CELLSTYLE_BEGIN
 90
        2
 91
        1
300
_HEADER
309
CELLSTYLE_END
300
CELLSTYLE
  1
TABLEFORMAT_BEGIN
 90
        5
170
     1
 91
        0
 92
        0
 62
   257
 93
        1
300
CONTENTFORMAT
  1
CONTENTFORMAT_BEGIN
 90
        0
 91
        0
 92
        4
 93
        0
300

 40
0.0
140
1.0
 94
        2
 62
     0
340
11
144
0.18
309
CONTENTFORMAT_END
171
     1
301
MARGIN
  1
CELLMARGIN_BEGIN
 40
0.06
 40
0.06
 40
0.06
 40
0.06
 40
0.06
 40
0.06
309
CELLMARGIN_END
 94
        6
 95
        1
302
GRIDFORMAT
  1
GRIDFORMAT_BEGIN
 90
        0
 91
        1
 62
     0
 92
       -2
340
14
 93
        0
 40
0.045
309
GRIDFORMAT_END
 95
        2
302
GRIDFORMAT
  1
GRIDFORMAT_BEGIN
 90
        0
 91
        1
 62
     0
 92
       -2
340
14
 93
        0
 40
0.045
309
GRIDFORMAT_END
 95
        4
302
GRIDFORMAT
  1
GRIDFORMAT_BEGIN
 90
        0
 91
        1
 62
     0
 92
       -2
340
14
 93
        0
 40
0.045
309
GRIDFORMAT_END
 95
        8
302
GRIDFORMAT
  1
GRIDFORMAT_BEGIN
 90
        0
 91
        1
 62
     0
 92
       -2
340
14
 93
        0
 40
0.045
309
GRIDFORMAT_END
 95
       16
302
GRIDFORMAT
  1
GRIDFORMAT_BEGIN
 90
        0
 91
        1
 62
     0
 92
       -2
340
14
 93
        0
 40
0.045
309
GRIDFORMAT_END
 95
       32
302
GRIDFORMAT
  1
GRIDFORMAT_BEGIN
 90
        0
 91
        1
 62
     0
 92
       -2
340
14
 93
        0
 40
0.045
309
GRIDFORMAT_END
309
TABLEFORMAT_END
  1
CELLSTYLE_BEGIN
 90
        3
 91
        2
300
_DATA
309
CELLSTYLE_END
  0
ENDSEC
  0
EOF