0
SECTION
  2
HEADER
  9
$ACADVER
  1
AC1027
  9
$ACADMAINTVER
 70
     8
  9
$DWGCODEPAGE
  3
ANSI_1252
  9
$REQUIREDVERSIONS
160
                 0
  9
$COMMENTS
  1
File was created by Cadenas
  9
$CUSTOMPROPERTYTAG
  1
NN
  9
$CUSTOMPROPERTY
  1
Grip Tight Wide Slot Take Up Inch Bore
  9
$CUSTOMPROPERTYTAG
  1
NT
  9
$CUSTOMPROPERTY
  1
GT Wide Slot Take-Up Bearings -(Normal Duty)
  9
$CUSTOMPROPERTYTAG
  1
NB
  9
$CUSTOMPROPERTY
  1
136148
  9
$CUSTOMPROPERTYTAG
  1
NBSYN
  9
$CUSTOMPROPERTY
  1
$PN.
  9
$CUSTOMPROPERTYTAG
  1
LINA
  9
$CUSTOMPROPERTY
  1
136148
  9
$CUSTOMPROPERTYTAG
  1
SERIES
  9
$CUSTOMPROPERTY
  1
211
  9
$CUSTOMPROPERTYTAG
  1
SS
  9
$CUSTOMPROPERTY
  1
2-1/4
  9
$CUSTOMPROPERTYTAG
  1
PN
  9
$CUSTOMPROPERTY
  1
136148
  9
$CUSTOMPROPERTYTAG
  1
DESCRIPTION
  9
$CUSTOMPROPERTY
  1
WSTU-GT-204
  9
$CUSTOMPROPERTYTAG
  1
A
  9
$CUSTOMPROPERTY
  1
1-59/64
  9
$CUSTOMPROPERTYTAG
  1
B
  9
$CUSTOMPROPERTY
  1
6-11/16
  9
$CUSTOMPROPERTYTAG
  1
C
  9
$CUSTOMPROPERTY
  1
1.047 / 1.077
  9
$CUSTOMPROPERTYTAG
  1
D
  9
$CUSTOMPROPERTY
  1
3-3/4
  9
$CUSTOMPROPERTYTAG
  1
E
  9
$CUSTOMPROPERTY
  1
4-3/16
  9
$CUSTOMPROPERTYTAG
  1
F
  9
$CUSTOMPROPERTY
  1
1-1/4
  9
$CUSTOMPROPERTYTAG
  1
G
  9
$CUSTOMPROPERTY
  1
3/4
  9
$CUSTOMPROPERTYTAG
  1
H
  9
$CUSTOMPROPERTY
  1
1
  9
$CUSTOMPROPERTYTAG
  1
J
  9
$CUSTOMPROPERTY
  1
4
  9
$CUSTOMPROPERTYTAG
  1
K
  9
$CUSTOMPROPERTY
  1
2-1/2
  9
$CUSTOMPROPERTYTAG
  1
L
  9
$CUSTOMPROPERTY
  1
3-1/4
  9
$CUSTOMPROPERTYTAG
  1
M
  9
$CUSTOMPROPERTY
  1
5.110 / 5.140
  9
$CUSTOMPROPERTYTAG
  1
N
  9
$CUSTOMPROPERTY
  1
5-7/8
  9
$CUSTOMPROPERTYTAG
  1
R
  9
$CUSTOMPROPERTY
  1
45/64
  9
$CUSTOMPROPERTYTAG
  1
S
  9
$CUSTOMPROPERTY
  1
1-7/32
  9
$CUSTOMPROPERTYTAG
  1
T
  9
$CUSTOMPROPERTY
  1
2-1/2
  9
$CUSTOMPROPERTYTAG
  1
Z
  9
$CUSTOMPROPERTY
  1
1-3/16
  9
$CUSTOMPROPERTYTAG
  1
COMPANY
  9
$CUSTOMPROPERTY
  1
baldor
  9
$INSBASE
 10
0.0
 20
0.0
 30
0.0
  9
$EXTMIN
 10
1.000000000000000E+20
 20
1.000000000000000E+20
 30
1.000000000000000E+20
  9
$EXTMAX
 10
-1.000000000000000E+20
 20
-1.000000000000000E+20
 30
-1.000000000000000E+20
  9
$LIMMIN
 10
0.0
 20
0.0
  9
$LIMMAX
 10
12.0
 20
9.0
  9
$ORTHOMODE
 70
     0
  9
$REGENMODE
 70
     1
  9
$FILLMODE
 70
     1
  9
$QTEXTMODE
 70
     0
  9
$MIRRTEXT
 70
     1
  9
$LTSCALE
 40
1.0
  9
$ATTMODE
 70
     1
  9
$TEXTSIZE
 40
0.2
  9
$TRACEWID
 40
0.05
  9
$TEXTSTYLE
  7
Standard
  9
$CLAYER
  8
0
  9
$CELTYPE
  6
ByLayer
  9
$CECOLOR
 62
   256
  9
$CELTSCALE
 40
1.0
  9
$DISPSILH
 70
     0
  9
$DIMSCALE
 40
1.0
  9
$DIMASZ
 40
0.18
  9
$DIMEXO
 40
0.0625
  9
$DIMDLI
 40
0.38
  9
$DIMRND
 40
0.0
  9
$DIMDLE
 40
0.0
  9
$DIMEXE
 40
0.18
  9
$DIMTP
 40
0.0
  9
$DIMTM
 40
0.0
  9
$DIMTXT
 40
0.18
  9
$DIMCEN
 40
0.09
  9
$DIMTSZ
 40
0.0
  9
$DIMTOL
 70
     0
  9
$DIMLIM
 70
     0
  9
$DIMTIH
 70
     1
  9
$DIMTOH
 70
     1
  9
$DIMSE1
 70
     0
  9
$DIMSE2
 70
     0
  9
$DIMTAD
 70
     0
  9
$DIMZIN
 70
     0
  9
$DIMBLK
  1

  9
$DIMASO
 70
     1
  9
$DIMSHO
 70
     1
  9
$DIMPOST
  1

  9
$DIMAPOST
  1

  9
$DIMALT
 70
     0
  9
$DIMALTD
 70
     2
  9
$DIMALTF
 40
25.4
  9
$DIMLFAC
 40
1.0
  9
$DIMTOFL
 70
     0
  9
$DIMTVP
 40
0.0
  9
$DIMTIX
 70
     0
  9
$DIMSOXD
 70
     0
  9
$DIMSAH
 70
     0
  9
$DIMBLK1
  1

  9
$DIMBLK2
  1

  9
$DIMSTYLE
  2
Standard
  9
$DIMCLRD
 70
     0
  9
$DIMCLRE
 70
     0
  9
$DIMCLRT
 70
     0
  9
$DIMTFAC
 40
1.0
  9
$DIMGAP
 40
0.09
  9
$DIMJUST
 70
     0
  9
$DIMSD1
 70
     0
  9
$DIMSD2
 70
     0
  9
$DIMTOLJ
 70
     1
  9
$DIMTZIN
 70
     0
  9
$DIMALTZ
 70
     0
  9
$DIMALTTZ
 70
     0
  9
$DIMUPT
 70
     0
  9
$DIMDEC
 70
     4
  9
$DIMTDEC
 70
     4
  9
$DIMALTU
 70
     2
  9
$DIMALTTD
 70
     2
  9
$DIMTXSTY
  7
Standard
  9
$DIMAUNIT
 70
     0
  9
$DIMADEC
 70
     0
  9
$DIMALTRND
 40
0.0
  9
$DIMAZIN
 70
     0
  9
$DIMDSEP
 70
    46
  9
$DIMATFIT
 70
     3
  9
$DIMFRAC
 70
     0
  9
$DIMLDRBLK
  1

  9
$DIMLUNIT
 70
     2
  9
$DIMLWD
 70
    -2
  9
$DIMLWE
 70
    -2
  9
$DIMTMOVE
 70
     0
  9
$DIMFXL
 40
1.0
  9
$DIMFXLON
 70
     0
  9
$DIMJOGANG
 40
0.7853981633974483
  9
$DIMTFILL
 70
     0
  9
$DIMTFILLCLR
 70
     0
  9
$DIMARCSYM
 70
     0
  9
$DIMLTYPE
  6

  9
$DIMLTEX1
  6

  9
$DIMLTEX2
  6

  9
$DIMTXTDIRECTION
 70
     0
  9
$LUNITS
 70
     2
  9
$LUPREC
 70
     4
  9
$SKETCHINC
 40
0.1
  9
$FILLETRAD
 40
0.5
  9
$AUNITS
 70
     0
  9
$AUPREC
 70
     0
  9
$MENU
  1
.
  9
$ELEVATION
 40
0.0
  9
$PELEVATION
 40
0.0
  9
$THICKNESS
 40
0.0
  9
$LIMCHECK
 70
     0
  9
$CHAMFERA
 40
0.0
  9
$CHAMFERB
 40
0.0
  9
$CHAMFERC
 40
0.0
  9
$CHAMFERD
 40
0.0
  9
$SKPOLY
 70
     0
  9
$TDCREATE
 40
2458168.99399294
  9
$TDUCREATE
 40
2458168.952326273
  9
$TDUPDATE
 40
2458168.993993113
  9
$TDUUPDATE
 40
2458168.952326447
  9
$TDINDWG
 40
0.0000000116
  9
$TDUSRTIMER
 40
0.0000000116
  9
$USRTIMER
 70
     1
  9
$ANGBASE
 50
0.0
  9
$ANGDIR
 70
     0
  9
$PDMODE
 70
     0
  9
$PDSIZE
 40
0.0
  9
$PLINEWID
 40
0.0
  9
$SPLFRAME
 70
     0
  9
$SPLINETYPE
 70
     6
  9
$SPLINESEGS
 70
     8
  9
$HANDSEED
  5
227
  9
$SURFTAB1
 70
     6
  9
$SURFTAB2
 70
     6
  9
$SURFTYPE
 70
     6
  9
$SURFU
 70
     6
  9
$SURFV
 70
     6
  9
$UCSBASE
  2

  9
$UCSNAME
  2

  9
$UCSORG
 10
0.0
 20
0.0
 30
0.0
  9
$UCSXDIR
 10
1.0
 20
0.0
 30
0.0
  9
$UCSYDIR
 10
0.0
 20
1.0
 30
0.0
  9
$UCSORTHOREF
  2

  9
$UCSORTHOVIEW
 70
     0
  9
$UCSORGTOP
 10
0.0
 20
0.0
 30
0.0
  9
$UCSORGBOTTOM
 10
0.0
 20
0.0
 30
0.0
  9
$UCSORGLEFT
 10
0.0
 20
0.0
 30
0.0
  9
$UCSORGRIGHT
 10
0.0
 20
0.0
 30
0.0
  9
$UCSORGFRONT
 10
0.0
 20
0.0
 30
0.0
  9
$UCSORGBACK
 10
0.0
 20
0.0
 30
0.0
  9
$PUCSBASE
  2

  9
$PUCSNAME
  2

  9
$PUCSORG
 10
0.0
 20
0.0
 30
0.0
  9
$PUCSXDIR
 10
1.0
 20
0.0
 30
0.0
  9
$PUCSYDIR
 10
0.0
 20
1.0
 30
0.0
  9
$PUCSORTHOREF
  2

  9
$PUCSORTHOVIEW
 70
     0
  9
$PUCSORGTOP
 10
0.0
 20
0.0
 30
0.0
  9
$PUCSORGBOTTOM
 10
0.0
 20
0.0
 30
0.0
  9
$PUCSORGLEFT
 10
0.0
 20
0.0
 30
0.0
  9
$PUCSORGRIGHT
 10
0.0
 20
0.0
 30
0.0
  9
$PUCSORGFRONT
 10
0.0
 20
0.0
 30
0.0
  9
$PUCSORGBACK
 10
0.0
 20
0.0
 30
0.0
  9
$USERI1
 70
     0
  9
$USERI2
 70
     0
  9
$USERI3
 70
     0
  9
$USERI4
 70
     0
  9
$USERI5
 70
     0
  9
$USERR1
 40
0.0
  9
$USERR2
 40
0.0
  9
$USERR3
 40
0.0
  9
$USERR4
 40
0.0
  9
$USERR5
 40
0.0
  9
$WORLDVIEW
 70
     1
  9
$SHADEDGE
 70
     3
  9
$SHADEDIF
 70
    70
  9
$TILEMODE
 70
     1
  9
$MAXACTVP
 70
    64
  9
$PINSBASE
 10
0.0
 20
0.0
 30
0.0
  9
$PLIMCHECK
 70
     0
  9
$PEXTMIN
 10
1.000000000000000E+20
 20
1.000000000000000E+20
 30
1.000000000000000E+20
  9
$PEXTMAX
 10
-1.000000000000000E+20
 20
-1.000000000000000E+20
 30
-1.000000000000000E+20
  9
$PLIMMIN
 10
0.0
 20
0.0
  9
$PLIMMAX
 10
12.0
 20
9.0
  9
$UNITMODE
 70
     0
  9
$VISRETAIN
 70
     1
  9
$PLINEGEN
 70
     0
  9
$PSLTSCALE
 70
     1
  9
$TREEDEPTH
 70
  3020
  9
$CMLSTYLE
  2
Standard
  9
$CMLJUST
 70
     0
  9
$CMLSCALE
 40
1.0
  9
$PROXYGRAPHICS
 70
     1
  9
$MEASUREMENT
 70
     0
  9
$CELWEIGHT
370
    -1
  9
$ENDCAPS
280
     0
  9
$JOINSTYLE
280
     0
  9
$LWDISPLAY
290
     0
  9
$INSUNITS
 70
     1
  9
$HYPERLINKBASE
  1

  9
$STYLESHEET
  1

  9
$XEDIT
290
     1
  9
$CEPSNTYPE
380
     0
  9
$PSTYLEMODE
290
     1
  9
$FINGERPRINTGUID
  2
{12714D03-57E2-4B1F-AB12-68B037287ADB}
  9
$VERSIONGUID
  2
{FAEB1C32-E019-11D5-929B-00C0DF256EC4}
  9
$EXTNAMES
290
     1
  9
$PSVPSCALE
 40
0.0
  9
$OLESTARTUP
290
     0
  9
$SORTENTS
280
   127
  9
$INDEXCTL
280
     0
  9
$HIDETEXT
280
     1
  9
$XCLIPFRAME
280
     2
  9
$HALOGAP
280
     0
  9
$OBSCOLOR
 70
   257
  9
$OBSLTYPE
280
     0
  9
$INTERSECTIONDISPLAY
280
     0
  9
$INTERSECTIONCOLOR
 70
   257
  9
$DIMASSOC
280
     2
  9
$PROJECTNAME
  1

  9
$CAMERADISPLAY
290
     0
  9
$LENSLENGTH
 40
50.0
  9
$CAMERAHEIGHT
 40
0.0
  9
$STEPSPERSEC
 40
2.0
  9
$STEPSIZE
 40
6.0
  9
$3DDWFPREC
 40
2.0
  9
$PSOLWIDTH
 40
0.25
  9
$PSOLHEIGHT
 40
4.0
  9
$LOFTANG1
 40
1.570796326794897
  9
$LOFTANG2
 40
1.570796326794897
  9
$LOFTMAG1
 40
0.0
  9
$LOFTMAG2
 40
0.0
  9
$LOFTPARAM
 70
     7
  9
$LOFTNORMALS
280
     1
  9
$LATITUDE
 40
37.795
  9
$LONGITUDE
 40
-122.394
  9
$NORTHDIRECTION
 40
0.0
  9
$TIMEZONE
 70
 -8000
  9
$LIGHTGLYPHDISPLAY
280
     1
  9
$TILEMODELIGHTSYNCH
280
     1
  9
$CMATERIAL
347
44
  9
$SOLIDHIST
280
     0
  9
$SHOWHIST
280
     1
  9
$DWFFRAME
280
     2
  9
$DGNFRAME
280
     2
  9
$REALWORLDSCALE
290
     1
  9
$INTERFERECOLOR
 62
   256
  9
$CSHADOW
280
     0
  9
$SHADOWPLANELOCATION
 40
0.0
  0
ENDSEC
  0
SECTION
  2
CLASSES
  0
CLASS
  1
ACDBDICTIONARYWDFLT
  2
AcDbDictionaryWithDefault
  3
ObjectDBX Classes
 90
        0
 91
        4
280
     0
281
     0
  0
CLASS
  1
VISUALSTYLE
  2
AcDbVisualStyle
  3
ObjectDBX Classes
 90
     4095
 91
        4
280
     0
281
     0
  0
CLASS
  1
MATERIAL
  2
AcDbMaterial
  3
ObjectDBX Classes
 90
     1153
 91
        4
280
     0
281
     0
  0
CLASS
  1
SCALE
  2
AcDbScale
  3
ObjectDBX Classes
 90
     1153
 91
        4
280
     0
281
     0
  0
CLASS
  1
TABLESTYLE
  2
AcDbTableStyle
  3
ObjectDBX Classes
 90
     4095
 91
        4
280
     0
281
     0
  0
CLASS
  1
MLEADERSTYLE
  2
AcDbMLeaderStyle
  3
ACDB_MLEADERSTYLE_CLASS
 90
     4095
 91
        4
280
     0
281
     0
  0
CLASS
  1
SUN
  2
AcDbSun
  3
SCENEOE
 90
     1153
 91
        4
280
     0
281
     0
  0
CLASS
  1
DICTIONARYVAR
  2
AcDbDictionaryVar
  3
ObjectDBX Classes
 90
        0
 91
        4
280
     0
281
     0
  0
CLASS
  1
CELLSTYLEMAP
  2
AcDbCellStyleMap
  3
ObjectDBX Classes
 90
     1152
 91
        4
280
     0
281
     0
  0
ENDSEC
  0
SECTION
  2
TABLES
  0
TABLE
  2
VPORT
  5
8
330
0
100
AcDbSymbolTable
 70
     1
  0
VPORT
  5
29
330
8
100
AcDbSymbolTableRecord
100
AcDbViewportTableRecord
  2
*Active
 70
     0
 10
0.0
 20
0.0
 11
1.0
 21
1.0
 12
0.0
 22
0.0
 13
0.0
 23
0.0
 14
0.5
 24
0.5
 15
0.5
 25
0.5
 16
0.0
 26
0.0
 36
1.0
 17
0.0
 27
0.0
 37
0.0
 40
5.992488015000001
 41
0.8255319021001034
 42
50.0
 43
0.0
 44
0.0
 50
0.0
 51
0.0
 71
     0
 72
   100
 73
     1
 74
     3
 75
     0
 76
     0
 77
     0
 78
     0
281
     0
 65
     1
110
0.0
120
0.0
130
0.0
111
1.0
121
0.0
131
0.0
112
0.0
122
1.0
132
0.0
 79
     0
146
0.0
348
2F
 60
     3
 61
     5
292
     1
282
     1
141
0.0
142
0.0
 63
   250
361
6D
  0
ENDTAB
  0
TABLE
  2
LTYPE
  5
5
330
0
100
AcDbSymbolTable
 70
     3
  0
LTYPE
  5
14
330
5
100
AcDbSymbolTableRecord
100
AcDbLinetypeTableRecord
  2
ByBlock
 70
     0
  3

 72
    65
 73
     0
 40
0.0
  0
LTYPE
  5
15
330
5
100
AcDbSymbolTableRecord
100
AcDbLinetypeTableRecord
  2
ByLayer
 70
     0
  3

 72
    65
 73
     0
 40
0.0
  0
LTYPE
  5
16
330
5
100
AcDbSymbolTableRecord
100
AcDbLinetypeTableRecord
  2
Continuous
 70
     0
  3
Solid line
 72
    65
 73
     0
 40
0.0
  0
LTYPE
  5
9F
330
5
100
AcDbSymbolTableRecord
100
AcDbLinetypeTableRecord
  2
Dashed
 70
     0
  3

 72
    65
 73
     2
 40
2.0
 49
1.0
 74
     0
 49
-1.0
 74
     0
  0
LTYPE
  5
190
330
5
100
AcDbSymbolTableRecord
100
AcDbLinetypeTableRecord
  2
Center
 70
     0
  3

 72
    65
 73
     4
 40
1.5
 49
0.45
 74
     0
 49
-0.5
 74
     0
 49
0.05
 74
     0
 49
-0.5
 74
     0
  0
ENDTAB
  0
TABLE
  2
LAYER
  5
2
330
0
100
AcDbSymbolTable
 70
     7
  0
LAYER
  5
10
330
2
100
AcDbSymbolTableRecord
100
AcDbLayerTableRecord
  2
0
 70
     0
 62
     7
  6
Continuous
370
    -3
390
F
347
46
348
0
  0
LAYER
  5
72
330
2
100
AcDbSymbolTableRecord
100
AcDbLayerTableRecord
  2
AM_6
 70
     0
 62
    -2
  6
Continuous
370
    35
390
F
347
46
348
0
  0
LAYER
  5
A0
330
2
100
AcDbSymbolTableRecord
100
AcDbLayerTableRecord
  2
AM_9
 70
     0
 62
     6
  6
Dashed
370
    25
390
F
347
46
348
0
  0
LAYER
  5
191
330
2
100
AcDbSymbolTableRecord
100
AcDbLayerTableRecord
  2
AM_7
 70
     0
 62
     7
  6
Center
370
    25
390
F
347
46
348
0
  0
LAYER
  5
193
330
2
100
AcDbSymbolTableRecord
100
AcDbLayerTableRecord
  2
AM_4
 70
     0
 62
     7
  6
Continuous
370
    50
390
F
347
46
348
0
  0
LAYER
  5
1A0
330
2
100
AcDbSymbolTableRecord
100
AcDbLayerTableRecord
  2
AM_5
 70
     0
 62
     3
  6
Continuous
370
    25
390
F
347
46
348
0
  0
LAYER
  5
215
330
2
100
AcDbSymbolTableRecord
100
AcDbLayerTableRecord
  2
ConnectionPoints
 70
     0
 62
     7
  6
Continuous
370
    50
390
F
347
46
348
0
  0
ENDTAB
  0
TABLE
  2
STYLE
  5
3
330
0
100
AcDbSymbolTable
 70
     1
  0
STYLE
  5
11
330
3
100
AcDbSymbolTableRecord
100
AcDbTextStyleTableRecord
  2
Standard
 70
     0
 40
0.0
 41
1.0
 50
0.0
 71
     0
 42
0.2
  3
txt
  4

  0
ENDTAB
  0
TABLE
  2
VIEW
  5
6
330
0
100
AcDbSymbolTable
 70
     0
  0
ENDTAB
  0
TABLE
  2
UCS
  5
7
330
0
100
AcDbSymbolTable
 70
     0
  0
ENDTAB
  0
TABLE
  2
APPID
  5
9
330
0
100
AcDbSymbolTable
 70
     1
  0
APPID
  5
12
330
9
100
AcDbSymbolTableRecord
100
AcDbRegAppTableRecord
  2
ACAD
 70
     0
  0
ENDTAB
  0
TABLE
  2
DIMSTYLE
  5
A
330
0
100
AcDbSymbolTable
 70
     1
100
AcDbDimStyleTable
  0
DIMSTYLE
105
27
330
A
100
AcDbSymbolTableRecord
100
AcDbDimStyleTableRecord
  2
Standard
 70
     0
178
     0
340
11
  0
ENDTAB
  0
TABLE
  2
BLOCK_RECORD
  5
1
330
0
100
AcDbSymbolTable
 70
     6
  0
BLOCK_RECORD
  5
1F
330
1
100
AcDbSymbolTableRecord
100
AcDbBlockTableRecord
  2
*Model_Space
340
22
 70
     0
280
     1
281
     0
  0
BLOCK_RECORD
  5
1B
330
1
100
AcDbSymbolTableRecord
100
AcDbBlockTableRecord
  2
*Paper_Space
340
1E
 70
     0
280
     1
281
     0
  0
BLOCK_RECORD
  5
23
330
1
100
AcDbSymbolTableRecord
100
AcDbBlockTableRecord
  2
*Paper_Space0
340
26
 70
     0
280
     1
281
     0
  0
BLOCK_RECORD
  5
6E
330
1
100
AcDbSymbolTableRecord
100
AcDbBlockTableRecord
  2
1_136148_2
340
0
102
{BLKREFS
331
6F
102
}
 70
     0
280
     1
281
     0
  0
BLOCK_RECORD
  5
8E
330
1
100
AcDbSymbolTableRecord
100
AcDbBlockTableRecord
  2
2_405016_Inch_0_in_136148_2
340
0
102
{BLKREFS
331
8F
102
}
 70
     0
280
     1
281
     0
  0
BLOCK_RECORD
  5
101
330
1
100
AcDbSymbolTableRecord
100
AcDbBlockTableRecord
  2
3_129524I_0_in_136148_2
340
0
102
{BLKREFS
331
102
102
}
 70
     0
280
     1
281
     0
  0
BLOCK_RECORD
  5
144
330
1
100
AcDbSymbolTableRecord
100
AcDbBlockTableRecord
  2
4_AN_GT_11_204_0_in_136148_2
340
0
102
{BLKREFS
331
145
102
}
 70
     0
280
     1
281
     0
  0
BLOCK_RECORD
  5
1A2
330
1
100
AcDbSymbolTableRecord
100
AcDbBlockTableRecord
  2
5_WSTU_GT_11I_0_in_136148_2
340
0
102
{BLKREFS
331
1A3
102
}
 70
     0
280
     1
281
     0
  0
ENDTAB
  0
ENDSEC
  0
SECTION
  2
BLOCKS
  0
BLOCK
  5
20
330
1F
100
AcDbEntity
  8
0
100
AcDbBlockBegin
  2
*Model_Space
 70
     0
 10
0.0
 20
0.0
 30
0.0
  3
*Model_Space
  1

  0
ENDBLK
  5
21
330
1F
100
AcDbEntity
  8
0
100
AcDbBlockEnd
  0
BLOCK
  5
1C
330
1B
100
AcDbEntity
 67
     1
  8
0
100
AcDbBlockBegin
  2
*Paper_Space
 70
     0
 10
0.0
 20
0.0
 30
0.0
  3
*Paper_Space
  1

  0
ENDBLK
  5
1D
330
1B
100
AcDbEntity
 67
     1
  8
0
100
AcDbBlockEnd
  0
BLOCK
  5
24
330
23
100
AcDbEntity
  8
0
100
AcDbBlockBegin
  2
*Paper_Space0
 70
     0
 10
0.0
 20
0.0
 30
0.0
  3
*Paper_Space0
  1

  0
ENDBLK
  5
25
330
23
100
AcDbEntity
  8
0
100
AcDbBlockEnd
  0
BLOCK
  5
70
330
6E
100
AcDbEntity
  8
0
100
AcDbBlockBegin
  2
1_136148_2
 70
     2
 10
0.0
 20
0.0
 30
0.0
  3
1_136148_2
  1

  0
ATTDEF
  5
73
330
6E
100
AcDbEntity
  8
AM_6
100
AcDbText
 10
7.424995112419128
 20
2.937494125
 30
0.0
 40
0.5
  1
Grip Tight Wide Slot Take Up Inch Bore
100
AcDbAttributeDefinition
  3

  2
NN
 70
     8
280
     0
  0
ATTDEF
  5
74
330
6E
100
AcDbEntity
  8
AM_6
100
AcDbText
 10
7.424995112419128
 20
2.437494125
 30
0.0
 40
0.5
  1
GT Wide Slot Take-Up Bearings -(Normal Duty)
100
AcDbAttributeDefinition
  3

  2
NT
 70
     8
280
     0
  0
ATTDEF
  5
75
330
6E
100
AcDbEntity
  8
AM_6
100
AcDbText
 10
7.424995112419128
 20
1.937494125
 30
0.0
 40
0.5
  1
136148
100
AcDbAttributeDefinition
  3

  2
NB
 70
     8
280
     0
  0
ATTDEF
  5
76
330
6E
100
AcDbEntity
  8
AM_6
100
AcDbText
 10
7.424995112419128
 20
1.437494125
 30
0.0
 40
0.5
  1
$PN.
100
AcDbAttributeDefinition
  3

  2
NBSYN
 70
     8
280
     0
  0
ATTDEF
  5
77
330
6E
100
AcDbEntity
  8
AM_6
100
AcDbText
 10
7.424995112419128
 20
0.9374941250000002
 30
0.0
 40
0.5
  1
136148
100
AcDbAttributeDefinition
  3

  2
LINA
 70
     8
280
     0
  0
ATTDEF
  5
78
330
6E
100
AcDbEntity
  8
AM_6
100
AcDbText
 10
7.424995112419128
 20
0.4374941250000002
 30
0.0
 40
0.5
  1
211
100
AcDbAttributeDefinition
  3

  2
SERIES
 70
     8
280
     0
  0
ATTDEF
  5
79
330
6E
100
AcDbEntity
  8
AM_6
100
AcDbText
 10
7.424995112419128
 20
-0.0625058749999998
 30
0.0
 40
0.5
  1
2-1/4
100
AcDbAttributeDefinition
  3

  2
SS
 70
     8
280
     0
  0
ATTDEF
  5
7A
330
6E
100
AcDbEntity
  8
AM_6
100
AcDbText
 10
7.424995112419128
 20
-0.5625058749999998
 30
0.0
 40
0.5
  1
136148
100
AcDbAttributeDefinition
  3

  2
PN
 70
     8
280
     0
  0
ATTDEF
  5
7B
330
6E
100
AcDbEntity
  8
AM_6
100
AcDbText
 10
7.424995112419128
 20
-1.062505875
 30
0.0
 40
0.5
  1
WSTU-GT-204
100
AcDbAttributeDefinition
  3

  2
DESCRIPTION
 70
     8
280
     0
  0
ATTDEF
  5
7C
330
6E
100
AcDbEntity
  8
AM_6
100
AcDbText
 10
7.424995112419128
 20
-1.562505875
 30
0.0
 40
0.5
  1
1-59/64
100
AcDbAttributeDefinition
  3

  2
A
 70
     8
280
     0
  0
ATTDEF
  5
7D
330
6E
100
AcDbEntity
  8
AM_6
100
AcDbText
 10
7.424995112419128
 20
-2.062505875
 30
0.0
 40
0.5
  1
6-11/16
100
AcDbAttributeDefinition
  3

  2
B
 70
     8
280
     0
  0
ATTDEF
  5
7E
330
6E
100
AcDbEntity
  8
AM_6
100
AcDbText
 10
7.424995112419128
 20
-2.562505875
 30
0.0
 40
0.5
  1
1.047 / 1.077
100
AcDbAttributeDefinition
  3

  2
C
 70
     8
280
     0
  0
ATTDEF
  5
7F
330
6E
100
AcDbEntity
  8
AM_6
100
AcDbText
 10
7.424995112419128
 20
-3.062505875
 30
0.0
 40
0.5
  1
3-3/4
100
AcDbAttributeDefinition
  3

  2
D
 70
     8
280
     0
  0
ATTDEF
  5
80
330
6E
100
AcDbEntity
  8
AM_6
100
AcDbText
 10
7.424995112419128
 20
-3.562505875
 30
0.0
 40
0.5
  1
4-3/16
100
AcDbAttributeDefinition
  3

  2
E
 70
     8
280
     0
  0
ATTDEF
  5
81
330
6E
100
AcDbEntity
  8
AM_6
100
AcDbText
 10
7.424995112419128
 20
-4.062505874999999
 30
0.0
 40
0.5
  1
1-1/4
100
AcDbAttributeDefinition
  3

  2
F
 70
     8
280
     0
  0
ATTDEF
  5
82
330
6E
100
AcDbEntity
  8
AM_6
100
AcDbText
 10
7.424995112419128
 20
-4.562505874999999
 30
0.0
 40
0.5
  1
3/4
100
AcDbAttributeDefinition
  3

  2
G
 70
     8
280
     0
  0
ATTDEF
  5
83
330
6E
100
AcDbEntity
  8
AM_6
100
AcDbText
 10
7.424995112419128
 20
-5.062505874999999
 30
0.0
 40
0.5
  1
1
100
AcDbAttributeDefinition
  3

  2
H
 70
     8
280
     0
  0
ATTDEF
  5
84
330
6E
100
AcDbEntity
  8
AM_6
100
AcDbText
 10
7.424995112419128
 20
-5.562505874999999
 30
0.0
 40
0.5
  1
4
100
AcDbAttributeDefinition
  3

  2
J
 70
     8
280
     0
  0
ATTDEF
  5
85
330
6E
100
AcDbEntity
  8
AM_6
100
AcDbText
 10
7.424995112419128
 20
-6.062505874999999
 30
0.0
 40
0.5
  1
2-1/2
100
AcDbAttributeDefinition
  3

  2
K
 70
     8
280
     0
  0
ATTDEF
  5
86
330
6E
100
AcDbEntity
  8
AM_6
100
AcDbText
 10
7.424995112419128
 20
-6.562505874999999
 30
0.0
 40
0.5
  1
3-1/4
100
AcDbAttributeDefinition
  3

  2
L
 70
     8
280
     0
  0
ATTDEF
  5
87
330
6E
100
AcDbEntity
  8
AM_6
100
AcDbText
 10
7.424995112419128
 20
-7.062505874999999
 30
0.0
 40
0.5
  1
5.110 / 5.140
100
AcDbAttributeDefinition
  3

  2
M
 70
     8
280
     0
  0
ATTDEF
  5
88
330
6E
100
AcDbEntity
  8
AM_6
100
AcDbText
 10
7.424995112419128
 20
-7.562505874999999
 30
0.0
 40
0.5
  1
5-7/8
100
AcDbAttributeDefinition
  3

  2
N
 70
     8
280
     0
  0
ATTDEF
  5
89
330
6E
100
AcDbEntity
  8
AM_6
100
AcDbText
 10
7.424995112419128
 20
-8.062505875
 30
0.0
 40
0.5
  1
45/64
100
AcDbAttributeDefinition
  3

  2
R
 70
     8
280
     0
  0
ATTDEF
  5
8A
330
6E
100
AcDbEntity
  8
AM_6
100
AcDbText
 10
7.424995112419128
 20
-8.562505875
 30
0.0
 40
0.5
  1
1-7/32
100
AcDbAttributeDefinition
  3

  2
S
 70
     8
280
     0
  0
ATTDEF
  5
8B
330
6E
100
AcDbEntity
  8
AM_6
100
AcDbText
 10
7.424995112419128
 20
-9.062505875
 30
0.0
 40
0.5
  1
2-1/2
100
AcDbAttributeDefinition
  3

  2
T
 70
     8
280
     0
  0
ATTDEF
  5
8C
330
6E
100
AcDbEntity
  8
AM_6
100
AcDbText
 10
7.424995112419128
 20
-9.562505875
 30
0.0
 40
0.5
  1
1-3/16
100
AcDbAttributeDefinition
  3

  2
Z
 70
     8
280
     0
  0
ATTDEF
  5
8D
330
6E
100
AcDbEntity
  8
AM_6
100
AcDbText
 10
7.424995112419128
 20
-10.062505875
 30
0.0
 40
0.5
  1
baldor
100
AcDbAttributeDefinition
  3

  2
COMPANY
 70
     8
280
     0
  0
INSERT
  5
8F
330
6E
100
AcDbEntity
  8
0
100
AcDbBlockReference
  2
2_405016_Inch_0_in_136148_2
 10
0.0
 20
0.0
 30
0.0
  0
INSERT
  5
102
330
6E
100
AcDbEntity
  8
0
100
AcDbBlockReference
  2
3_129524I_0_in_136148_2
 10
0.0
 20
0.0
 30
0.0
  0
INSERT
  5
145
330
6E
100
AcDbEntity
  8
0
100
AcDbBlockReference
  2
4_AN_GT_11_204_0_in_136148_2
 10
0.0
 20
0.0
 30
0.0
  0
INSERT
  5
1A3
330
6E
100
AcDbEntity
  8
0
100
AcDbBlockReference
  2
5_WSTU_GT_11I_0_in_136148_2
 10
0.0
 20
0.0
 30
0.0
  0
ENDBLK
  5
71
330
6E
100
AcDbEntity
  8
0
100
AcDbBlockEnd
  0
BLOCK
  5
90
330
8E
100
AcDbEntity
  8
0
100
AcDbBlockBegin
  2
2_405016_Inch_0_in_136148_2
 70
     2
 10
0.0
 20
0.0
 30
0.0
  3
2_405016_Inch_0_in_136148_2
  1

  0
ATTDEF
  5
92
330
8E
100
AcDbEntity
  8
AM_6
100
AcDbText
 10
5.21875
 20
-1.041925698355158
 30
0.0
 40
0.5
  1
405016 -Inch
100
AcDbAttributeDefinition
  3

  2
NN
 70
     8
280
     0
  0
ATTDEF
  5
93
330
8E
100
AcDbEntity
  8
AM_6
100
AcDbText
 10
5.21875
 20
-1.541925698355158
 30
0.0
 40
0.5
  1
Grease Fitting
100
AcDbAttributeDefinition
  3

  2
NT
 70
     8
280
     0
  0
ATTDEF
  5
94
330
8E
100
AcDbEntity
  8
AM_6
100
AcDbText
 10
5.21875
 20
-2.041925698355158
 30
0.0
 40
0.5
  1
405016-Inch
100
AcDbAttributeDefinition
  3

  2
NB
 70
     8
280
     0
  0
ATTDEF
  5
95
330
8E
100
AcDbEntity
  8
AM_6
100
AcDbText
 10
5.21875
 20
-2.541925698355158
 30
0.0
 40
0.5
  1
$MN.-Inch
100
AcDbAttributeDefinition
  3

  2
NBSYN
 70
     8
280
     0
  0
ATTDEF
  5
96
330
8E
100
AcDbEntity
  8
AM_6
100
AcDbText
 10
5.21875
 20
-3.041925698355158
 30
0.0
 40
0.5
  1
405016
100
AcDbAttributeDefinition
  3

  2
LINA
 70
     8
280
     0
  0
ATTDEF
  5
97
330
8E
100
AcDbEntity
  8
AM_6
100
AcDbText
 10
5.21875
 20
-3.541925698355158
 30
0.0
 40
0.5
  1
405016
100
AcDbAttributeDefinition
  3

  2
MN
 70
     8
280
     0
  0
ATTDEF
  5
98
330
8E
100
AcDbEntity
  8
AM_6
100
AcDbText
 10
5.21875
 20
-4.041925698355158
 30
0.0
 40
0.5
  1
7/16 HEX
100
AcDbAttributeDefinition
  3

  2
H
 70
     8
280
     0
  0
ATTDEF
  5
99
330
8E
100
AcDbEntity
  8
AM_6
100
AcDbText
 10
5.21875
 20
-4.541925698355158
 30
0.0
 40
0.5
  1
0.383
100
AcDbAttributeDefinition
  3

  2
NDR
 70
     8
280
     0
  0
ATTDEF
  5
9A
330
8E
100
AcDbEntity
  8
AM_6
100
AcDbText
 10
5.21875
 20
-5.041925698355158
 30
0.0
 40
0.5
  1
0.337
100
AcDbAttributeDefinition
  3

  2
KDR
 70
     8
280
     0
  0
ATTDEF
  5
9B
330
8E
100
AcDbEntity
  8
AM_6
100
AcDbText
 10
5.21875
 20
-5.541925698355158
 30
0.0
 40
0.5
  1
0.1575
100
AcDbAttributeDefinition
  3

  2
BZE
 70
     8
280
     0
  0
ATTDEF
  5
9C
330
8E
100
AcDbEntity
  8
AM_6
100
AcDbText
 10
5.21875
 20
-6.041925698355158
 30
0.0
 40
0.5
  1
0.4375
100
AcDbAttributeDefinition
  3

  2
HEX
 70
     8
280
     0
  0
ATTDEF
  5
9D
330
8E
100
AcDbEntity
  8
AM_6
100
AcDbText
 10
5.21875
 20
-6.541925698355158
 30
0.0
 40
0.5
  1
0.281250
100
AcDbAttributeDefinition
  3

  2
HEX2
 70
     8
280
     0
  0
ATTDEF
  5
9E
330
8E
100
AcDbEntity
  8
AM_6
100
AcDbText
 10
5.21875
 20
-7.041925698355158
 30
0.0
 40
0.5
  1
baldor
100
AcDbAttributeDefinition
  3

  2
COMPANY
 70
     8
280
     0
  0
LWPOLYLINE
  5
A1
330
8E
100
AcDbEntity
  8
AM_9
100
AcDbPolyline
 90
        5
 70
     0
 43
0.0
 10
-0.1791093260592888
 20
-1.646738809059826
 10
-0.1842540823997055
 20
-1.613670119967152
 10
-0.1862220679364952
 20
-1.579312409178914
 10
-0.1844124966919382
 20
-1.543126446285356
 10
-0.1791093260592888
 20
-1.506113809059826
  0
LINE
  5
A2
330
8E
100
AcDbEntity
  8
AM_9
100
AcDbLine
 10
-0.1510741298357571
 20
-1.49957729571137
 30
0.0
 11
-0.1791093260592888
 21
-1.506113809059826
 31
0.0
  0
LWPOLYLINE
  5
A3
330
8E
100
AcDbEntity
  8
AM_9
100
AcDbPolyline
 90
        5
 70
     0
 43
0.0
 10
-0.1791093260592888
 20
-1.506113809059826
 10
-0.198835512140694
 20
-1.474688517736611
 10
-0.2156330920108726
 20
-1.441997724328328
 10
-0.2290462109660022
 20
-1.407506153690794
 10
-0.2389369657326277
 20
-1.372169092407283
  0
LINE
  5
A4
330
8E
100
AcDbEntity
  8
AM_9
100
AcDbLine
 10
-0.2099962668917054
 20
-1.365421457656344
 30
0.0
 11
-0.2389369657326277
 21
-1.372169092407283
 31
0.0
  0
LINE
  5
A5
330
8E
100
AcDbEntity
  8
AM_9
100
AcDbLine
 10
-0.2389369657326277
 20
-1.372169092407283
 30
0.0
 11
-0.2711532636537957
 21
-1.376618123437406
 31
0.0
  0
LWPOLYLINE
  5
A6
330
8E
100
AcDbEntity
  8
AM_9
100
AcDbPolyline
 90
        3
 70
     0
 43
0.0
 10
-0.2813919000363601
 20
-1.377753048956784
 10
-0.2911775952746244
 20
-1.37855559349426
 10
-0.2987675689889719
 20
-1.378850066725466
  0
LWPOLYLINE
  5
A7
330
8E
100
AcDbEntity
  8
AM_9
100
AcDbPolyline
 90
        5
 70
     0
 43
0.0
 10
-0.2389369657326277
 20
-1.653419092407283
 10
-0.2295338871417797
 20
-1.65299806213629
 10
-0.2166871171046321
 20
-1.651802555641742
 10
-0.1996402057054679
 20
-1.649676787031713
 10
-0.1791093260592888
 20
-1.646738809059826
  0
LINE
  5
A8
330
8E
100
AcDbEntity
  8
AM_9
100
AcDbLine
 10
-0.1510741298357571
 20
-1.64020229571137
 30
0.0
 11
-0.1791093260592888
 21
-1.646738809059826
 31
0.0
  0
LINE
  5
A9
330
8E
100
AcDbEntity
  8
AM_9
100
AcDbLine
 10
-0.452415808934145
 20
-1.666254016496842
 30
0.0
 11
-0.3774664534000949
 21
-1.684780662014441
 31
0.0
  0
LINE
  5
AA
330
8E
100
AcDbEntity
  8
AM_9
100
AcDbLine
 10
-0.4395859245204076
 20
-1.418349390582632
 30
0.0
 11
-0.4986131040655764
 21
-1.468113178260487
 31
0.0
  0
LWPOLYLINE
  5
AB
330
8E
100
AcDbEntity
  8
AM_9
100
AcDbPolyline
 90
        3
 70
     0
 43
0.0
 10
-0.2689146070947223
 20
-1.371889734350518
 10
-0.2512755937295761
 20
-1.369238843014548
 10
-0.2360765106845276
 20
-1.367187592413266
  0
LWPOLYLINE
  5
AC
330
8E
100
AcDbEntity
  8
AM_9
100
AcDbPolyline
 90
       10
 70
     0
 43
0.0
 10
-0.3780713422581619
 20
-1.422952668911919
 10
-0.3800867593558351
 20
-1.421245681510136
 10
-0.38831354149925
 20
-1.415454192016211
 10
-0.3964633035398747
 20
-1.411472129281551
 10
-0.4046153629061652
 20
-1.409123114699747
 10
-0.412783106994727
 20
-1.408351427395232
 10
-0.4217028729609369
 20
-1.409352516812294
 10
-0.4298273608246562
 20
-1.412112817794367
 10
-0.4370078171015717
 20
-1.416330491437891
 10
-0.4403309762510904
 20
-1.418991220256687
  0
LWPOLYLINE
  5
AD
330
8E
100
AcDbEntity
  8
AM_9
100
AcDbPolyline
 90
       10
 70
     0
 43
0.0
 10
-0.3776868986766531
 20
-1.684725592399109
 10
-0.3772170108012073
 20
-1.684841581794616
 10
-0.3690472443472312
 20
-1.686023522221337
 10
-0.3609345709693934
 20
-1.685619856870281
 10
-0.3525350218948445
 20
-1.683424214581578
 10
-0.3450211663452447
 20
-1.679665521354601
 10
-0.3384690329016762
 20
-1.674610345688202
 10
-0.3327784067780907
 20
-1.668343763110524
 10
-0.3278386123720014
 20
-1.660763473377513
 10
-0.3243668770656264
 20
-1.653532898473093
  0
LWPOLYLINE
  5
AE
330
8E
100
AcDbEntity
  8
AM_9
100
AcDbPolyline
 90
        3
 70
     0
 43
0.0
 10
-0.1093750000000001
 20
-1.225
 10
-0.0546875000000001
 20
-1.196459559607483
 10
-0.0000000000000002
 20
-1.165778700151693
  0
LWPOLYLINE
  5
AF
330
8E
100
AcDbEntity
  8
AM_9
100
AcDbPolyline
 90
        3
 70
     0
 43
0.0
 10
-0.0000000000000002
 20
-1.165778700151693
 10
0.0544416102741494
 20
-1.196326042662265
 10
0.1093749999999998
 20
-1.225
  0
LWPOLYLINE
  5
B0
330
8E
100
AcDbEntity
  8
AM_9
100
AcDbPolyline
 90
        6
 70
     0
 43
0.0
 10
-0.1510741298357571
 20
-1.64020229571137
 10
-0.1564222384464443
 20
-1.640146258798399
 10
-0.1639940363880806
 20
-1.640585121917566
 10
-0.1744063212866123
 20
-1.641646289109957
 10
-0.1876759562813859
 20
-1.643363121169831
 10
-0.2099962668917054
 20
-1.646671457656344
  0
LINE
  5
B1
330
8E
100
AcDbEntity
  8
AM_9
100
AcDbLine
 10
-0.1419832527119784
 20
-1.564238259038024
 30
0.0
 11
-0.1419585098156051
 21
-1.567769408754154
 31
0.0
  0
LWPOLYLINE
  5
B2
330
8E
100
AcDbEntity
  8
AM_9
100
AcDbPolyline
 90
        3
 70
     0
 43
0.0
 10
-0.1510741298357571
 20
-1.49957729571137
 10
-0.1458778226760521
 20
-1.523510622598914
 10
-0.1431984549816638
 20
-1.542924358591456
  0
LINE
  5
B3
330
8E
100
AcDbEntity
  8
AM_9
100
AcDbLine
 10
-0.179687452826529
 20
-1.413090511956347
 30
0.0
 11
-0.1765789831125443
 21
-1.419205855542361
 31
0.0
  0
LWPOLYLINE
  5
B4
330
8E
100
AcDbEntity
  8
AM_9
100
AcDbPolyline
 90
        3
 70
     0
 43
0.0
 10
-0.2099962668917054
 20
-1.365421457656344
 10
-0.1943573015029059
 20
-1.387992854288234
 10
-0.1863859799942894
 20
-1.400982360369805
  0
LWPOLYLINE
  5
B5
330
8E
100
AcDbEntity
  8
AM_9
100
AcDbPolyline
 90
        3
 70
     0
 43
0.0
 10
-0.2258378743019628
 20
-1.366052666893888
 10
-0.2189176876709016
 20
-1.365510369847584
 10
-0.2099962668917054
 20
-1.365421457656344
  0
LWPOLYLINE
  5
B6
330
8E
100
AcDbEntity
  8
AM_9
100
AcDbPolyline
 90
        3
 70
     0
 43
0.0
 10
-0.1426734362615413
 20
-1.586971097406827
 10
-0.1441228263802216
 20
-1.601595324422914
 10
-0.1510741298357571
 20
-1.64020229571137
  0
LWPOLYLINE
  5
B7
330
8E
100
AcDbEntity
  8
AM_9
100
AcDbPolyline
 90
        3
 70
     0
 43
0.0
 10
-0.1419585098156051
 20
-1.567769408754154
 10
-0.1420496512545707
 20
-1.574566312422038
 10
-0.1423392662815719
 20
-1.581729000787115
  0
LWPOLYLINE
  5
B8
330
8E
100
AcDbEntity
  8
AM_9
100
AcDbPolyline
 90
        3
 70
     0
 43
0.0
 10
-0.1655306998063858
 20
-1.444835792844126
 10
-0.1598729403210872
 20
-1.461768689712644
 10
-0.1510741298357571
 20
-1.49957729571137
  0
LINE
  5
B9
330
8E
100
AcDbEntity
  8
AM_9
100
AcDbLine
 10
-0.1765789831125443
 20
-1.419205855542361
 30
0.0
 11
-0.1747648608829078
 21
-1.422954516279606
 31
0.0
  0
ELLIPSE
  5
BA
330
8E
100
AcDbEntity
  8
AM_9
100
AcDbEllipse
 10
-0.2013892028241867
 20
-1.50327024483734
 30
0.0
 11
-0.03193085011438218
 21
0.136951858096092
 31
0.0
210
0.0
220
0.0
230
1.0
 40
0.3659981507706632
 41
2.150416404658181
 42
6.139946939636918
  0
LWPOLYLINE
  5
BB
330
8E
100
AcDbEntity
  8
AM_9
100
AcDbPolyline
 90
        3
 70
     0
 43
0.0
 10
-0.3055458577949632
 20
-1.467852494962034
 10
-0.3030753670497809
 20
-1.493922855181632
 10
-0.2987675689889719
 20
-1.519475066725467
  0
LWPOLYLINE
  5
BC
330
8E
100
AcDbEntity
  8
AM_9
100
AcDbPolyline
 90
        3
 70
     0
 43
0.0
 10
-0.2602304684431209
 20
-1.423067949924796
 10
-0.2616913382589204
 20
-1.4084112730526
 10
-0.2689146070947223
 20
-1.371889734350518
  0
LINE
  5
BD
330
8E
100
AcDbEntity
  8
AM_9
100
AcDbLine
 10
-0.2689146070947223
 20
-1.371889734350518
 30
0.0
 11
-0.2987675689889719
 21
-1.378850066725466
 31
0.0
  0
LWPOLYLINE
  5
BE
330
8E
100
AcDbEntity
  8
AM_9
100
AcDbPolyline
 90
        3
 70
     0
 43
0.0
 10
-0.3001593436617024
 20
-1.386740185070577
 10
-0.3030606061861224
 20
-1.406294122408012
 10
-0.3055458577949632
 20
-1.433633406468319
  0
LINE
  5
BF
330
8E
100
AcDbEntity
  8
AM_9
100
AcDbLine
 10
-0.2987675689889719
 20
-1.378850066725466
 30
0.0
 11
-0.3001593436617024
 21
-1.386740185070577
 31
0.0
  0
LINE
  5
C0
330
8E
100
AcDbEntity
  8
AM_9
100
AcDbLine
 10
-0.2711532636537957
 20
-1.376618123437406
 30
0.0
 11
-0.2813919000363601
 21
-1.377753048956784
 31
0.0
  0
ELLIPSE
  5
C1
330
8E
100
AcDbEntity
  8
AM_9
100
AcDbEllipse
 10
-0.2467045921760208
 20
-1.513835701380858
 30
0.0
 11
-0.03193085011438281
 21
0.1369518580960947
 31
0.0
210
0.0
220
0.0
230
1.0
 40
0.365998150770667
 41
2.1504164046582
 42
6.139946939636892
  0
ELLIPSE
  5
C2
330
8E
100
AcDbEntity
  8
AM_9
100
AcDbEllipse
 10
-0.2467045921760216
 20
-1.513835701380859
 30
0.0
 11
-0.03193085011438263
 21
0.1369518580960933
 31
0.0
210
0.0
220
0.0
230
1.0
 40
0.3659981507706636
 41
1.252742104059831
 42
1.951156734850503
  0
LWPOLYLINE
  5
C3
330
8E
100
AcDbEntity
  8
AM_9
100
AcDbPolyline
 90
        3
 70
     0
 43
0.0
 10
-0.3055458577949632
 20
-1.433633406468319
 10
-0.3064767622622303
 20
-1.450869806845232
 10
-0.3055458577949632
 20
-1.467852494962034
  0
ELLIPSE
  5
C4
330
8E
100
AcDbEntity
  8
AM_9
100
AcDbEllipse
 10
-0.246704592176008
 20
-1.513835701380873
 30
0.0
 11
-0.03193085011439094
 21
0.1369518580961153
 31
0.0
210
0.0
220
0.0
230
1.0
 40
0.3659981507706838
 41
0.0560213022651093
 42
0.8626327579757382
  0
LWPOLYLINE
  5
C5
330
8E
100
AcDbEntity
  8
AM_9
100
AcDbPolyline
 90
       15
 70
     0
 43
0.0
 10
-0.3250051479212726
 20
-1.655023649209068
 10
-0.3244590958970915
 20
-1.653960940014262
 10
-0.3227527537045544
 20
-1.651281738648216
 10
-0.3195756694545628
 20
-1.647342802041845
 10
-0.3146155984037299
 20
-1.642572128148516
 10
-0.3076584519350418
 20
-1.637552878945483
 10
-0.2987956699470242
 20
-1.633048626571601
 10
-0.2886262608943613
 20
-1.629838570262478
 10
-0.2781401239815409
 20
-1.62837714901296
 10
-0.2683812909365693
 20
-1.628614377348679
 10
-0.2601379018108403
 20
-1.630085145184314
 10
-0.2538167214798285
 20
-1.632140561191827
 10
-0.2494553993261894
 20
-1.634173027811075
 10
-0.2468589851117527
 20
-1.635736505193222
 10
-0.2457834563228608
 20
-1.636523447082008
  0
LWPOLYLINE
  5
C6
330
8E
100
AcDbEntity
  8
AM_9
100
AcDbPolyline
 90
        3
 70
     0
 43
0.0
 10
-0.2457249882508971
 20
-1.636571960916105
 10
-0.2460205537261431
 20
-1.636299044443295
 10
-0.2472457293879082
 20
-1.635035238925382
  0
LWPOLYLINE
  5
C7
330
8E
100
AcDbEntity
  8
AM_9
100
AcDbPolyline
 90
        4
 70
     0
 43
0.0
 10
-0.3007253029644988
 20
-1.405145921550735
 10
-0.3006609989697636
 20
-1.404932899106056
 10
-0.3001693312198853
 20
-1.403475719337655
 10
-0.3001080482840256
 20
-1.403322263717043
  0
LWPOLYLINE
  5
C8
330
8E
100
AcDbEntity
  8
AM_9
100
AcDbPolyline
 90
       15
 70
     0
 43
0.0
 10
-0.3002552903792524
 20
-1.403635598234693
 10
-0.3013142578708529
 20
-1.405508425908929
 10
-0.3036755138587584
 20
-1.408829372344866
 10
-0.3076592180884444
 20
-1.413222706291709
 10
-0.313549394815256
 20
-1.418195439163224
 10
-0.3214473832637167
 20
-1.423074267997365
 10
-0.3310343761180113
 20
-1.427051888300218
 10
-0.341486025512253
 20
-1.429461302690427
 10
-0.351762096356921
 20
-1.430083382034
 10
-0.36087691167419
 20
-1.429186682455859
 10
-0.3682365492470023
 20
-1.427355835231448
 10
-0.3736145733733924
 20
-1.42524460661108
 10
-0.3771089341919573
 20
-1.423388848037495
 10
-0.3789556790385286
 20
-1.422160806918253
 10
-0.3793786812295711
 20
-1.421832020020148
  0
LINE
  5
C9
330
8E
100
AcDbEntity
  8
AM_9
100
AcDbLine
 10
-0.177120771554662
 20
-1.384661692407327
 30
0.0
 11
-0.2263662233581053
 21
-1.396143458059951
 31
0.0
  0
LINE
  5
CA
330
8E
100
AcDbEntity
  8
AM_9
100
AcDbLine
 10
-0.176412182290271
 20
-1.61039703161473
 30
0.0
 11
-0.1343592486638227
 21
-1.600592229115782
 31
0.0
  0
LWPOLYLINE
  5
CB
330
8E
100
AcDbEntity
  8
AM_9
100
AcDbPolyline
 90
       20
 70
     0
 43
0.0
 10
-0.1343659249938089
 20
-1.60059378540361
 10
-0.1293028157827818
 20
-1.597990967168627
 10
-0.1247141396218193
 20
-1.592417196040507
 10
-0.1208880884981782
 20
-1.583797239076489
 10
-0.118154598914599
 20
-1.572880991490922
 10
-0.1164278875396129
 20
-1.559336212655024
 10
-0.1158549073091555
 20
-1.544330271317741
 10
-0.1164156227038168
 20
-1.527408286749774
 10
-0.1180609686233502
 20
-1.510004703027538
 10
-0.1208367673933813
 20
-1.491607393511457
 10
-0.1245107513506023
 20
-1.473747455120003
 10
-0.1291842652280563
 20
-1.455922481606624
 10
-0.134472979061152
 20
-1.4395960564441
 10
-0.140518627090196
 20
-1.424328872764631
 10
-0.1468270783017121
 20
-1.411370478489193
 10
-0.1535654953592166
 20
-1.400381372029879
 10
-0.1601799433259584
 20
-1.392268942862664
 10
-0.1668493358980662
 20
-1.386820477436415
 10
-0.1731116383367607
 20
-1.384480939756072
 10
-0.1771125901748264
 20
-1.384659785344162
  0
LINE
  5
CC
330
8E
100
AcDbEntity
  8
AM_9
100
AcDbLine
 10
-0.1771125901748264
 20
-1.384659785344162
 30
0.0
 11
-0.1790373738502117
 21
-1.385304054033761
 31
0.0
  0
LWPOLYLINE
  5
CD
330
8E
100
AcDbEntity
  8
AM_9
100
AcDbPolyline
 90
        3
 70
     0
 43
0.0
 10
-0.2689146070947223
 20
-1.512514734350518
 10
-0.2634308483997529
 20
-1.484890958955647
 10
-0.2602304684431306
 20
-1.457287038418516
  0
LWPOLYLINE
  5
CE
330
8E
100
AcDbEntity
  8
AM_9
100
AcDbPolyline
 90
        5
 70
     0
 43
0.0
 10
-0.179037373850178
 20
-1.539695945966246
 10
-0.1733931390117468
 20
-1.555209976006311
 10
-0.1670729780242512
 20
-1.56935797563067
 10
-0.1606047421316796
 20
-1.580955943415793
 10
-0.1545990437420953
 20
-1.589382295942142
  0
ARC
  5
CF
330
8E
100
AcDbEntity
  8
AM_9
100
AcDbCircle
 10
0.0000000000000002
 20
-1.4625
 30
0.0
 40
0.1999999999999997
100
AcDbArc
 50
219.3413787123168
 51
0.0000008537736463
  0
LWPOLYLINE
  5
D0
330
8E
100
AcDbEntity
  8
AM_9
100
AcDbPolyline
 90
        6
 70
     0
 43
0.0
 10
-0.1545990437420953
 20
-1.589382295942142
 10
-0.1538031670974778
 20
-1.590334802540261
 10
-0.1472336073736394
 20
-1.596712011960484
 10
-0.1407130262602577
 20
-1.60026170963818
 10
-0.1347930597680668
 20
-1.600684256104104
 10
-0.1343659249938089
 20
-1.60059378540361
  0
LINE
  5
D1
330
8E
100
AcDbEntity
  8
AM_9
100
AcDbLine
 10
-0.2360765106845276
 20
-1.367187592413266
 30
0.0
 11
-0.2258378743019628
 21
-1.366052666893888
 31
0.0
  0
ELLIPSE
  5
D2
330
8E
100
AcDbEntity
  8
AM_9
100
AcDbEllipse
 10
-0.2013892028241897
 20
-1.503270244837342
 30
0.0
 11
-0.0319308501143819
 21
0.1369518580960953
 31
0.0
210
0.0
220
0.0
230
1.0
 40
0.3659981507705639
 41
0.056021302265008
 42
0.862632757975738
  0
LINE
  5
D3
330
8E
100
AcDbEntity
  8
AM_9
100
AcDbLine
 10
-0.2602304684431306
 20
-1.457287038418516
 30
0.0
 11
-0.2602304684431209
 21
-1.423067949924796
 31
0.0
  0
ELLIPSE
  5
D4
330
8E
100
AcDbEntity
  8
AM_9
100
AcDbEllipse
 10
-0.2013892028241872
 20
-1.50327024483734
 30
0.0
 11
-0.03193085011438277
 21
0.1369518580960954
 31
0.0
210
0.0
220
0.0
230
1.0
 40
0.3659981507706729
 41
1.144545279139741
 42
1.951156734850496
  0
LWPOLYLINE
  5
D5
330
8E
100
AcDbEntity
  8
AM_9
100
AcDbPolyline
 90
        3
 70
     0
 43
0.0
 10
-0.2099962668917054
 20
-1.646671457656344
 10
-0.2163479371246914
 20
-1.617339189975666
 10
-0.225837874301963
 20
-1.58805747759944
  0
LINE
  5
D6
330
8E
100
AcDbEntity
  8
AM_9
100
AcDbLine
 10
-0.225837874301963
 20
-1.58805747759944
 30
0.0
 11
-0.2360765106845278
 21
-1.564965725501071
 31
0.0
  0
LWPOLYLINE
  5
D7
330
8E
100
AcDbEntity
  8
AM_9
100
AcDbPolyline
 90
        3
 70
     0
 43
0.0
 10
-0.2360765106845278
 20
-1.564965725501071
 10
-0.2462091938631852
 20
-1.546421611213501
 10
-0.2689146070947223
 20
-1.512514734350518
  0
LINE
  5
D8
330
8E
100
AcDbEntity
  8
AM_9
100
AcDbLine
 10
-0.2689146070947223
 20
-1.512514734350518
 30
0.0
 11
-0.2987675689889719
 21
-1.519475066725467
 31
0.0
  0
LWPOLYLINE
  5
D9
330
8E
100
AcDbEntity
  8
AM_9
100
AcDbPolyline
 90
        3
 70
     0
 43
0.0
 10
-0.2987675689889719
 20
-1.519475066725467
 10
-0.2912216284034025
 20
-1.547576183495197
 10
-0.28139190003636
 20
-1.575531182044589
  0
LINE
  5
DA
330
8E
100
AcDbEntity
  8
AM_9
100
AcDbLine
 10
-0.28139190003636
 20
-1.575531182044589
 30
0.0
 11
-0.2711532636537957
 21
-1.598622934142958
 31
0.0
  0
LWPOLYLINE
  5
DB
330
8E
100
AcDbEntity
  8
AM_9
100
AcDbPolyline
 90
        3
 70
     0
 43
0.0
 10
-0.2711532636537957
 20
-1.598622934142958
 10
-0.2561815527589922
 20
-1.626327936735335
 10
-0.2389369657326277
 20
-1.653419092407283
  0
LINE
  5
DC
330
8E
100
AcDbEntity
  8
AM_9
100
AcDbLine
 10
-0.2099962668917054
 20
-1.646671457656344
 30
0.0
 11
-0.2389369657326277
 21
-1.653419092407283
 31
0.0
  0
LWPOLYLINE
  5
DD
330
8E
100
AcDbEntity
  8
AM_9
100
AcDbPolyline
 90
        3
 70
     0
 43
0.0
 10
-0.0000000000000002
 20
-1.124846299848307
 10
-0.0544416102741497
 20
-1.148740567611884
 10
-0.1093750000000001
 20
-1.175
  0
LWPOLYLINE
  5
DE
330
8E
100
AcDbEntity
  8
AM_9
100
AcDbPolyline
 90
        3
 70
     0
 43
0.0
 10
0.1093749999999998
 20
-1.175
 10
0.0546874999999999
 20
-1.148852940392517
 10
-0.0000000000000002
 20
-1.124846299848307
  0
LWPOLYLINE
  5
DF
330
8E
100
AcDbEntity
  8
AM_9
100
AcDbPolyline
 90
        3
 70
     0
 43
0.0
 10
0.1093749999999998
 20
-1.225
 10
0.1640624999999998
 20
-1.251147059607482
 10
0.2187499999999999
 20
-1.275153700151693
  0
LWPOLYLINE
  5
E0
330
8E
100
AcDbEntity
  8
AM_9
100
AcDbPolyline
 90
        3
 70
     0
 43
0.0
 10
-0.2187500000000001
 20
-1.275153700151693
 10
-0.1643083897258505
 20
-1.251259432388115
 10
-0.1093750000000001
 20
-1.225
  0
LINE
  5
E1
330
8E
100
AcDbEntity
  8
AM_9
100
AcDbLine
 10
-0.0000000000000002
 20
-1.165778700151693
 30
0.0
 11
-0.0000000000000002
 21
-1.125
 31
0.0
  0
LWPOLYLINE
  5
E2
330
8E
100
AcDbEntity
  8
AM_9
100
AcDbPolyline
 90
        3
 70
     0
 43
0.0
 10
0.2187499999999999
 20
-1.234221299848307
 10
0.1643083897258503
 20
-1.203673957337735
 10
0.1093749999999998
 20
-1.175
  0
LWPOLYLINE
  5
E3
330
8E
100
AcDbEntity
  8
AM_9
100
AcDbPolyline
 90
        3
 70
     0
 43
0.0
 10
-0.1093750000000001
 20
-1.175
 10
-0.1640625000000001
 20
-1.203540440392517
 10
-0.2187500000000001
 20
-1.234221299848307
  0
ELLIPSE
  5
E4
330
8E
100
AcDbEntity
  8
AM_9
100
AcDbEllipse
 10
-0.0000000000000002
 20
-1.4625
 30
0.0
 11
-0.2000000000000001
 21
2.449293598294707E-17
 31
0.0
210
0.0
220
0.0
230
1.0
 40
0.8660254037844392
 41
0.4619460205669679
 42
5.821239286612622
  0
LWPOLYLINE
  5
E5
330
8E
100
AcDbEntity
  8
AM_9
100
AcDbPolyline
 90
        7
 70
     0
 43
0.0
 10
-0.1790373738501785
 20
-1.539695945966246
 10
-0.1842628795203942
 20
-1.523701216295605
 10
-0.1891729979031394
 20
-1.507644458256412
 10
-0.1936098952159724
 20
-1.490877825105295
 10
-0.1971856748420372
 20
-1.473429808725254
 10
-0.1994144431868155
 20
-1.455957633207593
 10
-0.1999999999699529
 20
-1.44225755900097
  0
LINE
  5
E6
330
8E
100
AcDbEntity
  8
AM_9
100
AcDbLine
 10
0.1999999999999998
 20
-1.4625
 30
0.0
 11
0.1999999999999998
 21
-1.3890625
 31
0.0
  0
LWPOLYLINE
  5
E7
330
8E
100
AcDbEntity
  8
AM_9
100
AcDbPolyline
 90
        8
 70
     0
 43
0.0
 10
-0.1999999999699529
 20
-1.44225755900097
 10
-0.1999786710855128
 20
-1.439747492794571
 10
-0.1988321115509054
 20
-1.424477046299115
 10
-0.196164942998426
 20
-1.411547828583382
 10
-0.1920694300574959
 20
-1.400495849846331
 10
-0.1870948030566196
 20
-1.392226804053058
 10
-0.1815005947613931
 20
-1.386703487144151
 10
-0.1790373738501785
 20
-1.385304054033754
  0
LINE
  5
E8
330
8E
100
AcDbEntity
  8
AM_9
100
AcDbLine
 10
-0.2187500000000001
 20
-1.493903700151693
 30
0.0
 11
-0.2187500000000001
 21
-1.234221299848307
 31
0.0
  0
LWPOLYLINE
  5
E9
330
8E
100
AcDbEntity
  8
AM_9
100
AcDbPolyline
 90
        3
 70
     0
 43
0.0
 10
-0.1093750000000001
 20
-1.553125
 10
-0.1640625000000001
 20
-1.524584559607483
 10
-0.2187500000000001
 20
-1.493903700151693
  0
LWPOLYLINE
  5
EA
330
8E
100
AcDbEntity
  8
AM_9
100
AcDbPolyline
 90
        3
 70
     0
 43
0.0
 10
-0.0000000000000001
 20
-1.603278700151692
 10
-0.0544416102741497
 20
-1.579384432388115
 10
-0.1093750000000001
 20
-1.553125
  0
LWPOLYLINE
  5
EB
330
8E
100
AcDbEntity
  8
AM_9
100
AcDbPolyline
 90
        3
 70
     0
 43
0.0
 10
-0.1093750000000001
 20
-1.503125
 10
-0.0546875000000001
 20
-1.531665440392517
 10
-0.0000000000000001
 20
-1.562346299848307
  0
LWPOLYLINE
  5
EC
330
8E
100
AcDbEntity
  8
AM_9
100
AcDbPolyline
 90
        3
 70
     0
 43
0.0
 10
-0.2187500000000001
 20
-1.452971299848307
 10
-0.1643083897258505
 20
-1.476865567611884
 10
-0.1093750000000001
 20
-1.503125
  0
LINE
  5
ED
330
8E
100
AcDbEntity
  8
AM_9
100
AcDbLine
 10
-0.0000000000000001
 20
-1.603278700151692
 30
0.0
 11
-0.0000000000000001
 21
-1.562346299848307
 31
0.0
  0
LWPOLYLINE
  5
EE
330
8E
100
AcDbEntity
  8
AM_9
100
AcDbPolyline
 90
        3
 70
     0
 43
0.0
 10
0.1093749999999998
 20
-1.553125
 10
0.0546874999999999
 20
-1.579272059607483
 10
-0.0000000000000001
 20
-1.603278700151692
  0
LWPOLYLINE
  5
EF
330
8E
100
AcDbEntity
  8
AM_9
100
AcDbPolyline
 90
        3
 70
     0
 43
0.0
 10
0.2187499999999999
 20
-1.493903700151693
 10
0.1643083897258503
 20
-1.524451042662265
 10
0.1093749999999998
 20
-1.553125
  0
LINE
  5
F0
330
8E
100
AcDbEntity
  8
AM_9
100
AcDbLine
 10
0.2187499999999999
 20
-1.493903700151693
 30
0.0
 11
0.2187499999999999
 21
-1.234221299848307
 31
0.0
  0
LWPOLYLINE
  5
F1
330
8E
100
AcDbEntity
  8
AM_9
100
AcDbPolyline
 90
        3
 70
     0
 43
0.0
 10
0.1093749999999998
 20
-1.503125
 10
0.1640624999999998
 20
-1.476977940392517
 10
0.2187499999999999
 20
-1.452971299848307
  0
LWPOLYLINE
  5
F2
330
8E
100
AcDbEntity
  8
AM_9
100
AcDbPolyline
 90
        3
 70
     0
 43
0.0
 10
-0.0000000000000001
 20
-1.562346299848307
 10
0.0544416102741494
 20
-1.531798957337735
 10
0.1093749999999998
 20
-1.503125
  0
LINE
  5
F3
330
8E
100
AcDbEntity
  8
AM_9
100
AcDbLine
 10
0.1999999999999998
 20
-1.3390625
 30
0.0
 11
0.1999999999999998
 21
-1.3
 31
0.0
  0
LINE
  5
F4
330
8E
100
AcDbEntity
  8
AM_9
100
AcDbLine
 10
-0.1851454569549802
 20
-1.193809912570727
 30
0.0
 11
-0.1911698639085714
 21
-1.290054299320892
 31
0.0
  0
LINE
  5
F5
330
8E
100
AcDbEntity
  8
AM_9
100
AcDbLine
 10
0.1912304659644922
 20
-1.291022462287446
 30
0.0
 11
0.1851454569549799
 21
-1.193809912570727
 31
0.0
  0
ELLIPSE
  5
F6
330
8E
100
AcDbEntity
  8
AM_9
100
AcDbEllipse
 10
-0.0000000000000001
 20
-1.190625
 30
0.0
 11
0.1616637258772237
 21
0.0
 31
0.0
210
0.0
220
0.0
230
1.0
 40
0.8660254037844384
 41
0.0
 42
6.283185307179586
  0
ELLIPSE
  5
F7
330
8E
100
AcDbEntity
  8
AM_9
100
AcDbEllipse
 10
-0.4687500000000009
 20
-1.565606438444093
 30
0.0
 11
-0.0234971640207466
 21
0.100779661709677
 31
0.0
210
0.0
220
0.0
230
1.0
 40
0.3659981507706671
 41
0.0
 42
6.283185307179586
  0
ELLIPSE
  5
F8
330
8E
100
AcDbEntity
  8
AM_9
100
AcDbEllipse
 10
-0.3729962569746639
 20
-1.543281086609234
 30
0.0
 11
-0.03024351534849214
 21
0.1297148559307575
 31
0.0
210
0.0
220
0.0
230
1.0
 40
0.3659981507706657
 41
0.0
 42
6.283185307179586
  0
ELLIPSE
  5
F9
330
8E
100
AcDbEntity
  8
AM_9
100
AcDbEllipse
 10
-0.201389202824188
 20
-1.503270244837341
 30
0.0
 11
-0.02497702053391717
 21
0.1071267867773897
 31
0.0
210
0.0
220
0.0
230
1.0
 40
0.3659981507706674
 41
0.0
 42
6.283185307179586
  0
ELLIPSE
  5
FA
330
8E
100
AcDbEntity
  8
AM_9
100
AcDbEllipse
 10
0.0000000000000002
 20
-1.389062499999999
 30
0.0
 11
-0.2000000000000004
 21
2.449293598294711E-17
 31
0.0
210
0.0
220
0.0
230
1.0
 40
0.8660254037844389
 41
0.0
 42
6.283185307179586
  0
ELLIPSE
  5
FB
330
8E
100
AcDbEntity
  8
AM_9
100
AcDbEllipse
 10
-0.0000000000000001
 20
-1.389062499999999
 30
0.0
 11
-0.2187499999999998
 21
2.678914873134833E-17
 31
0.0
210
0.0
220
0.0
230
1.0
 40
0.8660254037844417
 41
0.0
 42
6.283185307179586
  0
ELLIPSE
  5
FC
330
8E
100
AcDbEntity
  8
AM_9
100
AcDbEllipse
 10
-0.0000000000000001
 20
-1.339062499999999
 30
0.0
 11
-0.21875
 21
2.678914873134835E-17
 31
0.0
210
0.0
220
0.0
230
1.0
 40
0.8660254037844418
 41
0.0
 42
6.283185307179586
  0
ELLIPSE
  5
FD
330
8E
100
AcDbEntity
  8
AM_9
100
AcDbEllipse
 10
-0.0000000000000004
 20
-1.3390625
 30
0.0
 11
-0.1999999999999997
 21
2.449293598294703E-17
 31
0.0
210
0.0
220
0.0
230
1.0
 40
0.8660254037844395
 41
0.0
 42
6.283185307179586
  0
ELLIPSE
  5
FE
330
8E
100
AcDbEntity
  8
AM_9
100
AcDbEllipse
 10
-0.0000000000000001
 20
-1.3
 30
0.0
 11
-0.2
 21
2.449293598294707E-17
 31
0.0
210
0.0
220
0.0
230
1.0
 40
0.8660254037844384
 41
0.0
 42
6.283185307179586
  0
ELLIPSE
  5
FF
330
8E
100
AcDbEntity
  8
AM_9
100
AcDbEllipse
 10
0.0000000000000001
 20
-1.299999999999999
 30
0.0
 11
-0.1915112338502297
 21
2.345336195354440E-17
 31
0.0
210
0.0
220
0.0
230
1.0
 40
0.8660254037844398
 41
0.0
 42
6.283185307179586
  0
ELLIPSE
  5
100
330
8E
100
AcDbEntity
  8
AM_9
100
AcDbEllipse
 10
-0.0000000000000001
 20
-1.202501782423881
 30
0.0
 11
-0.1854172907249857
 21
2.270706915929280E-17
 31
0.0
210
0.0
220
0.0
230
1.0
 40
0.866025403784439
 41
0.0
 42
6.283185307179586
  0
ENDBLK
  5
91
330
8E
100
AcDbEntity
  8
0
100
AcDbBlockEnd
  0
BLOCK
  5
103
330
101
100
AcDbEntity
  8
0
100
AcDbBlockBegin
  2
3_129524I_0_in_136148_2
 70
     2
 10
0.0
 20
0.0
 30
0.0
  3
3_129524I_0_in_136148_2
  1

  0
ATTDEF
  5
105
330
101
100
AcDbEntity
  8
AM_6
100
AcDbText
 10
5.603
 20
1.968362852357558
 30
0.0
 40
0.5
  1
INS-GT B
100
AcDbAttributeDefinition
  3

  2
NN
 70
     8
280
     0
  0
ATTDEF
  5
106
330
101
100
AcDbEntity
  8
AM_6
100
AcDbText
 10
5.603
 20
1.468362852357558
 30
0.0
 40
0.5
  1
GT Normal Duty Bearing Inserts
100
AcDbAttributeDefinition
  3

  2
NT
 70
     8
280
     0
  0
ATTDEF
  5
107
330
101
100
AcDbEntity
  8
AM_6
100
AcDbText
 10
5.603
 20
0.9683628523575585
 30
0.0
 40
0.5
  1
129524I
100
AcDbAttributeDefinition
  3

  2
NB
 70
     8
280
     0
  0
ATTDEF
  5
108
330
101
100
AcDbEntity
  8
AM_6
100
AcDbText
 10
5.603
 20
0.4683628523575585
 30
0.0
 40
0.5
  1
$PN.I
100
AcDbAttributeDefinition
  3

  2
NBSYN
 70
     8
280
     0
  0
ATTDEF
  5
109
330
101
100
AcDbEntity
  8
AM_6
100
AcDbText
 10
5.603
 20
-0.0316371476424415
 30
0.0
 40
0.5
  1
129524
100
AcDbAttributeDefinition
  3

  2
LINA
 70
     8
280
     0
  0
ATTDEF
  5
10A
330
101
100
AcDbEntity
  8
AM_6
100
AcDbText
 10
5.603
 20
-0.5316371476424415
 30
0.0
 40
0.5
  1
211
100
AcDbAttributeDefinition
  3

  2
SERIES
 70
     8
280
     0
  0
ATTDEF
  5
10B
330
101
100
AcDbEntity
  8
AM_6
100
AcDbText
 10
5.603
 20
-1.031637147642442
 30
0.0
 40
0.5
  1
129524
100
AcDbAttributeDefinition
  3

  2
PN
 70
     8
280
     0
  0
ATTDEF
  5
10C
330
101
100
AcDbEntity
  8
AM_6
100
AcDbText
 10
5.603
 20
-1.531637147642442
 30
0.0
 40
0.5
  1
INS-GT-11
100
AcDbAttributeDefinition
  3

  2
DESCRIPTION
 70
     8
280
     0
  0
ATTDEF
  5
10D
330
101
100
AcDbEntity
  8
AM_6
100
AcDbText
 10
5.603
 20
-2.031637147642441
 30
0.0
 40
0.5
  1
1.93
100
AcDbAttributeDefinition
  3

  2
A
 70
     8
280
     0
  0
ATTDEF
  5
10E
330
101
100
AcDbEntity
  8
AM_6
100
AcDbText
 10
5.603
 20
-2.531637147642441
 30
0.0
 40
0.5
  1
0.87
100
AcDbAttributeDefinition
  3

  2
C
 70
     8
280
     0
  0
ATTDEF
  5
10F
330
101
100
AcDbEntity
  8
AM_6
100
AcDbText
 10
5.603
 20
-3.031637147642441
 30
0.0
 40
0.5
  1
3.9370
100
AcDbAttributeDefinition
  3

  2
D
 70
     8
280
     0
  0
ATTDEF
  5
110
330
101
100
AcDbEntity
  8
AM_6
100
AcDbText
 10
5.603
 20
-3.531637147642441
 30
0.0
 40
0.5
  1
0.25
100
AcDbAttributeDefinition
  3

  2
J
 70
     8
280
     0
  0
ATTDEF
  5
111
330
101
100
AcDbEntity
  8
AM_6
100
AcDbText
 10
5.603
 20
-4.031637147642441
 30
0.0
 40
0.5
  1
3.43
100
AcDbAttributeDefinition
  3

  2
L
 70
     8
280
     0
  0
ATTDEF
  5
112
330
101
100
AcDbEntity
  8
AM_6
100
AcDbText
 10
5.603
 20
-4.531637147642441
 30
0.0
 40
0.5
  1
#10 - 32 x 1/4
100
AcDbAttributeDefinition
  3

  2
N
 70
     8
280
     0
  0
ATTDEF
  5
113
330
101
100
AcDbEntity
  8
AM_6
100
AcDbText
 10
5.603
 20
-5.031637147642441
 30
0.0
 40
0.5
  1
0.67000
100
AcDbAttributeDefinition
  3

  2
W
 70
     8
280
     0
  0
ATTDEF
  5
114
330
101
100
AcDbEntity
  8
AM_6
100
AcDbText
 10
5.603
 20
-5.531637147642441
 30
0.0
 40
0.5
  1
1.32
100
AcDbAttributeDefinition
  3

  2
X
 70
     8
280
     0
  0
ATTDEF
  5
115
330
101
100
AcDbEntity
  8
AM_6
100
AcDbText
 10
5.603
 20
-6.031637147642441
 30
0.0
 40
0.5
  1
1.26
100
AcDbAttributeDefinition
  3

  2
Y
 70
     8
280
     0
  0
ATTDEF
  5
116
330
101
100
AcDbEntity
  8
AM_6
100
AcDbText
 10
5.603
 20
-6.531637147642441
 30
0.0
 40
0.5
  1
baldor
100
AcDbAttributeDefinition
  3

  2
COMPANY
 70
     8
280
     0
  0
LINE
  5
117
330
101
100
AcDbEntity
  8
AM_9
100
AcDbLine
 10
-0.9899991617983235
 20
-1.279444346444444
 30
0.0
 11
-0.4949991617983232
 21
-1.279444346444444
 31
0.0
  0
LINE
  5
118
330
101
100
AcDbEntity
  8
AM_9
100
AcDbLine
 10
-0.4949991617983232
 20
1.279444346444444
 30
0.0
 11
-0.9899991617983235
 21
1.279444346444444
 31
0.0
  0
LINE
  5
119
330
101
100
AcDbEntity
  8
AM_9
100
AcDbLine
 10
-0.4949991617983232
 20
1.279444346444444
 30
0.0
 11
-0.4949991617983232
 21
-1.279444346444444
 31
0.0
  0
LINE
  5
11A
330
101
100
AcDbEntity
  8
AM_9
100
AcDbLine
 10
-0.4949991617983232
 20
-1.279444346444444
 30
0.0
 11
0.6030000000000002
 21
-1.317787322075736
 31
0.0
  0
LINE
  5
11B
330
101
100
AcDbEntity
  8
AM_9
100
AcDbLine
 10
0.6030000000000002
 20
1.317787322075736
 30
0.0
 11
-0.4949991617983232
 21
1.279444346444444
 31
0.0
  0
LINE
  5
11C
330
101
100
AcDbEntity
  8
AM_9
100
AcDbLine
 10
-0.8249991617983236
 20
-1.401944395444444
 30
0.0
 11
-0.6599991617983235
 21
-1.401944395444444
 31
0.0
  0
LINE
  5
11D
330
101
100
AcDbEntity
  8
AM_9
100
AcDbLine
 10
-0.6599991617983235
 20
1.401944395444444
 30
0.0
 11
-0.8249991617983236
 21
1.401944395444444
 31
0.0
  0
LINE
  5
11E
330
101
100
AcDbEntity
  8
AM_9
100
AcDbLine
 10
0.435
 20
-1.524444444444444
 30
0.0
 11
0.5682
 21
-1.524444444444444
 31
0.0
  0
LINE
  5
11F
330
101
100
AcDbEntity
  8
AM_9
100
AcDbLine
 10
0.5682
 20
1.524444444444444
 30
0.0
 11
0.435
 21
1.524444444444444
 31
0.0
  0
LINE
  5
120
330
101
100
AcDbEntity
  8
AM_9
100
AcDbLine
 10
-0.6599991617983235
 20
1.524444444444444
 30
0.0
 11
-0.6599991617983235
 21
-1.524444444444444
 31
0.0
  0
LINE
  5
121
330
101
100
AcDbEntity
  8
AM_9
100
AcDbLine
 10
-0.6599991617983235
 20
-1.524444444444444
 30
0.0
 11
-0.435
 21
-1.524444444444444
 31
0.0
  0
LINE
  5
122
330
101
100
AcDbEntity
  8
AM_9
100
AcDbLine
 10
-0.435
 20
1.524444444444444
 30
0.0
 11
-0.6599991617983235
 21
1.524444444444444
 31
0.0
  0
LINE
  5
123
330
101
100
AcDbEntity
  8
AM_9
100
AcDbLine
 10
0.5682
 20
1.524444444444444
 30
0.0
 11
0.5682
 21
-1.524444444444444
 31
0.0
  0
LINE
  5
124
330
101
100
AcDbEntity
  8
AM_9
100
AcDbLine
 10
0.603
 20
1.489644444444445
 30
0.0
 11
0.603
 21
-1.489644444444445
 31
0.0
  0
LINE
  5
125
330
101
100
AcDbEntity
  8
AM_9
100
AcDbLine
 10
0.603
 20
1.489644444444445
 30
0.0
 11
0.5682
 21
1.524444444444444
 31
0.0
  0
LINE
  5
126
330
101
100
AcDbEntity
  8
AM_9
100
AcDbLine
 10
0.5682
 20
-1.524444444444444
 30
0.0
 11
0.603
 21
-1.489644444444445
 31
0.0
  0
LINE
  5
127
330
101
100
AcDbEntity
  8
AM_9
100
AcDbLine
 10
-0.9899991617983235
 20
1.489644444444445
 30
0.0
 11
-0.9899991617983235
 21
-1.489644444444445
 31
0.0
  0
LINE
  5
128
330
101
100
AcDbEntity
  8
AM_9
100
AcDbLine
 10
-0.9899991617983235
 20
-1.489644444444445
 30
0.0
 11
-0.9551991617983236
 21
-1.524444444444444
 31
0.0
  0
LINE
  5
129
330
101
100
AcDbEntity
  8
AM_9
100
AcDbLine
 10
-0.9551991617983236
 20
1.524444444444444
 30
0.0
 11
-0.9899991617983235
 21
1.489644444444445
 31
0.0
  0
LINE
  5
12A
330
101
100
AcDbEntity
  8
AM_9
100
AcDbLine
 10
-0.9551991617983236
 20
1.524444444444444
 30
0.0
 11
-0.9551991617983236
 21
-1.524444444444444
 31
0.0
  0
LINE
  5
12B
330
101
100
AcDbEntity
  8
AM_9
100
AcDbLine
 10
-0.8249991617983236
 20
1.524444444444444
 30
0.0
 11
-0.8249991617983236
 21
-1.524444444444444
 31
0.0
  0
LINE
  5
12C
330
101
100
AcDbEntity
  8
AM_9
100
AcDbLine
 10
-0.9551991617983236
 20
-1.524444444444444
 30
0.0
 11
-0.8249991617983236
 21
-1.524444444444444
 31
0.0
  0
LINE
  5
12D
330
101
100
AcDbEntity
  8
AM_9
100
AcDbLine
 10
-0.8249991617983236
 20
1.524444444444444
 30
0.0
 11
-0.9551991617983236
 21
1.524444444444444
 31
0.0
  0
LINE
  5
12E
330
101
100
AcDbEntity
  8
AM_9
100
AcDbLine
 10
-0.3000000000000001
 20
-1.8815
 30
0.0
 11
-0.2
 21
-1.8815
 31
0.0
  0
LINE
  5
12F
330
101
100
AcDbEntity
  8
AM_9
100
AcDbLine
 10
-0.2
 20
1.8815
 30
0.0
 11
-0.3000000000000001
 21
1.8815
 31
0.0
  0
LINE
  5
130
330
101
100
AcDbEntity
  8
AM_9
100
AcDbLine
 10
-0.4349999999999997
 20
1.858036329583617
 30
0.0
 11
-0.4349999999999997
 21
-1.858036329580163
 31
0.0
  0
ARC
  5
131
330
101
100
AcDbEntity
  8
AM_9
100
AcDbCircle
 10
-0.4002000000000005
 20
-1.858036329583617
 30
0.0
 40
0.0347999999999992
100
AcDbArc
 50
180.0
 51
248.5875329531165
  0
ARC
  5
132
330
101
100
AcDbEntity
  8
AM_9
100
AcDbCircle
 10
-0.4002000000000005
 20
1.858036329583617
 30
0.0
 40
0.0347999999999993
100
AcDbArc
 50
111.4124670468834
 51
180.0
  0
LINE
  5
133
330
101
100
AcDbEntity
  8
AM_9
100
AcDbLine
 10
0.435
 20
1.858036329583617
 30
0.0
 11
0.435
 21
-1.858036329580164
 31
0.0
  0
ARC
  5
134
330
101
100
AcDbEntity
  8
AM_9
100
AcDbCircle
 10
0.4001999999999993
 20
-1.858036329583617
 30
0.0
 40
0.0348000000000007
100
AcDbArc
 50
291.4124594571506
 51
0.0
  0
ARC
  5
135
330
101
100
AcDbEntity
  8
AM_9
100
AcDbCircle
 10
0.4001999999999993
 20
1.858036329583617
 30
0.0
 40
0.0348000000000007
100
AcDbArc
 50
0.0
 51
68.58754054284945
  0
LINE
  5
136
330
101
100
AcDbEntity
  8
AM_9
100
AcDbLine
 10
-0.4129047619047618
 20
1.890434308300557
 30
0.0
 11
-0.4129047619047618
 21
-1.890434308300557
 31
0.0
  0
ARC
  5
137
330
101
100
AcDbEntity
  8
AM_9
100
AcDbCircle
 10
-0.0000000000000198
 20
-0.8375000000000514
 30
0.0
 40
1.130999999999945
100
AcDbArc
 50
248.5875329531159
 51
254.0344016634143
  0
ARC
  5
138
330
101
100
AcDbEntity
  8
AM_9
100
AcDbCircle
 10
0.0000000000000009
 20
0.8374999999999901
 30
0.0
 40
1.13100000000001
100
AcDbArc
 50
105.9655983365859
 51
111.4124670468839
  0
LINE
  5
139
330
101
100
AcDbEntity
  8
AM_9
100
AcDbLine
 10
-0.3110930219747757
 20
1.924873961284066
 30
0.0
 11
-0.3110930219747757
 21
-1.924873961284066
 31
0.0
  0
LINE
  5
13A
330
101
100
AcDbEntity
  8
AM_9
100
AcDbLine
 10
-0.3000000000000001
 20
1.916509545833585
 30
0.0
 11
-0.3000000000000001
 21
-1.916509545831969
 31
0.0
  0
ARC
  5
13B
330
101
100
AcDbEntity
  8
AM_9
100
AcDbCircle
 10
-0.3087000000000003
 20
-1.916509545833585
 30
0.0
 40
0.0087000000000001
100
AcDbArc
 50
254.0344103709567
 51
0.0
  0
ARC
  5
13C
330
101
100
AcDbEntity
  8
AM_9
100
AcDbCircle
 10
-0.3087000000000003
 20
1.916509545833585
 30
0.0
 40
0.0087000000000002
100
AcDbArc
 50
0.0
 51
105.9655896290433
  0
LINE
  5
13D
330
101
100
AcDbEntity
  8
AM_9
100
AcDbLine
 10
-0.2
 20
1.943375942409455
 30
0.0
 11
-0.2
 21
-1.943375942408934
 31
0.0
  0
ARC
  5
13E
330
101
100
AcDbEntity
  8
AM_9
100
AcDbCircle
 10
-0.1912999999999994
 20
-1.943375942409454
 30
0.0
 40
0.0087000000000006
100
AcDbArc
 50
180.0
 51
260.1858105424271
  0
ARC
  5
13F
330
101
100
AcDbEntity
  8
AM_9
100
AcDbCircle
 10
-0.1912999999999994
 20
1.943375942409454
 30
0.0
 40
0.0087000000000007
100
AcDbArc
 50
99.81418945757288
 51
180.0
  0
LINE
  5
140
330
101
100
AcDbEntity
  8
AM_9
100
AcDbLine
 10
-0.192782945736434
 20
1.951948624133559
 30
0.0
 11
-0.192782945736434
 21
-1.951948624133559
 31
0.0
  0
LINE
  5
141
330
101
100
AcDbEntity
  8
AM_9
100
AcDbLine
 10
0.4129047576131359
 20
1.890434309983504
 30
0.0
 11
0.412904757613136
 21
-1.890434309983504
 31
0.0
  0
ARC
  5
142
330
101
100
AcDbEntity
  8
AM_9
100
AcDbCircle
 10
-0.0000000000000019
 20
-0.8374999999999768
 30
0.0
 40
1.131000000000023
100
AcDbArc
 50
260.1858105424296
 51
291.4124668133534
  0
ARC
  5
143
330
101
100
AcDbEntity
  8
AM_9
100
AcDbCircle
 10
-0.0000000000000007
 20
0.837499999999989
 30
0.0
 40
1.131000000000011
100
AcDbArc
 50
68.5875331866464
 51
99.81418945757052
  0
ENDBLK
  5
104
330
101
100
AcDbEntity
  8
0
100
AcDbBlockEnd
  0
BLOCK
  5
146
330
144
100
AcDbEntity
  8
0
100
AcDbBlockBegin
  2
4_AN_GT_11_204_0_in_136148_2
 70
     2
 10
0.0
 20
0.0
 30
0.0
  3
4_AN_GT_11_204_0_in_136148_2
  1

  0
ATTDEF
  5
148
330
144
100
AcDbEntity
  8
AM_6
100
AcDbText
 10
5.703125
 20
1.625
 30
0.0
 40
0.5
  1
Grip Tight Normal Duty Adapter and Nut Inch Bore
100
AcDbAttributeDefinition
  3

  2
NN
 70
     8
280
     0
  0
ATTDEF
  5
149
330
144
100
AcDbEntity
  8
AM_6
100
AcDbText
 10
5.703125
 20
1.125
 30
0.0
 40
0.5
  1
GT and GTM Adapter & Lock Nut Assemblies
100
AcDbAttributeDefinition
  3

  2
NT
 70
     8
280
     0
  0
ATTDEF
  5
14A
330
144
100
AcDbEntity
  8
AM_6
100
AcDbText
 10
5.703125
 20
0.625
 30
0.0
 40
0.5
  1
AN-GT-11-204
100
AcDbAttributeDefinition
  3

  2
NB
 70
     8
280
     0
  0
ATTDEF
  5
14B
330
144
100
AcDbEntity
  8
AM_6
100
AcDbText
 10
5.703125
 20
0.125
 30
0.0
 40
0.5
  1
$PN.
100
AcDbAttributeDefinition
  3

  2
NBSYN
 70
     8
280
     0
  0
ATTDEF
  5
14C
330
144
100
AcDbEntity
  8
AM_6
100
AcDbText
 10
5.703125
 20
-0.375
 30
0.0
 40
0.5
  1
AN-GT-11-204
100
AcDbAttributeDefinition
  3

  2
LINA
 70
     8
280
     0
  0
ATTDEF
  5
14D
330
144
100
AcDbEntity
  8
AM_6
100
AcDbText
 10
5.703125
 20
-0.875
 30
0.0
 40
0.5
  1
211
100
AcDbAttributeDefinition
  3

  2
SERIES
 70
     8
280
     0
  0
ATTDEF
  5
14E
330
144
100
AcDbEntity
  8
AM_6
100
AcDbText
 10
5.703125
 20
-1.375
 30
0.0
 40
0.5
  1
2-1/4
100
AcDbAttributeDefinition
  3

  2
SS
 70
     8
280
     0
  0
ATTDEF
  5
14F
330
144
100
AcDbEntity
  8
AM_6
100
AcDbText
 10
5.703125
 20
-1.875
 30
0.0
 40
0.5
  1
AN-GT-11-204
100
AcDbAttributeDefinition
  3

  2
PN
 70
     8
280
     0
  0
ATTDEF
  5
150
330
144
100
AcDbEntity
  8
AM_6
100
AcDbText
 10
5.703125
 20
-2.375
 30
0.0
 40
0.5
  1
AN-GT-11-204
100
AcDbAttributeDefinition
  3

  2
DESCRIPTION
 70
     8
280
     0
  0
ATTDEF
  5
151
330
144
100
AcDbEntity
  8
AM_6
100
AcDbText
 10
5.703125
 20
-2.875
 30
0.0
 40
0.5
  1
1-59/64
100
AcDbAttributeDefinition
  3

  2
A
 70
     8
280
     0
  0
ATTDEF
  5
152
330
144
100
AcDbEntity
  8
AM_6
100
AcDbText
 10
5.703125
 20
-3.375
 30
0.0
 40
0.5
  1
0.9449
100
AcDbAttributeDefinition
  3

  2
C
 70
     8
280
     0
  0
ATTDEF
  5
153
330
144
100
AcDbEntity
  8
AM_6
100
AcDbText
 10
5.703125
 20
-3.875
 30
0.0
 40
0.5
  1
3.9370
100
AcDbAttributeDefinition
  3

  2
D
 70
     8
280
     0
  0
ATTDEF
  5
154
330
144
100
AcDbEntity
  8
AM_6
100
AcDbText
 10
5.703125
 20
-4.375
 30
0.0
 40
0.5
  1
0.267
100
AcDbAttributeDefinition
  3

  2
J
 70
     8
280
     0
  0
ATTDEF
  5
155
330
144
100
AcDbEntity
  8
AM_6
100
AcDbText
 10
5.703125
 20
-4.875
 30
0.0
 40
0.5
  1
3-1/4
100
AcDbAttributeDefinition
  3

  2
L
 70
     8
280
     0
  0
ATTDEF
  5
156
330
144
100
AcDbEntity
  8
AM_6
100
AcDbText
 10
5.703125
 20
-5.375
 30
0.0
 40
0.5
  1
10 - 32 x 1/4
100
AcDbAttributeDefinition
  3

  2
N
 70
     8
280
     0
  0
ATTDEF
  5
157
330
144
100
AcDbEntity
  8
AM_6
100
AcDbText
 10
5.703125
 20
-5.875
 30
0.0
 40
0.5
  1
45/64
100
AcDbAttributeDefinition
  3

  2
W
 70
     8
280
     0
  0
ATTDEF
  5
158
330
144
100
AcDbEntity
  8
AM_6
100
AcDbText
 10
5.703125
 20
-6.375
 30
0.0
 40
0.5
  1
1-3/16
100
AcDbAttributeDefinition
  3

  2
X
 70
     8
280
     0
  0
ATTDEF
  5
159
330
144
100
AcDbEntity
  8
AM_6
100
AcDbText
 10
5.703125
 20
-6.875
 30
0.0
 40
0.5
  1
1-7/32
100
AcDbAttributeDefinition
  3

  2
Y
 70
     8
280
     0
  0
ATTDEF
  5
15A
330
144
100
AcDbEntity
  8
AM_6
100
AcDbText
 10
5.703125
 20
-7.375
 30
0.0
 40
0.5
  1
baldor
100
AcDbAttributeDefinition
  3

  2
COMPANY
 70
     8
280
     0
  0
LWPOLYLINE
  5
15B
330
144
100
AcDbEntity
  8
AM_9
100
AcDbPolyline
 90
        7
 70
     0
 43
0.0
 10
-1.149704
 20
0.0623981609553294
 10
-1.157043710292973
 20
0.0401264555278246
 10
-1.161403128296046
 20
0.0156699007615675
 10
-1.162028444031562
 20
-0.0070207816722861
 10
-1.159251590400473
 20
-0.0303283341884596
 10
-1.155196414435241
 20
-0.0467469384874531
 10
-1.149704
 20
-0.0623981609553275
  0
LWPOLYLINE
  5
15C
330
144
100
AcDbEntity
  8
AM_9
100
AcDbPolyline
 90
       12
 70
     0
 43
0.0
 10
-1.003576390881675
 20
0.055293187578193
 10
-1.013593128888682
 20
0.0663477919689286
 10
-1.025620077186234
 20
0.0759579789895793
 10
-1.039429077224968
 20
0.0836627525199564
 10
-1.054310784080917
 20
0.0890191123815799
 10
-1.070250301000364
 20
0.091908313626811
 10
-1.08644906843248
 20
0.0921365691811654
 10
-1.10265533669707
 20
0.0896155670876469
 10
-1.118210154453928
 20
0.0844232053549709
 10
-1.132611637601485
 20
0.076676470324815
 10
-1.145485480593903
 20
0.0665985493088592
 10
-1.149704
 20
0.0623981609553294
  0
LWPOLYLINE
  5
15D
330
144
100
AcDbEntity
  8
AM_9
100
AcDbPolyline
 90
       12
 70
     0
 43
0.0
 10
-1.149704
 20
-0.0623981609553275
 10
-1.138228057559186
 20
-0.0727144953633314
 10
-1.125235635605578
 20
-0.0810453110921731
 10
-1.110580239983255
 20
-0.0873327405209543
 10
-1.095092531235281
 20
-0.0911457023254238
 10
-1.078850241988437
 20
-0.092360000062879
 10
-1.062630658739067
 20
-0.090873958086211
 10
-1.04677115939737
 20
-0.086643826854459
 10
-1.031850580970712
 20
-0.0798112381569236
 10
-1.018425708083839
 20
-0.070593373373632
 10
-1.006771786088342
 20
-0.0592229593649447
 10
-0.999375200254228
 20
-0.0493593473902426
  0
CIRCLE
  5
15E
330
144
100
AcDbEntity
  8
AM_9
100
AcDbCircle
 10
-1.0796668666709
 20
0.0
 30
0.0
 40
0.0724499999999998
  0
LINE
  5
15F
330
144
100
AcDbEntity
  8
AM_9
100
AcDbLine
 10
-1.149704
 20
0.0623981609553294
 30
0.0
 11
-1.149704
 21
0.4905858359046354
 31
0.0
  0
LINE
  5
160
330
144
100
AcDbEntity
  8
AM_9
100
AcDbLine
 10
-1.149704
 20
-0.4905858359046356
 30
0.0
 11
-1.149704
 21
-0.0623981609553275
 31
0.0
  0
LINE
  5
161
330
144
100
AcDbEntity
  8
AM_9
100
AcDbLine
 10
-0.59375
 20
1.246721624104598
 30
0.0
 11
-1.1875
 21
1.246721624104598
 31
0.0
  0
LINE
  5
162
330
144
100
AcDbEntity
  8
AM_9
100
AcDbLine
 10
-0.5937500000000002
 20
1.302938181927551
 30
0.0
 11
-0.6315459999999999
 21
1.335784157338066
 31
0.0
  0
LINE
  5
163
330
144
100
AcDbEntity
  8
AM_9
100
AcDbLine
 10
-0.6315459999999999
 20
1.335784157338066
 30
0.0
 11
-1.149704
 21
1.335784157338066
 31
0.0
  0
LINE
  5
164
330
144
100
AcDbEntity
  8
AM_9
100
AcDbLine
 10
-1.149704
 20
1.335784157338066
 30
0.0
 11
-1.1875
 21
1.302938181927551
 31
0.0
  0
LINE
  5
165
330
144
100
AcDbEntity
  8
AM_9
100
AcDbLine
 10
-0.59375
 20
-1.246721624104599
 30
0.0
 11
-1.1875
 21
-1.246721624104599
 31
0.0
  0
LINE
  5
166
330
144
100
AcDbEntity
  8
AM_9
100
AcDbLine
 10
-1.1875
 20
-1.302938181927551
 30
0.0
 11
-1.149704
 21
-1.335784157338066
 31
0.0
  0
LINE
  5
167
330
144
100
AcDbEntity
  8
AM_9
100
AcDbLine
 10
-1.149704
 20
-1.335784157338066
 30
0.0
 11
-0.6315459999999999
 21
-1.335784157338066
 31
0.0
  0
LINE
  5
168
330
144
100
AcDbEntity
  8
AM_9
100
AcDbLine
 10
-0.6315459999999999
 20
-1.335784157338066
 30
0.0
 11
-0.5937500000000002
 21
-1.302938181927551
 31
0.0
  0
LINE
  5
169
330
144
100
AcDbEntity
  8
AM_9
100
AcDbLine
 10
-0.59375
 20
1.380221624104598
 30
0.0
 11
-1.1875
 21
1.380221624104598
 31
0.0
  0
LINE
  5
16A
330
144
100
AcDbEntity
  8
AM_9
100
AcDbLine
 10
-0.59375
 20
-1.380221624104598
 30
0.0
 11
-1.1875
 21
-1.380221624104598
 31
0.0
  0
ARC
  5
16B
330
144
100
AcDbEntity
  8
AM_9
100
AcDbCircle
 10
-0.3946875000000002
 20
1.224176587301586
 30
0.0
 40
0.0118749999999987
100
AcDbArc
 50
270.0
 51
292.3996407151301
  0
LINE
  5
16C
330
144
100
AcDbEntity
  8
AM_9
100
AcDbLine
 10
-0.3946875000000002
 20
1.212301587301587
 30
0.0
 11
-0.4453125000002503
 21
1.212301587301587
 31
0.0
  0
LINE
  5
16D
330
144
100
AcDbEntity
  8
AM_9
100
AcDbLine
 10
-0.890625
 20
1.212301587301587
 30
0.0
 11
-1.1875
 21
1.212301587301587
 31
0.0
  0
LINE
  5
16E
330
144
100
AcDbEntity
  8
AM_9
100
AcDbLine
 10
-1.15625
 20
1.212301587301587
 30
0.0
 11
-1.15625
 21
-1.212301587301587
 31
0.0
  0
LINE
  5
16F
330
144
100
AcDbEntity
  8
AM_9
100
AcDbLine
 10
0.703125
 20
1.123888339649451
 30
0.0
 11
-1.15625
 21
1.123888339649451
 31
0.0
  0
LINE
  5
170
330
144
100
AcDbEntity
  8
AM_9
100
AcDbLine
 10
-1.15625
 20
-1.125
 30
0.0
 11
0.7031249999999999
 21
-1.125
 31
0.0
  0
LINE
  5
171
330
144
100
AcDbEntity
  8
AM_9
100
AcDbLine
 10
-1.1875
 20
-1.212301587301587
 30
0.0
 11
-1.15625
 21
-1.212301587301587
 31
0.0
  0
LINE
  5
172
330
144
100
AcDbEntity
  8
AM_9
100
AcDbLine
 10
-0.8906249999999999
 20
1.211270051876932
 30
0.0
 11
-0.4453124999999991
 21
1.211270051876933
 31
0.0
  0
LINE
  5
173
330
144
100
AcDbEntity
  8
AM_9
100
AcDbLine
 10
-0.8906249999999999
 20
-1.212301587301587
 30
0.0
 11
-0.4453124999999991
 21
-1.212301587301587
 31
0.0
  0
LINE
  5
174
330
144
100
AcDbEntity
  8
AM_9
100
AcDbLine
 10
-0.4453124999999991
 20
1.211270051876933
 30
0.0
 11
-0.4157983036560035
 21
1.212301587301587
 31
0.0
  0
LINE
  5
175
330
144
100
AcDbEntity
  8
AM_9
100
AcDbLine
 10
-0.4453124999999991
 20
1.211270051876933
 30
0.0
 11
-0.4453124999999991
 21
-1.212301587301587
 31
0.0
  0
LINE
  5
176
330
144
100
AcDbEntity
  8
AM_9
100
AcDbLine
 10
0.703125
 20
1.033493582167422
 30
0.0
 11
0.703125
 21
-1.033493582167422
 31
0.0
  0
LINE
  5
177
330
144
100
AcDbEntity
  8
AM_9
100
AcDbLine
 10
-0.3901623581268892
 20
1.2131975747764
 30
0.0
 11
0.667879817547049
 21
1.250175659642559
 31
0.0
  0
LINE
  5
178
330
144
100
AcDbEntity
  8
AM_9
100
AcDbLine
 10
-0.4453124999999991
 20
-1.212301587301587
 30
0.0
 11
0.667969453125
 21
-1.251178249765988
 31
0.0
  0
LINE
  5
179
330
144
100
AcDbEntity
  8
AM_9
100
AcDbLine
 10
-0.388309751332055
 20
1.214292167148217
 30
0.0
 11
-0.4453124999999991
 21
1.212301587301587
 31
0.0
  0
LWPOLYLINE
  5
17A
330
144
100
AcDbEntity
  8
AM_9
100
AcDbPolyline
 90
        3
 70
     0
 43
0.0
 10
-0.3880949197421631
 20
1.214299669232407
 10
-0.3881863488489035
 20
1.214239250701139
 10
-0.3901623581268855
 20
1.213197574776401
  0
LINE
  5
17B
330
144
100
AcDbEntity
  8
AM_9
100
AcDbLine
 10
-0.7421875
 20
-1.328373015873015
 30
0.0
 11
-0.59375
 21
-1.328373015873015
 31
0.0
  0
LINE
  5
17C
330
144
100
AcDbEntity
  8
AM_9
100
AcDbLine
 10
-0.59375
 20
1.328373015873015
 30
0.0
 11
-0.7421875
 21
1.328373015873015
 31
0.0
  0
LINE
  5
17D
330
144
100
AcDbEntity
  8
AM_9
100
AcDbLine
 10
-0.8906249999999999
 20
1.444444444444444
 30
0.0
 11
-0.8906249999999999
 21
-1.444444444444444
 31
0.0
  0
LINE
  5
17E
330
144
100
AcDbEntity
  8
AM_9
100
AcDbLine
 10
-0.7421875
 20
1.444444444444444
 30
0.0
 11
-0.7421875
 21
-1.444444444444444
 31
0.0
  0
LINE
  5
17F
330
144
100
AcDbEntity
  8
AM_9
100
AcDbLine
 10
-0.8906249999999999
 20
-1.444444444444444
 30
0.0
 11
-0.7421875
 21
-1.444444444444444
 31
0.0
  0
LINE
  5
180
330
144
100
AcDbEntity
  8
AM_9
100
AcDbLine
 10
-0.7421875
 20
1.444444444444444
 30
0.0
 11
-0.8906249999999999
 21
1.444444444444444
 31
0.0
  0
LINE
  5
181
330
144
100
AcDbEntity
  8
AM_9
100
AcDbLine
 10
-1.1875
 20
-0.1335
 30
0.0
 11
-0.59375
 21
-0.1335
 31
0.0
  0
LINE
  5
182
330
144
100
AcDbEntity
  8
AM_9
100
AcDbLine
 10
-0.5937500000000002
 20
-1.436438181927551
 30
0.0
 11
-0.6315459999999999
 21
-1.469284157338066
 31
0.0
  0
LINE
  5
183
330
144
100
AcDbEntity
  8
AM_9
100
AcDbLine
 10
-0.6315459999999999
 20
-1.625
 30
0.0
 11
-0.59375
 21
-1.587204
 31
0.0
  0
LINE
  5
184
330
144
100
AcDbEntity
  8
AM_9
100
AcDbLine
 10
-1.149704
 20
-1.469284157338066
 30
0.0
 11
-1.1875
 21
-1.436438181927551
 31
0.0
  0
LINE
  5
185
330
144
100
AcDbEntity
  8
AM_9
100
AcDbLine
 10
-1.1875
 20
0.3903043684180969
 30
0.0
 11
-1.1875
 21
-0.3903043684180971
 31
0.0
  0
LINE
  5
186
330
144
100
AcDbEntity
  8
AM_9
100
AcDbLine
 10
-0.59375
 20
0.1335
 30
0.0
 11
-1.1875
 21
0.1335
 31
0.0
  0
LINE
  5
187
330
144
100
AcDbEntity
  8
AM_9
100
AcDbLine
 10
-1.149704
 20
1.469284157338066
 30
0.0
 11
-0.6315459999999999
 21
1.469284157338066
 31
0.0
  0
LINE
  5
188
330
144
100
AcDbEntity
  8
AM_9
100
AcDbLine
 10
-0.6315459999999999
 20
1.625
 30
0.0
 11
-0.6679694531249997
 21
1.625
 31
0.0
  0
LINE
  5
189
330
144
100
AcDbEntity
  8
AM_9
100
AcDbLine
 10
-0.6315459999999999
 20
-1.469284157338066
 30
0.0
 11
-1.149704
 21
-1.469284157338066
 31
0.0
  0
LINE
  5
18A
330
144
100
AcDbEntity
  8
AM_9
100
AcDbLine
 10
-0.6679694531249994
 20
-1.625
 30
0.0
 11
-0.6315459999999999
 21
-1.625
 31
0.0
  0
LINE
  5
18B
330
144
100
AcDbEntity
  8
AM_9
100
AcDbLine
 10
-0.6315459999999999
 20
1.469284157338066
 30
0.0
 11
-0.5937500000000002
 21
1.43643818192755
 31
0.0
  0
LINE
  5
18C
330
144
100
AcDbEntity
  8
AM_9
100
AcDbLine
 10
-0.59375
 20
1.587204
 30
0.0
 11
-0.6315459999999999
 21
1.625
 31
0.0
  0
LINE
  5
18D
330
144
100
AcDbEntity
  8
AM_9
100
AcDbLine
 10
-0.59375
 20
1.587204
 30
0.0
 11
-0.59375
 21
-1.587204
 31
0.0
  0
LINE
  5
18E
330
144
100
AcDbEntity
  8
AM_9
100
AcDbLine
 10
-0.6315459999999999
 20
1.625
 30
0.0
 11
-0.6315459999999999
 21
-1.625
 31
0.0
  0
LINE
  5
18F
330
144
100
AcDbEntity
  8
AM_9
100
AcDbLine
 10
-1.1875
 20
1.43643818192755
 30
0.0
 11
-1.149704
 21
1.469284157338066
 31
0.0
  0
LINE
  5
192
330
144
100
AcDbEntity
  8
AM_7
100
AcDbLine
 10
-1.0796668666709
 20
-0.0997499999999999
 30
0.0
 11
-1.0796668666709
 21
0.0997499999999999
 31
0.0
  0
LINE
  5
194
330
144
100
AcDbEntity
  8
AM_4
100
AcDbLine
 10
0.703125
 20
-1.033493582167422
 30
0.0
 11
0.703125
 21
-1.252405908514766
 31
0.0
  0
LINE
  5
195
330
144
100
AcDbEntity
  8
AM_4
100
AcDbLine
 10
0.703125
 20
1.251407431527677
 30
0.0
 11
0.703125
 21
1.033493582167422
 31
0.0
  0
LINE
  5
196
330
144
100
AcDbEntity
  8
AM_4
100
AcDbLine
 10
0.667969452167484
 20
1.250178792254856
 30
0.0
 11
0.703125
 21
1.251407431527677
 31
0.0
  0
LINE
  5
197
330
144
100
AcDbEntity
  8
AM_4
100
AcDbLine
 10
0.667969453125
 20
-1.251178249765988
 30
0.0
 11
0.703125
 21
-1.252405908514766
 31
0.0
  0
LINE
  5
198
330
144
100
AcDbEntity
  8
AM_4
100
AcDbLine
 10
-1.1875
 20
-0.3903043684180971
 30
0.0
 11
-1.1875
 21
-1.587204
 31
0.0
  0
LINE
  5
199
330
144
100
AcDbEntity
  8
AM_4
100
AcDbLine
 10
-1.1875
 20
-1.587204
 30
0.0
 11
-1.149704
 21
-1.625
 31
0.0
  0
LINE
  5
19A
330
144
100
AcDbEntity
  8
AM_4
100
AcDbLine
 10
-0.6679694531249997
 20
1.625
 30
0.0
 11
-1.149704
 21
1.625
 31
0.0
  0
LINE
  5
19B
330
144
100
AcDbEntity
  8
AM_4
100
AcDbLine
 10
-1.149704
 20
-0.4905858359046356
 30
0.0
 11
-1.149704
 21
-1.625
 31
0.0
  0
LINE
  5
19C
330
144
100
AcDbEntity
  8
AM_4
100
AcDbLine
 10
-1.149704
 20
-1.625
 30
0.0
 11
-0.6679694531249994
 21
-1.625
 31
0.0
  0
LINE
  5
19D
330
144
100
AcDbEntity
  8
AM_4
100
AcDbLine
 10
-1.149704
 20
1.625
 30
0.0
 11
-1.1875
 21
1.587204
 31
0.0
  0
LINE
  5
19E
330
144
100
AcDbEntity
  8
AM_4
100
AcDbLine
 10
-1.149704
 20
1.625
 30
0.0
 11
-1.149704
 21
0.4905858359046354
 31
0.0
  0
LINE
  5
19F
330
144
100
AcDbEntity
  8
AM_4
100
AcDbLine
 10
-1.1875
 20
1.587204
 30
0.0
 11
-1.1875
 21
0.3903043684180969
 31
0.0
  0
ARC
  5
1A1
330
144
100
AcDbEntity
  8
AM_5
100
AcDbCircle
 10
-1.0796668666709
 20
0.0000000000000002
 30
0.0
 40
0.0949999999999999
100
AcDbArc
 50
74.99999999999979
 51
14.99999999999982
  0
ENDBLK
  5
147
330
144
100
AcDbEntity
  8
0
100
AcDbBlockEnd
  0
BLOCK
  5
1A4
330
1A2
100
AcDbEntity
  8
0
100
AcDbBlockBegin
  2
5_WSTU_GT_11I_0_in_136148_2
 70
     2
 10
0.0
 20
0.0
 30
0.0
  3
5_WSTU_GT_11I_0_in_136148_2
  1

  0
ATTDEF
  5
1A6
330
1A2
100
AcDbEntity
  8
AM_6
100
AcDbText
 10
7.424995112419128
 20
2.937494125
 30
0.0
 40
0.5
  1
GTMMDWSTUB-Ib
100
AcDbAttributeDefinition
  3

  2
NN
 70
     8
280
     0
  0
ATTDEF
  5
1A7
330
1A2
100
AcDbEntity
  8
AM_6
100
AcDbText
 10
7.424995112419128
 20
2.437494125
 30
0.0
 40
0.5
  1
Grip Tight Adapter Ball Bearings
100
AcDbAttributeDefinition
  3

  2
NT
 70
     8
280
     0
  0
ATTDEF
  5
1A8
330
1A2
100
AcDbEntity
  8
AM_6
100
AcDbText
 10
7.424995112419128
 20
1.937494125
 30
0.0
 40
0.5
  1
WSTU-GT-11I
100
AcDbAttributeDefinition
  3

  2
NB
 70
     8
280
     0
  0
ATTDEF
  5
1A9
330
1A2
100
AcDbEntity
  8
AM_6
100
AcDbText
 10
7.424995112419128
 20
1.437494125
 30
0.0
 40
0.5
  1
$PN.$LUBE.I
100
AcDbAttributeDefinition
  3

  2
NBSYN
 70
     8
280
     0
  0
ATTDEF
  5
1AA
330
1A2
100
AcDbEntity
  8
AM_6
100
AcDbText
 10
7.424995112419128
 20
0.9374941250000002
 30
0.0
 40
0.5
  1
WSTU-GT-11
100
AcDbAttributeDefinition
  3

  2
LINA
 70
     8
280
     0
  0
ATTDEF
  5
1AB
330
1A2
100
AcDbEntity
  8
AM_6
100
AcDbText
 10
7.424995112419128
 20
0.4374941250000002
 30
0.0
 40
0.5
  1
211
100
AcDbAttributeDefinition
  3

  2
SERIES
 70
     8
280
     0
  0
ATTDEF
  5
1AC
330
1A2
100
AcDbEntity
  8
AM_6
100
AcDbText
 10
7.424995112419128
 20
-0.0625058749999998
 30
0.0
 40
0.5
  1
WSTU-GT-11
100
AcDbAttributeDefinition
  3

  2
PN
 70
     8
280
     0
  0
ATTDEF
  5
1AD
330
1A2
100
AcDbEntity
  8
AM_6
100
AcDbText
 10
7.424995112419128
 20
-0.5625058749999998
 30
0.0
 40
0.5
  1
WSTU-GT-11
100
AcDbAttributeDefinition
  3

  2
DESCRIPTION
 70
     8
280
     0
  0
ATTDEF
  5
1AE
330
1A2
100
AcDbEntity
  8
AM_6
100
AcDbText
 10
7.424995112419128
 20
-1.062505875
 30
0.0
 40
0.5
  1
11.2
100
AcDbAttributeDefinition
  3

  2
WEIGHT
 70
     8
280
     0
  0
ATTDEF
  5
1AF
330
1A2
100
AcDbEntity
  8
AM_6
100
AcDbText
 10
7.424995112419128
 20
-1.562505875
 30
0.0
 40
0.5
  1
3.937000
100
AcDbAttributeDefinition
  3

  2
BOD1
 70
     8
280
     0
  0
ATTDEF
  5
1B0
330
1A2
100
AcDbEntity
  8
AM_6
100
AcDbText
 10
7.424995112419128
 20
-2.062505875
 30
0.0
 40
0.5
  1
1.000
100
AcDbAttributeDefinition
  3

  2
VERS
 70
     8
280
     0
  0
ATTDEF
  5
1B1
330
1A2
100
AcDbEntity
  8
AM_6
100
AcDbText
 10
7.424995112419128
 20
-2.562505875
 30
0.0
 40
0.5
  1
1-59/64
100
AcDbAttributeDefinition
  3

  2
A
 70
     8
280
     0
  0
ATTDEF
  5
1B2
330
1A2
100
AcDbEntity
  8
AM_6
100
AcDbText
 10
7.424995112419128
 20
-3.062505875
 30
0.0
 40
0.5
  1
6-11/16
100
AcDbAttributeDefinition
  3

  2
B
 70
     8
280
     0
  0
ATTDEF
  5
1B3
330
1A2
100
AcDbEntity
  8
AM_6
100
AcDbText
 10
7.424995112419128
 20
-3.562505875
 30
0.0
 40
0.5
  1
1.047 / 1.077
100
AcDbAttributeDefinition
  3

  2
C
 70
     8
280
     0
  0
ATTDEF
  5
1B4
330
1A2
100
AcDbEntity
  8
AM_6
100
AcDbText
 10
7.424995112419128
 20
-4.062505874999999
 30
0.0
 40
0.5
  1
4-3/16
100
AcDbAttributeDefinition
  3

  2
E
 70
     8
280
     0
  0
ATTDEF
  5
1B5
330
1A2
100
AcDbEntity
  8
AM_6
100
AcDbText
 10
7.424995112419128
 20
-4.562505874999999
 30
0.0
 40
0.5
  1
1-1/4
100
AcDbAttributeDefinition
  3

  2
F
 70
     8
280
     0
  0
ATTDEF
  5
1B6
330
1A2
100
AcDbEntity
  8
AM_6
100
AcDbText
 10
7.424995112419128
 20
-5.062505874999999
 30
0.0
 40
0.5
  1
3/4
100
AcDbAttributeDefinition
  3

  2
G
 70
     8
280
     0
  0
ATTDEF
  5
1B7
330
1A2
100
AcDbEntity
  8
AM_6
100
AcDbText
 10
7.424995112419128
 20
-5.562505874999999
 30
0.0
 40
0.5
  1
1
100
AcDbAttributeDefinition
  3

  2
H
 70
     8
280
     0
  0
ATTDEF
  5
1B8
330
1A2
100
AcDbEntity
  8
AM_6
100
AcDbText
 10
7.424995112419128
 20
-6.062505874999999
 30
0.0
 40
0.5
  1
4
100
AcDbAttributeDefinition
  3

  2
J
 70
     8
280
     0
  0
ATTDEF
  5
1B9
330
1A2
100
AcDbEntity
  8
AM_6
100
AcDbText
 10
7.424995112419128
 20
-6.562505874999999
 30
0.0
 40
0.5
  1
2-1/2
100
AcDbAttributeDefinition
  3

  2
K
 70
     8
280
     0
  0
ATTDEF
  5
1BA
330
1A2
100
AcDbEntity
  8
AM_6
100
AcDbText
 10
7.424995112419128
 20
-7.062505874999999
 30
0.0
 40
0.5
  1
3-1/4
100
AcDbAttributeDefinition
  3

  2
L
 70
     8
280
     0
  0
ATTDEF
  5
1BB
330
1A2
100
AcDbEntity
  8
AM_6
100
AcDbText
 10
7.424995112419128
 20
-7.562505874999999
 30
0.0
 40
0.5
  1
5.110 / 5.140
100
AcDbAttributeDefinition
  3

  2
M
 70
     8
280
     0
  0
ATTDEF
  5
1BC
330
1A2
100
AcDbEntity
  8
AM_6
100
AcDbText
 10
7.424995112419128
 20
-8.062505875
 30
0.0
 40
0.5
  1
5-7/8
100
AcDbAttributeDefinition
  3

  2
N
 70
     8
280
     0
  0
ATTDEF
  5
1BD
330
1A2
100
AcDbEntity
  8
AM_6
100
AcDbText
 10
7.424995112419128
 20
-8.562505875
 30
0.0
 40
0.5
  1
45/64
100
AcDbAttributeDefinition
  3

  2
R
 70
     8
280
     0
  0
ATTDEF
  5
1BE
330
1A2
100
AcDbEntity
  8
AM_6
100
AcDbText
 10
7.424995112419128
 20
-9.062505875
 30
0.0
 40
0.5
  1
1-7/32
100
AcDbAttributeDefinition
  3

  2
S
 70
     8
280
     0
  0
ATTDEF
  5
1BF
330
1A2
100
AcDbEntity
  8
AM_6
100
AcDbText
 10
7.424995112419128
 20
-9.562505875
 30
0.0
 40
0.5
  1
2-1/2
100
AcDbAttributeDefinition
  3

  2
T
 70
     8
280
     0
  0
ATTDEF
  5
1C0
330
1A2
100
AcDbEntity
  8
AM_6
100
AcDbText
 10
7.424995112419128
 20
-10.062505875
 30
0.0
 40
0.5
  1
1-3/16
100
AcDbAttributeDefinition
  3

  2
Z
 70
     8
280
     0
  0
ATTDEF
  5
1C1
330
1A2
100
AcDbEntity
  8
AM_6
100
AcDbText
 10
7.424995112419128
 20
-10.562505875
 30
0.0
 40
0.5
  1
baldor
100
AcDbAttributeDefinition
  3

  2
COMPANY
 70
     8
280
     0
  0
LWPOLYLINE
  5
1C2
330
1A2
100
AcDbEntity
  8
AM_9
100
AcDbPolyline
 90
        3
 70
     0
 43
0.0
 10
0.4446163991869949
 20
-1.189416757476637
 10
0.4466067215940632
 20
-1.202020990241565
 10
0.4500000000000002
 20
-1.25
  0
LWPOLYLINE
  5
1C3
330
1A2
100
AcDbEntity
  8
AM_9
100
AcDbPolyline
 90
       27
 70
     0
 43
0.0
 10
-0.4458258714525379
 20
-1.196668774920969
 10
-0.4397770188020488
 20
-1.166493863254241
 10
-0.4265432153574475
 20
-1.12385231171949
 10
-0.4080888332453512
 20
-1.082232824408919
 10
-0.3847637734792927
 20
-1.042446808360697
 10
-0.356416938323993
 20
-1.004569827018256
 10
-0.3235872445730982
 20
-0.9694042626532062
 10
-0.2868713111202835
 20
-0.9376652011383869
 10
-0.2460343868986167
 20
-0.9094569273404917
 10
-0.2019211547682608
 20
-0.8854841778003446
 10
-0.1553534463082593
 20
-0.8662831093680907
 10
-0.1069674178738338
 20
-0.8522447710593062
 10
-0.0570394518032228
 20
-0.8433853655188013
 10
-0.0065328598339813
 20
-0.8399172390529969
 10
0.0433214881899815
 20
-0.841910096797238
 10
0.0927851093676815
 20
-0.8491586493412399
 10
0.1409284119151867
 20
-0.8614934033240688
 10
0.1872083593436658
 20
-0.8787900099202112
 10
0.2313102893699545
 20
-0.9007625148392291
 10
0.2724428675499828
 20
-0.9269348263269329
 10
0.3107031836992685
 20
-0.9574908053125814
 10
0.3451992199102452
 20
-0.9916783833742886
 10
0.3753004524102853
 20
-1.02879144619914
 10
0.4008439161496012
 20
-1.068768528570083
 10
0.4213909131886709
 20
-1.110855468416802
 10
0.4365368357338442
 20
-1.154192482005747
 10
0.4446163991869949
 20
-1.189416757476637
  0
LWPOLYLINE
  5
1C4
330
1A2
100
AcDbEntity
  8
AM_9
100
AcDbPolyline
 90
        3
 70
     0
 43
0.0
 10
-0.4500000000000003
 20
-1.25
 10
-0.447428388211415
 20
-1.208227497664495
 10
-0.4458258714525379
 20
-1.196668774920969
  0
ELLIPSE
  5
1C5
330
1A2
100
AcDbEntity
  8
AM_9
100
AcDbEllipse
 10
-0.0000000000000001
 20
-1.3
 30
0.0
 11
-0.3499999999999998
 21
4.286263797015734E-17
 31
0.0
210
0.0
220
0.0
230
1.0
 40
0.8660254037844388
 41
0.0
 42
6.283185307179586
  0
ELLIPSE
  5
1C6
330
1A2
100
AcDbEntity
  8
AM_9
100
AcDbEllipse
 10
0.0000000000000001
 20
-1.25
 30
0.0
 11
0.4500000000000005
 21
0.0
 31
0.0
210
0.0
220
0.0
230
1.0
 40
0.8660254037844387
 41
0.0
 42
3.053582604572416
  0
LINE
  5
1C7
330
1A2
100
AcDbEntity
  8
AM_9
100
AcDbLine
 10
0.4499916354442328
 20
-1.252462568909061
 30
0.0
 11
0.4499996453986111
 21
-1.249492963606619
 31
0.0
  0
LWPOLYLINE
  5
1C8
330
1A2
100
AcDbEntity
  8
AM_9
100
AcDbPolyline
 90
       50
 70
     0
 43
0.0
 10
-0.449999999877674
 20
-1.250009417368712
 10
-0.4491077550773663
 20
-1.275420968000546
 10
-0.4464166164127674
 20
-1.300866871738225
 10
-0.4419403779282188
 20
-1.326092351368419
 10
-0.4356982947126296
 20
-1.351001611483815
 10
-0.4277149926590487
 20
-1.375500149789833
 10
-0.4180205321305552
 20
-1.399494689334787
 10
-0.4066505757933092
 20
-1.422893169162111
 10
-0.3936466287566955
 20
-1.445604825228402
 10
-0.3790563091305959
 20
-1.46754038429992
 10
-0.3629336013251792
 20
-1.488612380612408
 10
-0.3453390442950942
 20
-1.508735590070219
 10
-0.3263398131741244
 20
-1.527827561705059
 10
-0.3060096648816313
 20
-1.545809213480022
 10
-0.2844287345221303
 20
-1.562605451596943
 10
-0.2616831869563783
 20
-1.578145770682035
 10
-0.2378647436915286
 20
-1.592364796719574
 10
-0.2130701166190589
 20
-1.605202744156407
 10
-0.1874003856782234
 20
-1.616605771023131
 10
-0.1609603571935013
 20
-1.626526228713471
 10
-0.1338579345741906
 20
-1.634922814090377
 10
-0.106203525093218
 20
-1.641760639508194
 10
-0.0781094974858492
 20
-1.647011240739122
 10
-0.0496896966573107
 20
-1.650652544014137
 10
-0.0210590147922461
 20
-1.652668812224108
 10
0.0076669870530387
 20
-1.653050587685567
 10
0.0363724163509196
 20
-1.651794645539113
 10
0.0649407130296927
 20
-1.648904052211176
 10
0.0932560129407849
 20
-1.644388155527803
 10
0.1212031756719993
 20
-1.638262566528315
 10
0.1486679035923234
 20
-1.630549241312016
 10
0.1755370917087152
 20
-1.621276584249742
 10
0.2016992269400799
 20
-1.610479565368895
 10
0.2270448499216527
 20
-1.59819983661271
 10
0.2514670891437593
 20
-1.584485826313159
 10
0.2748622714746405
 20
-1.569392786407305
 10
0.2971306047681567
 20
-1.552982763761922
 10
0.3181769176521007
 20
-1.535324466757542
 10
0.3379114298406076
 20
-1.51649300222083
 10
0.3562505153123706
 20
-1.496569466537504
 10
0.3731174128586423
 20
-1.475640387996987
 10
0.3884428361800968
 20
-1.453797033558713
 10
0.4021654404294858
 20
-1.431134609646487
 10
0.4142321139157521
 20
-1.407751400128577
 10
0.4245980809553112
 20
-1.383747892563576
 10
0.4332268215716721
 20
-1.359225944543574
 10
0.4400898323898306
 20
-1.334288035669632
 10
0.4451662676209694
 20
-1.309036638989097
 10
0.4484425076921916
 20
-1.283573731115969
 10
0.4488049557249171
 20
-1.279414920843924
  0
LWPOLYLINE
  5
1C9
330
1A2
100
AcDbEntity
  8
AM_9
100
AcDbPolyline
 90
       29
 70
     0
 43
0.0
 10
0.4500000000000001
 20
-1.25
 10
0.4471783023486731
 20
-1.293036625519473
 10
0.4388241951523654
 20
-1.335175232409137
 10
0.4251041570475879
 20
-1.375646842954859
 10
0.4060965016803196
 20
-1.414063701338287
 10
0.3820556423654093
 20
-1.450190715692539
 10
0.3534307784643739
 20
-1.48344316543823
 10
0.3200805866437468
 20
-1.513842611531076
 10
0.2826271999259746
 20
-1.54090113961761
 10
0.2417526002581024
 20
-1.564207517671833
 10
0.197450861396932
 20
-1.583702437997223
 10
0.1504576668652125
 20
-1.59913688067515
 10
0.1016636261114874
 20
-1.610269377438722
 10
0.0520597906004993
 20
-1.616927441368341
 10
0.0016259837237429
 20
-1.619266623403094
 10
-0.0486667690934698
 20
-1.617249699480873
 10
-0.0977265622197032
 20
-1.610939144199221
 10
-0.1457156008381508
 20
-1.600427985767969
 10
-0.1917497283469309
 20
-1.585876123511295
 10
-0.2356182571676709
 20
-1.567204963214321
 10
-0.2767011253949203
 20
-1.544640126181329
 10
-0.3142635656857697
 20
-1.518516091777793
 10
-0.3483833854171922
 20
-1.488484606051812
 10
-0.3782275481203715
 20
-1.455132656179233
 10
-0.4032364813120436
 20
-1.418992753692208
 10
-0.4231148522979763
 20
-1.380237816703062
 10
-0.4377029843826926
 20
-1.339247963556918
 10
-0.4467073513569665
 20
-1.296762193647017
 10
-0.4500000000000003
 20
-1.25
  0
ELLIPSE
  5
1CA
330
1A2
100
AcDbEntity
  8
AM_9
100
AcDbEllipse
 10
-0.0000000000000001
 20
-1.25
 30
0.0
 11
0.4500000000000003
 21
0.0
 31
0.0
210
0.0
220
0.0
230
1.0
 40
0.8660254037844387
 41
3.483892146835172
 42
6.051268737633256
  0
LINE
  5
1CB
330
1A2
100
AcDbEntity
  8
AM_9
100
AcDbLine
 10
-0.6679694531250002
 20
1.653594569415369
 30
0.0
 11
0.667969453125
 21
1.653594569415369
 31
0.0
  0
LINE
  5
1CC
330
1A2
100
AcDbEntity
  8
AM_9
100
AcDbLine
 10
-0.6679694531249997
 20
-1.65359456941537
 30
0.0
 11
0.6679694531249994
 21
-1.65359456941537
 31
0.0
  0
LINE
  5
1CD
330
1A2
100
AcDbEntity
  8
AM_9
100
AcDbLine
 10
-0.7734375000000001
 20
2.699254080631634
 30
0.0
 11
-0.6328125
 21
2.699254080631634
 31
0.0
  0
LINE
  5
1CE
330
1A2
100
AcDbEntity
  8
AM_9
100
AcDbLine
 10
-0.7734375000000001
 20
2.640985201869613
 30
0.0
 11
-0.6328125
 21
2.640985201869613
 31
0.0
  0
LINE
  5
1CF
330
1A2
100
AcDbEntity
  8
AM_9
100
AcDbLine
 10
-0.7734375000000001
 20
2.684686862266132
 30
0.0
 11
-0.6328125
 21
2.684686862266132
 31
0.0
  0
LINE
  5
1D0
330
1A2
100
AcDbEntity
  8
AM_9
100
AcDbLine
 10
-0.7734375000000001
 20
2.597283544173094
 30
0.0
 11
-0.6328125
 21
2.597283544173094
 31
0.0
  0
LINE
  5
1D1
330
1A2
100
AcDbEntity
  8
AM_9
100
AcDbLine
 10
-0.7734375000000001
 20
2.728388522662622
 30
0.0
 11
-0.6328125
 21
2.728388522662622
 31
0.0
  0
LINE
  5
1D2
330
1A2
100
AcDbEntity
  8
AM_9
100
AcDbLine
 10
-0.7734375000000001
 20
2.705080969077838
 30
0.0
 11
-0.6328125
 21
2.705080969077838
 31
0.0
  0
LINE
  5
1D3
330
1A2
100
AcDbEntity
  8
AM_9
100
AcDbLine
 10
-0.7734375000000001
 20
2.652638978062024
 30
0.0
 11
-0.6328125
 21
2.652638978062024
 31
0.0
  0
LINE
  5
1D4
330
1A2
100
AcDbEntity
  8
AM_9
100
AcDbLine
 10
-0.7734375000000001
 20
2.620591095157923
 30
0.0
 11
-0.6328125
 21
2.620591095157923
 31
0.0
  0
LINE
  5
1D5
330
1A2
100
AcDbEntity
  8
AM_9
100
AcDbLine
 10
-0.7734375000000001
 20
2.629331425077221
 30
0.0
 11
-0.6328125
 21
2.629331425077221
 31
0.0
  0
LINE
  5
1D6
330
1A2
100
AcDbEntity
  8
AM_9
100
AcDbLine
 10
-0.7734375000000001
 20
2.722561634316434
 30
0.0
 11
-0.6328125
 21
2.722561634316434
 31
0.0
  0
LINE
  5
1D7
330
1A2
100
AcDbEntity
  8
AM_9
100
AcDbLine
 10
-0.7734375000000001
 20
2.603110432619299
 30
0.0
 11
-0.6328125
 21
2.603110432619299
 31
0.0
  0
LINE
  5
1D8
330
1A2
100
AcDbEntity
  8
AM_9
100
AcDbLine
 10
-0.7734375000000001
 20
2.710907857424025
 30
0.0
 11
-0.6328125
 21
2.710907857424025
 31
0.0
  0
LINE
  5
1D9
330
1A2
100
AcDbEntity
  8
AM_9
100
AcDbLine
 10
-0.7734375000000001
 20
2.614764204111734
 30
0.0
 11
-0.6328125
 21
2.614764204111734
 31
0.0
  0
LINE
  5
1DA
330
1A2
100
AcDbEntity
  8
AM_9
100
AcDbLine
 10
-0.7734375000000001
 20
2.696340636458539
 30
0.0
 11
-0.6328125
 21
2.696340636458539
 31
0.0
  0
LINE
  5
1DB
330
1A2
100
AcDbEntity
  8
AM_9
100
AcDbLine
 10
-0.7734375000000001
 20
2.626417980904127
 30
0.0
 11
-0.6328125
 21
2.626417980904127
 31
0.0
  0
LINE
  5
1DC
330
1A2
100
AcDbEntity
  8
AM_9
100
AcDbLine
 10
-0.7734375000000001
 20
2.670119642000614
 30
0.0
 11
-0.6328125
 21
2.670119642000614
 31
0.0
  0
LINE
  5
1DD
330
1A2
100
AcDbEntity
  8
AM_9
100
AcDbLine
 10
-0.7734375000000001
 20
2.675946529646805
 30
0.0
 11
-0.6328125
 21
2.675946529646805
 31
0.0
  0
LINE
  5
1DE
330
1A2
100
AcDbEntity
  8
AM_9
100
AcDbLine
 10
-0.7734375000000001
 20
2.658465865808203
 30
0.0
 11
-0.6328125
 21
2.658465865808203
 31
0.0
  0
LINE
  5
1DF
330
1A2
100
AcDbEntity
  8
AM_9
100
AcDbLine
 10
-0.7734375000000001
 20
2.5943701
 30
0.0
 11
-0.6328125
 21
2.5943701
 31
0.0
  0
LINE
  5
1E0
330
1A2
100
AcDbEntity
  8
AM_9
100
AcDbLine
 10
-0.6328125
 20
2.5943701
 30
0.0
 11
-0.6328125
 21
2.731301966935732
 31
0.0
  0
LINE
  5
1E1
330
1A2
100
AcDbEntity
  8
AM_9
100
AcDbLine
 10
-0.7734375000000001
 20
2.611850759838625
 30
0.0
 11
-0.6328125
 21
2.611850759838625
 31
0.0
  0
LINE
  5
1E2
330
1A2
100
AcDbEntity
  8
AM_9
100
AcDbLine
 10
-0.7734375000000001
 20
2.713821301697136
 30
0.0
 11
-0.6328125
 21
2.713821301697136
 31
0.0
  0
LINE
  5
1E3
330
1A2
100
AcDbEntity
  8
AM_9
100
AcDbLine
 10
-0.7734375000000001
 20
2.731301966935732
 30
0.0
 11
-0.6328125
 21
2.731301966935732
 31
0.0
  0
LINE
  5
1E4
330
1A2
100
AcDbEntity
  8
AM_9
100
AcDbLine
 10
-0.6679694531249996
 20
-1.9685
 30
0.0
 11
0.6679694531250001
 21
-1.9685
 31
0.0
  0
LINE
  5
1E5
330
1A2
100
AcDbEntity
  8
AM_9
100
AcDbLine
 10
0.6679694531250001
 20
1.9685
 30
0.0
 11
-0.6679694531249996
 21
1.9685
 31
0.0
  0
LINE
  5
1E6
330
1A2
100
AcDbEntity
  8
AM_9
100
AcDbLine
 10
-0.6679694531250004
 20
1.056555989854839
 30
0.0
 11
-0.6679694531250002
 21
-1.056555989854839
 31
0.0
  0
LINE
  5
1E7
330
1A2
100
AcDbEntity
  8
AM_9
100
AcDbLine
 10
0.6679694531250001
 20
-1.056555989854839
 30
0.0
 11
0.6679694531249989
 21
1.056555989854839
 31
0.0
  0
LINE
  5
1E8
330
1A2
100
AcDbEntity
  8
AM_9
100
AcDbLine
 10
-0.6679694531250001
 20
1.2
 30
0.0
 11
0.667969453124999
 21
1.2
 31
0.0
  0
LINE
  5
1E9
330
1A2
100
AcDbEntity
  8
AM_9
100
AcDbLine
 10
-0.6679694531250001
 20
1.25
 30
0.0
 11
0.667969453124999
 21
1.25
 31
0.0
  0
LINE
  5
1EA
330
1A2
100
AcDbEntity
  8
AM_9
100
AcDbLine
 10
-0.6679694531250001
 20
-1.2
 30
0.0
 11
0.667969453124999
 21
-1.2
 31
0.0
  0
LINE
  5
1EB
330
1A2
100
AcDbEntity
  8
AM_9
100
AcDbLine
 10
-0.6679694531250001
 20
-1.25
 30
0.0
 11
0.667969453124999
 21
-1.25
 31
0.0
  0
LINE
  5
1EC
330
1A2
100
AcDbEntity
  8
AM_7
100
AcDbLine
 10
0.0000000000000003
 20
-0.6562486875000001
 30
0.0
 11
0.0000000000000003
 21
0.6562486875000001
 31
0.0
  0
LINE
  5
1ED
330
1A2
100
AcDbEntity
  8
AM_7
100
AcDbLine
 10
2.424995112419128
 20
0.0
 30
0.0
 11
-2.424995112419128
 21
0.0
 31
0.0
  0
LINE
  5
1EE
330
1A2
100
AcDbEntity
  8
AM_4
100
AcDbLine
 10
-0.7734374999999999
 20
2.554994125
 30
0.0
 11
-0.7734374999999998
 21
2.898124025
 31
0.0
  0
LINE
  5
1EF
330
1A2
100
AcDbEntity
  8
AM_4
100
AcDbLine
 10
-0.523498953
 20
2.937494125
 30
0.0
 11
-0.5234989529999999
 21
2.554994125
 31
0.0
  0
LINE
  5
1F0
330
1A2
100
AcDbEntity
  8
AM_4
100
AcDbLine
 10
-0.7340674
 20
2.937494125
 30
0.0
 11
-0.523498953
 21
2.937494125
 31
0.0
  0
LINE
  5
1F1
330
1A2
100
AcDbEntity
  8
AM_4
100
AcDbLine
 10
-0.7734375000000001
 20
2.898124025
 30
0.0
 11
-0.7340674000000004
 21
2.937494125
 31
0.0
  0
LINE
  5
1F2
330
1A2
100
AcDbEntity
  8
AM_4
100
AcDbLine
 10
0.7734375000000002
 20
2.898124025
 30
0.0
 11
0.7734375000000002
 21
2.554994125
 31
0.0
  0
LINE
  5
1F3
330
1A2
100
AcDbEntity
  8
AM_4
100
AcDbLine
 10
0.5234989530000002
 20
2.554994125
 30
0.0
 11
0.5234989530000004
 21
2.937494125
 31
0.0
  0
LINE
  5
1F4
330
1A2
100
AcDbEntity
  8
AM_4
100
AcDbLine
 10
0.7340674000000004
 20
2.937494125
 30
0.0
 11
0.7734375000000002
 21
2.898124025
 31
0.0
  0
LINE
  5
1F5
330
1A2
100
AcDbEntity
  8
AM_4
100
AcDbLine
 10
0.5234989530000004
 20
2.937494125
 30
0.0
 11
0.7340674000000005
 21
2.937494125
 31
0.0
  0
LINE
  5
1F6
330
1A2
100
AcDbEntity
  8
AM_4
100
AcDbLine
 10
0.7734375000000002
 20
2.554994125
 30
0.0
 11
0.6679694531250001
 21
2.436884125
 31
0.0
  0
LINE
  5
1F7
330
1A2
100
AcDbEntity
  8
AM_4
100
AcDbLine
 10
0.5234989530000004
 20
2.8875
 30
0.0
 11
0.7734375000000001
 21
2.8875
 31
0.0
  0
LINE
  5
1F8
330
1A2
100
AcDbEntity
  8
AM_4
100
AcDbLine
 10
-0.5234989529999999
 20
2.554994125
 30
0.0
 11
0.5234989530000002
 21
2.554994125
 31
0.0
  0
LINE
  5
1F9
330
1A2
100
AcDbEntity
  8
AM_4
100
AcDbLine
 10
-0.7734374999999998
 20
2.8875
 30
0.0
 11
-0.523498953
 21
2.8875
 31
0.0
  0
LINE
  5
1FA
330
1A2
100
AcDbEntity
  8
AM_4
100
AcDbLine
 10
-0.6679694531249999
 20
2.436884125
 30
0.0
 11
-0.7734374999999999
 21
2.554994125
 31
0.0
  0
LINE
  5
1FB
330
1A2
100
AcDbEntity
  8
AM_4
100
AcDbLine
 10
0.5234989530000004
 20
-2.937494125
 30
0.0
 11
0.5234989530000002
 21
-2.554994125
 31
0.0
  0
LINE
  5
1FC
330
1A2
100
AcDbEntity
  8
AM_4
100
AcDbLine
 10
0.7734375000000002
 20
-2.554994125
 30
0.0
 11
0.7734375000000001
 21
-2.898124025
 31
0.0
  0
LINE
  5
1FD
330
1A2
100
AcDbEntity
  8
AM_4
100
AcDbLine
 10
0.7340674
 20
-2.937494125
 30
0.0
 11
0.5234989530000004
 21
-2.937494125
 31
0.0
  0
LINE
  5
1FE
330
1A2
100
AcDbEntity
  8
AM_4
100
AcDbLine
 10
0.7734375000000001
 20
-2.898124025
 30
0.0
 11
0.7340674
 21
-2.937494125
 31
0.0
  0
LINE
  5
1FF
330
1A2
100
AcDbEntity
  8
AM_4
100
AcDbLine
 10
-0.7734374999999999
 20
-2.898124025
 30
0.0
 11
-0.7734374999999999
 21
-2.554994125000001
 31
0.0
  0
LINE
  5
200
330
1A2
100
AcDbEntity
  8
AM_4
100
AcDbLine
 10
-0.7734374999999999
 20
-2.554994125000001
 30
0.0
 11
-0.6679694531249996
 21
-2.436884125
 31
0.0
  0
LINE
  5
201
330
1A2
100
AcDbEntity
  8
AM_4
100
AcDbLine
 10
-0.5234989529999999
 20
-2.554994125000001
 30
0.0
 11
-0.523498953
 21
-2.937494125
 31
0.0
  0
LINE
  5
202
330
1A2
100
AcDbEntity
  8
AM_4
100
AcDbLine
 10
0.5234989530000002
 20
-2.554994125
 30
0.0
 11
-0.5234989529999999
 21
-2.554994125000001
 31
0.0
  0
LINE
  5
203
330
1A2
100
AcDbEntity
  8
AM_4
100
AcDbLine
 10
0.5234989530000004
 20
-2.8875
 30
0.0
 11
0.7734375000000001
 21
-2.8875
 31
0.0
  0
LINE
  5
204
330
1A2
100
AcDbEntity
  8
AM_4
100
AcDbLine
 10
0.6679694531249999
 20
-2.436884125
 30
0.0
 11
0.7734375000000002
 21
-2.554994125
 31
0.0
  0
LINE
  5
205
330
1A2
100
AcDbEntity
  8
AM_4
100
AcDbLine
 10
-0.7340673999999996
 20
-2.937494125
 30
0.0
 11
-0.7734374999999999
 21
-2.898124025
 31
0.0
  0
LINE
  5
206
330
1A2
100
AcDbEntity
  8
AM_4
100
AcDbLine
 10
-0.523498953
 20
-2.937494125
 30
0.0
 11
-0.7340673999999996
 21
-2.937494125
 31
0.0
  0
LINE
  5
207
330
1A2
100
AcDbEntity
  8
AM_4
100
AcDbLine
 10
-0.7734374999999998
 20
-2.8875
 30
0.0
 11
-0.523498953
 21
-2.8875
 31
0.0
  0
LINE
  5
208
330
1A2
100
AcDbEntity
  8
AM_4
100
AcDbLine
 10
-0.6679694531249994
 20
-2.1
 30
0.0
 11
0.6679694531249997
 21
-2.1
 31
0.0
  0
LINE
  5
209
330
1A2
100
AcDbEntity
  8
AM_4
100
AcDbLine
 10
-0.667969453125
 20
2.1
 30
0.0
 11
0.6679694531250002
 21
2.1
 31
0.0
  0
ARC
  5
20A
330
1A2
100
AcDbEntity
  8
AM_4
100
AcDbCircle
 10
0.0000000000000013
 20
0.0000000000000001
 30
0.0
 40
1.249997500000001
100
AcDbArc
 50
122.3016459526176
 51
237.6983540473825
  0
ARC
  5
20B
330
1A2
100
AcDbEntity
  8
AM_4
100
AcDbCircle
 10
-0.0000000000000002
 20
0.0
 30
0.0
 40
1.2499975
100
AcDbArc
 50
302.3016459526175
 51
57.69835404738244
  0
LINE
  5
20C
330
1A2
100
AcDbEntity
  8
AM_4
100
AcDbLine
 10
-0.6679694531249996
 20
1.056555989854839
 30
0.0
 11
-0.6679694531249999
 21
2.436884125
 31
0.0
  0
LINE
  5
20D
330
1A2
100
AcDbEntity
  8
AM_4
100
AcDbLine
 10
-0.6679694531249996
 20
-2.436884125
 30
0.0
 11
-0.6679694531249994
 21
-1.056555989854839
 31
0.0
  0
LINE
  5
20E
330
1A2
100
AcDbEntity
  8
AM_4
100
AcDbLine
 10
0.667969453125
 20
-1.056555989854839
 30
0.0
 11
0.6679694531249999
 21
-2.436884125
 31
0.0
  0
LINE
  5
20F
330
1A2
100
AcDbEntity
  8
AM_4
100
AcDbLine
 10
0.6679694531250001
 20
2.436884125
 30
0.0
 11
0.6679694531250002
 21
1.056555989854839
 31
0.0
  0
CIRCLE
  5
210
330
1A2
100
AcDbEntity
  8
AM_4
100
AcDbCircle
 10
0.0000000000000003
 20
0.0
 30
0.0
 40
0.62499875
  0
LINE
  5
211
330
1A2
100
AcDbEntity
  8
AM_4
100
AcDbLine
 10
-0.6679694531249993
 20
-2.0
 30
0.0
 11
0.6679694531249999
 21
-2.0
 31
0.0
  0
LINE
  5
212
330
1A2
100
AcDbEntity
  8
AM_4
100
AcDbLine
 10
-0.6679694531249993
 20
-1.900000000000001
 30
0.0
 11
0.6679694531249999
 21
-1.900000000000001
 31
0.0
  0
LINE
  5
213
330
1A2
100
AcDbEntity
  8
AM_4
100
AcDbLine
 10
-0.6679694531249999
 20
1.899999999999999
 30
0.0
 11
0.6679694531250004
 21
1.899999999999999
 31
0.0
  0
LINE
  5
214
330
1A2
100
AcDbEntity
  8
AM_4
100
AcDbLine
 10
-0.6679694531249999
 20
1.999999999999999
 30
0.0
 11
0.6679694531250004
 21
1.999999999999999
 31
0.0
  0
ENDBLK
  5
1A5
330
1A2
100
AcDbEntity
  8
0
100
AcDbBlockEnd
  0
ENDSEC
  0
SECTION
  2
ENTITIES
  0
INSERT
  5
6F
330
1F
100
AcDbEntity
  8
0
100
AcDbBlockReference
  2
1_136148_2
 10
0.0
 20
0.0
 30
0.0
  0
POINT
  5
216
330
1F
100
AcDbEntity
  8
ConnectionPoints
100
AcDbPoint
 10
0.0
 20
0.0
 30
0.0
  0
POINT
  5
217
330
1F
100
AcDbEntity
  8
ConnectionPoints
100
AcDbPoint
 10
0.0
 20
0.0
 30
0.0
  0
POINT
  5
218
330
1F
100
AcDbEntity
  8
ConnectionPoints
100
AcDbPoint
 10
0.703125
 20
0.0
 30
0.0
  0
POINT
  5
219
330
1F
100
AcDbEntity
  8
ConnectionPoints
100
AcDbPoint
 10
0.0
 20
0.0
 30
0.0
  0
POINT
  5
21A
330
1F
100
AcDbEntity
  8
ConnectionPoints
100
AcDbPoint
 10
0.0
 20
0.0
 30
0.0
  0
POINT
  5
21B
330
1F
100
AcDbEntity
  8
ConnectionPoints
100
AcDbPoint
 10
0.0
 20
0.0
 30
0.0
  0
POINT
  5
21C
330
1F
100
AcDbEntity
  8
ConnectionPoints
100
AcDbPoint
 10
-0.0000000000000001
 20
-1.3
 30
-2.251666049839541
  0
POINT
  5
21D
330
1F
100
AcDbEntity
  8
ConnectionPoints
100
AcDbPoint
 10
-0.703125
 20
0.0
 30
0.0
  0
ENDSEC
  0
SECTION
  2
OBJECTS
  0
DICTIONARY
  5
C
330
0
100
AcDbDictionary
281
     1
  3
ACAD_DETAILVIEWSTYLE
350
225
  3
ACAD_GROUP
350
D
  3
ACAD_LAYOUT
350
1A
  3
ACAD_MATERIAL
350
43
  3
ACAD_MLEADERSTYLE
350
6B
  3
ACAD_MLINESTYLE
350
17
  3
ACAD_PLOTSETTINGS
350
19
  3
ACAD_PLOTSTYLENAME
350
E
  3
ACAD_SCALELIST
350
47
  3
ACAD_SECTIONVIEWSTYLE
350
226
  3
ACAD_TABLESTYLE
350
69
  3
ACAD_VISUALSTYLE
350
2A
  3
ACDB_RECOMPOSE_DATA
350
222
  3
AcDbVariableDictionary
350
21E
  0
SUN
  5
6D
330
29
100
AcDbSun
 90
        1
290
     0
 63
     7
421
 16777215
 40
1.0
291
     1
 91
  2455826
 92
 54000000
292
     0
 70
     2
 71
   256
280
     1
  0
DICTIONARY
  5
225
102
{ACAD_REACTORS
330
C
102
}
330
C
100
AcDbDictionary
281
     1
  0
DICTIONARY
  5
D
102
{ACAD_REACTORS
330
C
102
}
330
C
100
AcDbDictionary
281
     1
  0
DICTIONARY
  5
1A
102
{ACAD_REACTORS
330
C
102
}
330
C
100
AcDbDictionary
281
     1
  3
Layout1
350
1E
  3
Layout2
350
26
  3
Model
350
22
  0
DICTIONARY
  5
43
102
{ACAD_REACTORS
330
C
102
}
330
C
100
AcDbDictionary
281
     1
  3
ByBlock
350
45
  3
ByLayer
350
44
  3
Global
350
46
  0
DICTIONARY
  5
6B
102
{ACAD_REACTORS
330
C
102
}
330
C
100
AcDbDictionary
281
     1
  3
Standard
350
6C
  0
DICTIONARY
  5
17
102
{ACAD_REACTORS
330
C
102
}
330
C
100
AcDbDictionary
281
     1
  3
Standard
350
18
  0
DICTIONARY
  5
19
102
{ACAD_REACTORS
330
C
102
}
330
C
100
AcDbDictionary
281
     1
  0
ACDBDICTIONARYWDFLT
  5
E
102
{ACAD_REACTORS
330
C
102
}
330
C
100
AcDbDictionary
281
     1
  3
Normal
350
F
100
AcDbDictionaryWithDefault
340
F
  0
DICTIONARY
  5
47
102
{ACAD_REACTORS
330
C
102
}
330
C
100
AcDbDictionary
281
     1
  3
A0
350
48
  3
A1
350
49
  3
A2
350
4A
  3
A3
350
4B
  3
A4
350
4C
  3
A5
350
4D
  3
A6
350
4E
  3
A7
350
4F
  3
A8
350
50
  3
A9
350
51
  3
B0
350
52
  3
B1
350
53
  3
B2
350
54
  3
B3
350
55
  3
B4
350
56
  3
B5
350
57
  3
B6
350
58
  3
B7
350
59
  3
B8
350
5A
  3
B9
350
5B
  3
C0
350
5C
  3
C1
350
5D
  3
C2
350
5E
  3
C3
350
5F
  3
C4
350
60
  3
C5
350
61
  3
C6
350
62
  3
C7
350
63
  3
C8
350
64
  3
C9
350
65
  3
D0
350
66
  3
D1
350
67
  3
D2
350
68
  0
DICTIONARY
  5
226
102
{ACAD_REACTORS
330
C
102
}
330
C
100
AcDbDictionary
281
     1
  0
DICTIONARY
  5
69
102
{ACAD_REACTORS
330
C
102
}
330
C
100
AcDbDictionary
281
     1
  3
Standard
350
6A
  0
DICTIONARY
  5
2A
102
{ACAD_REACTORS
330
C
102
}
330
C
100
AcDbDictionary
281
     1
  3
2dWireframe
350
2F
  3
Basic
350
32
  3
Brighten
350
36
  3
ColorChange
350
3A
  3
Conceptual
350
34
  3
Dim
350
35
  3
EdgeColorOff
350
3D
  3
Facepattern
350
39
  3
Flat
350
2B
  3
FlatWithEdges
350
2C
  3
Gouraud
350
2D
  3
GouraudWithEdges
350
2E
  3
Hidden
350
31
  3
JitterOff
350
3B
  3
Linepattern
350
38
  3
OverhangOff
350
3C
  3
Realistic
350
33
  3
Shaded
350
42
  3
Shaded with edges
350
41
  3
Shades of Gray
350
3E
  3
Sketchy
350
3F
  3
Thicken
350
37
  3
Wireframe
350
30
  3
X-Ray
350
40
  0
XRECORD
  5
222
102
{ACAD_REACTORS
330
C
102
}
330
C
100
AcDbXrecord
280
     1
 90
        1
330
6A
  0
DICTIONARY
  5
21E
102
{ACAD_REACTORS
330
C
102
}
330
C
100
AcDbDictionary
281
     1
  3
CANNOSCALE
350
21F
  3
CMLEADERSTYLE
350
224
  3
CTABLESTYLE
350
223
  0
LAYOUT
  5
1E
102
{ACAD_REACTORS
330
1A
102
}
330
1A
100
AcDbPlotSettings
  1

  2
none_device
  4

  6

 40
0.0
 41
0.0
 42
0.0
 43
0.0
 44
0.0
 45
0.0
 46
0.0
 47
0.0
 48
0.0
 49
0.0
140
0.0
141
0.0
142
1.0
143
1.0
 70
   688
 72
     0
 73
     0
 74
     5
  7

 75
    16
 76
     0
 77
     2
 78
   300
147
1.0
148
0.0
149
0.0
100
AcDbLayout
  1
Layout1
 70
     1
 71
     1
 10
0.0
 20
0.0
 11
12.0
 21
9.0
 12
0.0
 22
0.0
 32
0.0
 14
1.000000000000000E+20
 24
1.000000000000000E+20
 34
1.000000000000000E+20
 15
-1.000000000000000E+20
 25
-1.000000000000000E+20
 35
-1.000000000000000E+20
146
0.0
 13
0.0
 23
0.0
 33
0.0
 16
1.0
 26
0.0
 36
0.0
 17
0.0
 27
1.0
 37
0.0
 76
     0
330
1B
  0
LAYOUT
  5
26
102
{ACAD_REACTORS
330
1A
102
}
330
1A
100
AcDbPlotSettings
  1

  2
none_device
  4

  6

 40
0.0
 41
0.0
 42
0.0
 43
0.0
 44
0.0
 45
0.0
 46
0.0
 47
0.0
 48
0.0
 49
0.0
140
0.0
141
0.0
142
1.0
143
1.0
 70
   688
 72
     0
 73
     0
 74
     5
  7

 75
    16
 76
     0
 77
     2
 78
   300
147
1.0
148
0.0
149
0.0
100
AcDbLayout
  1
Layout2
 70
     1
 71
     2
 10
0.0
 20
0.0
 11
0.0
 21
0.0
 12
0.0
 22
0.0
 32
0.0
 14
0.0
 24
0.0
 34
0.0
 15
0.0
 25
0.0
 35
0.0
146
0.0
 13
0.0
 23
0.0
 33
0.0
 16
1.0
 26
0.0
 36
0.0
 17
0.0
 27
1.0
 37
0.0
 76
     0
330
23
  0
LAYOUT
  5
22
102
{ACAD_REACTORS
330
1A
102
}
330
1A
100
AcDbPlotSettings
  1

  2
none_device
  4
Letter_(8.50_x_11.00_Inches)
  6

 40
6.35
 41
6.35
 42
6.35000508
 43
6.35000508
 44
215.9
 45
279.4
 46
0.0
 47
0.0
 48
0.0
 49
0.0
140
0.0
141
0.0
142
1.0
143
1.0
 70
  1712
 72
     0
 73
     0
 74
     0
  7

 75
     0
 76
     0
 77
     2
 78
   300
147
1.0
148
0.0
149
0.0
100
AcDbLayout
  1
Model
 70
     1
 71
     0
 10
0.0
 20
0.0
 11
12.0
 21
9.0
 12
0.0
 22
0.0
 32
0.0
 14
1.000000000000000E+20
 24
1.000000000000000E+20
 34
1.000000000000000E+20
 15
-1.000000000000000E+20
 25
-1.000000000000000E+20
 35
-1.000000000000000E+20
146
0.0
 13
0.0
 23
0.0
 33
0.0
 16
1.0
 26
0.0
 36
0.0
 17
0.0
 27
1.0
 37
0.0
 76
     0
330
1F
331
29
  0
MATERIAL
  5
45
102
{ACAD_REACTORS
330
43
102
}
330
43
100
AcDbMaterial
  1
ByBlock
 72
     1
 94
      127
  0
MATERIAL
  5
44
102
{ACAD_REACTORS
330
43
102
}
330
43
100
AcDbMaterial
  1
ByLayer
 72
     1
 94
      127
  0
MATERIAL
  5
46
102
{ACAD_REACTORS
330
43
102
}
330
43
100
AcDbMaterial
  1
Global
 72
     1
 94
      127
  0
MLEADERSTYLE
  5
6C
102
{ACAD_REACTORS
330
6B
102
}
330
6B
100
AcDbMLeaderStyle
179
     2
170
     2
171
     1
172
     0
 90
        2
 40
0.0
 41
0.0
173
     1
 91
-1056964608
340
14
 92
       -2
290
     1
 42
0.09
291
     1
 43
0.36
  3
Standard
341
0
 44
0.18
300

342
11
174
     1
178
     6
175
     1
176
     0
 93
-1056964608
 45
0.18
292
     0
297
     0
 46
0.18
343
0
 94
-1056964608
 47
1.0
 49
1.0
140
1.0
293
     1
141
0.0
294
     1
177
     0
142
1.0
295
     0
296
     0
143
0.125
271
     0
272
     9
273
     9
298
     0
  0
MLINESTYLE
  5
18
102
{ACAD_REACTORS
330
17
102
}
330
17
100
AcDbMlineStyle
  2
Standard
 70
     0
  3

 62
   256
 51
90.0
 52
90.0
 71
     2
 49
0.5
 62
   256
  6
BYLAYER
 49
-0.5
 62
   256
  6
BYLAYER
  0
ACDBPLACEHOLDER
  5
F
102
{ACAD_REACTORS
330
E
102
}
330
E
  0
SCALE
  5
48
102
{ACAD_REACTORS
330
47
102
}
330
47
100
AcDbScale
 70
     0
300
1:1
140
1.0
141
1.0
290
     1
  0
SCALE
  5
49
102
{ACAD_REACTORS
330
47
102
}
330
47
100
AcDbScale
 70
     0
300
1:2
140
1.0
141
2.0
290
     0
  0
SCALE
  5
4A
102
{ACAD_REACTORS
330
47
102
}
330
47
100
AcDbScale
 70
     0
300
1:4
140
1.0
141
4.0
290
     0
  0
SCALE
  5
4B
102
{ACAD_REACTORS
330
47
102
}
330
47
100
AcDbScale
 70
     0
300
1:5
140
1.0
141
5.0
290
     0
  0
SCALE
  5
4C
102
{ACAD_REACTORS
330
47
102
}
330
47
100
AcDbScale
 70
     0
300
1:8
140
1.0
141
8.0
290
     0
  0
SCALE
  5
4D
102
{ACAD_REACTORS
330
47
102
}
330
47
100
AcDbScale
 70
     0
300
1:10
140
1.0
141
10.0
290
     0
  0
SCALE
  5
4E
102
{ACAD_REACTORS
330
47
102
}
330
47
100
AcDbScale
 70
     0
300
1:16
140
1.0
141
16.0
290
     0
  0
SCALE
  5
4F
102
{ACAD_REACTORS
330
47
102
}
330
47
100
AcDbScale
 70
     0
300
1:20
140
1.0
141
20.0
290
     0
  0
SCALE
  5
50
102
{ACAD_REACTORS
330
47
102
}
330
47
100
AcDbScale
 70
     0
300
1:30
140
1.0
141
30.0
290
     0
  0
SCALE
  5
51
102
{ACAD_REACTORS
330
47
102
}
330
47
100
AcDbScale
 70
     0
300
1:40
140
1.0
141
40.0
290
     0
  0
SCALE
  5
52
102
{ACAD_REACTORS
330
47
102
}
330
47
100
AcDbScale
 70
     0
300
1:50
140
1.0
141
50.0
290
     0
  0
SCALE
  5
53
102
{ACAD_REACTORS
330
47
102
}
330
47
100
AcDbScale
 70
     0
300
1:100
140
1.0
141
100.0
290
     0
  0
SCALE
  5
54
102
{ACAD_REACTORS
330
47
102
}
330
47
100
AcDbScale
 70
     0
300
2:1
140
2.0
141
1.0
290
     0
  0
SCALE
  5
55
102
{ACAD_REACTORS
330
47
102
}
330
47
100
AcDbScale
 70
     0
300
4:1
140
4.0
141
1.0
290
     0
  0
SCALE
  5
56
102
{ACAD_REACTORS
330
47
102
}
330
47
100
AcDbScale
 70
     0
300
8:1
140
8.0
141
1.0
290
     0
  0
SCALE
  5
57
102
{ACAD_REACTORS
330
47
102
}
330
47
100
AcDbScale
 70
     0
300
10:1
140
10.0
141
1.0
290
     0
  0
SCALE
  5
58
102
{ACAD_REACTORS
330
47
102
}
330
47
100
AcDbScale
 70
     0
300
100:1
140
100.0
141
1.0
290
     0
  0
SCALE
  5
59
102
{ACAD_REACTORS
330
47
102
}
330
47
100
AcDbScale
 70
     0
300
1/128" = 1'-0"
140
0.0078125
141
12.0
290
     0
  0
SCALE
  5
5A
102
{ACAD_REACTORS
330
47
102
}
330
47
100
AcDbScale
 70
     0
300
1/64" = 1'-0"
140
0.015625
141
12.0
290
     0
  0
SCALE
  5
5B
102
{ACAD_REACTORS
330
47
102
}
330
47
100
AcDbScale
 70
     0
300
1/32" = 1'-0"
140
0.03125
141
12.0
290
     0
  0
SCALE
  5
5C
102
{ACAD_REACTORS
330
47
102
}
330
47
100
AcDbScale
 70
     0
300
1/16" = 1'-0"
140
0.0625
141
12.0
290
     0
  0
SCALE
  5
5D
102
{ACAD_REACTORS
330
47
102
}
330
47
100
AcDbScale
 70
     0
300
3/32" = 1'-0"
140
0.09375
141
12.0
290
     0
  0
SCALE
  5
5E
102
{ACAD_REACTORS
330
47
102
}
330
47
100
AcDbScale
 70
     0
300
1/8" = 1'-0"
140
0.125
141
12.0
290
     0
  0
SCALE
  5
5F
102
{ACAD_REACTORS
330
47
102
}
330
47
100
AcDbScale
 70
     0
300
3/16" = 1'-0"
140
0.1875
141
12.0
290
     0
  0
SCALE
  5
60
102
{ACAD_REACTORS
330
47
102
}
330
47
100
AcDbScale
 70
     0
300
1/4" = 1'-0"
140
0.25
141
12.0
290
     0
  0
SCALE
  5
61
102
{ACAD_REACTORS
330
47
102
}
330
47
100
AcDbScale
 70
     0
300
3/8" = 1'-0"
140
0.375
141
12.0
290
     0
  0
SCALE
  5
62
102
{ACAD_REACTORS
330
47
102
}
330
47
100
AcDbScale
 70
     0
300
1/2" = 1'-0"
140
0.5
141
12.0
290
     0
  0
SCALE
  5
63
102
{ACAD_REACTORS
330
47
102
}
330
47
100
AcDbScale
 70
     0
300
3/4" = 1'-0"
140
0.75
141
12.0
290
     0
  0
SCALE
  5
64
102
{ACAD_REACTORS
330
47
102
}
330
47
100
AcDbScale
 70
     0
300
1" = 1'-0"
140
1.0
141
12.0
290
     0
  0
SCALE
  5
65
102
{ACAD_REACTORS
330
47
102
}
330
47
100
AcDbScale
 70
     0
300
1-1/2" = 1'-0"
140
1.5
141
12.0
290
     0
  0
SCALE
  5
66
102
{ACAD_REACTORS
330
47
102
}
330
47
100
AcDbScale
 70
     0
300
3" = 1'-0"
140
3.0
141
12.0
290
     0
  0
SCALE
  5
67
102
{ACAD_REACTORS
330
47
102
}
330
47
100
AcDbScale
 70
     0
300
6" = 1'-0"
140
6.0
141
12.0
290
     0
  0
SCALE
  5
68
102
{ACAD_REACTORS
330
47
102
}
330
47
100
AcDbScale
 70
     0
300
1'-0" = 1'-0"
140
12.0
141
12.0
290
     0
  0
TABLESTYLE
  5
6A
102
{ACAD_REACTORS
330
69
102
}
102
{ACAD_XDICTIONARY
360
220
102
}
330
69
100
AcDbTableStyle
  3
Standard
 70
     0
 71
     0
 40
0.06
 41
0.06
280
     0
281
     0
  7
Standard
140
0.18
170
     2
 62
     0
 63
   257
283
     0
 90
        4
 91
        0
  1

274
    -2
284
     1
 64
     0
275
    -2
285
     1
 65
     0
276
    -2
286
     1
 66
     0
277
    -2
287
     1
 67
     0
278
    -2
288
     1
 68
     0
279
    -2
289
     1
 69
     0
  7
Standard
140
0.25
170
     5
 62
     0
 63
   257
283
     0
 90
        4
 91
        0
  1

274
    -2
284
     1
 64
     0
275
    -2
285
     1
 65
     0
276
    -2
286
     1
 66
     0
277
    -2
287
     1
 67
     0
278
    -2
288
     1
 68
     0
279
    -2
289
     1
 69
     0
  7
Standard
140
0.18
170
     5
 62
     0
 63
   257
283
     0
 90
        4
 91
        0
  1

274
    -2
284
     1
 64
     0
275
    -2
285
     1
 65
     0
276
    -2
286
     1
 66
     0
277
    -2
287
     1
 67
     0
278
    -2
288
     1
 68
     0
279
    -2
289
     1
 69
     0
  0
VISUALSTYLE
  5
2F
102
{ACAD_REACTORS
330
2A
102
}
330
2A
100
AcDbVisualStyle
  2
2dWireframe
 70
     4
177
     3
291
     0
 70
    58
 90
        0
176
     1
 90
        2
176
     1
 90
        0
176
     1
 90
        0
176
     1
 40
0.6
176
     1
 40
30.0
176
     1
 62
     7
420
 16777215
176
     1
 90
        1
176
     1
 90
        4
176
     1
 62
     7
176
     1
 62
   257
176
     1
 90
        1
176
     1
 90
        1
176
     1
 40
1.0
176
     1
 90
        0
176
     1
 62
   257
176
     1
 40
1.0
176
     1
 90
        1
176
     1
 90
        6
176
     1
 90
        2
176
     1
 62
     7
176
     1
 90
        5
176
     1
 90
        0
176
     1
 90
        0
176
     1
290
     0
176
     1
 90
        1
176
     1
 40
0.0
176
     1
 90
        0
176
     1
290
     1
176
     1
290
     1
176
     1
290
     0
176
     1
290
     0
176
     1
290
     0
176
     1
290
     0
176
     1
290
     0
176
     1
290
     0
176
     1
290
     0
176
     1
 90
       50
176
     1
 40
0.0
176
     1
 40
1.0
176
     1
 90
        0
176
     1
 62
    18
420
        0
176
     1
 90
       50
176
     1
 90
        3
176
     1
 62
     5
420
      255
176
     1
290
     0
176
     1
 90
       50
176
     1
 90
       50
176
     1
 90
       50
176
     1
290
     0
176
     1
 90
       50
176
     1
 62
   256
176
     0
 40
1.0
176
     0
 90
        2
176
     1
  1
strokes_ogs.tif
176
     1
290
     0
176
     1
 40
1.0
176
     1
 40
1.0
176
     1
  0
VISUALSTYLE
  5
32
102
{ACAD_REACTORS
330
2A
102
}
330
2A
100
AcDbVisualStyle
  2
Basic
 70
     7
177
     3
291
     1
 70
    58
 90
        1
176
     1
 90
        0
176
     1
 90
        1
176
     1
 90
        0
176
     1
 40
0.6
176
     1
 40
30.0
176
     1
 62
     7
420
 16777215
176
     1
 90
        0
176
     1
 90
        4
176
     1
 62
     7
176
     1
 62
   257
176
     1
 90
        1
176
     1
 90
        1
176
     1
 40
1.0
176
     1
 90
        8
176
     1
 62
     7
176
     1
 40
1.0
176
     1
 90
        1
176
     1
 90
        6
176
     1
 90
        2
176
     1
 62
     7
176
     1
 90
        5
176
     1
 90
        0
176
     1
 90
        0
176
     1
290
     0
176
     1
 90
        1
176
     1
 40
0.0
176
     1
 90
        0
176
     1
290
     0
176
     1
290
     1
176
     1
290
     1
176
     1
290
     0
176
     1
290
     0
176
     1
290
     0
176
     1
290
     0
176
     1
290
     0
176
     1
290
     0
176
     1
 90
       50
176
     1
 40
0.0
176
     1
 40
1.0
176
     1
 90
        0
176
     1
 62
    18
420
        0
176
     1
 90
       50
176
     1
 90
        3
176
     1
 62
     5
420
      255
176
     1
290
     0
176
     1
 90
       50
176
     1
 90
       50
176
     1
 90
       50
176
     1
290
     0
176
     1
 90
       50
176
     1
 62
   256
176
     0
 40
1.0
176
     0
 90
        2
176
     1
  1
strokes_ogs.tif
176
     1
290
     0
176
     1
 40
1.0
176
     1
 40
1.0
176
     1
  0
VISUALSTYLE
  5
36
102
{ACAD_REACTORS
330
2A
102
}
330
2A
100
AcDbVisualStyle
  2
Brighten
 70
    12
177
     3
291
     1
 70
    58
 90
        2
176
     1
 90
        2
176
     1
 90
        0
176
     1
 90
        0
176
     1
 40
0.6
176
     1
 40
30.0
176
     1
 62
     7
420
 16777215
176
     1
 90
        1
176
     1
 90
        4
176
     1
 62
     7
176
     1
 62
   257
176
     1
 90
        1
176
     1
 90
        1
176
     1
 40
1.0
176
     1
 90
        8
176
     1
 62
     7
176
     1
 40
1.0
176
     1
 90
        1
176
     1
 90
        6
176
     1
 90
        2
176
     1
 62
     7
176
     1
 90
        5
176
     1
 90
        0
176
     1
 90
        0
176
     1
290
     0
176
     1
 90
        1
176
     1
 40
50.0
176
     1
 90
        0
176
     1
290
     0
176
     1
290
     1
176
     1
290
     1
176
     1
290
     0
176
     1
290
     0
176
     1
290
     0
176
     1
290
     0
176
     1
290
     0
176
     1
290
     0
176
     1
 90
       50
176
     1
 40
0.0
176
     1
 40
1.0
176
     1
 90
        0
176
     1
 62
    18
420
        0
176
     1
 90
       50
176
     1
 90
        3
176
     1
 62
     5
420
      255
176
     1
290
     0
176
     1
 90
       50
176
     1
 90
       50
176
     1
 90
       50
176
     1
290
     0
176
     1
 90
       50
176
     1
 62
   256
176
     0
 40
1.0
176
     0
 90
        2
176
     1
  1
strokes_ogs.tif
176
     1
290
     0
176
     1
 40
1.0
176
     1
 40
1.0
176
     1
  0
VISUALSTYLE
  5
3A
102
{ACAD_REACTORS
330
2A
102
}
330
2A
100
AcDbVisualStyle
  2
ColorChange
 70
    16
177
     3
291
     1
 70
    58
 90
        2
176
     1
 90
        2
176
     1
 90
        3
176
     1
 90
        0
176
     1
 40
0.6
176
     1
 40
30.0
176
     1
 62
     8
420
  8421504
176
     1
 90
        1
176
     1
 90
        4
176
     1
 62
     7
176
     1
 62
   257
176
     1
 90
        1
176
     1
 90
        1
176
     1
 40
1.0
176
     1
 90
        8
176
     1
 62
     8
420
  8421504
176
     1
 40
1.0
176
     1
 90
        1
176
     1
 90
        6
176
     1
 90
        2
176
     1
 62
     7
176
     1
 90
        5
176
     1
 90
        0
176
     1
 90
        0
176
     1
290
     0
176
     1
 90
        1
176
     1
 40
0.0
176
     1
 90
        0
176
     1
290
     0
176
     1
290
     1
176
     1
290
     1
176
     1
290
     0
176
     1
290
     0
176
     1
290
     0
176
     1
290
     0
176
     1
290
     0
176
     1
290
     0
176
     1
 90
       50
176
     1
 40
0.0
176
     1
 40
1.0
176
     1
 90
        0
176
     1
 62
    18
420
        0
176
     1
 90
       50
176
     1
 90
        3
176
     1
 62
     5
420
      255
176
     1
290
     0
176
     1
 90
       50
176
     1
 90
       50
176
     1
 90
       50
176
     1
290
     0
176
     1
 90
       50
176
     1
 62
   256
176
     0
 40
1.0
176
     0
 90
        2
176
     1
  1
strokes_ogs.tif
176
     1
290
     0
176
     1
 40
1.0
176
     1
 40
1.0
176
     1
  0
VISUALSTYLE
  5
34
102
{ACAD_REACTORS
330
2A
102
}
330
2A
100
AcDbVisualStyle
  2
Conceptual
 70
     9
177
     3
291
     0
 70
    58
 90
        3
176
     1
 90
        2
176
     1
 90
        0
176
     1
 90
        0
176
     1
 40
0.6
176
     1
 40
30.0
176
     1
 62
     7
420
 16777215
176
     1
 90
        2
176
     1
 90
        2
176
     1
 62
     7
176
     1
 62
   257
176
     1
 90
        1
176
     1
 90
        1
176
     1
 40
179.0
176
     1
 90
        8
176
     1
 62
     7
176
     1
 40
1.0
176
     1
 90
        1
176
     1
 90
        6
176
     1
 90
        2
176
     1
 62
     7
176
     1
 90
        3
176
     1
 90
        0
176
     1
 90
        0
176
     1
290
     0
176
     1
 90
        1
176
     1
 40
0.0
176
     1
 90
        0
176
     1
290
     0
176
     1
290
     1
176
     1
290
     1
176
     1
290
     0
176
     1
290
     0
176
     1
290
     0
176
     1
290
     0
176
     1
290
     0
176
     1
290
     0
176
     1
 90
       50
176
     1
 40
0.0
176
     1
 40
1.0
176
     1
 90
        0
176
     1
 62
    18
420
        0
176
     1
 90
       50
176
     1
 90
        3
176
     1
 62
     5
420
      255
176
     1
290
     0
176
     1
 90
       50
176
     1
 90
       50
176
     1
 90
       50
176
     1
290
     0
176
     1
 90
       50
176
     1
 62
   256
176
     0
 40
1.0
176
     0
 90
        2
176
     1
  1
strokes_ogs.tif
176
     1
290
     0
176
     1
 40
1.0
176
     1
 40
1.0
176
     1
  0
VISUALSTYLE
  5
35
102
{ACAD_REACTORS
330
2A
102
}
330
2A
100
AcDbVisualStyle
  2
Dim
 70
    11
177
     3
291
     1
 70
    58
 90
        2
176
     1
 90
        2
176
     1
 90
        0
176
     1
 90
        0
176
     1
 40
0.6
176
     1
 40
30.0
176
     1
 62
     7
420
 16777215
176
     1
 90
        1
176
     1
 90
        4
176
     1
 62
     7
176
     1
 62
   257
176
     1
 90
        1
176
     1
 90
        1
176
     1
 40
1.0
176
     1
 90
        8
176
     1
 62
     7
176
     1
 40
1.0
176
     1
 90
        1
176
     1
 90
        6
176
     1
 90
        2
176
     1
 62
     7
176
     1
 90
        5
176
     1
 90
        0
176
     1
 90
        0
176
     1
290
     0
176
     1
 90
        1
176
     1
 40
-50.0
176
     1
 90
        0
176
     1
290
     0
176
     1
290
     1
176
     1
290
     1
176
     1
290
     0
176
     1
290
     0
176
     1
290
     0
176
     1
290
     0
176
     1
290
     0
176
     1
290
     0
176
     1
 90
       50
176
     1
 40
0.0
176
     1
 40
1.0
176
     1
 90
        0
176
     1
 62
    18
420
        0
176
     1
 90
       50
176
     1
 90
        3
176
     1
 62
     5
420
      255
176
     1
290
     0
176
     1
 90
       50
176
     1
 90
       50
176
     1
 90
       50
176
     1
290
     0
176
     1
 90
       50
176
     1
 62
   256
176
     0
 40
1.0
176
     0
 90
        2
176
     1
  1
strokes_ogs.tif
176
     1
290
     0
176
     1
 40
1.0
176
     1
 40
1.0
176
     1
  0
VISUALSTYLE
  5
3D
102
{ACAD_REACTORS
330
2A
102
}
330
2A
100
AcDbVisualStyle
  2
EdgeColorOff
 70
    22
177
     3
291
     1
 70
    58
 90
        2
176
     0
 90
        2
176
     0
 90
        0
176
     0
 90
        0
176
     0
 40
0.6
176
     0
 40
30.0
176
     0
 62
     7
420
 16777215
176
     0
 90
        1
176
     0
 90
        4
176
     0
 62
     7
176
     0
 62
   257
176
     0
 90
        1
176
     0
 90
        1
176
     0
 40
1.0
176
     0
 90
        8
176
     2
 62
     7
176
     0
 40
1.0
176
     0
 90
        1
176
     0
 90
        6
176
     0
 90
        2
176
     0
 62
     7
176
     0
 90
        5
176
     0
 90
        0
176
     0
 90
        0
176
     0
290
     0
176
     0
 90
        1
176
     0
 40
0.0
176
     0
 90
        0
176
     0
290
     0
176
     0
290
     1
176
     0
290
     1
176
     0
290
     0
176
     0
290
     0
176
     0
290
     0
176
     0
290
     0
176
     0
290
     0
176
     0
290
     0
176
     0
 90
       50
176
     0
 40
0.0
176
     0
 40
1.0
176
     0
 90
        0
176
     0
 62
    18
420
        0
176
     0
 90
       50
176
     0
 90
        3
176
     0
 62
     5
420
      255
176
     0
290
     0
176
     0
 90
       50
176
     0
 90
       50
176
     0
 90
       50
176
     0
290
     0
176
     0
 90
       50
176
     0
 62
   256
176
     0
 40
1.0
176
     0
 90
        2
176
     0
  1
strokes_ogs.tif
176
     0
290
     0
176
     0
 40
1.0
176
     0
 40
1.0
176
     0
  0
VISUALSTYLE
  5
39
102
{ACAD_REACTORS
330
2A
102
}
330
2A
100
AcDbVisualStyle
  2
Facepattern
 70
    15
177
     3
291
     1
 70
    58
 90
        2
176
     1
 90
        2
176
     1
 90
        0
176
     1
 90
        0
176
     1
 40
0.6
176
     1
 40
30.0
176
     1
 62
     7
420
 16777215
176
     1
 90
        1
176
     1
 90
        4
176
     1
 62
     7
176
     1
 62
   257
176
     1
 90
        1
176
     1
 90
        1
176
     1
 40
1.0
176
     1
 90
        8
176
     1
 62
     7
176
     1
 40
1.0
176
     1
 90
        1
176
     1
 90
        6
176
     1
 90
        2
176
     1
 62
     7
176
     1
 90
        5
176
     1
 90
        0
176
     1
 90
        0
176
     1
290
     0
176
     1
 90
        1
176
     1
 40
0.0
176
     1
 90
        0
176
     1
290
     0
176
     1
290
     1
176
     1
290
     1
176
     1
290
     0
176
     1
290
     0
176
     1
290
     0
176
     1
290
     0
176
     1
290
     0
176
     1
290
     0
176
     1
 90
       50
176
     1
 40
0.0
176
     1
 40
1.0
176
     1
 90
        0
176
     1
 62
    18
420
        0
176
     1
 90
       50
176
     1
 90
        3
176
     1
 62
     5
420
      255
176
     1
290
     0
176
     1
 90
       50
176
     1
 90
       50
176
     1
 90
       50
176
     1
290
     0
176
     1
 90
       50
176
     1
 62
   256
176
     0
 40
1.0
176
     0
 90
        2
176
     1
  1
strokes_ogs.tif
176
     1
290
     0
176
     1
 40
1.0
176
     1
 40
1.0
176
     1
  0
VISUALSTYLE
  5
2B
102
{ACAD_REACTORS
330
2A
102
}
330
2A
100
AcDbVisualStyle
  2
Flat
 70
     0
177
     3
291
     1
 70
    58
 90
        2
176
     1
 90
        1
176
     1
 90
        1
176
     1
 90
        2
176
     1
 40
0.6
176
     1
 40
30.0
176
     1
 62
     7
420
 16777215
176
     1
 90
        0
176
     1
 90
        0
176
     1
 62
     7
176
     1
 62
   257
176
     1
 90
        1
176
     1
 90
        1
176
     1
 40
1.0
176
     1
 90
        8
176
     1
 62
     7
176
     1
 40
1.0
176
     1
 90
        1
176
     1
 90
        6
176
     1
 90
        2
176
     1
 62
     7
176
     1
 90
        5
176
     1
 90
        0
176
     1
 90
        0
176
     1
290
     0
176
     1
 90
       13
176
     1
 40
0.0
176
     1
 90
        0
176
     1
290
     0
176
     1
290
     1
176
     1
290
     1
176
     1
290
     0
176
     1
290
     0
176
     1
290
     0
176
     1
290
     0
176
     1
290
     0
176
     1
290
     0
176
     1
 90
       50
176
     1
 40
0.0
176
     1
 40
1.0
176
     1
 90
        0
176
     1
 62
    18
420
        0
176
     1
 90
       50
176
     1
 90
        3
176
     1
 62
     5
420
      255
176
     1
290
     0
176
     1
 90
       50
176
     1
 90
       50
176
     1
 90
       50
176
     1
290
     0
176
     1
 90
       50
176
     1
 62
   256
176
     0
 40
1.0
176
     0
 90
        2
176
     1
  1
strokes_ogs.tif
176
     1
290
     0
176
     1
 40
1.0
176
     1
 40
1.0
176
     1
  0
VISUALSTYLE
  5
2C
102
{ACAD_REACTORS
330
2A
102
}
330
2A
100
AcDbVisualStyle
  2
FlatWithEdges
 70
     1
177
     3
291
     1
 70
    58
 90
        2
176
     1
 90
        1
176
     1
 90
        1
176
     1
 90
        2
176
     1
 40
0.6
176
     1
 40
30.0
176
     1
 62
     7
420
 16777215
176
     1
 90
        1
176
     1
 90
        0
176
     1
 62
     7
176
     1
 62
   257
176
     1
 90
        1
176
     1
 90
        1
176
     1
 40
1.0
176
     1
 90
        0
176
     1
 62
   257
176
     1
 40
1.0
176
     1
 90
        1
176
     1
 90
        6
176
     1
 90
        2
176
     1
 62
     7
176
     1
 90
        5
176
     1
 90
        0
176
     1
 90
        0
176
     1
290
     0
176
     1
 90
       13
176
     1
 40
0.0
176
     1
 90
        0
176
     1
290
     0
176
     1
290
     1
176
     1
290
     1
176
     1
290
     0
176
     1
290
     0
176
     1
290
     0
176
     1
290
     0
176
     1
290
     0
176
     1
290
     0
176
     1
 90
       50
176
     1
 40
0.0
176
     1
 40
1.0
176
     1
 90
        0
176
     1
 62
    18
420
        0
176
     1
 90
       50
176
     1
 90
        3
176
     1
 62
     5
420
      255
176
     1
290
     0
176
     1
 90
       50
176
     1
 90
       50
176
     1
 90
       50
176
     1
290
     0
176
     1
 90
       50
176
     1
 62
   256
176
     0
 40
1.0
176
     0
 90
        2
176
     1
  1
strokes_ogs.tif
176
     1
290
     0
176
     1
 40
1.0
176
     1
 40
1.0
176
     1
  0
VISUALSTYLE
  5
2D
102
{ACAD_REACTORS
330
2A
102
}
330
2A
100
AcDbVisualStyle
  2
Gouraud
 70
     2
177
     3
291
     1
 70
    58
 90
        2
176
     1
 90
        2
176
     1
 90
        1
176
     1
 90
        2
176
     1
 40
0.6
176
     1
 40
30.0
176
     1
 62
     7
420
 16777215
176
     1
 90
        0
176
     1
 90
        0
176
     1
 62
     7
176
     1
 62
   257
176
     1
 90
        1
176
     1
 90
        1
176
     1
 40
1.0
176
     1
 90
        0
176
     1
 62
     7
176
     1
 40
1.0
176
     1
 90
        1
176
     1
 90
        6
176
     1
 90
        2
176
     1
 62
     7
176
     1
 90
        5
176
     1
 90
        0
176
     1
 90
        0
176
     1
290
     0
176
     1
 90
       13
176
     1
 40
0.0
176
     1
 90
        0
176
     1
290
     0
176
     1
290
     1
176
     1
290
     1
176
     1
290
     0
176
     1
290
     0
176
     1
290
     0
176
     1
290
     0
176
     1
290
     0
176
     1
290
     0
176
     1
 90
       50
176
     1
 40
0.0
176
     1
 40
1.0
176
     1
 90
        0
176
     1
 62
    18
420
        0
176
     1
 90
       50
176
     1
 90
        3
176
     1
 62
     5
420
      255
176
     1
290
     0
176
     1
 90
       50
176
     1
 90
       50
176
     1
 90
       50
176
     1
290
     0
176
     1
 90
       50
176
     1
 62
   256
176
     0
 40
1.0
176
     0
 90
        2
176
     1
  1
strokes_ogs.tif
176
     1
290
     0
176
     1
 40
1.0
176
     1
 40
1.0
176
     1
  0
VISUALSTYLE
  5
2E
102
{ACAD_REACTORS
330
2A
102
}
330
2A
100
AcDbVisualStyle
  2
GouraudWithEdges
 70
     3
177
     3
291
     1
 70
    58
 90
        2
176
     1
 90
        2
176
     1
 90
        1
176
     1
 90
        2
176
     1
 40
0.6
176
     1
 40
30.0
176
     1
 62
     7
420
 16777215
176
     1
 90
        1
176
     1
 90
        0
176
     1
 62
     7
176
     1
 62
   257
176
     1
 90
        1
176
     1
 90
        1
176
     1
 40
1.0
176
     1
 90
        0
176
     1
 62
   257
176
     1
 40
1.0
176
     1
 90
        1
176
     1
 90
        6
176
     1
 90
        2
176
     1
 62
     7
176
     1
 90
        5
176
     1
 90
        0
176
     1
 90
        0
176
     1
290
     0
176
     1
 90
       13
176
     1
 40
0.0
176
     1
 90
        0
176
     1
290
     0
176
     1
290
     1
176
     1
290
     1
176
     1
290
     0
176
     1
290
     0
176
     1
290
     0
176
     1
290
     0
176
     1
290
     0
176
     1
290
     0
176
     1
 90
       50
176
     1
 40
0.0
176
     1
 40
1.0
176
     1
 90
        0
176
     1
 62
    18
420
        0
176
     1
 90
       50
176
     1
 90
        3
176
     1
 62
     5
420
      255
176
     1
290
     0
176
     1
 90
       50
176
     1
 90
       50
176
     1
 90
       50
176
     1
290
     0
176
     1
 90
       50
176
     1
 62
   256
176
     0
 40
1.0
176
     0
 90
        2
176
     1
  1
strokes_ogs.tif
176
     1
290
     0
176
     1
 40
1.0
176
     1
 40
1.0
176
     1
  0
VISUALSTYLE
  5
31
102
{ACAD_REACTORS
330
2A
102
}
330
2A
100
AcDbVisualStyle
  2
Hidden
 70
     6
177
     3
291
     0
 70
    58
 90
        1
176
     1
 90
        2
176
     1
 90
        2
176
     1
 90
        0
176
     1
 40
0.6
176
     1
 40
30.0
176
     1
 62
     7
420
 16777215
176
     1
 90
        2
176
     1
 90
        2
176
     1
 62
     7
176
     1
 62
   257
176
     1
 90
        2
176
     1
 90
        1
176
     1
 40
40.0
176
     1
 90
        0
176
     1
 62
   257
176
     1
 40
1.0
176
     1
 90
        1
176
     1
 90
        6
176
     1
 90
        2
176
     1
 62
     7
176
     1
 90
        3
176
     1
 90
        0
176
     1
 90
        0
176
     1
290
     0
176
     1
 90
        1
176
     1
 40
0.0
176
     1
 90
        0
176
     1
290
     0
176
     1
290
     1
176
     1
290
     1
176
     1
290
     0
176
     1
290
     0
176
     1
290
     0
176
     1
290
     0
176
     1
290
     0
176
     1
290
     0
176
     1
 90
       50
176
     1
 40
0.0
176
     1
 40
1.0
176
     1
 90
        0
176
     1
 62
    18
420
        0
176
     1
 90
       50
176
     1
 90
        3
176
     1
 62
     5
420
      255
176
     1
290
     0
176
     1
 90
       50
176
     1
 90
       50
176
     1
 90
       50
176
     1
290
     0
176
     1
 90
       50
176
     1
 62
   256
176
     0
 40
1.0
176
     0
 90
        2
176
     1
  1
strokes_ogs.tif
176
     1
290
     0
176
     1
 40
1.0
176
     1
 40
1.0
176
     1
  0
VISUALSTYLE
  5
3B
102
{ACAD_REACTORS
330
2A
102
}
330
2A
100
AcDbVisualStyle
  2
JitterOff
 70
    20
177
     3
291
     1
 70
    58
 90
        2
176
     0
 90
        2
176
     0
 90
        0
176
     0
 90
        0
176
     0
 40
0.6
176
     0
 40
30.0
176
     0
 62
     7
420
 16777215
176
     0
 90
        1
176
     0
 90
        4
176
     0
 62
     7
176
     0
 62
   257
176
     0
 90
        1
176
     0
 90
        1
176
     0
 40
1.0
176
     0
 90
       10
176
     2
 62
     7
176
     0
 40
1.0
176
     0
 90
        1
176
     0
 90
        6
176
     0
 90
        2
176
     0
 62
     7
176
     0
 90
        5
176
     0
 90
        0
176
     0
 90
        0
176
     0
290
     0
176
     0
 90
        1
176
     0
 40
0.0
176
     0
 90
        0
176
     0
290
     0
176
     0
290
     1
176
     0
290
     1
176
     0
290
     0
176
     0
290
     0
176
     0
290
     0
176
     0
290
     0
176
     0
290
     0
176
     0
290
     0
176
     0
 90
       50
176
     0
 40
0.0
176
     0
 40
1.0
176
     0
 90
        0
176
     0
 62
    18
420
        0
176
     0
 90
       50
176
     0
 90
        3
176
     0
 62
     5
420
      255
176
     0
290
     0
176
     0
 90
       50
176
     0
 90
       50
176
     0
 90
       50
176
     0
290
     0
176
     0
 90
       50
176
     0
 62
   256
176
     0
 40
1.0
176
     0
 90
        2
176
     0
  1
strokes_ogs.tif
176
     0
290
     0
176
     0
 40
1.0
176
     0
 40
1.0
176
     0
  0
VISUALSTYLE
  5
38
102
{ACAD_REACTORS
330
2A
102
}
330
2A
100
AcDbVisualStyle
  2
Linepattern
 70
    14
177
     3
291
     1
 70
    58
 90
        2
176
     1
 90
        2
176
     1
 90
        0
176
     1
 90
        0
176
     1
 40
0.6
176
     1
 40
30.0
176
     1
 62
     7
420
 16777215
176
     1
 90
        1
176
     1
 90
        4
176
     1
 62
     7
176
     1
 62
   257
176
     1
 90
        7
176
     1
 90
        7
176
     1
 40
1.0
176
     1
 90
        8
176
     1
 62
     7
176
     1
 40
1.0
176
     1
 90
        1
176
     1
 90
        6
176
     1
 90
        2
176
     1
 62
     7
176
     1
 90
        5
176
     1
 90
        0
176
     1
 90
        0
176
     1
290
     0
176
     1
 90
        1
176
     1
 40
0.0
176
     1
 90
        0
176
     1
290
     0
176
     1
290
     1
176
     1
290
     1
176
     1
290
     0
176
     1
290
     0
176
     1
290
     0
176
     1
290
     0
176
     1
290
     0
176
     1
290
     0
176
     1
 90
       50
176
     1
 40
0.0
176
     1
 40
1.0
176
     1
 90
        0
176
     1
 62
    18
420
        0
176
     1
 90
       50
176
     1
 90
        3
176
     1
 62
     5
420
      255
176
     1
290
     0
176
     1
 90
       50
176
     1
 90
       50
176
     1
 90
       50
176
     1
290
     0
176
     1
 90
       50
176
     1
 62
   256
176
     0
 40
1.0
176
     0
 90
        2
176
     1
  1
strokes_ogs.tif
176
     1
290
     0
176
     1
 40
1.0
176
     1
 40
1.0
176
     1
  0
VISUALSTYLE
  5
3C
102
{ACAD_REACTORS
330
2A
102
}
330
2A
100
AcDbVisualStyle
  2
OverhangOff
 70
    21
177
     3
291
     1
 70
    58
 90
        2
176
     0
 90
        2
176
     0
 90
        0
176
     0
 90
        0
176
     0
 40
0.6
176
     0
 40
30.0
176
     0
 62
     7
420
 16777215
176
     0
 90
        1
176
     0
 90
        4
176
     0
 62
     7
176
     0
 62
   257
176
     0
 90
        1
176
     0
 90
        1
176
     0
 40
1.0
176
     0
 90
        9
176
     2
 62
     7
176
     0
 40
1.0
176
     0
 90
        1
176
     0
 90
        6
176
     0
 90
        2
176
     0
 62
     7
176
     0
 90
        5
176
     0
 90
        0
176
     0
 90
        0
176
     0
290
     0
176
     0
 90
        1
176
     0
 40
0.0
176
     0
 90
        0
176
     0
290
     0
176
     0
290
     1
176
     0
290
     1
176
     0
290
     0
176
     0
290
     0
176
     0
290
     0
176
     0
290
     0
176
     0
290
     0
176
     0
290
     0
176
     0
 90
       50
176
     0
 40
0.0
176
     0
 40
1.0
176
     0
 90
        0
176
     0
 62
    18
420
        0
176
     0
 90
       50
176
     0
 90
        3
176
     0
 62
     5
420
      255
176
     0
290
     0
176
     0
 90
       50
176
     0
 90
       50
176
     0
 90
       50
176
     0
290
     0
176
     0
 90
       50
176
     0
 62
   256
176
     0
 40
1.0
176
     0
 90
        2
176
     0
  1
strokes_ogs.tif
176
     0
290
     0
176
     0
 40
1.0
176
     0
 40
1.0
176
     0
  0
VISUALSTYLE
  5
33
102
{ACAD_REACTORS
330
2A
102
}
330
2A
100
AcDbVisualStyle
  2
Realistic
 70
     8
177
     3
291
     0
 70
    58
 90
        2
176
     1
 90
        3
176
     1
 90
        0
176
     1
 90
        2
176
     1
 40
0.6
176
     1
 40
30.0
176
     1
 62
     7
420
 16777215
176
     1
 90
        0
176
     1
 90
        0
176
     1
 62
     7
176
     1
 62
   257
176
     1
 90
        1
176
     1
 90
        1
176
     1
 40
1.0
176
     1
 90
        8
176
     1
 62
   257
176
     1
 40
1.0
176
     1
 90
        1
176
     1
 90
        6
176
     1
 90
        2
176
     1
 62
     7
176
     1
 90
        3
176
     1
 90
        0
176
     1
 90
        0
176
     1
290
     0
176
     1
 90
       13
176
     1
 40
0.0
176
     1
 90
        0
176
     1
290
     0
176
     1
290
     1
176
     1
290
     1
176
     1
290
     0
176
     1
290
     0
176
     1
290
     0
176
     1
290
     0
176
     1
290
     0
176
     1
290
     0
176
     1
 90
       50
176
     1
 40
0.0
176
     1
 40
1.0
176
     1
 90
        0
176
     1
 62
    18
420
        0
176
     1
 90
       50
176
     1
 90
        3
176
     1
 62
     5
420
      255
176
     1
290
     0
176
     1
 90
       50
176
     1
 90
       50
176
     1
 90
       50
176
     1
290
     0
176
     1
 90
       50
176
     1
 62
   256
176
     0
 40
1.0
176
     0
 90
        2
176
     1
  1
strokes_ogs.tif
176
     1
290
     0
176
     1
 40
1.0
176
     1
 40
1.0
176
     1
  0
VISUALSTYLE
  5
42
102
{ACAD_REACTORS
330
2A
102
}
330
2A
100
AcDbVisualStyle
  2
Shaded
 70
    27
177
     3
291
     0
 70
    58
 90
        2
176
     1
 90
        2
176
     1
 90
        1
176
     1
 90
        2
176
     1
 40
0.6
176
     1
 40
30.0
176
     1
 62
     7
420
 16777215
176
     1
 90
        0
176
     1
 90
        4
176
     1
 62
     7
176
     1
 62
   257
176
     1
 90
        1
176
     1
 90
        1
176
     1
 40
1.0
176
     1
 90
        8
176
     1
 62
   257
176
     1
 40
1.0
176
     1
 90
        1
176
     1
 90
        6
176
     1
 90
        2
176
     1
 62
     8
420
  7895160
176
     1
 90
        3
176
     1
 90
        0
176
     1
 90
        0
176
     1
290
     0
176
     1
 90
        5
176
     1
 40
0.0
176
     1
 90
        0
176
     1
290
     0
176
     1
290
     1
176
     1
290
     1
176
     1
290
     0
176
     1
290
     0
176
     1
290
     0
176
     1
290
     0
176
     1
290
     0
176
     1
290
     0
176
     1
 90
       50
176
     1
 40
0.0
176
     1
 40
1.0
176
     1
 90
        0
176
     1
 62
    18
420
        0
176
     1
 90
       50
176
     1
 90
        3
176
     1
 62
     5
420
      255
176
     1
290
     0
176
     1
 90
       50
176
     1
 90
       50
176
     1
 90
       50
176
     1
290
     0
176
     1
 90
       50
176
     1
 62
   256
176
     0
 40
1.0
176
     0
 90
        2
176
     1
  1
strokes_ogs.tif
176
     1
290
     0
176
     1
 40
1.0
176
     1
 40
1.0
176
     1
  0
VISUALSTYLE
  5
41
102
{ACAD_REACTORS
330
2A
102
}
330
2A
100
AcDbVisualStyle
  2
Shaded with edges
 70
    26
177
     3
291
     0
 70
    58
 90
        2
176
     1
 90
        2
176
     1
 90
        1
176
     1
 90
        2
176
     1
 40
0.6
176
     1
 40
30.0
176
     1
 62
     7
420
 16777215
176
     1
 90
        1
176
     1
 90
       10
176
     1
 62
     7
176
     1
 62
   257
176
     1
 90
        2
176
     1
 90
        1
176
     1
 40
1.0
176
     1
 90
        8
176
     1
 62
   257
176
     1
 40
1.0
176
     1
 90
        1
176
     1
 90
        6
176
     1
 90
        2
176
     1
 62
     7
176
     1
 90
        3
176
     1
 90
        0
176
     1
 90
        0
176
     1
290
     0
176
     1
 90
        5
176
     1
 40
0.0
176
     1
 90
        0
176
     1
290
     0
176
     1
290
     1
176
     1
290
     1
176
     1
290
     0
176
     1
290
     0
176
     1
290
     0
176
     1
290
     0
176
     1
290
     0
176
     1
290
     0
176
     1
 90
       50
176
     1
 40
0.0
176
     1
 40
1.0
176
     1
 90
        0
176
     1
 62
    18
420
        0
176
     1
 90
       50
176
     1
 90
        3
176
     1
 62
     5
420
      255
176
     1
290
     0
176
     1
 90
       50
176
     1
 90
       50
176
     1
 90
       50
176
     1
290
     0
176
     1
 90
       50
176
     1
 62
   256
176
     0
 40
1.0
176
     0
 90
        2
176
     1
  1
strokes_ogs.tif
176
     1
290
     0
176
     1
 40
1.0
176
     1
 40
1.0
176
     1
  0
VISUALSTYLE
  5
3E
102
{ACAD_REACTORS
330
2A
102
}
330
2A
100
AcDbVisualStyle
  2
Shades of Gray
 70
    23
177
     3
291
     0
 70
    58
 90
        2
176
     1
 90
        2
176
     1
 90
        3
176
     1
 90
        0
176
     1
 40
0.6
176
     1
 40
30.0
176
     1
 62
     7
420
 16777215
176
     1
 90
        2
176
     1
 90
        2
176
     1
 62
     7
176
     1
 62
     7
176
     1
 90
        1
176
     1
 90
        1
176
     1
 40
40.0
176
     1
 90
        8
176
     1
 62
     7
176
     1
 40
1.0
176
     1
 90
        1
176
     1
 90
        6
176
     1
 90
        2
176
     1
 62
     7
176
     1
 90
        3
176
     1
 90
        0
176
     1
 90
        0
176
     1
290
     0
176
     1
 90
        1
176
     1
 40
0.0
176
     1
 90
        0
176
     1
290
     0
176
     1
290
     1
176
     1
290
     1
176
     1
290
     0
176
     1
290
     0
176
     1
290
     0
176
     1
290
     0
176
     1
290
     0
176
     1
290
     0
176
     1
 90
       50
176
     1
 40
0.0
176
     1
 40
1.0
176
     1
 90
        0
176
     1
 62
    18
420
        0
176
     1
 90
       50
176
     1
 90
        3
176
     1
 62
     5
420
      255
176
     1
290
     0
176
     1
 90
       50
176
     1
 90
       50
176
     1
 90
       50
176
     1
290
     0
176
     1
 90
       50
176
     1
 62
   256
176
     0
 40
1.0
176
     0
 90
        2
176
     1
  1
strokes_ogs.tif
176
     1
290
     0
176
     1
 40
1.0
176
     1
 40
1.0
176
     1
  0
VISUALSTYLE
  5
3F
102
{ACAD_REACTORS
330
2A
102
}
330
2A
100
AcDbVisualStyle
  2
Sketchy
 70
    24
177
     3
291
     0
 70
    58
 90
        1
176
     1
 90
        2
176
     1
 90
        2
176
     1
 90
        0
176
     1
 40
0.6
176
     1
 40
30.0
176
     1
 62
     7
420
 16777215
176
     1
 90
        2
176
     1
 90
        2
176
     1
 62
     7
176
     1
 62
     7
176
     1
 90
        1
176
     1
 90
        1
176
     1
 40
40.0
176
     1
 90
       11
176
     1
 62
     7
176
     1
 40
1.0
176
     1
 90
        1
176
     1
 90
        6
176
     1
 90
        2
176
     1
 62
     7
176
     1
 90
        6
176
     1
 90
        0
176
     1
 90
        0
176
     1
290
     0
176
     1
 90
        1
176
     1
 40
0.0
176
     1
 90
        0
176
     1
290
     0
176
     1
290
     1
176
     1
290
     1
176
     1
290
     0
176
     1
290
     0
176
     1
290
     0
176
     1
290
     0
176
     1
290
     0
176
     1
290
     0
176
     1
 90
       50
176
     1
 40
0.0
176
     1
 40
1.0
176
     1
 90
        0
176
     1
 62
    18
420
        0
176
     1
 90
       50
176
     1
 90
        3
176
     1
 62
     5
420
      255
176
     1
290
     0
176
     1
 90
       50
176
     1
 90
       50
176
     1
 90
       50
176
     1
290
     0
176
     1
 90
       50
176
     1
 62
   256
176
     0
 40
1.0
176
     0
 90
        2
176
     1
  1
strokes_ogs.tif
176
     1
290
     0
176
     1
 40
1.0
176
     1
 40
1.0
176
     1
  0
VISUALSTYLE
  5
37
102
{ACAD_REACTORS
330
2A
102
}
330
2A
100
AcDbVisualStyle
  2
Thicken
 70
    13
177
     3
291
     1
 70
    58
 90
        2
176
     1
 90
        2
176
     1
 90
        0
176
     1
 90
        0
176
     1
 40
0.6
176
     1
 40
30.0
176
     1
 62
     7
420
 16777215
176
     1
 90
        1
176
     1
 90
        4
176
     1
 62
     7
176
     1
 62
   257
176
     1
 90
        1
176
     1
 90
        1
176
     1
 40
1.0
176
     1
 90
       12
176
     1
 62
     7
176
     1
 40
1.0
176
     1
 90
        1
176
     1
 90
        6
176
     1
 90
        2
176
     1
 62
     7
176
     1
 90
        5
176
     1
 90
        0
176
     1
 90
        0
176
     1
290
     0
176
     1
 90
        1
176
     1
 40
0.0
176
     1
 90
        0
176
     1
290
     0
176
     1
290
     1
176
     1
290
     1
176
     1
290
     0
176
     1
290
     0
176
     1
290
     0
176
     1
290
     0
176
     1
290
     0
176
     1
290
     0
176
     1
 90
       50
176
     1
 40
0.0
176
     1
 40
1.0
176
     1
 90
        0
176
     1
 62
    18
420
        0
176
     1
 90
       50
176
     1
 90
        3
176
     1
 62
     5
420
      255
176
     1
290
     0
176
     1
 90
       50
176
     1
 90
       50
176
     1
 90
       50
176
     1
290
     0
176
     1
 90
       50
176
     1
 62
   256
176
     0
 40
1.0
176
     0
 90
        2
176
     1
  1
strokes_ogs.tif
176
     1
290
     0
176
     1
 40
1.0
176
     1
 40
1.0
176
     1
  0
VISUALSTYLE
  5
30
102
{ACAD_REACTORS
330
2A
102
}
330
2A
100
AcDbVisualStyle
  2
Wireframe
 70
     5
177
     3
291
     0
 70
    58
 90
        0
176
     1
 90
        2
176
     1
 90
        0
176
     1
 90
        0
176
     1
 40
0.6
176
     1
 40
30.0
176
     1
 62
     7
420
 16777215
176
     1
 90
        1
176
     1
 90
        4
176
     1
 62
     7
176
     1
 62
   257
176
     1
 90
        1
176
     1
 90
        1
176
     1
 40
1.0
176
     1
 90
        0
176
     1
 62
   257
176
     1
 40
1.0
176
     1
 90
        1
176
     1
 90
        6
176
     1
 90
        2
176
     1
 62
     7
176
     1
 90
        3
176
     1
 90
        0
176
     1
 90
        0
176
     1
290
     0
176
     1
 90
        1
176
     1
 40
0.0
176
     1
 90
        0
176
     1
290
     0
176
     1
290
     1
176
     1
290
     1
176
     1
290
     0
176
     1
290
     0
176
     1
290
     0
176
     1
290
     0
176
     1
290
     0
176
     1
290
     0
176
     1
 90
       50
176
     1
 40
0.0
176
     1
 40
1.0
176
     1
 90
        0
176
     1
 62
    18
420
        0
176
     1
 90
       50
176
     1
 90
        3
176
     1
 62
     5
420
      255
176
     1
290
     0
176
     1
 90
       50
176
     1
 90
       50
176
     1
 90
       50
176
     1
290
     0
176
     1
 90
       50
176
     1
 62
   256
176
     0
 40
1.0
176
     0
 90
        2
176
     1
  1
strokes_ogs.tif
176
     1
290
     0
176
     1
 40
1.0
176
     1
 40
1.0
176
     1
  0
VISUALSTYLE
  5
40
102
{ACAD_REACTORS
330
2A
102
}
330
2A
100
AcDbVisualStyle
  2
X-Ray
 70
    25
177
     3
291
     0
 70
    58
 90
        2
176
     1
 90
        2
176
     1
 90
        1
176
     1
 90
        1
176
     1
 40
0.5
176
     1
 40
30.0
176
     1
 62
     7
420
 16777215
176
     1
 90
        1
176
     1
 90
        0
176
     1
 62
     7
176
     1
 62
   257
176
     1
 90
        1
176
     1
 90
        1
176
     1
 40
1.0
176
     1
 90
        8
176
     1
 62
     7
176
     1
 40
1.0
176
     1
 90
        1
176
     1
 90
        6
176
     1
 90
        2
176
     1
 62
     7
176
     1
 90
        3
176
     1
 90
        0
176
     1
 90
        0
176
     1
290
     0
176
     1
 90
       13
176
     1
 40
0.0
176
     1
 90
        0
176
     1
290
     0
176
     1
290
     1
176
     1
290
     1
176
     1
290
     0
176
     1
290
     0
176
     1
290
     0
176
     1
290
     0
176
     1
290
     0
176
     1
290
     0
176
     1
 90
       50
176
     1
 40
0.0
176
     1
 40
1.0
176
     1
 90
        0
176
     1
 62
    18
420
        0
176
     1
 90
       50
176
     1
 90
        3
176
     1
 62
     5
420
      255
176
     1
290
     0
176
     1
 90
       50
176
     1
 90
       50
176
     1
 90
       50
176
     1
290
     0
176
     1
 90
       50
176
     1
 62
   256
176
     0
 40
1.0
176
     0
 90
        2
176
     1
  1
strokes_ogs.tif
176
     1
290
     0
176
     1
 40
1.0
176
     1
 40
1.0
176
     1
  0
DICTIONARYVAR
  5
21F
102
{ACAD_REACTORS
330
21E
102
}
330
21E
100
DictionaryVariables
280
     0
  1
1:1
  0
DICTIONARYVAR
  5
224
102
{ACAD_REACTORS
330
21E
102
}
330
21E
100
DictionaryVariables
280
     0
  1
Standard
  0
DICTIONARYVAR
  5
223
102
{ACAD_REACTORS
330
21E
102
}
330
21E
100
DictionaryVariables
280
     0
  1
Standard
  0
DICTIONARY
  5
220
330
6A
100
AcDbDictionary
280
     1
281
     1
  3
ACAD_ROUNDTRIP_2008_TABLESTYLE_CELLSTYLEMAP
360
221
  0
CELLSTYLEMAP
  5
221
102
{ACAD_REACTORS
330
220
102
}
330
220
100
AcDbCellStyleMap
 90
        3
300
CELLSTYLE
  1
TABLEFORMAT_BEGIN
 90
        5
170
     1
 91
        0
 92
    32768
 62
   257
 93
        1
300
CONTENTFORMAT
  1
CONTENTFORMAT_BEGIN
 90
        0
 91
        0
 92
        4
 93
        0
300

 40
0.0
140
1.0
 94
        5
 62
     0
340
11
144
0.25
309
CONTENTFORMAT_END
171
     1
301
MARGIN
  1
CELLMARGIN_BEGIN
 40
0.06
 40
0.06
 40
0.06
 40
0.06
 40
0.06
 40
0.06
309
CELLMARGIN_END
 94
        6
 95
        1
302
GRIDFORMAT
  1
GRIDFORMAT_BEGIN
 90
        0
 91
        1
 62
     0
 92
       -2
340
14
 93
        0
 40
0.045
309
GRIDFORMAT_END
 95
        2
302
GRIDFORMAT
  1
GRIDFORMAT_BEGIN
 90
        0
 91
        1
 62
     0
 92
       -2
340
14
 93
        0
 40
0.045
309
GRIDFORMAT_END
 95
        4
302
GRIDFORMAT
  1
GRIDFORMAT_BEGIN
 90
        0
 91
        1
 62
     0
 92
       -2
340
14
 93
        0
 40
0.045
309
GRIDFORMAT_END
 95
        8
302
GRIDFORMAT
  1
GRIDFORMAT_BEGIN
 90
        0
 91
        1
 62
     0
 92
       -2
340
14
 93
        0
 40
0.045
309
GRIDFORMAT_END
 95
       16
302
GRIDFORMAT
  1
GRIDFORMAT_BEGIN
 90
        0
 91
        1
 62
     0
 92
       -2
340
14
 93
        0
 40
0.045
309
GRIDFORMAT_END
 95
       32
302
GRIDFORMAT
  1
GRIDFORMAT_BEGIN
 90
        0
 91
        1
 62
     0
 92
       -2
340
14
 93
        0
 40
0.045
309
GRIDFORMAT_END
309
TABLEFORMAT_END
  1
CELLSTYLE_BEGIN
 90
        1
 91
        1
300
_TITLE
309
CELLSTYLE_END
300
CELLSTYLE
  1
TABLEFORMAT_BEGIN
 90
        5
170
     1
 91
        0
 92
        0
 62
   257
 93
        1
300
CONTENTFORMAT
  1
CONTENTFORMAT_BEGIN
 90
        0
 91
        0
 92
        4
 93
        0
300

 40
0.0
140
1.0
 94
        5
 62
     0
340
11
144
0.18
309
CONTENTFORMAT_END
171
     1
301
MARGIN
  1
CELLMARGIN_BEGIN
 40
0.06
 40
0.06
 40
0.06
 40
0.06
 40
0.06
 40
0.06
309
CELLMARGIN_END
 94
        6
 95
        1
302
GRIDFORMAT
  1
GRIDFORMAT_BEGIN
 90
        0
 91
        1
 62
     0
 92
       -2
340
14
 93
        0
 40
0.045
309
GRIDFORMAT_END
 95
        2
302
GRIDFORMAT
  1
GRIDFORMAT_BEGIN
 90
        0
 91
        1
 62
     0
 92
       -2
340
14
 93
        0
 40
0.045
309
GRIDFORMAT_END
 95
        4
302
GRIDFORMAT
  1
GRIDFORMAT_BEGIN
 90
        0
 91
        1
 62
     0
 92
       -2
340
14
 93
        0
 40
0.045
309
GRIDFORMAT_END
 95
        8
302
GRIDFORMAT
  1
GRIDFORMAT_BEGIN
 90
        0
 91
        1
 62
     0
 92
       -2
340
14
 93
        0
 40
0.045
309
GRIDFORMAT_END
 95
       16
302
GRIDFORMAT
  1
GRIDFORMAT_BEGIN
 90
        0
 91
        1
 62
     0
 92
       -2
340
14
 93
        0
 40
0.045
309
GRIDFORMAT_END
 95
       32
302
GRIDFORMAT
  1
GRIDFORMAT_BEGIN
 90
        0
 91
        1
 62
     0
 92
       -2
340
14
 93
        0
 40
0.045
309
GRIDFORMAT_END
309
TABLEFORMAT_END
  1
CELLSTYLE_BEGIN
 90
        2
 91
        1
300
_HEADER
309
CELLSTYLE_END
300
CELLSTYLE
  1
TABLEFORMAT_BEGIN
 90
        5
170
     1
 91
        0
 92
        0
 62
   257
 93
        1
300
CONTENTFORMAT
  1
CONTENTFORMAT_BEGIN
 90
        0
 91
        0
 92
        4
 93
        0
300

 40
0.0
140
1.0
 94
        2
 62
     0
340
11
144
0.18
309
CONTENTFORMAT_END
171
     1
301
MARGIN
  1
CELLMARGIN_BEGIN
 40
0.06
 40
0.06
 40
0.06
 40
0.06
 40
0.06
 40
0.06
309
CELLMARGIN_END
 94
        6
 95
        1
302
GRIDFORMAT
  1
GRIDFORMAT_BEGIN
 90
        0
 91
        1
 62
     0
 92
       -2
340
14
 93
        0
 40
0.045
309
GRIDFORMAT_END
 95
        2
302
GRIDFORMAT
  1
GRIDFORMAT_BEGIN
 90
        0
 91
        1
 62
     0
 92
       -2
340
14
 93
        0
 40
0.045
309
GRIDFORMAT_END
 95
        4
302
GRIDFORMAT
  1
GRIDFORMAT_BEGIN
 90
        0
 91
        1
 62
     0
 92
       -2
340
14
 93
        0
 40
0.045
309
GRIDFORMAT_END
 95
        8
302
GRIDFORMAT
  1
GRIDFORMAT_BEGIN
 90
        0
 91
        1
 62
     0
 92
       -2
340
14
 93
        0
 40
0.045
309
GRIDFORMAT_END
 95
       16
302
GRIDFORMAT
  1
GRIDFORMAT_BEGIN
 90
        0
 91
        1
 62
     0
 92
       -2
340
14
 93
        0
 40
0.045
309
GRIDFORMAT_END
 95
       32
302
GRIDFORMAT
  1
GRIDFORMAT_BEGIN
 90
        0
 91
        1
 62
     0
 92
       -2
340
14
 93
        0
 40
0.045
309
GRIDFORMAT_END
309
TABLEFORMAT_END
  1
CELLSTYLE_BEGIN
 90
        3
 91
        2
300
_DATA
309
CELLSTYLE_END
  0
ENDSEC
  0
EOF