0
SECTION
  2
HEADER
  9
$ACADVER
  1
AC1027
  9
$ACADMAINTVER
 70
     8
  9
$DWGCODEPAGE
  3
ANSI_1252
  9
$REQUIREDVERSIONS
160
                 0
  9
$COMMENTS
  1
File was created by Cadenas
  9
$CUSTOMPROPERTYTAG
  1
NN
  9
$CUSTOMPROPERTY
  1
Grip Tight Wide Slot Take Up Inch Bore
  9
$CUSTOMPROPERTYTAG
  1
NT
  9
$CUSTOMPROPERTY
  1
GT Wide Slot Take-Up Bearings -(Normal Duty)
  9
$CUSTOMPROPERTYTAG
  1
NB
  9
$CUSTOMPROPERTY
  1
136146
  9
$CUSTOMPROPERTYTAG
  1
NBSYN
  9
$CUSTOMPROPERTY
  1
$PN.
  9
$CUSTOMPROPERTYTAG
  1
LINA
  9
$CUSTOMPROPERTY
  1
136146
  9
$CUSTOMPROPERTYTAG
  1
SERIES
  9
$CUSTOMPROPERTY
  1
210
  9
$CUSTOMPROPERTYTAG
  1
SS
  9
$CUSTOMPROPERTY
  1
2
  9
$CUSTOMPROPERTYTAG
  1
PN
  9
$CUSTOMPROPERTY
  1
136146
  9
$CUSTOMPROPERTYTAG
  1
DESCRIPTION
  9
$CUSTOMPROPERTY
  1
WSTU-GT-200
  9
$CUSTOMPROPERTYTAG
  1
A
  9
$CUSTOMPROPERTY
  1
1-55/64
  9
$CUSTOMPROPERTYTAG
  1
B
  9
$CUSTOMPROPERTY
  1
5-13/16
  9
$CUSTOMPROPERTYTAG
  1
C
  9
$CUSTOMPROPERTY
  1
0.673 / 0.703
  9
$CUSTOMPROPERTYTAG
  1
D
  9
$CUSTOMPROPERTY
  1
3-3/8
  9
$CUSTOMPROPERTYTAG
  1
E
  9
$CUSTOMPROPERTY
  1
3-9/16
  9
$CUSTOMPROPERTYTAG
  1
F
  9
$CUSTOMPROPERTY
  1
1
  9
$CUSTOMPROPERTYTAG
  1
G
  9
$CUSTOMPROPERTY
  1
5/8
  9
$CUSTOMPROPERTYTAG
  1
H
  9
$CUSTOMPROPERTY
  1
3/4
  9
$CUSTOMPROPERTYTAG
  1
J
  9
$CUSTOMPROPERTY
  1
3-1/4
  9
$CUSTOMPROPERTYTAG
  1
K
  9
$CUSTOMPROPERTY
  1
1-15/16
  9
$CUSTOMPROPERTYTAG
  1
L
  9
$CUSTOMPROPERTY
  1
2-15/16
  9
$CUSTOMPROPERTYTAG
  1
M
  9
$CUSTOMPROPERTY
  1
3.985 / 4.015
  9
$CUSTOMPROPERTYTAG
  1
N
  9
$CUSTOMPROPERTY
  1
4-3/4
  9
$CUSTOMPROPERTYTAG
  1
R
  9
$CUSTOMPROPERTY
  1
21/32
  9
$CUSTOMPROPERTYTAG
  1
S
  9
$CUSTOMPROPERTY
  1
1-13/64
  9
$CUSTOMPROPERTYTAG
  1
T
  9
$CUSTOMPROPERTY
  1
1-15/16
  9
$CUSTOMPROPERTYTAG
  1
Z
  9
$CUSTOMPROPERTY
  1
1-5/32
  9
$CUSTOMPROPERTYTAG
  1
COMPANY
  9
$CUSTOMPROPERTY
  1
baldor
  9
$INSBASE
 10
0.0
 20
0.0
 30
0.0
  9
$EXTMIN
 10
1.000000000000000E+20
 20
1.000000000000000E+20
 30
1.000000000000000E+20
  9
$EXTMAX
 10
-1.000000000000000E+20
 20
-1.000000000000000E+20
 30
-1.000000000000000E+20
  9
$LIMMIN
 10
0.0
 20
0.0
  9
$LIMMAX
 10
12.0
 20
9.0
  9
$ORTHOMODE
 70
     0
  9
$REGENMODE
 70
     1
  9
$FILLMODE
 70
     1
  9
$QTEXTMODE
 70
     0
  9
$MIRRTEXT
 70
     1
  9
$LTSCALE
 40
1.0
  9
$ATTMODE
 70
     1
  9
$TEXTSIZE
 40
0.2
  9
$TRACEWID
 40
0.05
  9
$TEXTSTYLE
  7
Standard
  9
$CLAYER
  8
0
  9
$CELTYPE
  6
ByLayer
  9
$CECOLOR
 62
   256
  9
$CELTSCALE
 40
1.0
  9
$DISPSILH
 70
     0
  9
$DIMSCALE
 40
1.0
  9
$DIMASZ
 40
0.18
  9
$DIMEXO
 40
0.0625
  9
$DIMDLI
 40
0.38
  9
$DIMRND
 40
0.0
  9
$DIMDLE
 40
0.0
  9
$DIMEXE
 40
0.18
  9
$DIMTP
 40
0.0
  9
$DIMTM
 40
0.0
  9
$DIMTXT
 40
0.18
  9
$DIMCEN
 40
0.09
  9
$DIMTSZ
 40
0.0
  9
$DIMTOL
 70
     0
  9
$DIMLIM
 70
     0
  9
$DIMTIH
 70
     1
  9
$DIMTOH
 70
     1
  9
$DIMSE1
 70
     0
  9
$DIMSE2
 70
     0
  9
$DIMTAD
 70
     0
  9
$DIMZIN
 70
     0
  9
$DIMBLK
  1

  9
$DIMASO
 70
     1
  9
$DIMSHO
 70
     1
  9
$DIMPOST
  1

  9
$DIMAPOST
  1

  9
$DIMALT
 70
     0
  9
$DIMALTD
 70
     2
  9
$DIMALTF
 40
25.4
  9
$DIMLFAC
 40
1.0
  9
$DIMTOFL
 70
     0
  9
$DIMTVP
 40
0.0
  9
$DIMTIX
 70
     0
  9
$DIMSOXD
 70
     0
  9
$DIMSAH
 70
     0
  9
$DIMBLK1
  1

  9
$DIMBLK2
  1

  9
$DIMSTYLE
  2
Standard
  9
$DIMCLRD
 70
     0
  9
$DIMCLRE
 70
     0
  9
$DIMCLRT
 70
     0
  9
$DIMTFAC
 40
1.0
  9
$DIMGAP
 40
0.09
  9
$DIMJUST
 70
     0
  9
$DIMSD1
 70
     0
  9
$DIMSD2
 70
     0
  9
$DIMTOLJ
 70
     1
  9
$DIMTZIN
 70
     0
  9
$DIMALTZ
 70
     0
  9
$DIMALTTZ
 70
     0
  9
$DIMUPT
 70
     0
  9
$DIMDEC
 70
     4
  9
$DIMTDEC
 70
     4
  9
$DIMALTU
 70
     2
  9
$DIMALTTD
 70
     2
  9
$DIMTXSTY
  7
Standard
  9
$DIMAUNIT
 70
     0
  9
$DIMADEC
 70
     0
  9
$DIMALTRND
 40
0.0
  9
$DIMAZIN
 70
     0
  9
$DIMDSEP
 70
    46
  9
$DIMATFIT
 70
     3
  9
$DIMFRAC
 70
     0
  9
$DIMLDRBLK
  1

  9
$DIMLUNIT
 70
     2
  9
$DIMLWD
 70
    -2
  9
$DIMLWE
 70
    -2
  9
$DIMTMOVE
 70
     0
  9
$DIMFXL
 40
1.0
  9
$DIMFXLON
 70
     0
  9
$DIMJOGANG
 40
0.7853981633974483
  9
$DIMTFILL
 70
     0
  9
$DIMTFILLCLR
 70
     0
  9
$DIMARCSYM
 70
     0
  9
$DIMLTYPE
  6

  9
$DIMLTEX1
  6

  9
$DIMLTEX2
  6

  9
$DIMTXTDIRECTION
 70
     0
  9
$LUNITS
 70
     2
  9
$LUPREC
 70
     4
  9
$SKETCHINC
 40
0.1
  9
$FILLETRAD
 40
0.5
  9
$AUNITS
 70
     0
  9
$AUPREC
 70
     0
  9
$MENU
  1
.
  9
$ELEVATION
 40
0.0
  9
$PELEVATION
 40
0.0
  9
$THICKNESS
 40
0.0
  9
$LIMCHECK
 70
     0
  9
$CHAMFERA
 40
0.0
  9
$CHAMFERB
 40
0.0
  9
$CHAMFERC
 40
0.0
  9
$CHAMFERD
 40
0.0
  9
$SKPOLY
 70
     0
  9
$TDCREATE
 40
2458168.994028172
  9
$TDUCREATE
 40
2458168.952361505
  9
$TDUPDATE
 40
2458168.994028345
  9
$TDUUPDATE
 40
2458168.952361678
  9
$TDINDWG
 40
0.0000000116
  9
$TDUSRTIMER
 40
0.0000000116
  9
$USRTIMER
 70
     1
  9
$ANGBASE
 50
0.0
  9
$ANGDIR
 70
     0
  9
$PDMODE
 70
     0
  9
$PDSIZE
 40
0.0
  9
$PLINEWID
 40
0.0
  9
$SPLFRAME
 70
     0
  9
$SPLINETYPE
 70
     6
  9
$SPLINESEGS
 70
     8
  9
$HANDSEED
  5
261
  9
$SURFTAB1
 70
     6
  9
$SURFTAB2
 70
     6
  9
$SURFTYPE
 70
     6
  9
$SURFU
 70
     6
  9
$SURFV
 70
     6
  9
$UCSBASE
  2

  9
$UCSNAME
  2

  9
$UCSORG
 10
0.0
 20
0.0
 30
0.0
  9
$UCSXDIR
 10
1.0
 20
0.0
 30
0.0
  9
$UCSYDIR
 10
0.0
 20
1.0
 30
0.0
  9
$UCSORTHOREF
  2

  9
$UCSORTHOVIEW
 70
     0
  9
$UCSORGTOP
 10
0.0
 20
0.0
 30
0.0
  9
$UCSORGBOTTOM
 10
0.0
 20
0.0
 30
0.0
  9
$UCSORGLEFT
 10
0.0
 20
0.0
 30
0.0
  9
$UCSORGRIGHT
 10
0.0
 20
0.0
 30
0.0
  9
$UCSORGFRONT
 10
0.0
 20
0.0
 30
0.0
  9
$UCSORGBACK
 10
0.0
 20
0.0
 30
0.0
  9
$PUCSBASE
  2

  9
$PUCSNAME
  2

  9
$PUCSORG
 10
0.0
 20
0.0
 30
0.0
  9
$PUCSXDIR
 10
1.0
 20
0.0
 30
0.0
  9
$PUCSYDIR
 10
0.0
 20
1.0
 30
0.0
  9
$PUCSORTHOREF
  2

  9
$PUCSORTHOVIEW
 70
     0
  9
$PUCSORGTOP
 10
0.0
 20
0.0
 30
0.0
  9
$PUCSORGBOTTOM
 10
0.0
 20
0.0
 30
0.0
  9
$PUCSORGLEFT
 10
0.0
 20
0.0
 30
0.0
  9
$PUCSORGRIGHT
 10
0.0
 20
0.0
 30
0.0
  9
$PUCSORGFRONT
 10
0.0
 20
0.0
 30
0.0
  9
$PUCSORGBACK
 10
0.0
 20
0.0
 30
0.0
  9
$USERI1
 70
     0
  9
$USERI2
 70
     0
  9
$USERI3
 70
     0
  9
$USERI4
 70
     0
  9
$USERI5
 70
     0
  9
$USERR1
 40
0.0
  9
$USERR2
 40
0.0
  9
$USERR3
 40
0.0
  9
$USERR4
 40
0.0
  9
$USERR5
 40
0.0
  9
$WORLDVIEW
 70
     1
  9
$SHADEDGE
 70
     3
  9
$SHADEDIF
 70
    70
  9
$TILEMODE
 70
     1
  9
$MAXACTVP
 70
    64
  9
$PINSBASE
 10
0.0
 20
0.0
 30
0.0
  9
$PLIMCHECK
 70
     0
  9
$PEXTMIN
 10
1.000000000000000E+20
 20
1.000000000000000E+20
 30
1.000000000000000E+20
  9
$PEXTMAX
 10
-1.000000000000000E+20
 20
-1.000000000000000E+20
 30
-1.000000000000000E+20
  9
$PLIMMIN
 10
0.0
 20
0.0
  9
$PLIMMAX
 10
12.0
 20
9.0
  9
$UNITMODE
 70
     0
  9
$VISRETAIN
 70
     1
  9
$PLINEGEN
 70
     0
  9
$PSLTSCALE
 70
     1
  9
$TREEDEPTH
 70
  3020
  9
$CMLSTYLE
  2
Standard
  9
$CMLJUST
 70
     0
  9
$CMLSCALE
 40
1.0
  9
$PROXYGRAPHICS
 70
     1
  9
$MEASUREMENT
 70
     0
  9
$CELWEIGHT
370
    -1
  9
$ENDCAPS
280
     0
  9
$JOINSTYLE
280
     0
  9
$LWDISPLAY
290
     0
  9
$INSUNITS
 70
     1
  9
$HYPERLINKBASE
  1

  9
$STYLESHEET
  1

  9
$XEDIT
290
     1
  9
$CEPSNTYPE
380
     0
  9
$PSTYLEMODE
290
     1
  9
$FINGERPRINTGUID
  2
{7A5B375C-8E13-4502-87E9-A4195A1435B2}
  9
$VERSIONGUID
  2
{FAEB1C32-E019-11D5-929B-00C0DF256EC4}
  9
$EXTNAMES
290
     1
  9
$PSVPSCALE
 40
0.0
  9
$OLESTARTUP
290
     0
  9
$SORTENTS
280
   127
  9
$INDEXCTL
280
     0
  9
$HIDETEXT
280
     1
  9
$XCLIPFRAME
280
     2
  9
$HALOGAP
280
     0
  9
$OBSCOLOR
 70
   257
  9
$OBSLTYPE
280
     0
  9
$INTERSECTIONDISPLAY
280
     0
  9
$INTERSECTIONCOLOR
 70
   257
  9
$DIMASSOC
280
     2
  9
$PROJECTNAME
  1

  9
$CAMERADISPLAY
290
     0
  9
$LENSLENGTH
 40
50.0
  9
$CAMERAHEIGHT
 40
0.0
  9
$STEPSPERSEC
 40
2.0
  9
$STEPSIZE
 40
6.0
  9
$3DDWFPREC
 40
2.0
  9
$PSOLWIDTH
 40
0.25
  9
$PSOLHEIGHT
 40
4.0
  9
$LOFTANG1
 40
1.570796326794897
  9
$LOFTANG2
 40
1.570796326794897
  9
$LOFTMAG1
 40
0.0
  9
$LOFTMAG2
 40
0.0
  9
$LOFTPARAM
 70
     7
  9
$LOFTNORMALS
280
     1
  9
$LATITUDE
 40
37.795
  9
$LONGITUDE
 40
-122.394
  9
$NORTHDIRECTION
 40
0.0
  9
$TIMEZONE
 70
 -8000
  9
$LIGHTGLYPHDISPLAY
280
     1
  9
$TILEMODELIGHTSYNCH
280
     1
  9
$CMATERIAL
347
44
  9
$SOLIDHIST
280
     0
  9
$SHOWHIST
280
     1
  9
$DWFFRAME
280
     2
  9
$DGNFRAME
280
     2
  9
$REALWORLDSCALE
290
     1
  9
$INTERFERECOLOR
 62
   256
  9
$CSHADOW
280
     0
  9
$SHADOWPLANELOCATION
 40
0.0
  0
ENDSEC
  0
SECTION
  2
CLASSES
  0
CLASS
  1
ACDBDICTIONARYWDFLT
  2
AcDbDictionaryWithDefault
  3
ObjectDBX Classes
 90
        0
 91
        4
280
     0
281
     0
  0
CLASS
  1
VISUALSTYLE
  2
AcDbVisualStyle
  3
ObjectDBX Classes
 90
     4095
 91
        4
280
     0
281
     0
  0
CLASS
  1
MATERIAL
  2
AcDbMaterial
  3
ObjectDBX Classes
 90
     1153
 91
        4
280
     0
281
     0
  0
CLASS
  1
SCALE
  2
AcDbScale
  3
ObjectDBX Classes
 90
     1153
 91
        4
280
     0
281
     0
  0
CLASS
  1
TABLESTYLE
  2
AcDbTableStyle
  3
ObjectDBX Classes
 90
     4095
 91
        4
280
     0
281
     0
  0
CLASS
  1
MLEADERSTYLE
  2
AcDbMLeaderStyle
  3
ACDB_MLEADERSTYLE_CLASS
 90
     4095
 91
        4
280
     0
281
     0
  0
CLASS
  1
SUN
  2
AcDbSun
  3
SCENEOE
 90
     1153
 91
        4
280
     0
281
     0
  0
CLASS
  1
DICTIONARYVAR
  2
AcDbDictionaryVar
  3
ObjectDBX Classes
 90
        0
 91
        4
280
     0
281
     0
  0
CLASS
  1
CELLSTYLEMAP
  2
AcDbCellStyleMap
  3
ObjectDBX Classes
 90
     1152
 91
        4
280
     0
281
     0
  0
ENDSEC
  0
SECTION
  2
TABLES
  0
TABLE
  2
VPORT
  5
8
330
0
100
AcDbSymbolTable
 70
     1
  0
VPORT
  5
29
330
8
100
AcDbSymbolTableRecord
100
AcDbViewportTableRecord
  2
*Active
 70
     0
 10
0.0
 20
0.0
 11
1.0
 21
1.0
 12
1.000064227051988
 22
0.0000000000000009
 13
0.0
 23
0.0
 14
0.5
 24
0.5
 15
0.5
 25
0.5
 16
0.0
 26
0.0
 36
1.0
 17
0.0
 27
0.0
 37
0.0
 40
4.347749999999998
 41
1.687653148597309
 42
50.0
 43
0.0
 44
0.0
 50
0.0
 51
0.0
 71
     0
 72
   100
 73
     1
 74
     3
 75
     0
 76
     0
 77
     0
 78
     0
281
     0
 65
     1
110
0.0
120
0.0
130
0.0
111
1.0
121
0.0
131
0.0
112
0.0
122
1.0
132
0.0
 79
     0
146
0.0
348
2F
 60
     3
 61
     5
292
     1
282
     1
141
0.0
142
0.0
 63
   250
361
6D
  0
ENDTAB
  0
TABLE
  2
LTYPE
  5
5
330
0
100
AcDbSymbolTable
 70
     3
  0
LTYPE
  5
14
330
5
100
AcDbSymbolTableRecord
100
AcDbLinetypeTableRecord
  2
ByBlock
 70
     0
  3

 72
    65
 73
     0
 40
0.0
  0
LTYPE
  5
15
330
5
100
AcDbSymbolTableRecord
100
AcDbLinetypeTableRecord
  2
ByLayer
 70
     0
  3

 72
    65
 73
     0
 40
0.0
  0
LTYPE
  5
16
330
5
100
AcDbSymbolTableRecord
100
AcDbLinetypeTableRecord
  2
Continuous
 70
     0
  3
Solid line
 72
    65
 73
     0
 40
0.0
  0
LTYPE
  5
9F
330
5
100
AcDbSymbolTableRecord
100
AcDbLinetypeTableRecord
  2
Dashed
 70
     0
  3

 72
    65
 73
     2
 40
2.0
 49
1.0
 74
     0
 49
-1.0
 74
     0
  0
LTYPE
  5
1A4
330
5
100
AcDbSymbolTableRecord
100
AcDbLinetypeTableRecord
  2
Center
 70
     0
  3

 72
    65
 73
     4
 40
1.5
 49
0.45
 74
     0
 49
-0.5
 74
     0
 49
0.05
 74
     0
 49
-0.5
 74
     0
  0
ENDTAB
  0
TABLE
  2
LAYER
  5
2
330
0
100
AcDbSymbolTable
 70
     7
  0
LAYER
  5
10
330
2
100
AcDbSymbolTableRecord
100
AcDbLayerTableRecord
  2
0
 70
     0
 62
     7
  6
Continuous
370
    -3
390
F
347
46
348
0
  0
LAYER
  5
72
330
2
100
AcDbSymbolTableRecord
100
AcDbLayerTableRecord
  2
AM_6
 70
     0
 62
    -2
  6
Continuous
370
    35
390
F
347
46
348
0
  0
LAYER
  5
A0
330
2
100
AcDbSymbolTableRecord
100
AcDbLayerTableRecord
  2
AM_9
 70
     0
 62
     6
  6
Dashed
370
    25
390
F
347
46
348
0
  0
LAYER
  5
E7
330
2
100
AcDbSymbolTableRecord
100
AcDbLayerTableRecord
  2
AM_4
 70
     0
 62
     7
  6
Continuous
370
    50
390
F
347
46
348
0
  0
LAYER
  5
1A1
330
2
100
AcDbSymbolTableRecord
100
AcDbLayerTableRecord
  2
AM_5
 70
     0
 62
     3
  6
Continuous
370
    25
390
F
347
46
348
0
  0
LAYER
  5
1A5
330
2
100
AcDbSymbolTableRecord
100
AcDbLayerTableRecord
  2
AM_7
 70
     0
 62
     7
  6
Center
370
    25
390
F
347
46
348
0
  0
LAYER
  5
24F
330
2
100
AcDbSymbolTableRecord
100
AcDbLayerTableRecord
  2
ConnectionPoints
 70
     0
 62
     7
  6
Continuous
370
    50
390
F
347
46
348
0
  0
ENDTAB
  0
TABLE
  2
STYLE
  5
3
330
0
100
AcDbSymbolTable
 70
     1
  0
STYLE
  5
11
330
3
100
AcDbSymbolTableRecord
100
AcDbTextStyleTableRecord
  2
Standard
 70
     0
 40
0.0
 41
1.0
 50
0.0
 71
     0
 42
0.2
  3
txt
  4

  0
ENDTAB
  0
TABLE
  2
VIEW
  5
6
330
0
100
AcDbSymbolTable
 70
     0
  0
ENDTAB
  0
TABLE
  2
UCS
  5
7
330
0
100
AcDbSymbolTable
 70
     0
  0
ENDTAB
  0
TABLE
  2
APPID
  5
9
330
0
100
AcDbSymbolTable
 70
     1
  0
APPID
  5
12
330
9
100
AcDbSymbolTableRecord
100
AcDbRegAppTableRecord
  2
ACAD
 70
     0
  0
ENDTAB
  0
TABLE
  2
DIMSTYLE
  5
A
330
0
100
AcDbSymbolTable
 70
     1
100
AcDbDimStyleTable
  0
DIMSTYLE
105
27
330
A
100
AcDbSymbolTableRecord
100
AcDbDimStyleTableRecord
  2
Standard
 70
     0
178
     0
340
11
  0
ENDTAB
  0
TABLE
  2
BLOCK_RECORD
  5
1
330
0
100
AcDbSymbolTable
 70
     6
  0
BLOCK_RECORD
  5
1F
330
1
100
AcDbSymbolTableRecord
100
AcDbBlockTableRecord
  2
*Model_Space
340
22
 70
     0
280
     1
281
     0
  0
BLOCK_RECORD
  5
1B
330
1
100
AcDbSymbolTableRecord
100
AcDbBlockTableRecord
  2
*Paper_Space
340
1E
 70
     0
280
     1
281
     0
  0
BLOCK_RECORD
  5
23
330
1
100
AcDbSymbolTableRecord
100
AcDbBlockTableRecord
  2
*Paper_Space0
340
26
 70
     0
280
     1
281
     0
  0
BLOCK_RECORD
  5
6E
330
1
100
AcDbSymbolTableRecord
100
AcDbBlockTableRecord
  2
1_136146_4
340
0
102
{BLKREFS
331
6F
102
}
 70
     0
280
     1
281
     0
  0
BLOCK_RECORD
  5
8E
330
1
100
AcDbSymbolTableRecord
100
AcDbBlockTableRecord
  2
2_405016_Inch_0_in_136146_4
340
0
102
{BLKREFS
331
8F
102
}
 70
     0
280
     1
281
     0
  0
BLOCK_RECORD
  5
11B
330
1
100
AcDbSymbolTableRecord
100
AcDbBlockTableRecord
  2
3_129523I_0_in_136146_4
340
0
102
{BLKREFS
331
11C
102
}
 70
     0
280
     1
281
     0
  0
BLOCK_RECORD
  5
162
330
1
100
AcDbSymbolTableRecord
100
AcDbBlockTableRecord
  2
4_129919_0_in_136146_4
340
0
102
{BLKREFS
331
163
102
}
 70
     0
280
     1
281
     0
  0
BLOCK_RECORD
  5
1BB
330
1
100
AcDbSymbolTableRecord
100
AcDbBlockTableRecord
  2
5_WSTU_GT_10I_0_in_136146_4
340
0
102
{BLKREFS
331
1BC
102
}
 70
     0
280
     1
281
     0
  0
ENDTAB
  0
ENDSEC
  0
SECTION
  2
BLOCKS
  0
BLOCK
  5
20
330
1F
100
AcDbEntity
  8
0
100
AcDbBlockBegin
  2
*Model_Space
 70
     0
 10
0.0
 20
0.0
 30
0.0
  3
*Model_Space
  1

  0
ENDBLK
  5
21
330
1F
100
AcDbEntity
  8
0
100
AcDbBlockEnd
  0
BLOCK
  5
1C
330
1B
100
AcDbEntity
 67
     1
  8
0
100
AcDbBlockBegin
  2
*Paper_Space
 70
     0
 10
0.0
 20
0.0
 30
0.0
  3
*Paper_Space
  1

  0
ENDBLK
  5
1D
330
1B
100
AcDbEntity
 67
     1
  8
0
100
AcDbBlockEnd
  0
BLOCK
  5
24
330
23
100
AcDbEntity
  8
0
100
AcDbBlockBegin
  2
*Paper_Space0
 70
     0
 10
0.0
 20
0.0
 30
0.0
  3
*Paper_Space0
  1

  0
ENDBLK
  5
25
330
23
100
AcDbEntity
  8
0
100
AcDbBlockEnd
  0
BLOCK
  5
70
330
6E
100
AcDbEntity
  8
0
100
AcDbBlockBegin
  2
1_136146_4
 70
     2
 10
0.0
 20
0.0
 30
0.0
  3
1_136146_4
  1

  0
ATTDEF
  5
73
330
6E
100
AcDbEntity
  8
AM_6
100
AcDbText
 10
9.596875
 20
2.13125
 30
0.0
 40
0.5
  1
Grip Tight Wide Slot Take Up Inch Bore
100
AcDbAttributeDefinition
  3

  2
NN
 70
     8
280
     0
  0
ATTDEF
  5
74
330
6E
100
AcDbEntity
  8
AM_6
100
AcDbText
 10
9.596875
 20
1.63125
 30
0.0
 40
0.5
  1
GT Wide Slot Take-Up Bearings -(Normal Duty)
100
AcDbAttributeDefinition
  3

  2
NT
 70
     8
280
     0
  0
ATTDEF
  5
75
330
6E
100
AcDbEntity
  8
AM_6
100
AcDbText
 10
9.596875
 20
1.13125
 30
0.0
 40
0.5
  1
136146
100
AcDbAttributeDefinition
  3

  2
NB
 70
     8
280
     0
  0
ATTDEF
  5
76
330
6E
100
AcDbEntity
  8
AM_6
100
AcDbText
 10
9.596875
 20
0.6312500000000001
 30
0.0
 40
0.5
  1
$PN.
100
AcDbAttributeDefinition
  3

  2
NBSYN
 70
     8
280
     0
  0
ATTDEF
  5
77
330
6E
100
AcDbEntity
  8
AM_6
100
AcDbText
 10
9.596875
 20
0.1312500000000001
 30
0.0
 40
0.5
  1
136146
100
AcDbAttributeDefinition
  3

  2
LINA
 70
     8
280
     0
  0
ATTDEF
  5
78
330
6E
100
AcDbEntity
  8
AM_6
100
AcDbText
 10
9.596875
 20
-0.3687499999999999
 30
0.0
 40
0.5
  1
210
100
AcDbAttributeDefinition
  3

  2
SERIES
 70
     8
280
     0
  0
ATTDEF
  5
79
330
6E
100
AcDbEntity
  8
AM_6
100
AcDbText
 10
9.596875
 20
-0.8687499999999999
 30
0.0
 40
0.5
  1
2
100
AcDbAttributeDefinition
  3

  2
SS
 70
     8
280
     0
  0
ATTDEF
  5
7A
330
6E
100
AcDbEntity
  8
AM_6
100
AcDbText
 10
9.596875
 20
-1.36875
 30
0.0
 40
0.5
  1
136146
100
AcDbAttributeDefinition
  3

  2
PN
 70
     8
280
     0
  0
ATTDEF
  5
7B
330
6E
100
AcDbEntity
  8
AM_6
100
AcDbText
 10
9.596875
 20
-1.86875
 30
0.0
 40
0.5
  1
WSTU-GT-200
100
AcDbAttributeDefinition
  3

  2
DESCRIPTION
 70
     8
280
     0
  0
ATTDEF
  5
7C
330
6E
100
AcDbEntity
  8
AM_6
100
AcDbText
 10
9.596875
 20
-2.36875
 30
0.0
 40
0.5
  1
1-55/64
100
AcDbAttributeDefinition
  3

  2
A
 70
     8
280
     0
  0
ATTDEF
  5
7D
330
6E
100
AcDbEntity
  8
AM_6
100
AcDbText
 10
9.596875
 20
-2.86875
 30
0.0
 40
0.5
  1
5-13/16
100
AcDbAttributeDefinition
  3

  2
B
 70
     8
280
     0
  0
ATTDEF
  5
7E
330
6E
100
AcDbEntity
  8
AM_6
100
AcDbText
 10
9.596875
 20
-3.36875
 30
0.0
 40
0.5
  1
0.673 / 0.703
100
AcDbAttributeDefinition
  3

  2
C
 70
     8
280
     0
  0
ATTDEF
  5
7F
330
6E
100
AcDbEntity
  8
AM_6
100
AcDbText
 10
9.596875
 20
-3.86875
 30
0.0
 40
0.5
  1
3-3/8
100
AcDbAttributeDefinition
  3

  2
D
 70
     8
280
     0
  0
ATTDEF
  5
80
330
6E
100
AcDbEntity
  8
AM_6
100
AcDbText
 10
9.596875
 20
-4.36875
 30
0.0
 40
0.5
  1
3-9/16
100
AcDbAttributeDefinition
  3

  2
E
 70
     8
280
     0
  0
ATTDEF
  5
81
330
6E
100
AcDbEntity
  8
AM_6
100
AcDbText
 10
9.596875
 20
-4.86875
 30
0.0
 40
0.5
  1
1
100
AcDbAttributeDefinition
  3

  2
F
 70
     8
280
     0
  0
ATTDEF
  5
82
330
6E
100
AcDbEntity
  8
AM_6
100
AcDbText
 10
9.596875
 20
-5.36875
 30
0.0
 40
0.5
  1
5/8
100
AcDbAttributeDefinition
  3

  2
G
 70
     8
280
     0
  0
ATTDEF
  5
83
330
6E
100
AcDbEntity
  8
AM_6
100
AcDbText
 10
9.596875
 20
-5.86875
 30
0.0
 40
0.5
  1
3/4
100
AcDbAttributeDefinition
  3

  2
H
 70
     8
280
     0
  0
ATTDEF
  5
84
330
6E
100
AcDbEntity
  8
AM_6
100
AcDbText
 10
9.596875
 20
-6.36875
 30
0.0
 40
0.5
  1
3-1/4
100
AcDbAttributeDefinition
  3

  2
J
 70
     8
280
     0
  0
ATTDEF
  5
85
330
6E
100
AcDbEntity
  8
AM_6
100
AcDbText
 10
9.596875
 20
-6.86875
 30
0.0
 40
0.5
  1
1-15/16
100
AcDbAttributeDefinition
  3

  2
K
 70
     8
280
     0
  0
ATTDEF
  5
86
330
6E
100
AcDbEntity
  8
AM_6
100
AcDbText
 10
9.596875
 20
-7.36875
 30
0.0
 40
0.5
  1
2-15/16
100
AcDbAttributeDefinition
  3

  2
L
 70
     8
280
     0
  0
ATTDEF
  5
87
330
6E
100
AcDbEntity
  8
AM_6
100
AcDbText
 10
9.596875
 20
-7.86875
 30
0.0
 40
0.5
  1
3.985 / 4.015
100
AcDbAttributeDefinition
  3

  2
M
 70
     8
280
     0
  0
ATTDEF
  5
88
330
6E
100
AcDbEntity
  8
AM_6
100
AcDbText
 10
9.596875
 20
-8.36875
 30
0.0
 40
0.5
  1
4-3/4
100
AcDbAttributeDefinition
  3

  2
N
 70
     8
280
     0
  0
ATTDEF
  5
89
330
6E
100
AcDbEntity
  8
AM_6
100
AcDbText
 10
9.596875
 20
-8.86875
 30
0.0
 40
0.5
  1
21/32
100
AcDbAttributeDefinition
  3

  2
R
 70
     8
280
     0
  0
ATTDEF
  5
8A
330
6E
100
AcDbEntity
  8
AM_6
100
AcDbText
 10
9.596875
 20
-9.36875
 30
0.0
 40
0.5
  1
1-13/64
100
AcDbAttributeDefinition
  3

  2
S
 70
     8
280
     0
  0
ATTDEF
  5
8B
330
6E
100
AcDbEntity
  8
AM_6
100
AcDbText
 10
9.596875
 20
-9.86875
 30
0.0
 40
0.5
  1
1-15/16
100
AcDbAttributeDefinition
  3

  2
T
 70
     8
280
     0
  0
ATTDEF
  5
8C
330
6E
100
AcDbEntity
  8
AM_6
100
AcDbText
 10
9.596875
 20
-10.36875
 30
0.0
 40
0.5
  1
1-5/32
100
AcDbAttributeDefinition
  3

  2
Z
 70
     8
280
     0
  0
ATTDEF
  5
8D
330
6E
100
AcDbEntity
  8
AM_6
100
AcDbText
 10
9.596875
 20
-10.86875
 30
0.0
 40
0.5
  1
baldor
100
AcDbAttributeDefinition
  3

  2
COMPANY
 70
     8
280
     0
  0
INSERT
  5
8F
330
6E
100
AcDbEntity
  8
0
100
AcDbBlockReference
  2
2_405016_Inch_0_in_136146_4
 10
0.0
 20
0.0
 30
0.0
  0
INSERT
  5
11C
330
6E
100
AcDbEntity
  8
0
100
AcDbBlockReference
  2
3_129523I_0_in_136146_4
 10
0.0
 20
0.0
 30
0.0
  0
INSERT
  5
163
330
6E
100
AcDbEntity
  8
0
100
AcDbBlockReference
  2
4_129919_0_in_136146_4
 10
0.0
 20
0.0
 30
0.0
  0
INSERT
  5
1BC
330
6E
100
AcDbEntity
  8
0
100
AcDbBlockReference
  2
5_WSTU_GT_10I_0_in_136146_4
 10
0.0
 20
0.0
 30
0.0
  0
ENDBLK
  5
71
330
6E
100
AcDbEntity
  8
0
100
AcDbBlockEnd
  0
BLOCK
  5
90
330
8E
100
AcDbEntity
  8
0
100
AcDbBlockBegin
  2
2_405016_Inch_0_in_136146_4
 70
     2
 10
0.0
 20
0.0
 30
0.0
  3
2_405016_Inch_0_in_136146_4
  1

  0
ATTDEF
  5
92
330
8E
100
AcDbEntity
  8
AM_6
100
AcDbText
 10
3.235115221123027
 20
0.2187500000000001
 30
0.0
 40
0.5
  1
405016 -Inch
100
AcDbAttributeDefinition
  3

  2
NN
 70
     8
280
     0
  0
ATTDEF
  5
93
330
8E
100
AcDbEntity
  8
AM_6
100
AcDbText
 10
3.235115221123027
 20
-0.2812499999999999
 30
0.0
 40
0.5
  1
Grease Fitting
100
AcDbAttributeDefinition
  3

  2
NT
 70
     8
280
     0
  0
ATTDEF
  5
94
330
8E
100
AcDbEntity
  8
AM_6
100
AcDbText
 10
3.235115221123027
 20
-0.7812499999999999
 30
0.0
 40
0.5
  1
405016-Inch
100
AcDbAttributeDefinition
  3

  2
NB
 70
     8
280
     0
  0
ATTDEF
  5
95
330
8E
100
AcDbEntity
  8
AM_6
100
AcDbText
 10
3.235115221123027
 20
-1.28125
 30
0.0
 40
0.5
  1
$MN.-Inch
100
AcDbAttributeDefinition
  3

  2
NBSYN
 70
     8
280
     0
  0
ATTDEF
  5
96
330
8E
100
AcDbEntity
  8
AM_6
100
AcDbText
 10
3.235115221123027
 20
-1.78125
 30
0.0
 40
0.5
  1
405016
100
AcDbAttributeDefinition
  3

  2
LINA
 70
     8
280
     0
  0
ATTDEF
  5
97
330
8E
100
AcDbEntity
  8
AM_6
100
AcDbText
 10
3.235115221123027
 20
-2.28125
 30
0.0
 40
0.5
  1
405016
100
AcDbAttributeDefinition
  3

  2
MN
 70
     8
280
     0
  0
ATTDEF
  5
98
330
8E
100
AcDbEntity
  8
AM_6
100
AcDbText
 10
3.235115221123027
 20
-2.78125
 30
0.0
 40
0.5
  1
7/16 HEX
100
AcDbAttributeDefinition
  3

  2
H
 70
     8
280
     0
  0
ATTDEF
  5
99
330
8E
100
AcDbEntity
  8
AM_6
100
AcDbText
 10
3.235115221123027
 20
-3.28125
 30
0.0
 40
0.5
  1
0.383
100
AcDbAttributeDefinition
  3

  2
NDR
 70
     8
280
     0
  0
ATTDEF
  5
9A
330
8E
100
AcDbEntity
  8
AM_6
100
AcDbText
 10
3.235115221123027
 20
-3.78125
 30
0.0
 40
0.5
  1
0.337
100
AcDbAttributeDefinition
  3

  2
KDR
 70
     8
280
     0
  0
ATTDEF
  5
9B
330
8E
100
AcDbEntity
  8
AM_6
100
AcDbText
 10
3.235115221123027
 20
-4.28125
 30
0.0
 40
0.5
  1
0.1575
100
AcDbAttributeDefinition
  3

  2
BZE
 70
     8
280
     0
  0
ATTDEF
  5
9C
330
8E
100
AcDbEntity
  8
AM_6
100
AcDbText
 10
3.235115221123027
 20
-4.78125
 30
0.0
 40
0.5
  1
0.4375
100
AcDbAttributeDefinition
  3

  2
HEX
 70
     8
280
     0
  0
ATTDEF
  5
9D
330
8E
100
AcDbEntity
  8
AM_6
100
AcDbText
 10
3.235115221123027
 20
-5.28125
 30
0.0
 40
0.5
  1
0.281250
100
AcDbAttributeDefinition
  3

  2
HEX2
 70
     8
280
     0
  0
ATTDEF
  5
9E
330
8E
100
AcDbEntity
  8
AM_6
100
AcDbText
 10
3.235115221123027
 20
-5.78125
 30
0.0
 40
0.5
  1
baldor
100
AcDbAttributeDefinition
  3

  2
COMPANY
 70
     8
280
     0
  0
LINE
  5
A1
330
8E
100
AcDbEntity
  8
AM_9
100
AcDbLine
 10
-2.462027596707514
 20
-0.151074129835757
 30
0.0
 11
-2.473349169931391
 21
-0.1791093260592887
 31
0.0
  0
LINE
  5
A2
330
8E
100
AcDbEntity
  8
AM_9
100
AcDbLine
 10
-2.310852750669017
 20
-0.2099962668917053
 30
0.0
 11
-2.322539996888561
 21
-0.2389369657326276
 31
0.0
  0
LWPOLYLINE
  5
A3
330
8E
100
AcDbEntity
  8
AM_9
100
AcDbPolyline
 90
        3
 70
     0
 43
0.0
 10
-2.055272330868687
 20
-0.0000000000000001
 10
-2.07675000178631
 20
-0.0544416102741497
 10
-2.094698945403611
 20
-0.109375
  0
LWPOLYLINE
  5
A4
330
8E
100
AcDbEntity
  8
AM_9
100
AcDbPolyline
 90
        3
 70
     0
 43
0.0
 10
-2.094698945403611
 20
0.1093749999999999
 10
-2.076839295419688
 20
0.0546874999999999
 10
-2.055272330868687
 20
-0.0000000000000001
  0
LWPOLYLINE
  5
A5
330
8E
100
AcDbEntity
  8
AM_9
100
AcDbPolyline
 90
        3
 70
     0
 43
0.0
 10
-2.252921902246927
 20
-0.2987675689889718
 10
-2.268809186810023
 20
-0.2912216284034024
 10
-2.284019188508037
 20
-0.2813919000363599
  0
LWPOLYLINE
  5
A6
330
8E
100
AcDbEntity
  8
AM_9
100
AcDbPolyline
 90
        3
 70
     0
 43
0.0
 10
-2.008096405025167
 20
-0.1093750000000001
 10
-1.994382212162783
 20
-0.0546875000000001
 10
-1.984375333867476
 20
-0.0000000000000001
  0
LWPOLYLINE
  5
A7
330
8E
100
AcDbEntity
  8
AM_9
100
AcDbPolyline
 90
        3
 70
     0
 43
0.0
 10
-1.984375333867476
 20
-0.0000000000000001
 10
-1.99432954129675
 20
0.0544416102741495
 10
-2.008096405025167
 20
0.1093749999999999
  0
LINE
  5
A8
330
8E
100
AcDbEntity
  8
AM_9
100
AcDbLine
 10
-2.249746303135709
 20
-0.2552079744505806
 30
0.0
 11
-2.240866252935948
 21
-0.2689146070947222
 31
0.0
  0
LWPOLYLINE
  5
A9
330
8E
100
AcDbEntity
  8
AM_9
100
AcDbPolyline
 90
        3
 70
     0
 43
0.0
 10
-2.118420016561303
 20
0.2187499999999999
 10
-2.108465809132028
 20
0.1643083897258503
 10
-2.094698945403611
 20
0.1093749999999999
  0
LINE
  5
AA
330
8E
100
AcDbEntity
  8
AM_9
100
AcDbLine
 10
-2.055272330868687
 20
-0.0000000000000001
 30
0.0
 11
-1.984375333867476
 21
-0.0000000000000001
 31
0.0
  0
LWPOLYLINE
  5
AB
330
8E
100
AcDbEntity
  8
AM_9
100
AcDbPolyline
 90
        3
 70
     0
 43
0.0
 10
-2.094698945403611
 20
-0.109375
 10
-2.108413138265995
 20
-0.1640625
 10
-2.118420016561303
 20
-0.2187500000000001
  0
LINE
  5
AC
330
8E
100
AcDbEntity
  8
AM_9
100
AcDbLine
 10
-2.240866252935948
 20
-0.2689146070947222
 30
0.0
 11
-2.249892392067961
 21
-0.2648476196673993
 31
0.0
  0
LINE
  5
AD
330
8E
100
AcDbEntity
  8
AM_9
100
AcDbLine
 10
-2.240866252935948
 20
-0.2689146070947222
 30
0.0
 11
-2.25
 21
-0.2915321697013715
 31
0.0
  0
ELLIPSE
  5
AE
330
8E
100
AcDbEntity
  8
AM_9
100
AcDbEllipse
 10
-2.495203545096017
 20
-0.4687499999999999
 30
0.0
 11
-0.0959538295573177
 21
0.03874944547499738
 31
0.0
210
0.0
220
0.0
230
1.0
 40
0.2113091308703463
 41
3.040609649696543
 42
6.384168311072848
  0
ELLIPSE
  5
AF
330
8E
100
AcDbEntity
  8
AM_9
100
AcDbEllipse
 10
-2.467209882898534
 20
-0.3994303217889761
 30
0.0
 11
-0.1290248947933268
 21
0.05210467522533575
 31
0.0
210
0.0
220
0.0
230
1.0
 40
0.2113091308703507
 41
3.03683335689846
 42
5.801105639492178
  0
ELLIPSE
  5
B0
330
8E
100
AcDbEntity
  8
AM_9
100
AcDbEllipse
 10
-2.456534901421134
 20
-0.3729962569747162
 30
0.0
 11
-0.123503462562657
 21
0.04987493162728402
 31
0.0
210
0.0
220
0.0
230
1.0
 40
0.2113091308704065
 41
3.399939620554965
 42
6.024664700332987
  0
LWPOLYLINE
  5
B1
330
8E
100
AcDbEntity
  8
AM_9
100
AcDbPolyline
 90
        5
 70
     0
 43
0.0
 10
-2.473349169931391
 20
-0.1791093260592887
 10
-2.495211558430017
 20
-0.1842540823997054
 10
-2.51610764536001
 20
-0.1862220679364951
 10
-2.536025264914919
 20
-0.1844124966919381
 10
-2.554539051536182
 20
-0.1791093260592887
  0
LWPOLYLINE
  5
B2
330
8E
100
AcDbEntity
  8
AM_9
100
AcDbPolyline
 90
        5
 70
     0
 43
0.0
 10
-2.322539996888561
 20
-0.2389369657326276
 10
-2.361381285575991
 20
-0.2295338871417796
 10
-2.399516332287909
 20
-0.216687117104632
 10
-2.437135126649093
 20
-0.1996402057054678
 10
-2.473349169931391
 20
-0.1791093260592887
  0
LWPOLYLINE
  5
B3
330
8E
100
AcDbEntity
  8
AM_9
100
AcDbPolyline
 90
        3
 70
     0
 43
0.0
 10
-2.296040718689844
 20
-0.2711532636537956
 10
-2.309775896454417
 20
-0.2561815527589921
 10
-2.322539996888561
 20
-0.2389369657326276
  0
ELLIPSE
  5
B4
330
8E
100
AcDbEntity
  8
AM_9
100
AcDbEllipse
 10
-2.405533998157209
 20
-0.2467045921760119
 30
0.0
 11
-0.1303939210191687
 21
0.05265753494272451
 31
0.0
210
0.0
220
0.0
230
1.0
 40
0.2113091308703691
 41
3.806340372002444
 42
6.919181903097282
  0
LINE
  5
B5
330
8E
100
AcDbEntity
  8
AM_9
100
AcDbLine
 10
-2.039783501553406
 20
0.2000413016192557
 30
0.0
 11
-2.047523019560091
 21
0.2187499999999999
 31
0.0
  0
LWPOLYLINE
  5
B6
330
8E
100
AcDbEntity
  8
AM_9
100
AcDbPolyline
 90
        3
 70
     0
 43
0.0
 10
-2.008096405025167
 20
0.1093749999999999
 10
-2.02595605500909
 20
0.1640624999999999
 10
-2.039783501553406
 20
0.2000413016192557
  0
LWPOLYLINE
  5
B7
330
8E
100
AcDbEntity
  8
AM_9
100
AcDbPolyline
 90
        3
 70
     0
 43
0.0
 10
-2.03978337947144
 20
-0.2000409996967265
 10
-2.026045348642469
 20
-0.1643083897258505
 10
-2.008096405025167
 20
-0.1093750000000001
  0
LINE
  5
B8
330
8E
100
AcDbEntity
  8
AM_9
100
AcDbLine
 10
-2.047523019560091
 20
-0.2187500000000001
 30
0.0
 11
-2.03978337947144
 21
-0.2000409996967265
 31
0.0
  0
LINE
  5
B9
330
8E
100
AcDbEntity
  8
AM_9
100
AcDbLine
 10
-2.473162397559404
 20
-0.1204089378707286
 30
0.0
 11
-2.474247842549116
 21
-0.1230967854582223
 31
0.0
  0
LINE
  5
BA
330
8E
100
AcDbEntity
  8
AM_9
100
AcDbLine
 10
-2.268042169133529
 20
-0.2
 30
0.0
 11
-2.265373689788825
 21
-0.193392142543456
 31
0.0
  0
ELLIPSE
  5
BB
330
8E
100
AcDbEntity
  8
AM_9
100
AcDbEllipse
 10
-2.387234090618668
 20
-0.2013892028241914
 30
0.0
 11
-0.1019970226638906
 21
0.04118989399965287
 31
0.0
210
0.0
220
0.0
230
1.0
 40
0.2113091308703512
 41
3.141592653589793
 42
6.283185307179586
  0
LWPOLYLINE
  5
BC
330
8E
100
AcDbEntity
  8
AM_9
100
AcDbPolyline
 90
        4
 70
     0
 43
0.0
 10
-2.473167127214424
 20
-0.1204206514110938
 10
-2.473306293198953
 20
-0.1208367673933812
 10
-2.472728709241826
 20
-0.1245107513506023
 10
-2.470820582204601
 20
-0.1273638062991863
  0
LWPOLYLINE
  5
BD
330
8E
100
AcDbEntity
  8
AM_9
100
AcDbPolyline
 90
        5
 70
     0
 43
0.0
 10
-2.265372745587337
 20
-0.1933898041312626
 10
-2.265466081718488
 20
-0.1936098952159724
 10
-2.268681618671127
 20
-0.1971856748420371
 10
-2.274699981913909
 20
-0.1994144431868155
 10
-2.281563952494352
 20
-0.1999999999699529
  0
LWPOLYLINE
  5
BE
330
8E
100
AcDbEntity
  8
AM_9
100
AcDbPolyline
 90
        3
 70
     0
 43
0.0
 10
-2.37486108370679
 20
-0.1745741884610189
 10
-2.34747200833336
 20
-0.1876759562813858
 10
-2.310852750669017
 20
-0.2099962668917053
  0
LWPOLYLINE
  5
BF
330
8E
100
AcDbEntity
  8
AM_9
100
AcDbPolyline
 90
        3
 70
     0
 43
0.0
 10
-2.462027596707514
 20
-0.151074129835757
 10
-2.43282298920799
 20
-0.1564222384464442
 10
-2.404152490265695
 20
-0.1639312493177434
  0
LWPOLYLINE
  5
C0
330
8E
100
AcDbEntity
  8
AM_9
100
AcDbPolyline
 90
        3
 70
     0
 43
0.0
 10
-2.310852750669017
 20
-0.2099962668917053
 10
-2.293879068335494
 20
-0.2163479371246913
 10
-2.277740811151311
 20
-0.2258378743019629
  0
LWPOLYLINE
  5
C1
330
8E
100
AcDbEntity
  8
AM_9
100
AcDbPolyline
 90
        4
 70
     0
 43
0.0
 10
-2.498938477052009
 20
-0.141958509815605
 10
-2.49506335760596
 20
-0.1420496512545706
 10
-2.480574442491209
 20
-0.1441228263802214
 10
-2.462027596707514
 20
-0.151074129835757
  0
ELLIPSE
  5
C2
330
8E
100
AcDbEntity
  8
AM_9
100
AcDbEllipse
 10
-2.387234090618671
 20
-0.2013892028241883
 30
0.0
 11
-0.1303939210191758
 21
0.05265753494273418
 31
0.0
210
0.0
220
0.0
230
1.0
 40
0.2113091308703506
 41
3.814164134970078
 42
4.680068387059733
  0
ELLIPSE
  5
C3
330
8E
100
AcDbEntity
  8
AM_9
100
AcDbEllipse
 10
-2.38723409061867
 20
-0.2013892028241902
 30
0.0
 11
-0.1303939210191762
 21
0.05265753494273557
 31
0.0
210
0.0
220
0.0
230
1.0
 40
0.2113091308703568
 41
-1.284232253567248
 42
-0.6725714813802819
  0
LINE
  5
C4
330
8E
100
AcDbEntity
  8
AM_9
100
AcDbLine
 10
-2.284019188508037
 20
-0.2813919000363599
 30
0.0
 11
-2.296040718689844
 21
-0.2711532636537956
 31
0.0
  0
ELLIPSE
  5
C5
330
8E
100
AcDbEntity
  8
AM_9
100
AcDbEllipse
 10
-2.405533998157206
 20
-0.2467045921760205
 30
0.0
 11
-0.1303939210191763
 21
0.0526575349427341
 31
0.0
210
0.0
220
0.0
230
1.0
 40
0.2113091308703492
 41
2.800469246484369
 42
3.607080702195128
  0
ELLIPSE
  5
C6
330
8E
100
AcDbEntity
  8
AM_9
100
AcDbEllipse
 10
-2.405533998167761
 20
-0.2467045921643893
 30
0.0
 11
-0.1303939210339098
 21
0.05265753495294288
 31
0.0
210
0.0
220
0.0
230
1.0
 40
0.211309130889799
 41
-3.777589249500615
 42
-3.764628581853939
  0
LWPOLYLINE
  5
C7
330
8E
100
AcDbEntity
  8
AM_9
100
AcDbPolyline
 90
       17
 70
     0
 43
0.0
 10
-2.272048854939413
 20
-0.1790373738501778
 10
-2.280016320015606
 20
-0.1733931390117467
 10
-2.290772393449787
 20
-0.1670729780242511
 10
-2.303415444972231
 20
-0.1606047421316795
 10
-2.318305868118072
 20
-0.1538031670974777
 10
-2.334207744924953
 20
-0.1472336073736393
 10
-2.351568714746672
 20
-0.1407130262602576
 10
-2.368924191876916
 20
-0.1347930597680667
 10
-2.386781903461205
 20
-0.1293028157827817
 10
-2.403611664961279
 20
-0.1247141396218192
 10
-2.419928408861984
 20
-0.1208880884981781
 10
-2.434327459721818
 20
-0.1181545989145989
 10
-2.447259812587565
 20
-0.1164278875396128
 10
-2.457619540747265
 20
-0.1158549073091554
 10
-2.465729715563963
 20
-0.1164156227038168
 10
-2.470906356754804
 20
-0.1180609686233502
 10
-2.473167127214424
 20
-0.1204206514110938
  0
LWPOLYLINE
  5
C8
330
8E
100
AcDbEntity
  8
AM_9
100
AcDbPolyline
 90
        4
 70
     0
 43
0.0
 10
-2.272048854939413
 20
-0.1790373738501783
 10
-2.267094194467346
 20
-0.1842628795203941
 10
-2.264986310000602
 20
-0.1891729979031393
 10
-2.265372745587337
 20
-0.1933898041312626
  0
LINE
  5
C9
330
8E
100
AcDbEntity
  8
AM_9
100
AcDbLine
 10
-2.189420473942534
 20
0.1999999999999999
 30
0.0
 11
-2.252109775792591
 21
0.1999999999999999
 31
0.0
  0
LINE
  5
CA
330
8E
100
AcDbEntity
  8
AM_9
100
AcDbLine
 10
-2.252112419879967
 20
-0.2
 30
0.0
 11
-2.189420473942534
 21
-0.2
 31
0.0
  0
LINE
  5
CB
330
8E
100
AcDbEntity
  8
AM_9
100
AcDbLine
 10
-2.035159698893431
 20
0.1999999999999999
 30
0.0
 11
-2.10281793356409
 21
0.1999999999999999
 31
0.0
  0
LINE
  5
CC
330
8E
100
AcDbEntity
  8
AM_9
100
AcDbLine
 10
-2.10281793356409
 20
-0.2
 30
0.0
 11
-2.035159698893431
 21
-0.2
 31
0.0
  0
ELLIPSE
  5
CD
330
8E
100
AcDbEntity
  8
AM_9
100
AcDbEllipse
 10
-2.03515969889343
 20
0.0000000000000006
 30
0.0
 11
1.224646799147347E-17
 21
0.199999999999999
 31
0.0
210
0.0
220
0.0
230
1.0
 40
0.4999999999999997
 41
1.737015854075847
 42
7.706826451355225
  0
LINE
  5
CE
330
8E
100
AcDbEntity
  8
AM_9
100
AcDbLine
 10
-2.244715387946533
 20
0.2187499999999999
 30
0.0
 11
-2.047523019560091
 21
0.2187499999999999
 31
0.0
  0
LINE
  5
CF
330
8E
100
AcDbEntity
  8
AM_9
100
AcDbLine
 10
-2.250279584962129
 20
0.2053848659184845
 30
0.0
 11
-2.244715387946533
 21
0.2187499999999999
 31
0.0
  0
LINE
  5
D0
330
8E
100
AcDbEntity
  8
AM_9
100
AcDbLine
 10
-2.222275475490268
 20
0.0363115452065386
 30
0.0
 11
-2.236966076637937
 21
-0.0000000000000001
 31
0.0
  0
LWPOLYLINE
  5
D1
330
8E
100
AcDbEntity
  8
AM_9
100
AcDbPolyline
 90
        3
 70
     0
 43
0.0
 10
-2.203498349859441
 20
0.0896804762427583
 10
-2.215399112086936
 20
0.0546874999999999
 10
-2.222275475490268
 20
0.0363115452065386
  0
LINE
  5
D2
330
8E
100
AcDbEntity
  8
AM_9
100
AcDbLine
 10
-2.197539462103013
 20
0.1093749999999999
 30
0.0
 11
-2.203498349859441
 21
0.0896804762427583
 31
0.0
  0
LWPOLYLINE
  5
D3
330
8E
100
AcDbEntity
  8
AM_9
100
AcDbPolyline
 90
        3
 70
     0
 43
0.0
 10
-2.175535345206398
 20
0.2080028523665341
 10
-2.183772598374596
 20
0.1643083897258503
 10
-2.197539462103013
 20
0.1093749999999999
  0
LINE
  5
D4
330
8E
100
AcDbEntity
  8
AM_9
100
AcDbLine
 10
-2.173818390945322
 20
0.2187499999999999
 30
0.0
 11
-2.175535345206398
 21
0.2080028523665341
 31
0.0
  0
LINE
  5
D5
330
8E
100
AcDbEntity
  8
AM_9
100
AcDbLine
 10
-2.25
 20
-0.0000000000000001
 30
0.0
 11
-2.236966076637937
 21
-0.0000000000000001
 31
0.0
  0
LINE
  5
D6
330
8E
100
AcDbEntity
  8
AM_9
100
AcDbLine
 10
-2.244715387946533
 20
-0.2187500000000001
 30
0.0
 11
-2.250277717510961
 21
-0.2053894228280123
 31
0.0
  0
LINE
  5
D7
330
8E
100
AcDbEntity
  8
AM_9
100
AcDbLine
 10
-2.244715387946533
 20
-0.2187500000000001
 30
0.0
 11
-2.047523019560091
 21
-0.2187500000000001
 31
0.0
  0
LINE
  5
D8
330
8E
100
AcDbEntity
  8
AM_9
100
AcDbLine
 10
-2.175907460973278
 20
-0.2057618846587687
 30
0.0
 11
-2.173818390945322
 21
-0.2187500000000001
 31
0.0
  0
LWPOLYLINE
  5
D9
330
8E
100
AcDbEntity
  8
AM_9
100
AcDbPolyline
 90
        3
 70
     0
 43
0.0
 10
-2.197539462103013
 20
-0.109375
 10
-2.183825269240629
 20
-0.1640625
 10
-2.175907460973278
 20
-0.2057618846587687
  0
LWPOLYLINE
  5
DA
330
8E
100
AcDbEntity
  8
AM_9
100
AcDbPolyline
 90
        3
 70
     0
 43
0.0
 10
-2.222325873034575
 20
-0.0361806999838377
 10
-2.215488405720314
 20
-0.0544416102741496
 10
-2.197539462103013
 20
-0.109375
  0
LINE
  5
DB
330
8E
100
AcDbEntity
  8
AM_9
100
AcDbLine
 10
-2.236966076637937
 20
-0.0000000000000001
 30
0.0
 11
-2.222325873034575
 21
-0.0361806999838377
 31
0.0
  0
LINE
  5
DC
330
8E
100
AcDbEntity
  8
AM_9
100
AcDbLine
 10
-1.864615081271028
 20
0.1853871066562612
 30
0.0
 11
-2.033431970955097
 21
0.1914800577488989
 31
0.0
  0
LINE
  5
DD
330
8E
100
AcDbEntity
  8
AM_9
100
AcDbLine
 10
-2.033431970955097
 20
-0.191480057748899
 30
0.0
 11
-1.864615081271028
 21
-0.1853871066562613
 31
0.0
  0
LINE
  5
DE
330
8E
100
AcDbEntity
  8
AM_9
100
AcDbLine
 10
-1.799048343988878
 20
0.1319978794387896
 30
0.0
 11
-1.812762471047946
 21
0.1513925839218323
 31
0.0
  0
LINE
  5
DF
330
8E
100
AcDbEntity
  8
AM_9
100
AcDbLine
 10
-1.812762471047946
 20
-0.1513925839218325
 30
0.0
 11
-1.799048343988878
 21
-0.1319978794387897
 31
0.0
  0
ELLIPSE
  5
E0
330
8E
100
AcDbEntity
  8
AM_9
100
AcDbEllipse
 10
-2.189420473942535
 20
0.0000000000000001
 30
0.0
 11
1.339457436567418E-17
 21
0.2187500000000001
 31
0.0
210
0.0
220
0.0
230
1.0
 40
0.4999999999999979
 41
0.0
 42
6.283185307179586
  0
ELLIPSE
  5
E1
330
8E
100
AcDbEntity
  8
AM_9
100
AcDbEllipse
 10
-2.189420473942534
 20
0.0000000000000003
 30
0.0
 11
1.224646799147355E-17
 21
0.2000000000000004
 31
0.0
210
0.0
220
0.0
230
1.0
 40
0.4999999999999996
 41
0.0
 42
6.283185307179586
  0
ELLIPSE
  5
E2
330
8E
100
AcDbEntity
  8
AM_9
100
AcDbEllipse
 10
-2.10281793356409
 20
-0.0000000000000004
 30
0.0
 11
1.339457436567416E-17
 21
0.2187499999999997
 31
0.0
210
0.0
220
0.0
230
1.0
 40
0.4999999999999998
 41
0.0
 42
6.283185307179586
  0
ELLIPSE
  5
E3
330
8E
100
AcDbEntity
  8
AM_9
100
AcDbEllipse
 10
-2.10281793356409
 20
-0.0000000000000001
 30
0.0
 11
1.224646799147352E-17
 21
0.1999999999999998
 31
0.0
210
0.0
220
0.0
230
1.0
 40
0.4999999999999987
 41
0.0
 42
6.283185307179586
  0
ELLIPSE
  5
E4
330
8E
100
AcDbEntity
  8
AM_9
100
AcDbEllipse
 10
-2.03515969889343
 20
-0.0000000000000005
 30
0.0
 11
1.172668097677216E-17
 21
0.191511233850229
 31
0.0
210
0.0
220
0.0
230
1.0
 40
0.4999999999999992
 41
0.0
 42
6.283185307179586
  0
ELLIPSE
  5
E5
330
8E
100
AcDbEntity
  8
AM_9
100
AcDbEllipse
 10
-1.866287832404187
 20
-0.0000000000000002
 30
0.0
 11
1.135353457964638E-17
 21
0.1854172907249854
 31
0.0
210
0.0
220
0.0
230
1.0
 40
0.4999999999999993
 41
0.0
 42
6.283185307179586
  0
ELLIPSE
  5
E6
330
8E
100
AcDbEntity
  8
AM_9
100
AcDbEllipse
 10
-1.845716641815585
 20
-0.0000000000000004
 30
0.0
 11
9.899048221688900E-18
 21
0.1616637258772244
 31
0.0
210
0.0
220
0.0
230
1.0
 40
0.4999999999999973
 41
0.0
 42
6.283185307179586
  0
LWPOLYLINE
  5
E8
330
8E
100
AcDbEntity
  8
AM_4
100
AcDbPolyline
 90
        3
 70
     0
 43
0.0
 10
-2.265719280969503
 20
-0.2360765106845277
 10
-2.256554294392946
 20
-0.2462091938631851
 10
-2.249746303135709
 20
-0.2552079744505806
  0
LWPOLYLINE
  5
E9
330
8E
100
AcDbEntity
  8
AM_4
100
AcDbPolyline
 90
        3
 70
     0
 43
0.0
 10
-2.249892392067961
 20
-0.2648476196673993
 10
-2.253862140785559
 20
-0.2634308483997528
 10
-2.2680760408998
 20
-0.2602304684431305
  0
LWPOLYLINE
  5
EA
330
8E
100
AcDbEntity
  8
AM_4
100
AcDbPolyline
 90
        3
 70
     0
 43
0.0
 10
-2.286375948438334
 20
-0.3055458577949631
 10
-2.269993993819356
 20
-0.3030753670497808
 10
-2.252921902246927
 20
-0.2987675689889718
  0
LINE
  5
EB
330
8E
100
AcDbEntity
  8
AM_4
100
AcDbLine
 10
-2.25
 20
-0.2915321697013715
 30
0.0
 11
-2.252921902246927
 21
-0.2987675689889718
 31
0.0
  0
LINE
  5
EC
330
8E
100
AcDbEntity
  8
AM_4
100
AcDbLine
 10
-2.400564003224671
 20
-0.5093460834378319
 30
0.0
 11
-2.339952252957408
 21
-0.4540180898723598
 31
0.0
  0
LINE
  5
ED
330
8E
100
AcDbEntity
  8
AM_4
100
AcDbLine
 10
-2.596687420257282
 20
-0.3503396289636352
 30
0.0
 11
-2.591493997966552
 21
-0.4322420068738781
 31
0.0
  0
ELLIPSE
  5
EE
330
8E
100
AcDbEntity
  8
AM_4
100
AcDbEllipse
 10
-2.495203545096017
 20
-0.4687500000000001
 30
0.0
 11
-0.0959538295573177
 21
0.03874944547499708
 31
0.0
210
0.0
220
0.0
230
1.0
 40
0.2113091308703565
 41
0.1009830038932407
 42
3.040609649696542
  0
LINE
  5
EF
330
8E
100
AcDbEntity
  8
AM_4
100
AcDbLine
 10
-2.543217478312305
 20
-0.151074129835757
 30
0.0
 11
-2.554539051536182
 21
-0.1791093260592887
 31
0.0
  0
LWPOLYLINE
  5
F0
330
8E
100
AcDbEntity
  8
AM_4
100
AcDbPolyline
 90
        9
 70
     0
 43
0.0
 10
-2.572540834853486
 20
-0.3178864697163596
 10
-2.574631162907662
 20
-0.3185677209909695
 10
-2.580400017327474
 20
-0.3211570025869229
 10
-2.585585057479151
 20
-0.3246918180508047
 10
-2.590056619029373
 20
-0.3292301752108746
 10
-2.593552374153322
 20
-0.3346831089856294
 10
-2.595936864459497
 20
-0.3412746522449847
 10
-2.596746545896025
 20
-0.3477948408324451
 10
-2.596641786787573
 20
-0.350962983034821
  0
LWPOLYLINE
  5
F1
330
8E
100
AcDbEntity
  8
AM_4
100
AcDbPolyline
 90
        9
 70
     0
 43
0.0
 10
-2.340314149136935
 20
-0.454343433733615
 10
-2.337218461138974
 20
-0.4511917368227368
 10
-2.333565458071555
 20
-0.4458585092780457
 10
-2.330962564805747
 20
-0.4392870816512162
 10
-2.329964035820946
 20
-0.4327316936865562
 10
-2.330306083400713
 20
-0.426523776089378
 10
-2.331721303866317
 20
-0.4207300636250416
 10
-2.33405366429278
 20
-0.4152618269646509
 10
-2.33477932541358
 20
-0.4139190391978133
  0
ELLIPSE
  5
F2
330
8E
100
AcDbEntity
  8
AM_4
100
AcDbEllipse
 10
-2.467209882898534
 20
-0.399430321788976
 30
0.0
 11
-0.1290248947933272
 21
0.05210467522533585
 31
0.0
210
0.0
220
0.0
230
1.0
 40
0.2113091308703519
 41
0.1058554024256306
 42
3.03683335689846
  0
LWPOLYLINE
  5
F3
330
8E
100
AcDbEntity
  8
AM_4
100
AcDbPolyline
 90
        3
 70
     0
 43
0.0
 10
-2.334111783851718
 20
-0.2987675689889718
 10
-2.320578518351328
 20
-0.3030606061861223
 10
-2.307019233726343
 20
-0.305456396233367
  0
ELLIPSE
  5
F4
330
8E
100
AcDbEntity
  8
AM_4
100
AcDbEllipse
 10
-2.405533998157206
 20
-0.2467045921760189
 30
0.0
 11
-0.1303939210191789
 21
0.05265753494273556
 31
0.0
210
0.0
220
0.0
230
1.0
 40
0.2113091308703514
 41
1.711945269609645
 42
2.5055960576721
  0
LWPOLYLINE
  5
F5
330
8E
100
AcDbEntity
  8
AM_4
100
AcDbPolyline
 90
        4
 70
     0
 43
0.0
 10
-2.554539051536182
 20
-0.1791093260592887
 10
-2.539661933493106
 20
-0.1988355121406939
 10
-2.523232661250431
 20
-0.2156330920108724
 10
-2.517735642639089
 20
-0.2201680623457971
  0
LWPOLYLINE
  5
F6
330
8E
100
AcDbEntity
  8
AM_4
100
AcDbPolyline
 90
        3
 70
     0
 43
0.0
 10
-2.517735642639089
 20
-0.2201680623457971
 10
-2.504795121040461
 20
-0.2290462109660021
 10
-2.484919760098145
 20
-0.2389369657326275
  0
LWPOLYLINE
  5
F7
330
8E
100
AcDbEntity
  8
AM_4
100
AcDbPolyline
 90
        3
 70
     0
 43
0.0
 10
-2.287832440853068
 20
-0.2602304684431209
 10
-2.297081076266962
 20
-0.2616913382589203
 10
-2.322056134540739
 20
-0.2689146070947222
  0
LINE
  5
F8
330
8E
100
AcDbEntity
  8
AM_4
100
AcDbLine
 10
-2.474247842549116
 20
-0.1230967854582223
 30
0.0
 11
-2.489231113282558
 21
-0.1601993088245384
 31
0.0
  0
LINE
  5
F9
330
8E
100
AcDbEntity
  8
AM_4
100
AcDbLine
 10
-2.285237067954783
 20
-0.2425790968238377
 30
0.0
 11
-2.268042169133529
 21
-0.2
 31
0.0
  0
ELLIPSE
  5
FA
330
8E
100
AcDbEntity
  8
AM_4
100
AcDbEllipse
 10
-2.38723409061867
 20
-0.201389202824188
 30
0.0
 11
-0.1019970226638876
 21
0.04118989399964953
 31
0.0
210
0.0
220
0.0
230
1.0
 40
0.2113091308703504
 41
0.0
 42
3.141592653589793
  0
LWPOLYLINE
  5
FB
330
8E
100
AcDbEntity
  8
AM_4
100
AcDbPolyline
 90
        4
 70
     0
 43
0.0
 10
-2.543217478312305
 20
-0.151074129835757
 10
-2.526601636324776
 20
-0.145877822676052
 10
-2.510547023669643
 20
-0.1427138007556462
 10
-2.498938477052009
 20
-0.141958509815605
  0
LWPOLYLINE
  5
FC
330
8E
100
AcDbEntity
  8
AM_4
100
AcDbPolyline
 90
        6
 70
     0
 43
0.0
 10
-2.473232513878599
 20
-0.2099962668917053
 10
-2.483541650235928
 20
-0.1943573015029059
 10
-2.494885477070139
 20
-0.1805491420332303
 10
-2.507599451646946
 20
-0.1688997677199809
 10
-2.521495377836637
 20
-0.1598729403210871
 10
-2.543217478312305
 20
-0.151074129835757
  0
LINE
  5
FD
330
8E
100
AcDbEntity
  8
AM_4
100
AcDbLine
 10
-2.497608623509179
 20
-0.1419585097669023
 30
0.0
 11
-2.499047100157333
 21
-0.1419585097669023
 31
0.0
  0
ELLIPSE
  5
FE
330
8E
100
AcDbEntity
  8
AM_4
100
AcDbEllipse
 10
-2.387234090618651
 20
-0.2013892028242051
 30
0.0
 11
-0.1303939210192011
 21
0.05265753494274877
 31
0.0
210
0.0
220
0.0
230
1.0
 40
0.2113091308703706
 41
5.610613825799325
 42
7.795870906981325
  0
ELLIPSE
  5
FF
330
8E
100
AcDbEntity
  8
AM_4
100
AcDbEllipse
 10
-2.405533998157205
 20
-0.2467045921760216
 30
0.0
 11
-0.1303939210191732
 21
0.05265753494273378
 31
0.0
210
0.0
220
0.0
230
1.0
 40
0.2113091308703451
 41
0.6359965959176757
 42
1.512685599801939
  0
LWPOLYLINE
  5
100
330
8E
100
AcDbEntity
  8
AM_4
100
AcDbPolyline
 90
        3
 70
     0
 43
0.0
 10
-2.306132348391603
 20
-0.3055458577949631
 10
-2.296682149505294
 20
-0.3064767622622302
 10
-2.286375948438334
 20
-0.3055458577949631
  0
LWPOLYLINE
  5
101
330
8E
100
AcDbEntity
  8
AM_4
100
AcDbPolyline
 90
       18
 70
     0
 43
0.0
 10
-2.334321331857541
 20
-0.4147456527121762
 10
-2.334505196574002
 20
-0.4143847651668989
 10
-2.336994126798026
 20
-0.4088189100818586
 10
-2.339333078319378
 20
-0.4018046811774252
 10
-2.341140005424854
 20
-0.3934306125376164
 10
-2.342030979484699
 20
-0.3839897234358284
 10
-2.341720114377397
 20
-0.3738977131723151
 10
-2.340057930965091
 20
-0.3635723803525732
 10
-2.336667687810766
 20
-0.3524750499435554
 10
-2.331875536530504
 20
-0.3422445639794461
 10
-2.325979345073646
 20
-0.3331503080188966
 10
-2.319299048352331
 20
-0.3253337072999162
 10
-2.312191732583061
 20
-0.3188777421240702
 10
-2.305067765834943
 20
-0.3138133578820078
 10
-2.298365992902637
 20
-0.3100914619613501
 10
-2.292469845153742
 20
-0.3075578343619567
 10
-2.287622797579888
 20
-0.3059755301682667
 10
-2.284517492447443
 20
-0.3052097904583466
  0
LWPOLYLINE
  5
102
330
8E
100
AcDbEntity
  8
AM_4
100
AcDbPolyline
 90
       18
 70
     0
 43
0.0
 10
-2.533105871221389
 20
-0.2049681280269074
 10
-2.532440646585353
 20
-0.2059928807486013
 10
-2.530159765615221
 20
-0.2099594399263361
 10
-2.527678013711467
 20
-0.2152893299369452
 10
-2.52528935438899
 20
-0.2220644931169745
 10
-2.523366524090816
 20
-0.2302285162802441
 10
-2.522300599285733
 20
-0.2395199052256896
 10
-2.522398587910231
 20
-0.2495339928689248
 10
-2.523832023882871
 20
-0.2598475717910561
 10
-2.526992481902716
 20
-0.2710462955724709
 10
-2.531594622566423
 20
-0.2814289560637391
 10
-2.537346303426491
 20
-0.2907035408648198
 10
-2.543931283733829
 20
-0.2987166673929596
 10
-2.55099974223219
 20
-0.3053786349133819
 10
-2.558149018706579
 20
-0.310649411600791
 10
-2.564940487018431
 20
-0.3145639964345531
 10
-2.570975860799968
 20
-0.3172608677617698
 10
-2.573568934488621
 20
-0.3182046137696293
  0
ELLIPSE
  5
103
330
8E
100
AcDbEntity
  8
AM_4
100
AcDbEllipse
 10
-2.456534901421189
 20
-0.3729962569746642
 30
0.0
 11
-0.1235034625625957
 21
0.04987493162723568
 31
0.0
210
0.0
220
0.0
230
1.0
 40
0.2113091308703472
 41
6.042040072769878
 42
9.664813883252872
  0
ELLIPSE
  5
104
330
8E
100
AcDbEntity
  8
AM_4
100
AcDbEllipse
 10
-2.387234090618672
 20
-0.2013892028241877
 30
0.0
 11
-0.1303939210191825
 21
0.0526575349427209
 31
0.0
210
0.0
220
0.0
230
1.0
 40
0.2113091308703621
 41
1.711945269609619
 42
2.518556725320344
  0
LINE
  5
105
330
8E
100
AcDbEntity
  8
AM_4
100
AcDbLine
 10
-2.2680760408998
 20
-0.2602304684431305
 30
0.0
 11
-2.287832440853068
 21
-0.2602304684431209
 31
0.0
  0
ELLIPSE
  5
106
330
8E
100
AcDbEntity
  8
AM_4
100
AcDbEllipse
 10
-2.38723409061867
 20
-0.2013892028241887
 30
0.0
 11
-0.130393921019174
 21
0.05265753494273332
 31
0.0
210
0.0
220
0.0
230
1.0
 40
0.2113091308703505
 41
2.800469246484359
 42
3.607080702195122
  0
LINE
  5
107
330
8E
100
AcDbEntity
  8
AM_4
100
AcDbLine
 10
-2.277740811151311
 20
-0.2258378743019629
 30
0.0
 11
-2.265719280969503
 21
-0.2360765106845277
 31
0.0
  0
LWPOLYLINE
  5
108
330
8E
100
AcDbEntity
  8
AM_4
100
AcDbPolyline
 90
        3
 70
     0
 43
0.0
 10
-2.322056134540739
 20
-0.2689146070947222
 10
-2.350118434509584
 20
-0.251275593729576
 10
-2.37990653934757
 20
-0.2360765106845275
  0
LINE
  5
109
330
8E
100
AcDbEntity
  8
AM_4
100
AcDbLine
 10
-2.37990653934757
 20
-0.2360765106845275
 30
0.0
 11
-2.405915348373554
 21
-0.2258378743019627
 31
0.0
  0
LWPOLYLINE
  5
10A
330
8E
100
AcDbEntity
  8
AM_4
100
AcDbPolyline
 90
        3
 70
     0
 43
0.0
 10
-2.405915348373554
 20
-0.2258378743019627
 10
-2.428905383065794
 20
-0.2189176876709014
 10
-2.473232513878599
 20
-0.2099962668917053
  0
LINE
  5
10B
330
8E
100
AcDbEntity
  8
AM_4
100
AcDbLine
 10
-2.473232513878599
 20
-0.2099962668917053
 30
0.0
 11
-2.484919760098144
 21
-0.2389369657326276
 31
0.0
  0
LWPOLYLINE
  5
10C
330
8E
100
AcDbEntity
  8
AM_4
100
AcDbPolyline
 90
        3
 70
     0
 43
0.0
 10
-2.484919760098144
 20
-0.2389369657326276
 10
-2.455239938864342
 20
-0.2560939713202353
 10
-2.424215255912086
 20
-0.2711532636537956
  0
LINE
  5
10D
330
8E
100
AcDbEntity
  8
AM_4
100
AcDbLine
 10
-2.424215255912086
 20
-0.2711532636537956
 30
0.0
 11
-2.398206446886104
 21
-0.2813919000363599
 31
0.0
  0
LWPOLYLINE
  5
10E
330
8E
100
AcDbEntity
  8
AM_4
100
AcDbPolyline
 90
        3
 70
     0
 43
0.0
 10
-2.398206446886104
 20
-0.2813919000363599
 10
-2.366555896032079
 20
-0.2911775952746243
 10
-2.334111783851718
 20
-0.2987675689889718
  0
LINE
  5
10F
330
8E
100
AcDbEntity
  8
AM_4
100
AcDbLine
 10
-2.322056134540739
 20
-0.2689146070947222
 30
0.0
 11
-2.334111783851718
 21
-0.2987675689889718
 31
0.0
  0
ARC
  5
110
330
8E
100
AcDbEntity
  8
AM_4
100
AcDbCircle
 10
-2.316617955123376
 20
0.0000000000000013
 30
0.0
 40
0.1999999999999987
100
AcDbArc
 50
90.0
 51
219.6397284479845
  0
LWPOLYLINE
  5
111
330
8E
100
AcDbEntity
  8
AM_4
100
AcDbPolyline
 90
       10
 70
     0
 43
0.0
 10
-2.470820582204601
 20
-0.1273638062991863
 10
-2.469157005432702
 20
-0.1291842652280562
 10
-2.462879458165039
 20
-0.1344729790611519
 10
-2.453721859102318
 20
-0.1405186270901959
 10
-2.442425669940306
 20
-0.1468270783017121
 10
-2.428684518799557
 20
-0.1535654953592165
 10
-2.413623029060075
 20
-0.1601799433259583
 10
-2.396829606240415
 20
-0.1668493358980661
 10
-2.37943027008642
 20
-0.1731116383367606
 10
-2.361187055307316
 20
-0.1790373738502114
  0
ELLIPSE
  5
112
330
8E
100
AcDbEntity
  8
AM_4
100
AcDbEllipse
 10
-2.316617955123374
 20
0.0
 30
0.0
 11
1.224646799147352E-17
 21
0.1999999999999998
 31
0.0
210
0.0
220
0.0
230
1.0
 40
0.5000000000000009
 41
0.0
 42
2.67964663302283
  0
LINE
  5
113
330
8E
100
AcDbEntity
  8
AM_4
100
AcDbLine
 10
-2.252109775792591
 20
0.1999999999999999
 30
0.0
 11
-2.316617955123374
 21
0.1999999999999999
 31
0.0
  0
LINE
  5
114
330
8E
100
AcDbEntity
  8
AM_4
100
AcDbLine
 10
-2.28171173672126
 20
-0.2
 30
0.0
 11
-2.252112419879967
 21
-0.2
 31
0.0
  0
LWPOLYLINE
  5
115
330
8E
100
AcDbEntity
  8
AM_4
100
AcDbPolyline
 90
        8
 70
     0
 43
0.0
 10
-2.281563952494352
 20
-0.1999999999699529
 10
-2.283051069733656
 20
-0.1999786710855128
 10
-2.293924670210405
 20
-0.1988321115509053
 10
-2.306322991924387
 20
-0.1961649429984259
 10
-2.320746422290379
 20
-0.1920694300574958
 10
-2.336259402151197
 20
-0.1870948030566195
 10
-2.353352805938167
 20
-0.181500594761393
 10
-2.361187055307334
 20
-0.1790373738501783
  0
LWPOLYLINE
  5
116
330
8E
100
AcDbEntity
  8
AM_4
100
AcDbPolyline
 90
        3
 70
     0
 43
0.0
 10
-2.284142002481457
 20
0.1093749999999999
 10
-2.266282352497533
 20
0.1640624999999999
 10
-2.250279584962129
 20
0.2053848659184845
  0
LWPOLYLINE
  5
117
330
8E
100
AcDbEntity
  8
AM_4
100
AcDbPolyline
 90
        3
 70
     0
 43
0.0
 10
-2.307863073639148
 20
-0.0000000000000001
 10
-2.297908866209874
 20
0.0544416102741495
 10
-2.284142002481457
 20
0.1093749999999999
  0
LINE
  5
118
330
8E
100
AcDbEntity
  8
AM_4
100
AcDbLine
 10
-2.307863073639148
 20
-0.0000000000000001
 30
0.0
 11
-2.25
 21
-0.0000000000000001
 31
0.0
  0
LWPOLYLINE
  5
119
330
8E
100
AcDbEntity
  8
AM_4
100
AcDbPolyline
 90
        3
 70
     0
 43
0.0
 10
-2.284142002481457
 20
-0.109375
 10
-2.297856195343841
 20
-0.0546875
 10
-2.307863073639148
 20
-0.0000000000000001
  0
LWPOLYLINE
  5
11A
330
8E
100
AcDbEntity
  8
AM_4
100
AcDbPolyline
 90
        3
 70
     0
 43
0.0
 10
-2.250277717510961
 20
-0.2053894228280123
 10
-2.266193058864156
 20
-0.1643083897258504
 10
-2.284142002481457
 20
-0.109375
  0
ENDBLK
  5
91
330
8E
100
AcDbEntity
  8
0
100
AcDbBlockEnd
  0
BLOCK
  5
11D
330
11B
100
AcDbEntity
  8
0
100
AcDbBlockBegin
  2
3_129523I_0_in_136146_4
 70
     2
 10
0.0
 20
0.0
 30
0.0
  3
3_129523I_0_in_136146_4
  1

  0
ATTDEF
  5
11F
330
11B
100
AcDbEntity
  8
AM_6
100
AcDbText
 10
6.771512852384941
 20
0.567
 30
0.0
 40
0.5
  1
INS-GT B
100
AcDbAttributeDefinition
  3

  2
NN
 70
     8
280
     0
  0
ATTDEF
  5
120
330
11B
100
AcDbEntity
  8
AM_6
100
AcDbText
 10
6.771512852384941
 20
0.0669999999999999
 30
0.0
 40
0.5
  1
GT Normal Duty Bearing Inserts
100
AcDbAttributeDefinition
  3

  2
NT
 70
     8
280
     0
  0
ATTDEF
  5
121
330
11B
100
AcDbEntity
  8
AM_6
100
AcDbText
 10
6.771512852384941
 20
-0.4330000000000001
 30
0.0
 40
0.5
  1
129523I
100
AcDbAttributeDefinition
  3

  2
NB
 70
     8
280
     0
  0
ATTDEF
  5
122
330
11B
100
AcDbEntity
  8
AM_6
100
AcDbText
 10
6.771512852384941
 20
-0.933
 30
0.0
 40
0.5
  1
$PN.I
100
AcDbAttributeDefinition
  3

  2
NBSYN
 70
     8
280
     0
  0
ATTDEF
  5
123
330
11B
100
AcDbEntity
  8
AM_6
100
AcDbText
 10
6.771512852384941
 20
-1.433
 30
0.0
 40
0.5
  1
129523
100
AcDbAttributeDefinition
  3

  2
LINA
 70
     8
280
     0
  0
ATTDEF
  5
124
330
11B
100
AcDbEntity
  8
AM_6
100
AcDbText
 10
6.771512852384941
 20
-1.933
 30
0.0
 40
0.5
  1
210
100
AcDbAttributeDefinition
  3

  2
SERIES
 70
     8
280
     0
  0
ATTDEF
  5
125
330
11B
100
AcDbEntity
  8
AM_6
100
AcDbText
 10
6.771512852384941
 20
-2.433
 30
0.0
 40
0.5
  1
129523
100
AcDbAttributeDefinition
  3

  2
PN
 70
     8
280
     0
  0
ATTDEF
  5
126
330
11B
100
AcDbEntity
  8
AM_6
100
AcDbText
 10
6.771512852384941
 20
-2.933
 30
0.0
 40
0.5
  1
INS-GT-10
100
AcDbAttributeDefinition
  3

  2
DESCRIPTION
 70
     8
280
     0
  0
ATTDEF
  5
127
330
11B
100
AcDbEntity
  8
AM_6
100
AcDbText
 10
6.771512852384941
 20
-3.433
 30
0.0
 40
0.5
  1
1.86
100
AcDbAttributeDefinition
  3

  2
A
 70
     8
280
     0
  0
ATTDEF
  5
128
330
11B
100
AcDbEntity
  8
AM_6
100
AcDbText
 10
6.771512852384941
 20
-3.933
 30
0.0
 40
0.5
  1
0.87
100
AcDbAttributeDefinition
  3

  2
C
 70
     8
280
     0
  0
ATTDEF
  5
129
330
11B
100
AcDbEntity
  8
AM_6
100
AcDbText
 10
6.771512852384941
 20
-4.433
 30
0.0
 40
0.5
  1
3.5433
100
AcDbAttributeDefinition
  3

  2
D
 70
     8
280
     0
  0
ATTDEF
  5
12A
330
11B
100
AcDbEntity
  8
AM_6
100
AcDbText
 10
6.771512852384941
 20
-4.933
 30
0.0
 40
0.5
  1
0.25
100
AcDbAttributeDefinition
  3

  2
J
 70
     8
280
     0
  0
ATTDEF
  5
12B
330
11B
100
AcDbEntity
  8
AM_6
100
AcDbText
 10
6.771512852384941
 20
-5.433
 30
0.0
 40
0.5
  1
3.13
100
AcDbAttributeDefinition
  3

  2
L
 70
     8
280
     0
  0
ATTDEF
  5
12C
330
11B
100
AcDbEntity
  8
AM_6
100
AcDbText
 10
6.771512852384941
 20
-5.933
 30
0.0
 40
0.5
  1
#10 - 32 x 1/4
100
AcDbAttributeDefinition
  3

  2
N
 70
     8
280
     0
  0
ATTDEF
  5
12D
330
11B
100
AcDbEntity
  8
AM_6
100
AcDbText
 10
6.771512852384941
 20
-6.433
 30
0.0
 40
0.5
  1
0.63000
100
AcDbAttributeDefinition
  3

  2
W
 70
     8
280
     0
  0
ATTDEF
  5
12E
330
11B
100
AcDbEntity
  8
AM_6
100
AcDbText
 10
6.771512852384941
 20
-6.933
 30
0.0
 40
0.5
  1
1.26
100
AcDbAttributeDefinition
  3

  2
X
 70
     8
280
     0
  0
ATTDEF
  5
12F
330
11B
100
AcDbEntity
  8
AM_6
100
AcDbText
 10
6.771512852384941
 20
-7.433
 30
0.0
 40
0.5
  1
1.23
100
AcDbAttributeDefinition
  3

  2
Y
 70
     8
280
     0
  0
ATTDEF
  5
130
330
11B
100
AcDbEntity
  8
AM_6
100
AcDbText
 10
6.771512852384941
 20
-7.933
 30
0.0
 40
0.5
  1
baldor
100
AcDbAttributeDefinition
  3

  2
COMPANY
 70
     8
280
     0
  0
LINE
  5
131
330
11B
100
AcDbEntity
  8
AM_9
100
AcDbLine
 10
1.167539593111111
 20
-0.9449991998983996
 30
0.0
 11
1.167539593111111
 21
-0.4724991998983998
 31
0.0
  0
LINE
  5
132
330
11B
100
AcDbEntity
  8
AM_9
100
AcDbLine
 10
-1.167539593111111
 20
-0.4724991998983998
 30
0.0
 11
-1.167539593111111
 21
-0.9449991998983996
 31
0.0
  0
LINE
  5
133
330
11B
100
AcDbEntity
  8
AM_9
100
AcDbLine
 10
-1.167539593111111
 20
-0.4724991998983998
 30
0.0
 11
1.167539593111111
 21
-0.4724991998983998
 31
0.0
  0
LINE
  5
134
330
11B
100
AcDbEntity
  8
AM_9
100
AcDbLine
 10
1.167539593111111
 20
-0.4724991998983998
 30
0.0
 11
1.203839705057619
 21
0.5669999999999998
 31
0.0
  0
LINE
  5
135
330
11B
100
AcDbEntity
  8
AM_9
100
AcDbLine
 10
-1.203839705057619
 20
0.5669999999999998
 30
0.0
 11
-1.167539593111111
 21
-0.4724991998983998
 31
0.0
  0
LINE
  5
136
330
11B
100
AcDbEntity
  8
AM_9
100
AcDbLine
 10
1.279325352111111
 20
-0.7874991998983998
 30
0.0
 11
1.279325352111111
 21
-0.6299991998983996
 31
0.0
  0
LINE
  5
137
330
11B
100
AcDbEntity
  8
AM_9
100
AcDbLine
 10
-1.279325352111111
 20
-0.6299991998983996
 30
0.0
 11
-1.279325352111111
 21
-0.7874991998983998
 31
0.0
  0
LINE
  5
138
330
11B
100
AcDbEntity
  8
AM_9
100
AcDbLine
 10
-1.356311111111111
 20
0.567
 30
0.0
 11
1.356311111111111
 21
0.567
 31
0.0
  0
LINE
  5
139
330
11B
100
AcDbEntity
  8
AM_9
100
AcDbLine
 10
-1.356311111111111
 20
0.567
 30
0.0
 11
-1.391111111111111
 21
0.5322
 31
0.0
  0
LINE
  5
13A
330
11B
100
AcDbEntity
  8
AM_9
100
AcDbLine
 10
1.391111111111111
 20
0.5322
 30
0.0
 11
1.356311111111111
 21
0.567
 31
0.0
  0
LINE
  5
13B
330
11B
100
AcDbEntity
  8
AM_9
100
AcDbLine
 10
1.391111111111111
 20
-0.6299991998983996
 30
0.0
 11
1.391111111111111
 21
-0.4349999999999999
 31
0.0
  0
LINE
  5
13C
330
11B
100
AcDbEntity
  8
AM_9
100
AcDbLine
 10
-1.391111111111111
 20
-0.4349999999999999
 30
0.0
 11
-1.391111111111111
 21
-0.6299991998983996
 31
0.0
  0
LINE
  5
13D
330
11B
100
AcDbEntity
  8
AM_9
100
AcDbLine
 10
-1.391111111111111
 20
-0.6299991998983996
 30
0.0
 11
1.391111111111111
 21
-0.6299991998983996
 31
0.0
  0
LINE
  5
13E
330
11B
100
AcDbEntity
  8
AM_9
100
AcDbLine
 10
1.356311111111111
 20
-0.9449991998983996
 30
0.0
 11
1.391111111111111
 21
-0.9101991998983998
 31
0.0
  0
LINE
  5
13F
330
11B
100
AcDbEntity
  8
AM_9
100
AcDbLine
 10
-1.391111111111111
 20
-0.9101991998983998
 30
0.0
 11
-1.356311111111111
 21
-0.9449991998983996
 31
0.0
  0
LINE
  5
140
330
11B
100
AcDbEntity
  8
AM_9
100
AcDbLine
 10
-1.356311111111111
 20
-0.9449991998983996
 30
0.0
 11
1.356311111111111
 21
-0.9449991998983996
 31
0.0
  0
LINE
  5
141
330
11B
100
AcDbEntity
  8
AM_9
100
AcDbLine
 10
-1.391111111111111
 20
0.5322
 30
0.0
 11
1.391111111111111
 21
0.5322
 31
0.0
  0
LINE
  5
142
330
11B
100
AcDbEntity
  8
AM_9
100
AcDbLine
 10
1.391111111111111
 20
0.435
 30
0.0
 11
1.391111111111111
 21
0.5322
 31
0.0
  0
LINE
  5
143
330
11B
100
AcDbEntity
  8
AM_9
100
AcDbLine
 10
-1.391111111111111
 20
0.5322
 30
0.0
 11
-1.391111111111111
 21
0.435
 31
0.0
  0
LINE
  5
144
330
11B
100
AcDbEntity
  8
AM_9
100
AcDbLine
 10
-0.6243659781269819
 20
-0.9101991998983997
 30
0.0
 11
1.391111111111111
 21
-0.9101991998983998
 31
0.0
  0
LINE
  5
145
330
11B
100
AcDbEntity
  8
AM_9
100
AcDbLine
 10
-0.6243659781269812
 20
-0.7874991998983997
 30
0.0
 11
1.391111111111111
 21
-0.7874991998983998
 31
0.0
  0
LINE
  5
146
330
11B
100
AcDbEntity
  8
AM_9
100
AcDbLine
 10
1.391111111111111
 20
-0.9101991998983998
 30
0.0
 11
1.391111111111111
 21
-0.7874991998983998
 31
0.0
  0
LINE
  5
147
330
11B
100
AcDbEntity
  8
AM_9
100
AcDbLine
 10
-1.391111111111111
 20
-0.7874991998983998
 30
0.0
 11
-1.391111111111111
 21
-0.9101991998983998
 31
0.0
  0
LINE
  5
148
330
11B
100
AcDbEntity
  8
AM_9
100
AcDbLine
 10
-1.391111111111111
 20
-0.9101991998983998
 30
0.0
 11
-0.8001739360750358
 21
-0.9101991998983997
 31
0.0
  0
LINE
  5
149
330
11B
100
AcDbEntity
  8
AM_9
100
AcDbLine
 10
-1.391111111111111
 20
-0.7874991998983998
 30
0.0
 11
-0.8001739360750358
 21
-0.7874991998983997
 31
0.0
  0
LINE
  5
14A
330
11B
100
AcDbEntity
  8
AM_9
100
AcDbLine
 10
1.68465
 20
-0.3000000000000002
 30
0.0
 11
1.68465
 21
-0.2
 31
0.0
  0
LINE
  5
14B
330
11B
100
AcDbEntity
  8
AM_9
100
AcDbLine
 10
-1.68465
 20
-0.2
 30
0.0
 11
-1.68465
 21
-0.3000000000000002
 31
0.0
  0
LINE
  5
14C
330
11B
100
AcDbEntity
  8
AM_9
100
AcDbLine
 10
-1.661186329583616
 20
0.435
 30
0.0
 11
1.661186329583616
 21
0.435
 31
0.0
  0
ARC
  5
14D
330
11B
100
AcDbEntity
  8
AM_9
100
AcDbCircle
 10
1.661186329583616
 20
0.4001999999999999
 30
0.0
 40
0.0348000000000003
100
AcDbArc
 50
21.41246958967037
 51
90.0
  0
ARC
  5
14E
330
11B
100
AcDbEntity
  8
AM_9
100
AcDbCircle
 10
-1.661186329583617
 20
0.4002000000000011
 30
0.0
 40
0.0347999999999989
100
AcDbArc
 50
90.0
 51
158.5875304103309
  0
LINE
  5
14F
330
11B
100
AcDbEntity
  8
AM_9
100
AcDbLine
 10
-1.661186329583617
 20
-0.4349999999999997
 30
0.0
 11
1.661186329583617
 21
-0.4349999999999997
 31
0.0
  0
ARC
  5
150
330
11B
100
AcDbEntity
  8
AM_9
100
AcDbCircle
 10
1.661186329583616
 20
-0.4001999999999983
 30
0.0
 40
0.0348000000000014
100
AcDbArc
 50
270.0
 51
338.5875329531136
  0
ARC
  5
151
330
11B
100
AcDbEntity
  8
AM_9
100
AcDbCircle
 10
-1.661186329583617
 20
-0.4001999999999996
 30
0.0
 40
0.0348
100
AcDbArc
 50
201.4124670468851
 51
270.0
  0
ARC
  5
152
330
11B
100
AcDbEntity
  8
AM_9
100
AcDbCircle
 10
0.6406500000000328
 20
-0.000000000000014
 30
0.0
 40
1.130999999999964
100
AcDbArc
 50
338.587532953116
 51
344.0344017040175
  0
ARC
  5
153
330
11B
100
AcDbEntity
  8
AM_9
100
AcDbCircle
 10
-0.6406500000001172
 20
-0.0000000000000433
 30
0.0
 40
1.130999999999875
100
AcDbArc
 50
195.9655982959822
 51
201.4124670468842
  0
LINE
  5
154
330
11B
100
AcDbEntity
  8
AM_9
100
AcDbLine
 10
-1.693584308300557
 20
-0.4129047619047621
 30
0.0
 11
1.693584308300557
 21
-0.4129047619047621
 31
0.0
  0
LINE
  5
155
330
11B
100
AcDbEntity
  8
AM_9
100
AcDbLine
 10
-1.719659545833585
 20
-0.3000000000000002
 30
0.0
 11
1.719659545833585
 21
-0.3000000000000002
 31
0.0
  0
ARC
  5
156
330
11B
100
AcDbEntity
  8
AM_9
100
AcDbCircle
 10
1.719659545833585
 20
-0.3087000000000002
 30
0.0
 40
0.0087000000000001
100
AcDbArc
 50
344.0344156493716
 51
90.0
  0
ARC
  5
157
330
11B
100
AcDbEntity
  8
AM_9
100
AcDbCircle
 10
-1.719659545833585
 20
-0.3087000000000002
 30
0.0
 40
0.0087
100
AcDbArc
 50
90.0
 51
195.9655843506284
  0
LINE
  5
158
330
11B
100
AcDbEntity
  8
AM_9
100
AcDbLine
 10
-1.728023961504525
 20
-0.3110930212041978
 30
0.0
 11
1.728023961504525
 21
-0.3110930212041978
 31
0.0
  0
LINE
  5
159
330
11B
100
AcDbEntity
  8
AM_9
100
AcDbLine
 10
-1.746525942539095
 20
-0.2
 30
0.0
 11
1.746525942539095
 21
-0.2
 31
0.0
  0
ARC
  5
15A
330
11B
100
AcDbEntity
  8
AM_9
100
AcDbCircle
 10
1.746525942409454
 20
-0.191299999999999
 30
0.0
 40
0.008700000000001
100
AcDbArc
 50
270.0
 51
350.1858105424222
  0
ARC
  5
15B
330
11B
100
AcDbEntity
  8
AM_9
100
AcDbCircle
 10
-1.746525942409454
 20
-0.191299999999999
 30
0.0
 40
0.0087000000000009
100
AcDbArc
 50
189.8141894575779
 51
270.0
  0
ARC
  5
15C
330
11B
100
AcDbEntity
  8
AM_9
100
AcDbCircle
 10
0.6406499999999942
 20
-0.0000000000000011
 30
0.0
 40
1.131000000000006
100
AcDbArc
 50
350.1858105424294
 51
21.41246712512359
  0
ARC
  5
15D
330
11B
100
AcDbEntity
  8
AM_9
100
AcDbCircle
 10
-0.6406499999999908
 20
-0.0000000000000013
 30
0.0
 40
1.131000000000009
100
AcDbArc
 50
158.5875328748765
 51
189.8141894575705
  0
LINE
  5
15E
330
11B
100
AcDbEntity
  8
AM_9
100
AcDbLine
 10
-1.755098624133559
 20
-0.1927829457364343
 30
0.0
 11
1.755098624133559
 21
-0.1927829457364343
 31
0.0
  0
LINE
  5
15F
330
11B
100
AcDbEntity
  8
AM_9
100
AcDbLine
 10
-1.693584307736719
 20
0.412904763342584
 30
0.0
 11
1.693584307736719
 21
0.412904763342584
 31
0.0
  0
LINE
  5
160
330
11B
100
AcDbEntity
  8
AM_4
100
AcDbLine
 10
-0.8001739360750358
 20
-0.9101991998983997
 30
0.0
 11
-0.6243659781269819
 21
-0.9101991998983997
 31
0.0
  0
LINE
  5
161
330
11B
100
AcDbEntity
  8
AM_4
100
AcDbLine
 10
-0.8001739360750358
 20
-0.7874991998983997
 30
0.0
 11
-0.6243659781269812
 21
-0.7874991998983997
 31
0.0
  0
ENDBLK
  5
11E
330
11B
100
AcDbEntity
  8
0
100
AcDbBlockEnd
  0
BLOCK
  5
164
330
162
100
AcDbEntity
  8
0
100
AcDbBlockBegin
  2
4_129919_0_in_136146_4
 70
     2
 10
0.0
 20
0.0
 30
0.0
  3
4_129919_0_in_136146_4
  1

  0
ATTDEF
  5
166
330
162
100
AcDbEntity
  8
AM_6
100
AcDbText
 10
6.463506256392503
 20
0.6562500000000001
 30
0.0
 40
0.5
  1
Grip Tight Normal Duty Adapter and Nut Inch Bore
100
AcDbAttributeDefinition
  3

  2
NN
 70
     8
280
     0
  0
ATTDEF
  5
167
330
162
100
AcDbEntity
  8
AM_6
100
AcDbText
 10
6.463506256392503
 20
0.1562500000000001
 30
0.0
 40
0.5
  1
GT and GTM Adapter & Lock Nut Assemblies
100
AcDbAttributeDefinition
  3

  2
NT
 70
     8
280
     0
  0
ATTDEF
  5
168
330
162
100
AcDbEntity
  8
AM_6
100
AcDbText
 10
6.463506256392503
 20
-0.3437499999999999
 30
0.0
 40
0.5
  1
129919
100
AcDbAttributeDefinition
  3

  2
NB
 70
     8
280
     0
  0
ATTDEF
  5
169
330
162
100
AcDbEntity
  8
AM_6
100
AcDbText
 10
6.463506256392503
 20
-0.8437499999999999
 30
0.0
 40
0.5
  1
$PN.
100
AcDbAttributeDefinition
  3

  2
NBSYN
 70
     8
280
     0
  0
ATTDEF
  5
16A
330
162
100
AcDbEntity
  8
AM_6
100
AcDbText
 10
6.463506256392503
 20
-1.34375
 30
0.0
 40
0.5
  1
129919
100
AcDbAttributeDefinition
  3

  2
LINA
 70
     8
280
     0
  0
ATTDEF
  5
16B
330
162
100
AcDbEntity
  8
AM_6
100
AcDbText
 10
6.463506256392503
 20
-1.84375
 30
0.0
 40
0.5
  1
210
100
AcDbAttributeDefinition
  3

  2
SERIES
 70
     8
280
     0
  0
ATTDEF
  5
16C
330
162
100
AcDbEntity
  8
AM_6
100
AcDbText
 10
6.463506256392503
 20
-2.34375
 30
0.0
 40
0.5
  1
2
100
AcDbAttributeDefinition
  3

  2
SS
 70
     8
280
     0
  0
ATTDEF
  5
16D
330
162
100
AcDbEntity
  8
AM_6
100
AcDbText
 10
6.463506256392503
 20
-2.84375
 30
0.0
 40
0.5
  1
129919
100
AcDbAttributeDefinition
  3

  2
PN
 70
     8
280
     0
  0
ATTDEF
  5
16E
330
162
100
AcDbEntity
  8
AM_6
100
AcDbText
 10
6.463506256392503
 20
-3.34375
 30
0.0
 40
0.5
  1
AN-GT-10-200
100
AcDbAttributeDefinition
  3

  2
DESCRIPTION
 70
     8
280
     0
  0
ATTDEF
  5
16F
330
162
100
AcDbEntity
  8
AM_6
100
AcDbText
 10
6.463506256392503
 20
-3.84375
 30
0.0
 40
0.5
  1
1-55/64
100
AcDbAttributeDefinition
  3

  2
A
 70
     8
280
     0
  0
ATTDEF
  5
170
330
162
100
AcDbEntity
  8
AM_6
100
AcDbText
 10
6.463506256392503
 20
-4.34375
 30
0.0
 40
0.5
  1
0.8661
100
AcDbAttributeDefinition
  3

  2
C
 70
     8
280
     0
  0
ATTDEF
  5
171
330
162
100
AcDbEntity
  8
AM_6
100
AcDbText
 10
6.463506256392503
 20
-4.84375
 30
0.0
 40
0.5
  1
3.5433
100
AcDbAttributeDefinition
  3

  2
D
 70
     8
280
     0
  0
ATTDEF
  5
172
330
162
100
AcDbEntity
  8
AM_6
100
AcDbText
 10
6.463506256392503
 20
-5.34375
 30
0.0
 40
0.5
  1
0.248
100
AcDbAttributeDefinition
  3

  2
J
 70
     8
280
     0
  0
ATTDEF
  5
173
330
162
100
AcDbEntity
  8
AM_6
100
AcDbText
 10
6.463506256392503
 20
-5.84375
 30
0.0
 40
0.5
  1
2-15/16
100
AcDbAttributeDefinition
  3

  2
L
 70
     8
280
     0
  0
ATTDEF
  5
174
330
162
100
AcDbEntity
  8
AM_6
100
AcDbText
 10
6.463506256392503
 20
-6.34375
 30
0.0
 40
0.5
  1
10 - 32 x 1/4
100
AcDbAttributeDefinition
  3

  2
N
 70
     8
280
     0
  0
ATTDEF
  5
175
330
162
100
AcDbEntity
  8
AM_6
100
AcDbText
 10
6.463506256392503
 20
-6.84375
 30
0.0
 40
0.5
  1
21/32
100
AcDbAttributeDefinition
  3

  2
W
 70
     8
280
     0
  0
ATTDEF
  5
176
330
162
100
AcDbEntity
  8
AM_6
100
AcDbText
 10
6.463506256392503
 20
-7.34375
 30
0.0
 40
0.5
  1
1-5/32
100
AcDbAttributeDefinition
  3

  2
X
 70
     8
280
     0
  0
ATTDEF
  5
177
330
162
100
AcDbEntity
  8
AM_6
100
AcDbText
 10
6.463506256392503
 20
-7.84375
 30
0.0
 40
0.5
  1
1-13/64
100
AcDbAttributeDefinition
  3

  2
Y
 70
     8
280
     0
  0
ATTDEF
  5
178
330
162
100
AcDbEntity
  8
AM_6
100
AcDbText
 10
6.463506256392503
 20
-8.34375
 30
0.0
 40
0.5
  1
baldor
100
AcDbAttributeDefinition
  3

  2
COMPANY
 70
     8
280
     0
  0
LINE
  5
179
330
162
100
AcDbEntity
  8
AM_9
100
AcDbLine
 10
-1.4462
 20
-1.108356433324867
 30
0.0
 11
-1.1241125
 21
-1.108356433324867
 31
0.0
  0
LINE
  5
17A
330
162
100
AcDbEntity
  8
AM_9
100
AcDbLine
 10
-1.1241125
 20
-0.9634564333248667
 30
0.0
 11
-1.4462
 21
-0.9634564333248667
 31
0.0
  0
LINE
  5
17B
330
162
100
AcDbEntity
  8
AM_9
100
AcDbLine
 10
-1.1241125
 20
-1.108356433324867
 30
0.0
 11
-1.1015625
 21
-1.130906433324867
 31
0.0
  0
LINE
  5
17C
330
162
100
AcDbEntity
  8
AM_9
100
AcDbLine
 10
-1.1015625
 20
-0.9409064333248667
 30
0.0
 11
-1.1241125
 21
-0.9634564333248667
 31
0.0
  0
LINE
  5
17D
330
162
100
AcDbEntity
  8
AM_9
100
AcDbLine
 10
-1.1015625
 20
-0.9409064333248667
 30
0.0
 11
-1.1015625
 21
-1.130906433324867
 31
0.0
  0
LINE
  5
17E
330
162
100
AcDbEntity
  8
AM_9
100
AcDbLine
 10
-1.1241125
 20
-0.9634564333248667
 30
0.0
 11
-1.1241125
 21
-1.108356433324867
 31
0.0
  0
LINE
  5
17F
330
162
100
AcDbEntity
  8
AM_9
100
AcDbLine
 10
-1.4462
 20
-0.9634564333248667
 30
0.0
 11
-1.468697669688398
 21
-0.9409587636364687
 31
0.0
  0
LINE
  5
180
330
162
100
AcDbEntity
  8
AM_9
100
AcDbLine
 10
-1.464083848736283
 20
-1.126240282061149
 30
0.0
 11
-1.4462
 21
-1.108356433324867
 31
0.0
  0
LINE
  5
181
330
162
100
AcDbEntity
  8
AM_9
100
AcDbLine
 10
-1.4462
 20
-0.9634564333248667
 30
0.0
 11
-1.4462
 21
-1.108356433324867
 31
0.0
  0
LINE
  5
182
330
162
100
AcDbEntity
  8
AM_9
100
AcDbLine
 10
1.370833084624502
 20
-0.578125
 30
0.0
 11
1.370833084624502
 21
-1.15625
 31
0.0
  0
LINE
  5
183
330
162
100
AcDbEntity
  8
AM_9
100
AcDbLine
 10
1.0
 20
-1.203125
 30
0.0
 11
1.0
 21
0.6562499999999999
 31
0.0
  0
LINE
  5
184
330
162
100
AcDbEntity
  8
AM_9
100
AcDbLine
 10
-1.0
 20
0.6562499999999999
 30
0.0
 11
-1.0
 21
-1.203125
 31
0.0
  0
LINE
  5
185
330
162
100
AcDbEntity
  8
AM_9
100
AcDbLine
 10
1.095734126984127
 20
-0.8671874999999999
 30
0.0
 11
1.095734126984127
 21
-0.4335937500000008
 31
0.0
  0
LINE
  5
186
330
162
100
AcDbEntity
  8
AM_9
100
AcDbLine
 10
-1.095734126984127
 20
-0.4335937500000008
 30
0.0
 11
-1.095734126984127
 21
-0.8671874999999999
 31
0.0
  0
LINE
  5
187
330
162
100
AcDbEntity
  8
AM_9
100
AcDbLine
 10
0.05
 20
0.6562500000000001
 30
0.0
 11
0.05
 21
-1.15625
 31
0.0
  0
LINE
  5
188
330
162
100
AcDbEntity
  8
AM_9
100
AcDbLine
 10
-0.05
 20
0.6562500000000001
 30
0.0
 11
-0.05
 21
-1.15625
 31
0.0
  0
LINE
  5
189
330
162
100
AcDbEntity
  8
AM_9
100
AcDbLine
 10
1.095734126984127
 20
-0.4335937500000008
 30
0.0
 11
1.133792309359899
 21
0.65625
 31
0.0
  0
LINE
  5
18A
330
162
100
AcDbEntity
  8
AM_9
100
AcDbLine
 10
-1.133792309359899
 20
0.65625
 30
0.0
 11
-1.095734126984127
 21
-0.4335937500000008
 31
0.0
  0
LINE
  5
18B
330
162
100
AcDbEntity
  8
AM_9
100
AcDbLine
 10
-1.095734126984127
 20
-0.4335937500000008
 30
0.0
 11
1.095734126984127
 21
-0.4335937500000008
 31
0.0
  0
LINE
  5
18C
330
162
100
AcDbEntity
  8
AM_9
100
AcDbLine
 10
-1.133792309359899
 20
0.65625
 30
0.0
 11
1.133792309359899
 21
0.65625
 31
0.0
  0
LINE
  5
18D
330
162
100
AcDbEntity
  8
AM_9
100
AcDbLine
 10
1.200644841269842
 20
-0.7218749999999999
 30
0.0
 11
1.200644841269842
 21
-0.5781249999999999
 31
0.0
  0
LINE
  5
18E
330
162
100
AcDbEntity
  8
AM_9
100
AcDbLine
 10
-1.200644841269842
 20
-0.5781249999999999
 30
0.0
 11
-1.200644841269842
 21
-0.7218750000000004
 31
0.0
  0
LINE
  5
18F
330
162
100
AcDbEntity
  8
AM_9
100
AcDbLine
 10
-1.434106000000001
 20
-0.5781249999999999
 30
0.0
 11
-1.46875
 21
-0.6127689999999999
 31
0.0
  0
LINE
  5
190
330
162
100
AcDbEntity
  8
AM_9
100
AcDbLine
 10
-0.8217547058898028
 20
-0.5781249999999998
 30
0.0
 11
-0.8391402782655228
 21
-0.6127690000000001
 31
0.0
  0
LINE
  5
191
330
162
100
AcDbEntity
  8
AM_9
100
AcDbLine
 10
-0.8391402782655228
 20
-0.6127690000000001
 30
0.0
 11
-0.8391402782655228
 21
-0.7218749999999999
 31
0.0
  0
LINE
  5
192
330
162
100
AcDbEntity
  8
AM_9
100
AcDbLine
 10
-1.46875
 20
-0.6127689999999999
 30
0.0
 11
-1.46875
 21
-0.7218750000000002
 31
0.0
  0
LINE
  5
193
330
162
100
AcDbEntity
  8
AM_9
100
AcDbLine
 10
-1.46875
 20
-0.6127689999999999
 30
0.0
 11
-0.8391402782655228
 21
-0.6127690000000001
 31
0.0
  0
LINE
  5
194
330
162
100
AcDbEntity
  8
AM_9
100
AcDbLine
 10
-0.5780293922429813
 20
-0.5781249999999999
 30
0.0
 11
-0.5780293922429813
 21
-1.15625
 31
0.0
  0
LINE
  5
195
330
162
100
AcDbEntity
  8
AM_9
100
AcDbLine
 10
-0.7928036923815223
 20
-0.7874991998983997
 30
0.0
 11
-0.7928036923815223
 21
-0.9248803832975592
 31
0.0
  0
LINE
  5
196
330
162
100
AcDbEntity
  8
AM_9
100
AcDbLine
 10
-0.7928036923815223
 20
-0.5781249999999999
 30
0.0
 11
-0.7928036923815223
 21
-0.7218749999999999
 31
0.0
  0
LINE
  5
197
330
162
100
AcDbEntity
  8
AM_9
100
AcDbLine
 10
-1.305555555555557
 20
-0.7226562500000001
 30
0.0
 11
1.305555555555557
 21
-0.7226562500000001
 31
0.0
  0
LINE
  5
198
330
162
100
AcDbEntity
  8
AM_9
100
AcDbLine
 10
-1.305555555555557
 20
-0.8671874999999999
 30
0.0
 11
1.305555555555557
 21
-0.8671874999999999
 31
0.0
  0
LINE
  5
199
330
162
100
AcDbEntity
  8
AM_9
100
AcDbLine
 10
1.305555555555557
 20
-0.8671874999999999
 30
0.0
 11
1.305555555555557
 21
-0.7226562500000001
 31
0.0
  0
LINE
  5
19A
330
162
100
AcDbEntity
  8
AM_9
100
AcDbLine
 10
-1.305555555555557
 20
-0.7226562500000001
 30
0.0
 11
-1.305555555555557
 21
-0.8671874999999999
 31
0.0
  0
LINE
  5
19B
330
162
100
AcDbEntity
  8
AM_9
100
AcDbLine
 10
1.463506256392504
 20
-0.6127690000000002
 30
0.0
 11
1.463506256392504
 21
-0.7218750000000002
 31
0.0
  0
LINE
  5
19C
330
162
100
AcDbEntity
  8
AM_9
100
AcDbLine
 10
-0.624365978126982
 20
-0.7218749999999999
 30
0.0
 11
-0.624365978126982
 21
-0.6127690000000001
 31
0.0
  0
LINE
  5
19D
330
162
100
AcDbEntity
  8
AM_9
100
AcDbLine
 10
1.428735111641063
 20
-0.5781249999999998
 30
0.0
 11
1.463506256392504
 21
-0.6127690000000002
 31
0.0
  0
LINE
  5
19E
330
162
100
AcDbEntity
  8
AM_9
100
AcDbLine
 10
-1.434106000000001
 20
-0.5781249999999999
 30
0.0
 11
1.428735111641063
 21
-0.5781249999999998
 31
0.0
  0
LINE
  5
19F
330
162
100
AcDbEntity
  8
AM_9
100
AcDbLine
 10
-0.624365978126982
 20
-0.6127690000000001
 30
0.0
 11
-0.6069804057512619
 21
-0.5781249999999998
 31
0.0
  0
LINE
  5
1A0
330
162
100
AcDbEntity
  8
AM_9
100
AcDbLine
 10
-0.624365978126982
 20
-0.6127690000000001
 30
0.0
 11
1.463506256392504
 21
-0.6127690000000002
 31
0.0
  0
LINE
  5
1A2
330
162
100
AcDbEntity
  8
AM_5
100
AcDbLine
 10
-1.459449566675133
 20
-1.130906433324867
 30
0.0
 11
-1.1015625
 21
-1.130906433324867
 31
0.0
  0
LINE
  5
1A3
330
162
100
AcDbEntity
  8
AM_5
100
AcDbLine
 10
-1.360403877684644
 20
-0.9409064333248667
 30
0.0
 11
-1.167539593111111
 21
-0.9409064333248667
 31
0.0
  0
LINE
  5
1A6
330
162
100
AcDbEntity
  8
AM_7
100
AcDbLine
 10
-1.083203125
 20
-1.035906433324867
 30
0.0
 11
-1.487109375
 21
-1.035906433324867
 31
0.0
  0
LINE
  5
1A7
330
162
100
AcDbEntity
  8
AM_4
100
AcDbLine
 10
0.05
 20
-1.203125
 30
0.0
 11
0.05
 21
-1.15625
 31
0.0
  0
LINE
  5
1A8
330
162
100
AcDbEntity
  8
AM_4
100
AcDbLine
 10
-0.05
 20
-1.203125
 30
0.0
 11
-0.05
 21
-1.15625
 31
0.0
  0
LINE
  5
1A9
330
162
100
AcDbEntity
  8
AM_4
100
AcDbLine
 10
1.095734126984127
 20
-1.203125
 30
0.0
 11
1.095734126984127
 21
-1.15625
 31
0.0
  0
LINE
  5
1AA
330
162
100
AcDbEntity
  8
AM_4
100
AcDbLine
 10
-1.095734126984127
 20
-1.15625
 30
0.0
 11
-1.095734126984127
 21
-1.203125
 31
0.0
  0
LINE
  5
1AB
330
162
100
AcDbEntity
  8
AM_4
100
AcDbLine
 10
-1.095734126984127
 20
-1.203125
 30
0.0
 11
1.095734126984127
 21
-1.203125
 31
0.0
  0
LINE
  5
1AC
330
162
100
AcDbEntity
  8
AM_4
100
AcDbLine
 10
-1.468212458137745
 20
-1.121606000000001
 30
0.0
 11
-1.464099783337579
 21
-1.12625621666242
 31
0.0
  0
LINE
  5
1AD
330
162
100
AcDbEntity
  8
AM_4
100
AcDbLine
 10
-1.464358872857403
 20
-1.125997127142597
 30
0.0
 11
-1.434106
 21
-1.15625
 31
0.0
  0
LINE
  5
1AE
330
162
100
AcDbEntity
  8
AM_4
100
AcDbLine
 10
-0.8391402782655228
 20
-1.121606
 30
0.0
 11
-0.8217547058898027
 21
-1.15625
 31
0.0
  0
LINE
  5
1AF
330
162
100
AcDbEntity
  8
AM_4
100
AcDbLine
 10
-1.468212458137745
 20
-1.121606000000001
 30
0.0
 11
-0.8391402782655228
 21
-1.121606
 31
0.0
  0
LINE
  5
1B0
330
162
100
AcDbEntity
  8
AM_4
100
AcDbLine
 10
-0.8391402782655228
 20
-0.7218749999999999
 30
0.0
 11
-0.8391402782655228
 21
-1.121606
 31
0.0
  0
LINE
  5
1B1
330
162
100
AcDbEntity
  8
AM_4
100
AcDbLine
 10
-1.46875
 20
-0.7218750000000002
 30
0.0
 11
-1.46875
 21
-0.9410053376338692
 31
0.0
  0
LWPOLYLINE
  5
1B2
330
162
100
AcDbEntity
  8
AM_4
100
AcDbPolyline
 90
       17
 70
     0
 43
0.0
 10
-1.46875
 20
-0.9409064333248701
 10
-1.468749436055799
 20
-0.94091571659346
 10
-1.468655954284611
 20
-0.9424672032642936
 10
-1.468425131796331
 20
-0.946412378931718
 10
-1.468070037255858
 20
-0.9528441602018515
 10
-1.467642129668022
 20
-0.9613236585703555
 10
-1.467168923284019
 20
-0.9719910034355743
 10
-1.466712315685218
 20
-0.9843269158760666
 10
-1.466310895316392
 20
-0.9983751321839268
 10
-1.466020795075286
 20
-1.013449614382769
 10
-1.465871882133133
 20
-1.029561869014893
 10
-1.465889798407187
 20
-1.045708526202406
 10
-1.466078054355621
 20
-1.062036274201842
 10
-1.466406784050065
 20
-1.077229228953374
 10
-1.466855885270024
 20
-1.09165884603697
 10
-1.467610173913806
 20
-1.109817132638993
 10
-1.468212458137746
 20
-1.121606000000001
  0
LINE
  5
1B3
330
162
100
AcDbEntity
  8
AM_4
100
AcDbLine
 10
-0.7928036923815223
 20
-0.9248803832975592
 30
0.0
 11
-0.7928036923815223
 21
-1.15625
 31
0.0
  0
LINE
  5
1B4
330
162
100
AcDbEntity
  8
AM_4
100
AcDbLine
 10
-0.7928036923815223
 20
-0.7218749999999999
 30
0.0
 11
-0.7928036923815223
 21
-0.7874991998983997
 31
0.0
  0
LINE
  5
1B5
330
162
100
AcDbEntity
  8
AM_4
100
AcDbLine
 10
1.463506256392503
 20
-1.121606
 30
0.0
 11
1.428735111641063
 21
-1.15625
 31
0.0
  0
LINE
  5
1B6
330
162
100
AcDbEntity
  8
AM_4
100
AcDbLine
 10
-0.6069804057512617
 20
-1.15625
 30
0.0
 11
-0.6243659781269819
 21
-1.121606
 31
0.0
  0
LINE
  5
1B7
330
162
100
AcDbEntity
  8
AM_4
100
AcDbLine
 10
-1.434106
 20
-1.15625
 30
0.0
 11
1.428735111641063
 21
-1.15625
 31
0.0
  0
LINE
  5
1B8
330
162
100
AcDbEntity
  8
AM_4
100
AcDbLine
 10
1.463506256392504
 20
-0.7218750000000002
 30
0.0
 11
1.463506256392503
 21
-1.121606
 31
0.0
  0
LINE
  5
1B9
330
162
100
AcDbEntity
  8
AM_4
100
AcDbLine
 10
-0.6243659781269819
 20
-1.121606
 30
0.0
 11
-0.624365978126982
 21
-0.7218749999999999
 31
0.0
  0
LINE
  5
1BA
330
162
100
AcDbEntity
  8
AM_4
100
AcDbLine
 10
-0.6243659781269819
 20
-1.121606
 30
0.0
 11
1.463506256392503
 21
-1.121606
 31
0.0
  0
ENDBLK
  5
165
330
162
100
AcDbEntity
  8
0
100
AcDbBlockEnd
  0
BLOCK
  5
1BD
330
1BB
100
AcDbEntity
  8
0
100
AcDbBlockBegin
  2
5_WSTU_GT_10I_0_in_136146_4
 70
     2
 10
0.0
 20
0.0
 30
0.0
  3
5_WSTU_GT_10I_0_in_136146_4
  1

  0
ATTDEF
  5
1BF
330
1BB
100
AcDbEntity
  8
AM_6
100
AcDbText
 10
9.596875
 20
2.13125
 30
0.0
 40
0.5
  1
GTMMDWSTUB-Ib
100
AcDbAttributeDefinition
  3

  2
NN
 70
     8
280
     0
  0
ATTDEF
  5
1C0
330
1BB
100
AcDbEntity
  8
AM_6
100
AcDbText
 10
9.596875
 20
1.63125
 30
0.0
 40
0.5
  1
Grip Tight Adapter Ball Bearings
100
AcDbAttributeDefinition
  3

  2
NT
 70
     8
280
     0
  0
ATTDEF
  5
1C1
330
1BB
100
AcDbEntity
  8
AM_6
100
AcDbText
 10
9.596875
 20
1.13125
 30
0.0
 40
0.5
  1
WSTU-GT-10I
100
AcDbAttributeDefinition
  3

  2
NB
 70
     8
280
     0
  0
ATTDEF
  5
1C2
330
1BB
100
AcDbEntity
  8
AM_6
100
AcDbText
 10
9.596875
 20
0.6312500000000001
 30
0.0
 40
0.5
  1
$PN.$LUBE.I
100
AcDbAttributeDefinition
  3

  2
NBSYN
 70
     8
280
     0
  0
ATTDEF
  5
1C3
330
1BB
100
AcDbEntity
  8
AM_6
100
AcDbText
 10
9.596875
 20
0.1312500000000001
 30
0.0
 40
0.5
  1
WSTU-GT-10
100
AcDbAttributeDefinition
  3

  2
LINA
 70
     8
280
     0
  0
ATTDEF
  5
1C4
330
1BB
100
AcDbEntity
  8
AM_6
100
AcDbText
 10
9.596875
 20
-0.3687499999999999
 30
0.0
 40
0.5
  1
210
100
AcDbAttributeDefinition
  3

  2
SERIES
 70
     8
280
     0
  0
ATTDEF
  5
1C5
330
1BB
100
AcDbEntity
  8
AM_6
100
AcDbText
 10
9.596875
 20
-0.8687499999999999
 30
0.0
 40
0.5
  1
WSTU-GT-10
100
AcDbAttributeDefinition
  3

  2
PN
 70
     8
280
     0
  0
ATTDEF
  5
1C6
330
1BB
100
AcDbEntity
  8
AM_6
100
AcDbText
 10
9.596875
 20
-1.36875
 30
0.0
 40
0.5
  1
WSTU-GT-10
100
AcDbAttributeDefinition
  3

  2
DESCRIPTION
 70
     8
280
     0
  0
ATTDEF
  5
1C7
330
1BB
100
AcDbEntity
  8
AM_6
100
AcDbText
 10
9.596875
 20
-1.86875
 30
0.0
 40
0.5
  1
7.7
100
AcDbAttributeDefinition
  3

  2
WEIGHT
 70
     8
280
     0
  0
ATTDEF
  5
1C8
330
1BB
100
AcDbEntity
  8
AM_6
100
AcDbText
 10
9.596875
 20
-2.36875
 30
0.0
 40
0.5
  1
3.543300
100
AcDbAttributeDefinition
  3

  2
BOD1
 70
     8
280
     0
  0
ATTDEF
  5
1C9
330
1BB
100
AcDbEntity
  8
AM_6
100
AcDbText
 10
9.596875
 20
-2.86875
 30
0.0
 40
0.5
  1
1.000
100
AcDbAttributeDefinition
  3

  2
VERS
 70
     8
280
     0
  0
ATTDEF
  5
1CA
330
1BB
100
AcDbEntity
  8
AM_6
100
AcDbText
 10
9.596875
 20
-3.36875
 30
0.0
 40
0.5
  1
1-55/64
100
AcDbAttributeDefinition
  3

  2
A
 70
     8
280
     0
  0
ATTDEF
  5
1CB
330
1BB
100
AcDbEntity
  8
AM_6
100
AcDbText
 10
9.596875
 20
-3.86875
 30
0.0
 40
0.5
  1
5-13/16
100
AcDbAttributeDefinition
  3

  2
B
 70
     8
280
     0
  0
ATTDEF
  5
1CC
330
1BB
100
AcDbEntity
  8
AM_6
100
AcDbText
 10
9.596875
 20
-4.36875
 30
0.0
 40
0.5
  1
0.673 / 0.703
100
AcDbAttributeDefinition
  3

  2
C
 70
     8
280
     0
  0
ATTDEF
  5
1CD
330
1BB
100
AcDbEntity
  8
AM_6
100
AcDbText
 10
9.596875
 20
-4.86875
 30
0.0
 40
0.5
  1
3-9/16
100
AcDbAttributeDefinition
  3

  2
E
 70
     8
280
     0
  0
ATTDEF
  5
1CE
330
1BB
100
AcDbEntity
  8
AM_6
100
AcDbText
 10
9.596875
 20
-5.36875
 30
0.0
 40
0.5
  1
1
100
AcDbAttributeDefinition
  3

  2
F
 70
     8
280
     0
  0
ATTDEF
  5
1CF
330
1BB
100
AcDbEntity
  8
AM_6
100
AcDbText
 10
9.596875
 20
-5.86875
 30
0.0
 40
0.5
  1
5/8
100
AcDbAttributeDefinition
  3

  2
G
 70
     8
280
     0
  0
ATTDEF
  5
1D0
330
1BB
100
AcDbEntity
  8
AM_6
100
AcDbText
 10
9.596875
 20
-6.36875
 30
0.0
 40
0.5
  1
3/4
100
AcDbAttributeDefinition
  3

  2
H
 70
     8
280
     0
  0
ATTDEF
  5
1D1
330
1BB
100
AcDbEntity
  8
AM_6
100
AcDbText
 10
9.596875
 20
-6.86875
 30
0.0
 40
0.5
  1
3-1/4
100
AcDbAttributeDefinition
  3

  2
J
 70
     8
280
     0
  0
ATTDEF
  5
1D2
330
1BB
100
AcDbEntity
  8
AM_6
100
AcDbText
 10
9.596875
 20
-7.36875
 30
0.0
 40
0.5
  1
1-15/16
100
AcDbAttributeDefinition
  3

  2
K
 70
     8
280
     0
  0
ATTDEF
  5
1D3
330
1BB
100
AcDbEntity
  8
AM_6
100
AcDbText
 10
9.596875
 20
-7.86875
 30
0.0
 40
0.5
  1
2-15/16
100
AcDbAttributeDefinition
  3

  2
L
 70
     8
280
     0
  0
ATTDEF
  5
1D4
330
1BB
100
AcDbEntity
  8
AM_6
100
AcDbText
 10
9.596875
 20
-8.36875
 30
0.0
 40
0.5
  1
3.985 / 4.015
100
AcDbAttributeDefinition
  3

  2
M
 70
     8
280
     0
  0
ATTDEF
  5
1D5
330
1BB
100
AcDbEntity
  8
AM_6
100
AcDbText
 10
9.596875
 20
-8.86875
 30
0.0
 40
0.5
  1
4-3/4
100
AcDbAttributeDefinition
  3

  2
N
 70
     8
280
     0
  0
ATTDEF
  5
1D6
330
1BB
100
AcDbEntity
  8
AM_6
100
AcDbText
 10
9.596875
 20
-9.36875
 30
0.0
 40
0.5
  1
21/32
100
AcDbAttributeDefinition
  3

  2
R
 70
     8
280
     0
  0
ATTDEF
  5
1D7
330
1BB
100
AcDbEntity
  8
AM_6
100
AcDbText
 10
9.596875
 20
-9.86875
 30
0.0
 40
0.5
  1
1-13/64
100
AcDbAttributeDefinition
  3

  2
S
 70
     8
280
     0
  0
ATTDEF
  5
1D8
330
1BB
100
AcDbEntity
  8
AM_6
100
AcDbText
 10
9.596875
 20
-10.36875
 30
0.0
 40
0.5
  1
1-15/16
100
AcDbAttributeDefinition
  3

  2
T
 70
     8
280
     0
  0
ATTDEF
  5
1D9
330
1BB
100
AcDbEntity
  8
AM_6
100
AcDbText
 10
9.596875
 20
-10.86875
 30
0.0
 40
0.5
  1
1-5/32
100
AcDbAttributeDefinition
  3

  2
Z
 70
     8
280
     0
  0
ATTDEF
  5
1DA
330
1BB
100
AcDbEntity
  8
AM_6
100
AcDbText
 10
9.596875
 20
-11.36875
 30
0.0
 40
0.5
  1
baldor
100
AcDbAttributeDefinition
  3

  2
COMPANY
 70
     8
280
     0
  0
ELLIPSE
  5
1DB
330
1BB
100
AcDbEntity
  8
AM_9
100
AcDbEllipse
 10
-2.035159698893431
 20
-0.0000000000000001
 30
0.0
 11
2.143131898507869E-17
 21
0.3500000000000001
 31
0.0
210
0.0
220
0.0
230
1.0
 40
0.5
 41
0.0
 42
6.283185307179586
  0
LINE
  5
1DC
330
1BB
100
AcDbEntity
  8
AM_9
100
AcDbLine
 10
-1.951126602074316
 20
-0.4499823940221837
 30
0.0
 11
-1.948516436020449
 21
-0.4499999955778096
 31
0.0
  0
LWPOLYLINE
  5
1DD
330
1BB
100
AcDbEntity
  8
AM_9
100
AcDbPolyline
 90
       27
 70
     0
 43
0.0
 10
-2.223557158514986
 20
-0.0000000000000001
 10
-2.223433207459647
 20
-0.0140806958947284
 10
-2.222538774561829
 20
-0.0403194260747147
 10
-2.220781032116562
 20
-0.0664371229536229
 10
-2.218160068997796
 20
-0.0923577180547887
 10
-2.214675091647776
 20
-0.1180093526730883
 10
-2.210324089066348
 20
-0.1433215433248248
 10
-2.205103321193407
 20
-0.1682252824686354
 10
-2.199006711168769
 20
-0.1926528866153531
 10
-2.192025206228996
 20
-0.2165374486954355
 10
-2.184146244774554
 20
-0.2398116949188715
 10
-2.175353595503102
 20
-0.2624059848507732
 10
-2.165628040288401
 20
-0.2842451649901319
 10
-2.154949651096023
 20
-0.3052440902177761
 10
-2.143302655705461
 20
-0.3253020692418186
 10
-2.130689432676663
 20
-0.344289567125685
 10
-2.117150537509904
 20
-0.3620409708952071
 10
-2.102752843904624
 20
-0.378396007813725
 10
-2.087597920393626
 20
-0.3932040094670136
 10
-2.071809955655572
 20
-0.4063472494624351
 10
-2.055517115763601
 20
-0.4177552450872339
 10
-2.038836770101428
 20
-0.4274031428838334
 10
-2.021870552597975
 20
-0.4352987042028861
 10
-2.004707266650652
 20
-0.4414674782386248
 10
-1.987428231633666
 20
-0.4459423669152574
 10
-1.970111154452027
 20
-0.4487584660609361
 10
-1.956436304435606
 20
-0.4498344033026108
  0
LWPOLYLINE
  5
1DE
330
1BB
100
AcDbEntity
  8
AM_9
100
AcDbPolyline
 90
       28
 70
     0
 43
0.0
 10
-1.950092172089107
 20
0.4499937165537718
 10
-1.956509100347837
 20
0.4498313283522365
 10
-1.97356189279331
 20
0.4483278648749642
 10
-1.990371116857834
 20
0.4452994896315024
 10
-2.006887194280402
 20
0.4407811936571173
 10
-2.023072316249342
 20
0.4347997552517775
 10
-2.038898577045274
 20
0.42737094552342
 10
-2.054345510507511
 20
0.4184975910484218
 10
-2.069395712209066
 20
0.4081697481801992
 10
-2.084028736805313
 20
0.3963684041821017
 10
-2.098214106466871
 20
0.3830739120900743
 10
-2.111905289897514
 20
0.3682791522813897
 10
-2.125037508329033
 20
0.3520047532904758
 10
-2.137532007810372
 20
0.3343104823543042
 10
-2.149306769741621
 20
0.3152962260869991
 10
-2.160289481165623
 20
0.2950906607116821
 10
-2.170424457172544
 20
0.2738383001388726
 10
-2.179673760826941
 20
0.2516898784273573
 10
-2.188028332727313
 20
0.2287581276275121
 10
-2.195488476347056
 20
0.2051414277364198
 10
-2.20205895413364
 20
0.1809270974437165
 10
-2.207745827322592
 20
0.1561951860591611
 10
-2.212554790801104
 20
0.1310215887402025
 10
-2.216490495453457
 20
0.1054802266959045
 10
-2.219556426367702
 20
0.0796443955890839
 10
-2.221755043698537
 20
0.0535874829055044
 10
-2.223088008652676
 20
0.0273832437564126
 10
-2.223557158514986
 20
-0.0000000000000001
  0
LINE
  5
1DF
330
1BB
100
AcDbEntity
  8
AM_9
100
AcDbLine
 10
-1.948625822620013
 20
0.4499999874273085
 30
0.0
 11
-1.950092172089107
 21
0.4499937165537718
 31
0.0
  0
LINE
  5
1E0
330
1BB
100
AcDbEntity
  8
AM_9
100
AcDbLine
 10
2.9375
 20
-0.499999
 30
0.0
 11
3.5625
 21
-0.499999
 31
0.0
  0
LINE
  5
1E1
330
1BB
100
AcDbEntity
  8
AM_9
100
AcDbLine
 10
3.5625
 20
0.499999
 30
0.0
 11
2.9375
 21
0.499999
 31
0.0
  0
LINE
  5
1E2
330
1BB
100
AcDbEntity
  8
AM_9
100
AcDbLine
 10
2.1875
 20
-0.6234381562500001
 30
0.0
 11
2.1875
 21
0.6234381562500001
 31
0.0
  0
LINE
  5
1E3
330
1BB
100
AcDbEntity
  8
AM_9
100
AcDbLine
 10
2.225
 20
-0.6234381562500001
 30
0.0
 11
2.225
 21
0.6234381562500001
 31
0.0
  0
LINE
  5
1E4
330
1BB
100
AcDbEntity
  8
AM_9
100
AcDbLine
 10
2.899999999999999
 20
-0.6234381562500001
 30
0.0
 11
2.899999999999999
 21
0.6234381562500001
 31
0.0
  0
LINE
  5
1E5
330
1BB
100
AcDbEntity
  8
AM_9
100
AcDbLine
 10
2.9375
 20
-0.6234381562500001
 30
0.0
 11
2.9375
 21
0.6234381562500001
 31
0.0
  0
LWPOLYLINE
  5
1E6
330
1BB
100
AcDbEntity
  8
AM_9
100
AcDbPolyline
 90
       18
 70
     0
 43
0.0
 10
-1.687499999999999
 20
-0.0662307441690111
 10
-1.692213314929333
 20
-0.1027899975150433
 10
-1.698900953346755
 20
-0.1386236006085436
 10
-1.707765242434315
 20
-0.1744902797357669
 10
-1.718512107250339
 20
-0.2090690052260186
 10
-1.730627103169115
 20
-0.2411823796470365
 10
-1.744245358756012
 20
-0.2716406832246943
 10
-1.759660515889774
 20
-0.301023076946073
 10
-1.776324100888113
 20
-0.3282456201164434
 10
-1.793756838701509
 20
-0.3527275714987415
 10
-1.812035537922553
 20
-0.3747731815775109
 10
-1.831536918589548
 20
-0.3947488188030819
 10
-1.851534800453847
 20
-0.4118339793111372
 10
-1.871203083163035
 20
-0.4255018562437965
 10
-1.890967263979463
 20
-0.4362274498109076
 10
-1.911240183910109
 20
-0.4441012608860516
 10
-1.931247005118515
 20
-0.4487007385640344
 10
-1.948557158514987
 20
-0.4500000000000003
  0
LWPOLYLINE
  5
1E7
330
1BB
100
AcDbEntity
  8
AM_9
100
AcDbPolyline
 90
       19
 70
     0
 43
0.0
 10
-1.948557158514987
 20
0.4500000000000002
 10
-1.933676843640013
 20
0.4490367843786472
 10
-1.918463118377311
 20
0.4461346600528392
 10
-1.899313999826249
 20
0.4398533523412154
 10
-1.880020784101111
 20
0.4306586092394774
 10
-1.860192497709763
 20
0.4182223981185096
 10
-1.84056245755984
 20
0.4028706884340375
 10
-1.821694324804954
 20
0.3850955605166614
 10
-1.803371540895534
 20
0.3647518403301898
 10
-1.785290380993761
 20
0.3412950151947848
 10
-1.768161927795142
 20
0.3154314144668224
 10
-1.752344205371904
 20
0.2876505920834217
 10
-1.737813130099255
 20
0.2578720635503784
 10
-1.724382665045296
 20
0.2253443573154754
 10
-1.712656227580627
 20
0.191138767139832
 10
-1.704266556597038
 20
0.1613879876379844
 10
-1.697256787666014
 20
0.1307825826945048
 10
-1.691593539706276
 20
0.0987829180241545
 10
-1.687499999999999
 20
0.066230744169011
  0
LWPOLYLINE
  5
1E8
330
1BB
100
AcDbEntity
  8
AM_9
100
AcDbPolyline
 90
       30
 70
     0
 43
0.0
 10
-1.948557158514987
 20
-0.4500000000000003
 10
-1.967525347011502
 20
-0.4483356868200342
 10
-1.985823002658443
 20
-0.4433828280492022
 10
-2.003261278981649
 20
-0.4352015448411046
 10
-2.024305543971487
 20
-0.4199568068801509
 10
-2.043717963089237
 20
-0.3996089307057749
 10
-2.061265081728073
 20
-0.3745405398246688
 10
-2.07710897046375
 20
-0.344466238834761
 10
-2.091029073051846
 20
-0.3100489879637695
 10
-2.102935779275512
 20
-0.2719089209247624
 10
-2.11297840360225
 20
-0.2297601781752984
 10
-2.12106870854566
 20
-0.1845133284279151
 10
-2.12718896082347
 20
-0.1370155217219994
 10
-2.131350277362935
 20
-0.0881157390154258
 10
-2.133664392852929
 20
-0.0379097308575546
 10
-2.134131027657622
 20
0.012627290556739
 10
-2.132785892885511
 20
0.0621161775986174
 10
-2.129649512640725
 20
0.1109774358095086
 10
-2.124722738620642
 20
0.1583005537045652
 10
-2.117941814409882
 20
0.203677708857146
 10
-2.109272200634166
 20
0.2466797936723043
 10
-2.098735701718982
 20
0.2865460827338455
 10
-2.086011119259493
 20
0.3235098586742496
 10
-2.071245588851936
 20
0.3565410183990796
 10
-2.054545660220824
 20
0.3850341000307718
 10
-2.035734677609349
 20
0.408804503471778
 10
-2.014995521926663
 20
0.427463824136524
 10
-1.992610802806693
 20
0.4406370012194619
 10
-1.971102836400582
 20
0.4476456774233256
 10
-1.948557158514987
 20
0.4500000000000002
  0
LINE
  5
1E9
330
1BB
100
AcDbEntity
  8
AM_9
100
AcDbLine
 10
1.77165
 20
-0.6234381562500001
 30
0.0
 11
1.77165
 21
0.6234381562500001
 31
0.0
  0
LINE
  5
1EA
330
1BB
100
AcDbEntity
  8
AM_9
100
AcDbLine
 10
-1.77165
 20
0.6234381562500001
 30
0.0
 11
-1.77165
 21
-0.6234381562500001
 31
0.0
  0
LINE
  5
1EB
330
1BB
100
AcDbEntity
  8
AM_9
100
AcDbLine
 10
1.6875
 20
0.6234381562499999
 30
0.0
 11
-1.6875
 21
0.6234381562499999
 31
0.0
  0
LINE
  5
1EC
330
1BB
100
AcDbEntity
  8
AM_9
100
AcDbLine
 10
1.6875
 20
-0.6234381562499999
 30
0.0
 11
-1.687499999999998
 21
-0.6234381562499999
 31
0.0
  0
LINE
  5
1ED
330
1BB
100
AcDbEntity
  8
AM_9
100
AcDbLine
 10
0.1668174863643074
 20
-0.7218749999999999
 30
0.0
 11
0.1668174863643074
 21
-0.590625
 31
0.0
  0
LINE
  5
1EE
330
1BB
100
AcDbEntity
  8
AM_9
100
AcDbLine
 10
0.3351654074678528
 20
-0.7218749999999999
 30
0.0
 11
0.3351654074678528
 21
-0.590625
 31
0.0
  0
LINE
  5
1EF
330
1BB
100
AcDbEntity
  8
AM_9
100
AcDbLine
 10
0.0933565798864461
 20
-0.7218749999999999
 30
0.0
 11
0.0933565798864461
 21
-0.590625
 31
0.0
  0
LINE
  5
1F0
330
1BB
100
AcDbEntity
  8
AM_9
100
AcDbLine
 10
0.0688696074604557
 20
-0.7218749999999999
 30
0.0
 11
0.0688696074604557
 21
-0.590625
 31
0.0
  0
LINE
  5
1F1
330
1BB
100
AcDbEntity
  8
AM_9
100
AcDbLine
 10
-0.0780522160952907
 20
-0.7218749999999999
 30
0.0
 11
-0.0780522160952907
 21
-0.590625
 31
0.0
  0
LINE
  5
1F2
330
1BB
100
AcDbEntity
  8
AM_9
100
AcDbLine
 10
-0.224974039751081
 20
-0.7218749999999999
 30
0.0
 11
-0.224974039751081
 21
-0.590625
 31
0.0
  0
LINE
  5
1F3
330
1BB
100
AcDbEntity
  8
AM_9
100
AcDbLine
 10
-0.2004870619250909
 20
-0.7218749999999999
 30
0.0
 11
-0.2004870619250909
 21
-0.590625
 31
0.0
  0
LINE
  5
1F4
330
1BB
100
AcDbEntity
  8
AM_9
100
AcDbLine
 10
-0.1821218447556389
 20
-0.7218749999999999
 30
0.0
 11
-0.1821218447556389
 21
-0.590625
 31
0.0
  0
LINE
  5
1F5
330
1BB
100
AcDbEntity
  8
AM_9
100
AcDbLine
 10
0.0505043795909926
 20
-0.7218749999999999
 30
0.0
 11
0.0505043795909926
 21
-0.590625
 31
0.0
  0
LINE
  5
1F6
330
1BB
100
AcDbEntity
  8
AM_9
100
AcDbLine
 10
-0.243339256920531
 20
-0.7218749999999999
 30
0.0
 11
-0.243339256920531
 21
-0.590625
 31
0.0
  0
LINE
  5
1F7
330
1BB
100
AcDbEntity
  8
AM_9
100
AcDbLine
 10
0.2127305616379964
 20
-0.7218749999999999
 30
0.0
 11
0.2127305616379964
 21
-0.590625
 31
0.0
  0
LINE
  5
1F8
330
1BB
100
AcDbEntity
  8
AM_9
100
AcDbLine
 10
-0.0964174440647421
 20
-0.7218749999999999
 30
0.0
 11
-0.0964174440647421
 21
-0.590625
 31
0.0
  0
LINE
  5
1F9
330
1BB
100
AcDbEntity
  8
AM_9
100
AcDbLine
 10
0.1117218024558974
 20
-0.7218749999999999
 30
0.0
 11
0.1117218024558974
 21
-0.590625
 31
0.0
  0
LINE
  5
1FA
330
1BB
100
AcDbEntity
  8
AM_9
100
AcDbLine
 10
0.0964174494646811
 20
-0.7218749999999999
 30
0.0
 11
0.0964174494646811
 21
-0.590625
 31
0.0
  0
LINE
  5
1FB
330
1BB
100
AcDbEntity
  8
AM_9
100
AcDbLine
 10
-0.1974261924468419
 20
-0.7218749999999999
 30
0.0
 11
-0.1974261924468419
 21
-0.590625
 31
0.0
  0
LINE
  5
1FC
330
1BB
100
AcDbEntity
  8
AM_9
100
AcDbLine
 10
-0.22803490932926
 20
-0.7218749999999999
 30
0.0
 11
-0.22803490932926
 21
-0.590625
 31
0.0
  0
LINE
  5
1FD
330
1BB
100
AcDbEntity
  8
AM_9
100
AcDbLine
 10
-0.0811130856735257
 20
-0.7218749999999999
 30
0.0
 11
-0.0811130856735257
 21
-0.590625
 31
0.0
  0
LINE
  5
1FE
330
1BB
100
AcDbEntity
  8
AM_9
100
AcDbLine
 10
0.0658087379822068
 20
-0.7218749999999999
 30
0.0
 11
0.0658087379822068
 21
-0.590625
 31
0.0
  0
LINE
  5
1FF
330
1BB
100
AcDbEntity
  8
AM_9
100
AcDbLine
 10
0.1943653228685454
 20
-0.7218749999999999
 30
0.0
 11
0.1943653228685454
 21
-0.590625
 31
0.0
  0
LINE
  5
200
330
1BB
100
AcDbEntity
  8
AM_9
100
AcDbLine
 10
0.1209044217906864
 20
-0.7218749999999999
 30
0.0
 11
0.1209044217906864
 21
-0.590625
 31
0.0
  0
LINE
  5
201
330
1BB
100
AcDbEntity
  8
AM_9
100
AcDbLine
 10
-0.2341566483858001
 20
-0.7218749999999999
 30
0.0
 11
-0.2341566483858001
 21
-0.590625
 31
0.0
  0
LINE
  5
202
330
1BB
100
AcDbEntity
  8
AM_9
100
AcDbLine
 10
-0.1913044533903574
 20
-0.7218749999999999
 30
0.0
 11
-0.1913044533903579
 21
-0.590625
 31
0.0
  0
LINE
  5
203
330
1BB
100
AcDbEntity
  8
AM_9
100
AcDbLine
 10
-0.252521865555308
 20
-0.7218749999999999
 30
0.0
 11
-0.252521865555308
 21
-0.590625
 31
0.0
  0
LINE
  5
204
330
1BB
100
AcDbEntity
  8
AM_9
100
AcDbLine
 10
-0.1729392146209069
 20
-0.7218749999999999
 30
0.0
 11
-0.1729392146209069
 21
-0.590625
 31
0.0
  0
LINE
  5
205
330
1BB
100
AcDbEntity
  8
AM_9
100
AcDbLine
 10
0.0413217655562739
 20
-0.7218749999999999
 30
0.0
 11
0.0413217655562739
 21
-0.590625
 31
0.0
  0
LINE
  5
206
330
1BB
100
AcDbEntity
  8
AM_9
100
AcDbLine
 10
0.0596869935257813
 20
-0.7218749999999999
 30
0.0
 11
0.0596869935257813
 21
-0.590625
 31
0.0
  0
LINE
  5
207
330
1BB
100
AcDbEntity
  8
AM_9
100
AcDbLine
 10
0.2096696920597614
 20
-0.7218749999999999
 30
0.0
 11
0.2096696920597614
 21
-0.590625
 31
0.0
  0
LINE
  5
208
330
1BB
100
AcDbEntity
  8
AM_9
100
AcDbLine
 10
0.102539193921165
 20
-0.7218749999999999
 30
0.0
 11
0.1025391939211645
 21
-0.590625
 31
0.0
  0
LINE
  5
209
330
1BB
100
AcDbEntity
  8
AM_9
100
AcDbLine
 10
-0.1056000526995169
 20
-0.7218749999999999
 30
0.0
 11
-0.1056000526995169
 21
-0.590625
 31
0.0
  0
LINE
  5
20A
330
1BB
100
AcDbEntity
  8
AM_9
100
AcDbLine
 10
-0.0872348247300096
 20
-0.7218749999999999
 30
0.0
 11
-0.0872348247300096
 21
-0.590625
 31
0.0
  0
LINE
  5
20B
330
1BB
100
AcDbEntity
  8
AM_9
100
AcDbLine
 10
0.1913044533902994
 20
-0.7218749999999999
 30
0.0
 11
0.1913044533902994
 21
-0.590625
 31
0.0
  0
LINE
  5
20C
330
1BB
100
AcDbEntity
  8
AM_9
100
AcDbLine
 10
-0.2617044956899841
 20
-0.7218749999999999
 30
0.0
 11
-0.2617044956899841
 21
-0.590625
 31
0.0
  0
LINE
  5
20D
330
1BB
100
AcDbEntity
  8
AM_9
100
AcDbLine
 10
0.1300870304254055
 20
-0.7218749999999999
 30
0.0
 11
0.1300870304254055
 21
-0.590625
 31
0.0
  0
LINE
  5
20E
330
1BB
100
AcDbEntity
  8
AM_9
100
AcDbLine
 10
-0.3290436469114161
 20
-0.7218749999999999
 30
0.0
 11
-0.3290436469114161
 21
-0.590625
 31
0.0
  0
LINE
  5
20F
330
1BB
100
AcDbEntity
  8
AM_9
100
AcDbLine
 10
0.0321391529215476
 20
-0.7218749999999999
 30
0.0
 11
0.0321391529215476
 21
-0.590625
 31
0.0
  0
LINE
  5
210
330
1BB
100
AcDbEntity
  8
AM_9
100
AcDbLine
 10
-0.1147826720341939
 20
-0.7218749999999999
 30
0.0
 11
-0.1147826720341939
 21
-0.590625
 31
0.0
  0
LINE
  5
211
330
1BB
100
AcDbEntity
  8
AM_9
100
AcDbLine
 10
0.2555827565334539
 20
-0.7218749999999999
 30
0.0
 11
0.2555827565334539
 21
-0.590625
 31
0.0
  0
LINE
  5
212
330
1BB
100
AcDbEntity
  8
AM_9
100
AcDbLine
 10
0.1821218447555225
 20
-0.7218749999999999
 30
0.0
 11
0.1821218447555225
 21
-0.590625
 31
0.0
  0
LINE
  5
213
330
1BB
100
AcDbEntity
  8
AM_9
100
AcDbLine
 10
-0.0352000157998925
 20
-0.7218749999999999
 30
0.0
 11
-0.0352000157998925
 21
-0.590625
 31
0.0
  0
LINE
  5
214
330
1BB
100
AcDbEntity
  8
AM_9
100
AcDbLine
 10
-0.1637566060861759
 20
-0.7218749999999999
 30
0.0
 11
-0.1637566060861759
 21
-0.590625
 31
0.0
  0
LINE
  5
215
330
1BB
100
AcDbEntity
  8
AM_9
100
AcDbLine
 10
-0.1790609752773919
 20
-0.7218749999999999
 30
0.0
 11
-0.1790609752773919
 21
-0.590625
 31
0.0
  0
LINE
  5
216
330
1BB
100
AcDbEntity
  8
AM_9
100
AcDbLine
 10
-0.0994783136429771
 20
-0.7218749999999999
 30
0.0
 11
-0.0994783136429771
 21
-0.590625
 31
0.0
  0
LINE
  5
217
330
1BB
100
AcDbEntity
  8
AM_9
100
AcDbLine
 10
-0.2464001264987681
 20
-0.7218749999999999
 30
0.0
 11
-0.2464001264987681
 21
-0.590625
 31
0.0
  0
LINE
  5
218
330
1BB
100
AcDbEntity
  8
AM_9
100
AcDbLine
 10
0.0474435100127576
 20
-0.7218749999999999
 30
0.0
 11
0.0474435100127576
 21
-0.590625
 31
0.0
  0
LINE
  5
219
330
1BB
100
AcDbEntity
  8
AM_9
100
AcDbLine
 10
0.1147826720341884
 20
-0.7218749999999999
 30
0.0
 11
0.1147826720341884
 21
-0.590625
 31
0.0
  0
LINE
  5
21A
330
1BB
100
AcDbEntity
  8
AM_9
100
AcDbLine
 10
0.1974261924467804
 20
-0.7218749999999999
 30
0.0
 11
0.1974261924467804
 21
-0.590625
 31
0.0
  0
LINE
  5
21B
330
1BB
100
AcDbEntity
  8
AM_9
100
AcDbLine
 10
-0.1117217917560009
 20
-0.7218749999999999
 30
0.0
 11
-0.1117217917560009
 21
-0.590625
 31
0.0
  0
LINE
  5
21C
330
1BB
100
AcDbEntity
  8
AM_9
100
AcDbLine
 10
0.1270261609471564
 20
-0.7218749999999999
 30
0.0
 11
0.1270261609471564
 21
-0.590625
 31
0.0
  0
LINE
  5
21D
330
1BB
100
AcDbEntity
  8
AM_9
100
AcDbLine
 10
-0.1668174755644229
 20
-0.7218749999999999
 30
0.0
 11
-0.1668174755644229
 21
-0.590625
 31
0.0
  0
LINE
  5
21E
330
1BB
100
AcDbEntity
  8
AM_9
100
AcDbLine
 10
0.035200023799789
 20
-0.7218749999999999
 30
0.0
 11
0.035200023799789
 21
-0.590625
 31
0.0
  0
LINE
  5
21F
330
1BB
100
AcDbEntity
  8
AM_9
100
AcDbLine
 10
0.1851827143338154
 20
-0.7218749999999999
 30
0.0
 11
0.1851827143338154
 21
-0.590625
 31
0.0
  0
LINE
  5
220
330
1BB
100
AcDbEntity
  8
AM_9
100
AcDbLine
 10
-0.2586436261117469
 20
-0.7218749999999999
 30
0.0
 11
-0.2586436261117471
 21
-0.590625
 31
0.0
  0
LINE
  5
221
330
1BB
100
AcDbEntity
  8
AM_9
100
AcDbLine
 10
0.0198956674085485
 20
-0.7218749999999999
 30
0.0
 11
0.0198956674085483
 21
-0.590625
 31
0.0
  0
LINE
  5
222
330
1BB
100
AcDbEntity
  8
AM_9
100
AcDbLine
 10
-0.2739479738029501
 20
-0.7218749999999999
 30
0.0
 11
-0.2739479738029501
 21
-0.590625
 31
0.0
  0
LINE
  5
223
330
1BB
100
AcDbEntity
  8
AM_9
100
AcDbLine
 10
0.1423305193383725
 20
-0.7218749999999999
 30
0.0
 11
0.1423305193383725
 21
-0.590625
 31
0.0
  0
LINE
  5
224
330
1BB
100
AcDbEntity
  8
AM_9
100
AcDbLine
 10
0.2372175178639888
 20
-0.7218749999999999
 30
0.0
 11
0.2372175178639888
 21
-0.590625
 31
0.0
  0
LINE
  5
225
330
1BB
100
AcDbEntity
  8
AM_9
100
AcDbLine
 10
-0.1270261501472169
 20
-0.7218749999999999
 30
0.0
 11
-0.1270261501472169
 21
-0.590625
 31
0.0
  0
LINE
  5
226
330
1BB
100
AcDbEntity
  8
AM_9
100
AcDbLine
 10
0.3474088855808207
 20
-0.7218749999999999
 30
0.0
 11
0.3474088855808208
 21
-0.590625
 31
0.0
  0
LINE
  5
227
330
1BB
100
AcDbEntity
  8
AM_9
100
AcDbLine
 10
0.0688696074604557
 20
-0.590625
 30
0.0
 11
-0.0535652437692857
 21
-0.590625
 31
0.0
  0
LINE
  5
228
330
1BB
100
AcDbEntity
  8
AM_9
100
AcDbLine
 10
-0.0535652437692857
 20
-0.7218749999999999
 30
0.0
 11
-0.0535652437692857
 21
-0.590625
 31
0.0
  0
LINE
  5
229
330
1BB
100
AcDbEntity
  8
AM_9
100
AcDbLine
 10
-0.224974039751081
 20
-0.590625
 30
0.0
 11
-0.3474088855808231
 21
-0.590625
 31
0.0
  0
LINE
  5
22A
330
1BB
100
AcDbEntity
  8
AM_9
100
AcDbLine
 10
-0.3474088855808231
 20
-0.7218749999999999
 30
0.0
 11
-0.3474088855808231
 21
-0.590625
 31
0.0
  0
LINE
  5
22B
330
1BB
100
AcDbEntity
  8
AM_9
100
AcDbLine
 10
0.3474088855808208
 20
-0.590625
 30
0.0
 11
0.2372175178639888
 21
-0.590625
 31
0.0
  0
LINE
  5
22C
330
1BB
100
AcDbEntity
  8
AM_9
100
AcDbLine
 10
0.2127305616379964
 20
-0.590625
 30
0.0
 11
0.0933565798864461
 21
-0.590625
 31
0.0
  0
LINE
  5
22D
330
1BB
100
AcDbEntity
  8
AM_9
100
AcDbLine
 10
0.1698783558425545
 20
-0.7218749999999999
 30
0.0
 11
0.1698783558425545
 21
-0.590625
 31
0.0
  0
LINE
  5
22E
330
1BB
100
AcDbEntity
  8
AM_9
100
AcDbLine
 10
-0.0780522160952907
 20
-0.590625
 30
0.0
 11
-0.2004870619250909
 21
-0.590625
 31
0.0
  0
LINE
  5
22F
330
1BB
100
AcDbEntity
  8
AM_9
100
AcDbLine
 10
-0.1515131279731519
 20
-0.7218749999999999
 30
0.0
 11
-0.1515131279731519
 21
-0.590625
 31
0.0
  0
ELLIPSE
  5
230
330
1BB
100
AcDbEntity
  8
AM_9
100
AcDbEllipse
 10
-1.948557158514987
 20
-0.0000000000000001
 30
0.0
 11
-8.266365894244638E-17
 21
-0.4500000000000002
 31
0.0
210
0.0
220
0.0
230
1.0
 40
0.500000000000001
 41
0.0
 42
6.283185307179586
  0
LINE
  5
231
330
1BB
100
AcDbEntity
  8
AM_7
100
AcDbLine
 10
2.465625
 20
0.0
 30
0.0
 11
4.596875
 21
0.0
 31
0.0
  0
LINE
  5
232
330
1BB
100
AcDbEntity
  8
AM_7
100
AcDbLine
 10
0.0
 20
2.13125
 30
0.0
 11
0.0
 21
-2.13125
 31
0.0
  0
LINE
  5
233
330
1BB
100
AcDbEntity
  8
AM_4
100
AcDbLine
 10
2.937500000000001
 20
0.6234381562499999
 30
0.0
 11
2.9375
 21
0.9687480625000002
 31
0.0
  0
LINE
  5
234
330
1BB
100
AcDbEntity
  8
AM_4
100
AcDbLine
 10
3.5625
 20
0.9687480625000002
 30
0.0
 11
2.9375
 21
0.9687480625000002
 31
0.0
  0
LINE
  5
235
330
1BB
100
AcDbEntity
  8
AM_4
100
AcDbLine
 10
2.9375
 20
-0.9687480625000002
 30
0.0
 11
3.5625
 21
-0.9687480625000002
 31
0.0
  0
LINE
  5
236
330
1BB
100
AcDbEntity
  8
AM_4
100
AcDbLine
 10
2.9375
 20
-0.9687480625000002
 30
0.0
 11
2.9375
 21
-0.62343815625
 31
0.0
  0
LINE
  5
237
330
1BB
100
AcDbEntity
  8
AM_4
100
AcDbLine
 10
3.5625
 20
-0.9687480625000002
 30
0.0
 11
3.5625
 21
0.9687480625000002
 31
0.0
  0
LINE
  5
238
330
1BB
100
AcDbEntity
  8
AM_4
100
AcDbLine
 10
-1.6875
 20
-0.6234381562499997
 30
0.0
 11
-2.25
 21
-0.6234381562499999
 31
0.0
  0
LINE
  5
239
330
1BB
100
AcDbEntity
  8
AM_4
100
AcDbLine
 10
-2.25
 20
0.6234381562499999
 30
0.0
 11
-2.25
 21
-0.6234381562499999
 31
0.0
  0
LINE
  5
23A
330
1BB
100
AcDbEntity
  8
AM_4
100
AcDbLine
 10
-2.25
 20
0.6234381562499999
 30
0.0
 11
-1.6875
 21
0.62343815625
 31
0.0
  0
LINE
  5
23B
330
1BB
100
AcDbEntity
  8
AM_4
100
AcDbLine
 10
3.487499999999999
 20
-0.6234381562499997
 30
0.0
 11
3.487499999999999
 21
0.62343815625
 31
0.0
  0
LINE
  5
23C
330
1BB
100
AcDbEntity
  8
AM_4
100
AcDbLine
 10
1.6875
 20
-0.6234381562499997
 30
0.0
 11
3.5625
 21
-0.6234381562499997
 31
0.0
  0
LINE
  5
23D
330
1BB
100
AcDbEntity
  8
AM_4
100
AcDbLine
 10
3.5625
 20
0.62343815625
 30
0.0
 11
1.6875
 21
0.62343815625
 31
0.0
  0
LINE
  5
23E
330
1BB
100
AcDbEntity
  8
AM_4
100
AcDbLine
 10
1.7625
 20
-0.6234381562499997
 30
0.0
 11
1.7625
 21
0.62343815625
 31
0.0
  0
LINE
  5
23F
330
1BB
100
AcDbEntity
  8
AM_4
100
AcDbLine
 10
1.6875
 20
0.7218750000000002
 30
0.0
 11
-1.6875
 21
0.7218750000000002
 31
0.0
  0
LINE
  5
240
330
1BB
100
AcDbEntity
  8
AM_4
100
AcDbLine
 10
1.650596847918229
 20
-0.6825048999999999
 30
0.0
 11
1.650596847918228
 21
-0.336499327
 31
0.0
  0
LINE
  5
241
330
1BB
100
AcDbEntity
  8
AM_4
100
AcDbLine
 10
-1.6875
 20
0.7218750000000002
 30
0.0
 11
-1.6875
 21
-0.7218749999999999
 31
0.0
  0
LINE
  5
242
330
1BB
100
AcDbEntity
  8
AM_4
100
AcDbLine
 10
1.6875
 20
-0.7218749999999999
 30
0.0
 11
-1.6875
 21
-0.7218749999999999
 31
0.0
  0
LINE
  5
243
330
1BB
100
AcDbEntity
  8
AM_4
100
AcDbLine
 10
1.6875
 20
-0.7218749999999999
 30
0.0
 11
1.6875
 21
0.7218750000000002
 31
0.0
  0
LWPOLYLINE
  5
244
330
1BB
100
AcDbEntity
  8
AM_4
100
AcDbPolyline
 90
       19
 70
     0
 43
0.0
 10
1.6875
 20
-0.72000015
 10
1.68735730117844
 20
-0.7167318096469628
 10
1.686930290737958
 20
-0.7134883433374902
 10
1.68622221848584
 20
-0.7102944358086556
 10
1.685238473279472
 20
-0.7071743946252875
 10
1.683986542013874
 20
-0.7041519651847239
 10
1.682475952641917
 20
-0.7012501500000002
 10
1.680718201660838
 20
-0.6984910336368361
 10
1.678726666616962
 20
-0.6958956146367551
 10
1.676516504294496
 20
-0.6934836457055048
 10
1.674104535363246
 20
-0.6912734833830385
 10
1.671509116363165
 20
-0.689281948339163
 10
1.668750000000001
 20
-0.6875241973580838
 10
1.665848184815277
 20
-0.6860136079861259
 10
1.662825755374713
 20
-0.6847616767205287
 10
1.659705714191345
 20
-0.6837779315141601
 10
1.656511806662511
 20
-0.6830698592620422
 10
1.653268340353038
 20
-0.6826428488215596
 10
1.650596847918228
 20
-0.6825048999999999
  0
LINE
  5
245
330
1BB
100
AcDbEntity
  8
AM_4
100
AcDbLine
 10
1.650596847918229
 20
-0.6825048999999999
 30
0.0
 11
-1.650596847918218
 21
-0.6825048999999999
 31
0.0
  0
LWPOLYLINE
  5
246
330
1BB
100
AcDbEntity
  8
AM_4
100
AcDbPolyline
 90
       19
 70
     0
 43
0.0
 10
-1.650596847918219
 20
-0.6825049000000001
 10
-1.653862503094956
 20
-0.6826995994699953
 10
-1.657098762290898
 20
-0.6831781786522121
 10
-1.660280995619455
 20
-0.6839369952700998
 10
-1.663384984363514
 20
-0.6849702742710101
 10
-1.666387105294492
 20
-0.6862701517778356
 10
-1.669264510459374
 20
-0.6878267349378612
 10
-1.671995301067431
 20
-0.6896281772133489
 10
-1.674558694153238
 20
-0.6916607685408417
 10
-1.676935180747595
 20
-0.693909039673025
 10
-1.679106674352556
 20
-0.6963558799090398
 10
-1.681056648590603
 20
-0.6989826673172475
 10
-1.682770262980358
 20
-0.7017694104593737
 10
-1.684234475881607
 20
-0.7046949005374258
 10
-1.685438143750056
 20
-0.7077368728054503
 10
-1.68637210594643
 20
-0.7108721760176945
 10
-1.687029254454474
 20
-0.7140769486235655
 10
-1.687404587977245
 20
-0.717326800368438
 10
-1.6875
 20
-0.72000015
  0
LINE
  5
247
330
1BB
100
AcDbEntity
  8
AM_4
100
AcDbLine
 10
-1.650596847918228
 20
-0.336499327
 30
0.0
 11
-1.650596847918218
 21
-0.6825048999999999
 31
0.0
  0
LINE
  5
248
330
1BB
100
AcDbEntity
  8
AM_4
100
AcDbLine
 10
-1.6875
 20
-0.336499327
 30
0.0
 11
1.6875
 21
-0.336499327
 31
0.0
  0
LWPOLYLINE
  5
249
330
1BB
100
AcDbEntity
  8
AM_4
100
AcDbPolyline
 90
       19
 70
     0
 43
0.0
 10
-1.6875
 20
0.72000015
 10
-1.68735730117844
 20
0.7167318096469628
 10
-1.686930290737958
 20
0.7134883433374901
 10
-1.68622221848584
 20
0.7102944358086556
 10
-1.685238473279472
 20
0.7071743946252875
 10
-1.683986542013874
 20
0.7041519651847239
 10
-1.682475952641916
 20
0.7012501500000002
 10
-1.680718201660837
 20
0.698491033636836
 10
-1.678726666616962
 20
0.6958956146367549
 10
-1.676516504294495
 20
0.6934836457055046
 10
-1.674104535363245
 20
0.6912734833830385
 10
-1.671509116363164
 20
0.689281948339163
 10
-1.66875
 20
0.6875241973580838
 10
-1.665848184815276
 20
0.6860136079861259
 10
-1.662825755374713
 20
0.6847616767205287
 10
-1.659705714191344
 20
0.6837779315141602
 10
-1.65651180666251
 20
0.6830698592620426
 10
-1.653268340353037
 20
0.6826428488215599
 10
-1.650596847918232
 20
0.6825049000000002
  0
LINE
  5
24A
330
1BB
100
AcDbEntity
  8
AM_4
100
AcDbLine
 10
1.6875
 20
0.3364993270000002
 30
0.0
 11
-1.6875
 21
0.3364993270000002
 31
0.0
  0
LWPOLYLINE
  5
24B
330
1BB
100
AcDbEntity
  8
AM_4
100
AcDbPolyline
 90
       19
 70
     0
 43
0.0
 10
1.650596847918224
 20
0.6825049000000004
 10
1.653862503094961
 20
0.6826995994699961
 10
1.657098762290902
 20
0.6831781786522132
 10
1.66028099561946
 20
0.6839369952701013
 10
1.663384984363518
 20
0.6849702742710121
 10
1.666387105294496
 20
0.6862701517778377
 10
1.669264510459378
 20
0.6878267349378638
 10
1.671995301067435
 20
0.6896281772133519
 10
1.674558694153242
 20
0.6916607685408449
 10
1.676935180747598
 20
0.6939090396730285
 10
1.679106674352559
 20
0.6963558799090436
 10
1.681056648590605
 20
0.6989826673172513
 10
1.68277026298036
 20
0.7017694104593779
 10
1.684234475881609
 20
0.7046949005374301
 10
1.685438143750058
 20
0.7077368728054548
 10
1.686372105946432
 20
0.7108721760176991
 10
1.687029254454475
 20
0.7140769486235701
 10
1.687404587977245
 20
0.7173268003684425
 10
1.6875
 20
0.7200001500000006
  0
LINE
  5
24C
330
1BB
100
AcDbEntity
  8
AM_4
100
AcDbLine
 10
1.650596847918228
 20
0.6825049000000003
 30
0.0
 11
-1.650596847918228
 21
0.6825049000000003
 31
0.0
  0
LINE
  5
24D
330
1BB
100
AcDbEntity
  8
AM_4
100
AcDbLine
 10
-1.650596847918228
 20
0.6825049000000003
 30
0.0
 11
-1.650596847918228
 21
0.3364993270000002
 31
0.0
  0
LINE
  5
24E
330
1BB
100
AcDbEntity
  8
AM_4
100
AcDbLine
 10
1.650596847918229
 20
0.3364993270000002
 30
0.0
 11
1.650596847918228
 21
0.6825049000000003
 31
0.0
  0
ENDBLK
  5
1BE
330
1BB
100
AcDbEntity
  8
0
100
AcDbBlockEnd
  0
ENDSEC
  0
SECTION
  2
ENTITIES
  0
INSERT
  5
6F
330
1F
100
AcDbEntity
  8
0
100
AcDbBlockReference
  2
1_136146_4
 10
0.0
 20
0.0
 30
0.0
  0
POINT
  5
250
330
1F
100
AcDbEntity
  8
ConnectionPoints
100
AcDbPoint
 10
0.0
 20
0.0
 30
0.0
  0
POINT
  5
251
330
1F
100
AcDbEntity
  8
ConnectionPoints
100
AcDbPoint
 10
0.0
 20
0.0
 30
0.0
  0
POINT
  5
252
330
1F
100
AcDbEntity
  8
ConnectionPoints
100
AcDbPoint
 10
0.0
 20
0.65625
 30
0.0
  0
POINT
  5
253
330
1F
100
AcDbEntity
  8
ConnectionPoints
100
AcDbPoint
 10
0.0
 20
0.0
 30
0.0
  0
POINT
  5
254
330
1F
100
AcDbEntity
  8
ConnectionPoints
100
AcDbPoint
 10
0.0
 20
0.0
 30
0.0
  0
POINT
  5
255
330
1F
100
AcDbEntity
  8
ConnectionPoints
100
AcDbPoint
 10
0.0
 20
0.0
 30
0.0
  0
POINT
  5
256
330
1F
100
AcDbEntity
  8
ConnectionPoints
100
AcDbPoint
 10
-2.035159698893431
 20
-0.0000000000000001
 30
-1.175
  0
POINT
  5
257
330
1F
100
AcDbEntity
  8
ConnectionPoints
100
AcDbPoint
 10
0.0
 20
-0.65625
 30
0.0
  0
ENDSEC
  0
SECTION
  2
OBJECTS
  0
DICTIONARY
  5
C
330
0
100
AcDbDictionary
281
     1
  3
ACAD_DETAILVIEWSTYLE
350
25F
  3
ACAD_GROUP
350
D
  3
ACAD_LAYOUT
350
1A
  3
ACAD_MATERIAL
350
43
  3
ACAD_MLEADERSTYLE
350
6B
  3
ACAD_MLINESTYLE
350
17
  3
ACAD_PLOTSETTINGS
350
19
  3
ACAD_PLOTSTYLENAME
350
E
  3
ACAD_SCALELIST
350
47
  3
ACAD_SECTIONVIEWSTYLE
350
260
  3
ACAD_TABLESTYLE
350
69
  3
ACAD_VISUALSTYLE
350
2A
  3
ACDB_RECOMPOSE_DATA
350
25C
  3
AcDbVariableDictionary
350
258
  0
SUN
  5
6D
330
29
100
AcDbSun
 90
        1
290
     0
 63
     7
421
 16777215
 40
1.0
291
     1
 91
  2455826
 92
 54000000
292
     0
 70
     2
 71
   256
280
     1
  0
DICTIONARY
  5
25F
102
{ACAD_REACTORS
330
C
102
}
330
C
100
AcDbDictionary
281
     1
  0
DICTIONARY
  5
D
102
{ACAD_REACTORS
330
C
102
}
330
C
100
AcDbDictionary
281
     1
  0
DICTIONARY
  5
1A
102
{ACAD_REACTORS
330
C
102
}
330
C
100
AcDbDictionary
281
     1
  3
Layout1
350
1E
  3
Layout2
350
26
  3
Model
350
22
  0
DICTIONARY
  5
43
102
{ACAD_REACTORS
330
C
102
}
330
C
100
AcDbDictionary
281
     1
  3
ByBlock
350
45
  3
ByLayer
350
44
  3
Global
350
46
  0
DICTIONARY
  5
6B
102
{ACAD_REACTORS
330
C
102
}
330
C
100
AcDbDictionary
281
     1
  3
Standard
350
6C
  0
DICTIONARY
  5
17
102
{ACAD_REACTORS
330
C
102
}
330
C
100
AcDbDictionary
281
     1
  3
Standard
350
18
  0
DICTIONARY
  5
19
102
{ACAD_REACTORS
330
C
102
}
330
C
100
AcDbDictionary
281
     1
  0
ACDBDICTIONARYWDFLT
  5
E
102
{ACAD_REACTORS
330
C
102
}
330
C
100
AcDbDictionary
281
     1
  3
Normal
350
F
100
AcDbDictionaryWithDefault
340
F
  0
DICTIONARY
  5
47
102
{ACAD_REACTORS
330
C
102
}
330
C
100
AcDbDictionary
281
     1
  3
A0
350
48
  3
A1
350
49
  3
A2
350
4A
  3
A3
350
4B
  3
A4
350
4C
  3
A5
350
4D
  3
A6
350
4E
  3
A7
350
4F
  3
A8
350
50
  3
A9
350
51
  3
B0
350
52
  3
B1
350
53
  3
B2
350
54
  3
B3
350
55
  3
B4
350
56
  3
B5
350
57
  3
B6
350
58
  3
B7
350
59
  3
B8
350
5A
  3
B9
350
5B
  3
C0
350
5C
  3
C1
350
5D
  3
C2
350
5E
  3
C3
350
5F
  3
C4
350
60
  3
C5
350
61
  3
C6
350
62
  3
C7
350
63
  3
C8
350
64
  3
C9
350
65
  3
D0
350
66
  3
D1
350
67
  3
D2
350
68
  0
DICTIONARY
  5
260
102
{ACAD_REACTORS
330
C
102
}
330
C
100
AcDbDictionary
281
     1
  0
DICTIONARY
  5
69
102
{ACAD_REACTORS
330
C
102
}
330
C
100
AcDbDictionary
281
     1
  3
Standard
350
6A
  0
DICTIONARY
  5
2A
102
{ACAD_REACTORS
330
C
102
}
330
C
100
AcDbDictionary
281
     1
  3
2dWireframe
350
2F
  3
Basic
350
32
  3
Brighten
350
36
  3
ColorChange
350
3A
  3
Conceptual
350
34
  3
Dim
350
35
  3
EdgeColorOff
350
3D
  3
Facepattern
350
39
  3
Flat
350
2B
  3
FlatWithEdges
350
2C
  3
Gouraud
350
2D
  3
GouraudWithEdges
350
2E
  3
Hidden
350
31
  3
JitterOff
350
3B
  3
Linepattern
350
38
  3
OverhangOff
350
3C
  3
Realistic
350
33
  3
Shaded
350
42
  3
Shaded with edges
350
41
  3
Shades of Gray
350
3E
  3
Sketchy
350
3F
  3
Thicken
350
37
  3
Wireframe
350
30
  3
X-Ray
350
40
  0
XRECORD
  5
25C
102
{ACAD_REACTORS
330
C
102
}
330
C
100
AcDbXrecord
280
     1
 90
        1
330
6A
  0
DICTIONARY
  5
258
102
{ACAD_REACTORS
330
C
102
}
330
C
100
AcDbDictionary
281
     1
  3
CANNOSCALE
350
259
  3
CMLEADERSTYLE
350
25E
  3
CTABLESTYLE
350
25D
  0
LAYOUT
  5
1E
102
{ACAD_REACTORS
330
1A
102
}
330
1A
100
AcDbPlotSettings
  1

  2
none_device
  4

  6

 40
0.0
 41
0.0
 42
0.0
 43
0.0
 44
0.0
 45
0.0
 46
0.0
 47
0.0
 48
0.0
 49
0.0
140
0.0
141
0.0
142
1.0
143
1.0
 70
   688
 72
     0
 73
     0
 74
     5
  7

 75
    16
 76
     0
 77
     2
 78
   300
147
1.0
148
0.0
149
0.0
100
AcDbLayout
  1
Layout1
 70
     1
 71
     1
 10
0.0
 20
0.0
 11
12.0
 21
9.0
 12
0.0
 22
0.0
 32
0.0
 14
1.000000000000000E+20
 24
1.000000000000000E+20
 34
1.000000000000000E+20
 15
-1.000000000000000E+20
 25
-1.000000000000000E+20
 35
-1.000000000000000E+20
146
0.0
 13
0.0
 23
0.0
 33
0.0
 16
1.0
 26
0.0
 36
0.0
 17
0.0
 27
1.0
 37
0.0
 76
     0
330
1B
  0
LAYOUT
  5
26
102
{ACAD_REACTORS
330
1A
102
}
330
1A
100
AcDbPlotSettings
  1

  2
none_device
  4

  6

 40
0.0
 41
0.0
 42
0.0
 43
0.0
 44
0.0
 45
0.0
 46
0.0
 47
0.0
 48
0.0
 49
0.0
140
0.0
141
0.0
142
1.0
143
1.0
 70
   688
 72
     0
 73
     0
 74
     5
  7

 75
    16
 76
     0
 77
     2
 78
   300
147
1.0
148
0.0
149
0.0
100
AcDbLayout
  1
Layout2
 70
     1
 71
     2
 10
0.0
 20
0.0
 11
0.0
 21
0.0
 12
0.0
 22
0.0
 32
0.0
 14
0.0
 24
0.0
 34
0.0
 15
0.0
 25
0.0
 35
0.0
146
0.0
 13
0.0
 23
0.0
 33
0.0
 16
1.0
 26
0.0
 36
0.0
 17
0.0
 27
1.0
 37
0.0
 76
     0
330
23
  0
LAYOUT
  5
22
102
{ACAD_REACTORS
330
1A
102
}
330
1A
100
AcDbPlotSettings
  1

  2
none_device
  4
Letter_(8.50_x_11.00_Inches)
  6

 40
6.35
 41
6.35
 42
6.35000508
 43
6.35000508
 44
215.9
 45
279.4
 46
0.0
 47
0.0
 48
0.0
 49
0.0
140
0.0
141
0.0
142
1.0
143
1.0
 70
  1712
 72
     0
 73
     0
 74
     0
  7

 75
     0
 76
     0
 77
     2
 78
   300
147
1.0
148
0.0
149
0.0
100
AcDbLayout
  1
Model
 70
     1
 71
     0
 10
0.0
 20
0.0
 11
12.0
 21
9.0
 12
0.0
 22
0.0
 32
0.0
 14
1.000000000000000E+20
 24
1.000000000000000E+20
 34
1.000000000000000E+20
 15
-1.000000000000000E+20
 25
-1.000000000000000E+20
 35
-1.000000000000000E+20
146
0.0
 13
0.0
 23
0.0
 33
0.0
 16
1.0
 26
0.0
 36
0.0
 17
0.0
 27
1.0
 37
0.0
 76
     0
330
1F
331
29
  0
MATERIAL
  5
45
102
{ACAD_REACTORS
330
43
102
}
330
43
100
AcDbMaterial
  1
ByBlock
 72
     1
 94
      127
  0
MATERIAL
  5
44
102
{ACAD_REACTORS
330
43
102
}
330
43
100
AcDbMaterial
  1
ByLayer
 72
     1
 94
      127
  0
MATERIAL
  5
46
102
{ACAD_REACTORS
330
43
102
}
330
43
100
AcDbMaterial
  1
Global
 72
     1
 94
      127
  0
MLEADERSTYLE
  5
6C
102
{ACAD_REACTORS
330
6B
102
}
330
6B
100
AcDbMLeaderStyle
179
     2
170
     2
171
     1
172
     0
 90
        2
 40
0.0
 41
0.0
173
     1
 91
-1056964608
340
14
 92
       -2
290
     1
 42
0.09
291
     1
 43
0.36
  3
Standard
341
0
 44
0.18
300

342
11
174
     1
178
     6
175
     1
176
     0
 93
-1056964608
 45
0.18
292
     0
297
     0
 46
0.18
343
0
 94
-1056964608
 47
1.0
 49
1.0
140
1.0
293
     1
141
0.0
294
     1
177
     0
142
1.0
295
     0
296
     0
143
0.125
271
     0
272
     9
273
     9
298
     0
  0
MLINESTYLE
  5
18
102
{ACAD_REACTORS
330
17
102
}
330
17
100
AcDbMlineStyle
  2
Standard
 70
     0
  3

 62
   256
 51
90.0
 52
90.0
 71
     2
 49
0.5
 62
   256
  6
BYLAYER
 49
-0.5
 62
   256
  6
BYLAYER
  0
ACDBPLACEHOLDER
  5
F
102
{ACAD_REACTORS
330
E
102
}
330
E
  0
SCALE
  5
48
102
{ACAD_REACTORS
330
47
102
}
330
47
100
AcDbScale
 70
     0
300
1:1
140
1.0
141
1.0
290
     1
  0
SCALE
  5
49
102
{ACAD_REACTORS
330
47
102
}
330
47
100
AcDbScale
 70
     0
300
1:2
140
1.0
141
2.0
290
     0
  0
SCALE
  5
4A
102
{ACAD_REACTORS
330
47
102
}
330
47
100
AcDbScale
 70
     0
300
1:4
140
1.0
141
4.0
290
     0
  0
SCALE
  5
4B
102
{ACAD_REACTORS
330
47
102
}
330
47
100
AcDbScale
 70
     0
300
1:5
140
1.0
141
5.0
290
     0
  0
SCALE
  5
4C
102
{ACAD_REACTORS
330
47
102
}
330
47
100
AcDbScale
 70
     0
300
1:8
140
1.0
141
8.0
290
     0
  0
SCALE
  5
4D
102
{ACAD_REACTORS
330
47
102
}
330
47
100
AcDbScale
 70
     0
300
1:10
140
1.0
141
10.0
290
     0
  0
SCALE
  5
4E
102
{ACAD_REACTORS
330
47
102
}
330
47
100
AcDbScale
 70
     0
300
1:16
140
1.0
141
16.0
290
     0
  0
SCALE
  5
4F
102
{ACAD_REACTORS
330
47
102
}
330
47
100
AcDbScale
 70
     0
300
1:20
140
1.0
141
20.0
290
     0
  0
SCALE
  5
50
102
{ACAD_REACTORS
330
47
102
}
330
47
100
AcDbScale
 70
     0
300
1:30
140
1.0
141
30.0
290
     0
  0
SCALE
  5
51
102
{ACAD_REACTORS
330
47
102
}
330
47
100
AcDbScale
 70
     0
300
1:40
140
1.0
141
40.0
290
     0
  0
SCALE
  5
52
102
{ACAD_REACTORS
330
47
102
}
330
47
100
AcDbScale
 70
     0
300
1:50
140
1.0
141
50.0
290
     0
  0
SCALE
  5
53
102
{ACAD_REACTORS
330
47
102
}
330
47
100
AcDbScale
 70
     0
300
1:100
140
1.0
141
100.0
290
     0
  0
SCALE
  5
54
102
{ACAD_REACTORS
330
47
102
}
330
47
100
AcDbScale
 70
     0
300
2:1
140
2.0
141
1.0
290
     0
  0
SCALE
  5
55
102
{ACAD_REACTORS
330
47
102
}
330
47
100
AcDbScale
 70
     0
300
4:1
140
4.0
141
1.0
290
     0
  0
SCALE
  5
56
102
{ACAD_REACTORS
330
47
102
}
330
47
100
AcDbScale
 70
     0
300
8:1
140
8.0
141
1.0
290
     0
  0
SCALE
  5
57
102
{ACAD_REACTORS
330
47
102
}
330
47
100
AcDbScale
 70
     0
300
10:1
140
10.0
141
1.0
290
     0
  0
SCALE
  5
58
102
{ACAD_REACTORS
330
47
102
}
330
47
100
AcDbScale
 70
     0
300
100:1
140
100.0
141
1.0
290
     0
  0
SCALE
  5
59
102
{ACAD_REACTORS
330
47
102
}
330
47
100
AcDbScale
 70
     0
300
1/128" = 1'-0"
140
0.0078125
141
12.0
290
     0
  0
SCALE
  5
5A
102
{ACAD_REACTORS
330
47
102
}
330
47
100
AcDbScale
 70
     0
300
1/64" = 1'-0"
140
0.015625
141
12.0
290
     0
  0
SCALE
  5
5B
102
{ACAD_REACTORS
330
47
102
}
330
47
100
AcDbScale
 70
     0
300
1/32" = 1'-0"
140
0.03125
141
12.0
290
     0
  0
SCALE
  5
5C
102
{ACAD_REACTORS
330
47
102
}
330
47
100
AcDbScale
 70
     0
300
1/16" = 1'-0"
140
0.0625
141
12.0
290
     0
  0
SCALE
  5
5D
102
{ACAD_REACTORS
330
47
102
}
330
47
100
AcDbScale
 70
     0
300
3/32" = 1'-0"
140
0.09375
141
12.0
290
     0
  0
SCALE
  5
5E
102
{ACAD_REACTORS
330
47
102
}
330
47
100
AcDbScale
 70
     0
300
1/8" = 1'-0"
140
0.125
141
12.0
290
     0
  0
SCALE
  5
5F
102
{ACAD_REACTORS
330
47
102
}
330
47
100
AcDbScale
 70
     0
300
3/16" = 1'-0"
140
0.1875
141
12.0
290
     0
  0
SCALE
  5
60
102
{ACAD_REACTORS
330
47
102
}
330
47
100
AcDbScale
 70
     0
300
1/4" = 1'-0"
140
0.25
141
12.0
290
     0
  0
SCALE
  5
61
102
{ACAD_REACTORS
330
47
102
}
330
47
100
AcDbScale
 70
     0
300
3/8" = 1'-0"
140
0.375
141
12.0
290
     0
  0
SCALE
  5
62
102
{ACAD_REACTORS
330
47
102
}
330
47
100
AcDbScale
 70
     0
300
1/2" = 1'-0"
140
0.5
141
12.0
290
     0
  0
SCALE
  5
63
102
{ACAD_REACTORS
330
47
102
}
330
47
100
AcDbScale
 70
     0
300
3/4" = 1'-0"
140
0.75
141
12.0
290
     0
  0
SCALE
  5
64
102
{ACAD_REACTORS
330
47
102
}
330
47
100
AcDbScale
 70
     0
300
1" = 1'-0"
140
1.0
141
12.0
290
     0
  0
SCALE
  5
65
102
{ACAD_REACTORS
330
47
102
}
330
47
100
AcDbScale
 70
     0
300
1-1/2" = 1'-0"
140
1.5
141
12.0
290
     0
  0
SCALE
  5
66
102
{ACAD_REACTORS
330
47
102
}
330
47
100
AcDbScale
 70
     0
300
3" = 1'-0"
140
3.0
141
12.0
290
     0
  0
SCALE
  5
67
102
{ACAD_REACTORS
330
47
102
}
330
47
100
AcDbScale
 70
     0
300
6" = 1'-0"
140
6.0
141
12.0
290
     0
  0
SCALE
  5
68
102
{ACAD_REACTORS
330
47
102
}
330
47
100
AcDbScale
 70
     0
300
1'-0" = 1'-0"
140
12.0
141
12.0
290
     0
  0
TABLESTYLE
  5
6A
102
{ACAD_REACTORS
330
69
102
}
102
{ACAD_XDICTIONARY
360
25A
102
}
330
69
100
AcDbTableStyle
  3
Standard
 70
     0
 71
     0
 40
0.06
 41
0.06
280
     0
281
     0
  7
Standard
140
0.18
170
     2
 62
     0
 63
   257
283
     0
 90
        4
 91
        0
  1

274
    -2
284
     1
 64
     0
275
    -2
285
     1
 65
     0
276
    -2
286
     1
 66
     0
277
    -2
287
     1
 67
     0
278
    -2
288
     1
 68
     0
279
    -2
289
     1
 69
     0
  7
Standard
140
0.25
170
     5
 62
     0
 63
   257
283
     0
 90
        4
 91
        0
  1

274
    -2
284
     1
 64
     0
275
    -2
285
     1
 65
     0
276
    -2
286
     1
 66
     0
277
    -2
287
     1
 67
     0
278
    -2
288
     1
 68
     0
279
    -2
289
     1
 69
     0
  7
Standard
140
0.18
170
     5
 62
     0
 63
   257
283
     0
 90
        4
 91
        0
  1

274
    -2
284
     1
 64
     0
275
    -2
285
     1
 65
     0
276
    -2
286
     1
 66
     0
277
    -2
287
     1
 67
     0
278
    -2
288
     1
 68
     0
279
    -2
289
     1
 69
     0
  0
VISUALSTYLE
  5
2F
102
{ACAD_REACTORS
330
2A
102
}
330
2A
100
AcDbVisualStyle
  2
2dWireframe
 70
     4
177
     3
291
     0
 70
    58
 90
        0
176
     1
 90
        2
176
     1
 90
        0
176
     1
 90
        0
176
     1
 40
0.6
176
     1
 40
30.0
176
     1
 62
     7
420
 16777215
176
     1
 90
        1
176
     1
 90
        4
176
     1
 62
     7
176
     1
 62
   257
176
     1
 90
        1
176
     1
 90
        1
176
     1
 40
1.0
176
     1
 90
        0
176
     1
 62
   257
176
     1
 40
1.0
176
     1
 90
        1
176
     1
 90
        6
176
     1
 90
        2
176
     1
 62
     7
176
     1
 90
        5
176
     1
 90
        0
176
     1
 90
        0
176
     1
290
     0
176
     1
 90
        1
176
     1
 40
0.0
176
     1
 90
        0
176
     1
290
     1
176
     1
290
     1
176
     1
290
     0
176
     1
290
     0
176
     1
290
     0
176
     1
290
     0
176
     1
290
     0
176
     1
290
     0
176
     1
290
     0
176
     1
 90
       50
176
     1
 40
0.0
176
     1
 40
1.0
176
     1
 90
        0
176
     1
 62
    18
420
        0
176
     1
 90
       50
176
     1
 90
        3
176
     1
 62
     5
420
      255
176
     1
290
     0
176
     1
 90
       50
176
     1
 90
       50
176
     1
 90
       50
176
     1
290
     0
176
     1
 90
       50
176
     1
 62
   256
176
     0
 40
1.0
176
     0
 90
        2
176
     1
  1
strokes_ogs.tif
176
     1
290
     0
176
     1
 40
1.0
176
     1
 40
1.0
176
     1
  0
VISUALSTYLE
  5
32
102
{ACAD_REACTORS
330
2A
102
}
330
2A
100
AcDbVisualStyle
  2
Basic
 70
     7
177
     3
291
     1
 70
    58
 90
        1
176
     1
 90
        0
176
     1
 90
        1
176
     1
 90
        0
176
     1
 40
0.6
176
     1
 40
30.0
176
     1
 62
     7
420
 16777215
176
     1
 90
        0
176
     1
 90
        4
176
     1
 62
     7
176
     1
 62
   257
176
     1
 90
        1
176
     1
 90
        1
176
     1
 40
1.0
176
     1
 90
        8
176
     1
 62
     7
176
     1
 40
1.0
176
     1
 90
        1
176
     1
 90
        6
176
     1
 90
        2
176
     1
 62
     7
176
     1
 90
        5
176
     1
 90
        0
176
     1
 90
        0
176
     1
290
     0
176
     1
 90
        1
176
     1
 40
0.0
176
     1
 90
        0
176
     1
290
     0
176
     1
290
     1
176
     1
290
     1
176
     1
290
     0
176
     1
290
     0
176
     1
290
     0
176
     1
290
     0
176
     1
290
     0
176
     1
290
     0
176
     1
 90
       50
176
     1
 40
0.0
176
     1
 40
1.0
176
     1
 90
        0
176
     1
 62
    18
420
        0
176
     1
 90
       50
176
     1
 90
        3
176
     1
 62
     5
420
      255
176
     1
290
     0
176
     1
 90
       50
176
     1
 90
       50
176
     1
 90
       50
176
     1
290
     0
176
     1
 90
       50
176
     1
 62
   256
176
     0
 40
1.0
176
     0
 90
        2
176
     1
  1
strokes_ogs.tif
176
     1
290
     0
176
     1
 40
1.0
176
     1
 40
1.0
176
     1
  0
VISUALSTYLE
  5
36
102
{ACAD_REACTORS
330
2A
102
}
330
2A
100
AcDbVisualStyle
  2
Brighten
 70
    12
177
     3
291
     1
 70
    58
 90
        2
176
     1
 90
        2
176
     1
 90
        0
176
     1
 90
        0
176
     1
 40
0.6
176
     1
 40
30.0
176
     1
 62
     7
420
 16777215
176
     1
 90
        1
176
     1
 90
        4
176
     1
 62
     7
176
     1
 62
   257
176
     1
 90
        1
176
     1
 90
        1
176
     1
 40
1.0
176
     1
 90
        8
176
     1
 62
     7
176
     1
 40
1.0
176
     1
 90
        1
176
     1
 90
        6
176
     1
 90
        2
176
     1
 62
     7
176
     1
 90
        5
176
     1
 90
        0
176
     1
 90
        0
176
     1
290
     0
176
     1
 90
        1
176
     1
 40
50.0
176
     1
 90
        0
176
     1
290
     0
176
     1
290
     1
176
     1
290
     1
176
     1
290
     0
176
     1
290
     0
176
     1
290
     0
176
     1
290
     0
176
     1
290
     0
176
     1
290
     0
176
     1
 90
       50
176
     1
 40
0.0
176
     1
 40
1.0
176
     1
 90
        0
176
     1
 62
    18
420
        0
176
     1
 90
       50
176
     1
 90
        3
176
     1
 62
     5
420
      255
176
     1
290
     0
176
     1
 90
       50
176
     1
 90
       50
176
     1
 90
       50
176
     1
290
     0
176
     1
 90
       50
176
     1
 62
   256
176
     0
 40
1.0
176
     0
 90
        2
176
     1
  1
strokes_ogs.tif
176
     1
290
     0
176
     1
 40
1.0
176
     1
 40
1.0
176
     1
  0
VISUALSTYLE
  5
3A
102
{ACAD_REACTORS
330
2A
102
}
330
2A
100
AcDbVisualStyle
  2
ColorChange
 70
    16
177
     3
291
     1
 70
    58
 90
        2
176
     1
 90
        2
176
     1
 90
        3
176
     1
 90
        0
176
     1
 40
0.6
176
     1
 40
30.0
176
     1
 62
     8
420
  8421504
176
     1
 90
        1
176
     1
 90
        4
176
     1
 62
     7
176
     1
 62
   257
176
     1
 90
        1
176
     1
 90
        1
176
     1
 40
1.0
176
     1
 90
        8
176
     1
 62
     8
420
  8421504
176
     1
 40
1.0
176
     1
 90
        1
176
     1
 90
        6
176
     1
 90
        2
176
     1
 62
     7
176
     1
 90
        5
176
     1
 90
        0
176
     1
 90
        0
176
     1
290
     0
176
     1
 90
        1
176
     1
 40
0.0
176
     1
 90
        0
176
     1
290
     0
176
     1
290
     1
176
     1
290
     1
176
     1
290
     0
176
     1
290
     0
176
     1
290
     0
176
     1
290
     0
176
     1
290
     0
176
     1
290
     0
176
     1
 90
       50
176
     1
 40
0.0
176
     1
 40
1.0
176
     1
 90
        0
176
     1
 62
    18
420
        0
176
     1
 90
       50
176
     1
 90
        3
176
     1
 62
     5
420
      255
176
     1
290
     0
176
     1
 90
       50
176
     1
 90
       50
176
     1
 90
       50
176
     1
290
     0
176
     1
 90
       50
176
     1
 62
   256
176
     0
 40
1.0
176
     0
 90
        2
176
     1
  1
strokes_ogs.tif
176
     1
290
     0
176
     1
 40
1.0
176
     1
 40
1.0
176
     1
  0
VISUALSTYLE
  5
34
102
{ACAD_REACTORS
330
2A
102
}
330
2A
100
AcDbVisualStyle
  2
Conceptual
 70
     9
177
     3
291
     0
 70
    58
 90
        3
176
     1
 90
        2
176
     1
 90
        0
176
     1
 90
        0
176
     1
 40
0.6
176
     1
 40
30.0
176
     1
 62
     7
420
 16777215
176
     1
 90
        2
176
     1
 90
        2
176
     1
 62
     7
176
     1
 62
   257
176
     1
 90
        1
176
     1
 90
        1
176
     1
 40
179.0
176
     1
 90
        8
176
     1
 62
     7
176
     1
 40
1.0
176
     1
 90
        1
176
     1
 90
        6
176
     1
 90
        2
176
     1
 62
     7
176
     1
 90
        3
176
     1
 90
        0
176
     1
 90
        0
176
     1
290
     0
176
     1
 90
        1
176
     1
 40
0.0
176
     1
 90
        0
176
     1
290
     0
176
     1
290
     1
176
     1
290
     1
176
     1
290
     0
176
     1
290
     0
176
     1
290
     0
176
     1
290
     0
176
     1
290
     0
176
     1
290
     0
176
     1
 90
       50
176
     1
 40
0.0
176
     1
 40
1.0
176
     1
 90
        0
176
     1
 62
    18
420
        0
176
     1
 90
       50
176
     1
 90
        3
176
     1
 62
     5
420
      255
176
     1
290
     0
176
     1
 90
       50
176
     1
 90
       50
176
     1
 90
       50
176
     1
290
     0
176
     1
 90
       50
176
     1
 62
   256
176
     0
 40
1.0
176
     0
 90
        2
176
     1
  1
strokes_ogs.tif
176
     1
290
     0
176
     1
 40
1.0
176
     1
 40
1.0
176
     1
  0
VISUALSTYLE
  5
35
102
{ACAD_REACTORS
330
2A
102
}
330
2A
100
AcDbVisualStyle
  2
Dim
 70
    11
177
     3
291
     1
 70
    58
 90
        2
176
     1
 90
        2
176
     1
 90
        0
176
     1
 90
        0
176
     1
 40
0.6
176
     1
 40
30.0
176
     1
 62
     7
420
 16777215
176
     1
 90
        1
176
     1
 90
        4
176
     1
 62
     7
176
     1
 62
   257
176
     1
 90
        1
176
     1
 90
        1
176
     1
 40
1.0
176
     1
 90
        8
176
     1
 62
     7
176
     1
 40
1.0
176
     1
 90
        1
176
     1
 90
        6
176
     1
 90
        2
176
     1
 62
     7
176
     1
 90
        5
176
     1
 90
        0
176
     1
 90
        0
176
     1
290
     0
176
     1
 90
        1
176
     1
 40
-50.0
176
     1
 90
        0
176
     1
290
     0
176
     1
290
     1
176
     1
290
     1
176
     1
290
     0
176
     1
290
     0
176
     1
290
     0
176
     1
290
     0
176
     1
290
     0
176
     1
290
     0
176
     1
 90
       50
176
     1
 40
0.0
176
     1
 40
1.0
176
     1
 90
        0
176
     1
 62
    18
420
        0
176
     1
 90
       50
176
     1
 90
        3
176
     1
 62
     5
420
      255
176
     1
290
     0
176
     1
 90
       50
176
     1
 90
       50
176
     1
 90
       50
176
     1
290
     0
176
     1
 90
       50
176
     1
 62
   256
176
     0
 40
1.0
176
     0
 90
        2
176
     1
  1
strokes_ogs.tif
176
     1
290
     0
176
     1
 40
1.0
176
     1
 40
1.0
176
     1
  0
VISUALSTYLE
  5
3D
102
{ACAD_REACTORS
330
2A
102
}
330
2A
100
AcDbVisualStyle
  2
EdgeColorOff
 70
    22
177
     3
291
     1
 70
    58
 90
        2
176
     0
 90
        2
176
     0
 90
        0
176
     0
 90
        0
176
     0
 40
0.6
176
     0
 40
30.0
176
     0
 62
     7
420
 16777215
176
     0
 90
        1
176
     0
 90
        4
176
     0
 62
     7
176
     0
 62
   257
176
     0
 90
        1
176
     0
 90
        1
176
     0
 40
1.0
176
     0
 90
        8
176
     2
 62
     7
176
     0
 40
1.0
176
     0
 90
        1
176
     0
 90
        6
176
     0
 90
        2
176
     0
 62
     7
176
     0
 90
        5
176
     0
 90
        0
176
     0
 90
        0
176
     0
290
     0
176
     0
 90
        1
176
     0
 40
0.0
176
     0
 90
        0
176
     0
290
     0
176
     0
290
     1
176
     0
290
     1
176
     0
290
     0
176
     0
290
     0
176
     0
290
     0
176
     0
290
     0
176
     0
290
     0
176
     0
290
     0
176
     0
 90
       50
176
     0
 40
0.0
176
     0
 40
1.0
176
     0
 90
        0
176
     0
 62
    18
420
        0
176
     0
 90
       50
176
     0
 90
        3
176
     0
 62
     5
420
      255
176
     0
290
     0
176
     0
 90
       50
176
     0
 90
       50
176
     0
 90
       50
176
     0
290
     0
176
     0
 90
       50
176
     0
 62
   256
176
     0
 40
1.0
176
     0
 90
        2
176
     0
  1
strokes_ogs.tif
176
     0
290
     0
176
     0
 40
1.0
176
     0
 40
1.0
176
     0
  0
VISUALSTYLE
  5
39
102
{ACAD_REACTORS
330
2A
102
}
330
2A
100
AcDbVisualStyle
  2
Facepattern
 70
    15
177
     3
291
     1
 70
    58
 90
        2
176
     1
 90
        2
176
     1
 90
        0
176
     1
 90
        0
176
     1
 40
0.6
176
     1
 40
30.0
176
     1
 62
     7
420
 16777215
176
     1
 90
        1
176
     1
 90
        4
176
     1
 62
     7
176
     1
 62
   257
176
     1
 90
        1
176
     1
 90
        1
176
     1
 40
1.0
176
     1
 90
        8
176
     1
 62
     7
176
     1
 40
1.0
176
     1
 90
        1
176
     1
 90
        6
176
     1
 90
        2
176
     1
 62
     7
176
     1
 90
        5
176
     1
 90
        0
176
     1
 90
        0
176
     1
290
     0
176
     1
 90
        1
176
     1
 40
0.0
176
     1
 90
        0
176
     1
290
     0
176
     1
290
     1
176
     1
290
     1
176
     1
290
     0
176
     1
290
     0
176
     1
290
     0
176
     1
290
     0
176
     1
290
     0
176
     1
290
     0
176
     1
 90
       50
176
     1
 40
0.0
176
     1
 40
1.0
176
     1
 90
        0
176
     1
 62
    18
420
        0
176
     1
 90
       50
176
     1
 90
        3
176
     1
 62
     5
420
      255
176
     1
290
     0
176
     1
 90
       50
176
     1
 90
       50
176
     1
 90
       50
176
     1
290
     0
176
     1
 90
       50
176
     1
 62
   256
176
     0
 40
1.0
176
     0
 90
        2
176
     1
  1
strokes_ogs.tif
176
     1
290
     0
176
     1
 40
1.0
176
     1
 40
1.0
176
     1
  0
VISUALSTYLE
  5
2B
102
{ACAD_REACTORS
330
2A
102
}
330
2A
100
AcDbVisualStyle
  2
Flat
 70
     0
177
     3
291
     1
 70
    58
 90
        2
176
     1
 90
        1
176
     1
 90
        1
176
     1
 90
        2
176
     1
 40
0.6
176
     1
 40
30.0
176
     1
 62
     7
420
 16777215
176
     1
 90
        0
176
     1
 90
        0
176
     1
 62
     7
176
     1
 62
   257
176
     1
 90
        1
176
     1
 90
        1
176
     1
 40
1.0
176
     1
 90
        8
176
     1
 62
     7
176
     1
 40
1.0
176
     1
 90
        1
176
     1
 90
        6
176
     1
 90
        2
176
     1
 62
     7
176
     1
 90
        5
176
     1
 90
        0
176
     1
 90
        0
176
     1
290
     0
176
     1
 90
       13
176
     1
 40
0.0
176
     1
 90
        0
176
     1
290
     0
176
     1
290
     1
176
     1
290
     1
176
     1
290
     0
176
     1
290
     0
176
     1
290
     0
176
     1
290
     0
176
     1
290
     0
176
     1
290
     0
176
     1
 90
       50
176
     1
 40
0.0
176
     1
 40
1.0
176
     1
 90
        0
176
     1
 62
    18
420
        0
176
     1
 90
       50
176
     1
 90
        3
176
     1
 62
     5
420
      255
176
     1
290
     0
176
     1
 90
       50
176
     1
 90
       50
176
     1
 90
       50
176
     1
290
     0
176
     1
 90
       50
176
     1
 62
   256
176
     0
 40
1.0
176
     0
 90
        2
176
     1
  1
strokes_ogs.tif
176
     1
290
     0
176
     1
 40
1.0
176
     1
 40
1.0
176
     1
  0
VISUALSTYLE
  5
2C
102
{ACAD_REACTORS
330
2A
102
}
330
2A
100
AcDbVisualStyle
  2
FlatWithEdges
 70
     1
177
     3
291
     1
 70
    58
 90
        2
176
     1
 90
        1
176
     1
 90
        1
176
     1
 90
        2
176
     1
 40
0.6
176
     1
 40
30.0
176
     1
 62
     7
420
 16777215
176
     1
 90
        1
176
     1
 90
        0
176
     1
 62
     7
176
     1
 62
   257
176
     1
 90
        1
176
     1
 90
        1
176
     1
 40
1.0
176
     1
 90
        0
176
     1
 62
   257
176
     1
 40
1.0
176
     1
 90
        1
176
     1
 90
        6
176
     1
 90
        2
176
     1
 62
     7
176
     1
 90
        5
176
     1
 90
        0
176
     1
 90
        0
176
     1
290
     0
176
     1
 90
       13
176
     1
 40
0.0
176
     1
 90
        0
176
     1
290
     0
176
     1
290
     1
176
     1
290
     1
176
     1
290
     0
176
     1
290
     0
176
     1
290
     0
176
     1
290
     0
176
     1
290
     0
176
     1
290
     0
176
     1
 90
       50
176
     1
 40
0.0
176
     1
 40
1.0
176
     1
 90
        0
176
     1
 62
    18
420
        0
176
     1
 90
       50
176
     1
 90
        3
176
     1
 62
     5
420
      255
176
     1
290
     0
176
     1
 90
       50
176
     1
 90
       50
176
     1
 90
       50
176
     1
290
     0
176
     1
 90
       50
176
     1
 62
   256
176
     0
 40
1.0
176
     0
 90
        2
176
     1
  1
strokes_ogs.tif
176
     1
290
     0
176
     1
 40
1.0
176
     1
 40
1.0
176
     1
  0
VISUALSTYLE
  5
2D
102
{ACAD_REACTORS
330
2A
102
}
330
2A
100
AcDbVisualStyle
  2
Gouraud
 70
     2
177
     3
291
     1
 70
    58
 90
        2
176
     1
 90
        2
176
     1
 90
        1
176
     1
 90
        2
176
     1
 40
0.6
176
     1
 40
30.0
176
     1
 62
     7
420
 16777215
176
     1
 90
        0
176
     1
 90
        0
176
     1
 62
     7
176
     1
 62
   257
176
     1
 90
        1
176
     1
 90
        1
176
     1
 40
1.0
176
     1
 90
        0
176
     1
 62
     7
176
     1
 40
1.0
176
     1
 90
        1
176
     1
 90
        6
176
     1
 90
        2
176
     1
 62
     7
176
     1
 90
        5
176
     1
 90
        0
176
     1
 90
        0
176
     1
290
     0
176
     1
 90
       13
176
     1
 40
0.0
176
     1
 90
        0
176
     1
290
     0
176
     1
290
     1
176
     1
290
     1
176
     1
290
     0
176
     1
290
     0
176
     1
290
     0
176
     1
290
     0
176
     1
290
     0
176
     1
290
     0
176
     1
 90
       50
176
     1
 40
0.0
176
     1
 40
1.0
176
     1
 90
        0
176
     1
 62
    18
420
        0
176
     1
 90
       50
176
     1
 90
        3
176
     1
 62
     5
420
      255
176
     1
290
     0
176
     1
 90
       50
176
     1
 90
       50
176
     1
 90
       50
176
     1
290
     0
176
     1
 90
       50
176
     1
 62
   256
176
     0
 40
1.0
176
     0
 90
        2
176
     1
  1
strokes_ogs.tif
176
     1
290
     0
176
     1
 40
1.0
176
     1
 40
1.0
176
     1
  0
VISUALSTYLE
  5
2E
102
{ACAD_REACTORS
330
2A
102
}
330
2A
100
AcDbVisualStyle
  2
GouraudWithEdges
 70
     3
177
     3
291
     1
 70
    58
 90
        2
176
     1
 90
        2
176
     1
 90
        1
176
     1
 90
        2
176
     1
 40
0.6
176
     1
 40
30.0
176
     1
 62
     7
420
 16777215
176
     1
 90
        1
176
     1
 90
        0
176
     1
 62
     7
176
     1
 62
   257
176
     1
 90
        1
176
     1
 90
        1
176
     1
 40
1.0
176
     1
 90
        0
176
     1
 62
   257
176
     1
 40
1.0
176
     1
 90
        1
176
     1
 90
        6
176
     1
 90
        2
176
     1
 62
     7
176
     1
 90
        5
176
     1
 90
        0
176
     1
 90
        0
176
     1
290
     0
176
     1
 90
       13
176
     1
 40
0.0
176
     1
 90
        0
176
     1
290
     0
176
     1
290
     1
176
     1
290
     1
176
     1
290
     0
176
     1
290
     0
176
     1
290
     0
176
     1
290
     0
176
     1
290
     0
176
     1
290
     0
176
     1
 90
       50
176
     1
 40
0.0
176
     1
 40
1.0
176
     1
 90
        0
176
     1
 62
    18
420
        0
176
     1
 90
       50
176
     1
 90
        3
176
     1
 62
     5
420
      255
176
     1
290
     0
176
     1
 90
       50
176
     1
 90
       50
176
     1
 90
       50
176
     1
290
     0
176
     1
 90
       50
176
     1
 62
   256
176
     0
 40
1.0
176
     0
 90
        2
176
     1
  1
strokes_ogs.tif
176
     1
290
     0
176
     1
 40
1.0
176
     1
 40
1.0
176
     1
  0
VISUALSTYLE
  5
31
102
{ACAD_REACTORS
330
2A
102
}
330
2A
100
AcDbVisualStyle
  2
Hidden
 70
     6
177
     3
291
     0
 70
    58
 90
        1
176
     1
 90
        2
176
     1
 90
        2
176
     1
 90
        0
176
     1
 40
0.6
176
     1
 40
30.0
176
     1
 62
     7
420
 16777215
176
     1
 90
        2
176
     1
 90
        2
176
     1
 62
     7
176
     1
 62
   257
176
     1
 90
        2
176
     1
 90
        1
176
     1
 40
40.0
176
     1
 90
        0
176
     1
 62
   257
176
     1
 40
1.0
176
     1
 90
        1
176
     1
 90
        6
176
     1
 90
        2
176
     1
 62
     7
176
     1
 90
        3
176
     1
 90
        0
176
     1
 90
        0
176
     1
290
     0
176
     1
 90
        1
176
     1
 40
0.0
176
     1
 90
        0
176
     1
290
     0
176
     1
290
     1
176
     1
290
     1
176
     1
290
     0
176
     1
290
     0
176
     1
290
     0
176
     1
290
     0
176
     1
290
     0
176
     1
290
     0
176
     1
 90
       50
176
     1
 40
0.0
176
     1
 40
1.0
176
     1
 90
        0
176
     1
 62
    18
420
        0
176
     1
 90
       50
176
     1
 90
        3
176
     1
 62
     5
420
      255
176
     1
290
     0
176
     1
 90
       50
176
     1
 90
       50
176
     1
 90
       50
176
     1
290
     0
176
     1
 90
       50
176
     1
 62
   256
176
     0
 40
1.0
176
     0
 90
        2
176
     1
  1
strokes_ogs.tif
176
     1
290
     0
176
     1
 40
1.0
176
     1
 40
1.0
176
     1
  0
VISUALSTYLE
  5
3B
102
{ACAD_REACTORS
330
2A
102
}
330
2A
100
AcDbVisualStyle
  2
JitterOff
 70
    20
177
     3
291
     1
 70
    58
 90
        2
176
     0
 90
        2
176
     0
 90
        0
176
     0
 90
        0
176
     0
 40
0.6
176
     0
 40
30.0
176
     0
 62
     7
420
 16777215
176
     0
 90
        1
176
     0
 90
        4
176
     0
 62
     7
176
     0
 62
   257
176
     0
 90
        1
176
     0
 90
        1
176
     0
 40
1.0
176
     0
 90
       10
176
     2
 62
     7
176
     0
 40
1.0
176
     0
 90
        1
176
     0
 90
        6
176
     0
 90
        2
176
     0
 62
     7
176
     0
 90
        5
176
     0
 90
        0
176
     0
 90
        0
176
     0
290
     0
176
     0
 90
        1
176
     0
 40
0.0
176
     0
 90
        0
176
     0
290
     0
176
     0
290
     1
176
     0
290
     1
176
     0
290
     0
176
     0
290
     0
176
     0
290
     0
176
     0
290
     0
176
     0
290
     0
176
     0
290
     0
176
     0
 90
       50
176
     0
 40
0.0
176
     0
 40
1.0
176
     0
 90
        0
176
     0
 62
    18
420
        0
176
     0
 90
       50
176
     0
 90
        3
176
     0
 62
     5
420
      255
176
     0
290
     0
176
     0
 90
       50
176
     0
 90
       50
176
     0
 90
       50
176
     0
290
     0
176
     0
 90
       50
176
     0
 62
   256
176
     0
 40
1.0
176
     0
 90
        2
176
     0
  1
strokes_ogs.tif
176
     0
290
     0
176
     0
 40
1.0
176
     0
 40
1.0
176
     0
  0
VISUALSTYLE
  5
38
102
{ACAD_REACTORS
330
2A
102
}
330
2A
100
AcDbVisualStyle
  2
Linepattern
 70
    14
177
     3
291
     1
 70
    58
 90
        2
176
     1
 90
        2
176
     1
 90
        0
176
     1
 90
        0
176
     1
 40
0.6
176
     1
 40
30.0
176
     1
 62
     7
420
 16777215
176
     1
 90
        1
176
     1
 90
        4
176
     1
 62
     7
176
     1
 62
   257
176
     1
 90
        7
176
     1
 90
        7
176
     1
 40
1.0
176
     1
 90
        8
176
     1
 62
     7
176
     1
 40
1.0
176
     1
 90
        1
176
     1
 90
        6
176
     1
 90
        2
176
     1
 62
     7
176
     1
 90
        5
176
     1
 90
        0
176
     1
 90
        0
176
     1
290
     0
176
     1
 90
        1
176
     1
 40
0.0
176
     1
 90
        0
176
     1
290
     0
176
     1
290
     1
176
     1
290
     1
176
     1
290
     0
176
     1
290
     0
176
     1
290
     0
176
     1
290
     0
176
     1
290
     0
176
     1
290
     0
176
     1
 90
       50
176
     1
 40
0.0
176
     1
 40
1.0
176
     1
 90
        0
176
     1
 62
    18
420
        0
176
     1
 90
       50
176
     1
 90
        3
176
     1
 62
     5
420
      255
176
     1
290
     0
176
     1
 90
       50
176
     1
 90
       50
176
     1
 90
       50
176
     1
290
     0
176
     1
 90
       50
176
     1
 62
   256
176
     0
 40
1.0
176
     0
 90
        2
176
     1
  1
strokes_ogs.tif
176
     1
290
     0
176
     1
 40
1.0
176
     1
 40
1.0
176
     1
  0
VISUALSTYLE
  5
3C
102
{ACAD_REACTORS
330
2A
102
}
330
2A
100
AcDbVisualStyle
  2
OverhangOff
 70
    21
177
     3
291
     1
 70
    58
 90
        2
176
     0
 90
        2
176
     0
 90
        0
176
     0
 90
        0
176
     0
 40
0.6
176
     0
 40
30.0
176
     0
 62
     7
420
 16777215
176
     0
 90
        1
176
     0
 90
        4
176
     0
 62
     7
176
     0
 62
   257
176
     0
 90
        1
176
     0
 90
        1
176
     0
 40
1.0
176
     0
 90
        9
176
     2
 62
     7
176
     0
 40
1.0
176
     0
 90
        1
176
     0
 90
        6
176
     0
 90
        2
176
     0
 62
     7
176
     0
 90
        5
176
     0
 90
        0
176
     0
 90
        0
176
     0
290
     0
176
     0
 90
        1
176
     0
 40
0.0
176
     0
 90
        0
176
     0
290
     0
176
     0
290
     1
176
     0
290
     1
176
     0
290
     0
176
     0
290
     0
176
     0
290
     0
176
     0
290
     0
176
     0
290
     0
176
     0
290
     0
176
     0
 90
       50
176
     0
 40
0.0
176
     0
 40
1.0
176
     0
 90
        0
176
     0
 62
    18
420
        0
176
     0
 90
       50
176
     0
 90
        3
176
     0
 62
     5
420
      255
176
     0
290
     0
176
     0
 90
       50
176
     0
 90
       50
176
     0
 90
       50
176
     0
290
     0
176
     0
 90
       50
176
     0
 62
   256
176
     0
 40
1.0
176
     0
 90
        2
176
     0
  1
strokes_ogs.tif
176
     0
290
     0
176
     0
 40
1.0
176
     0
 40
1.0
176
     0
  0
VISUALSTYLE
  5
33
102
{ACAD_REACTORS
330
2A
102
}
330
2A
100
AcDbVisualStyle
  2
Realistic
 70
     8
177
     3
291
     0
 70
    58
 90
        2
176
     1
 90
        3
176
     1
 90
        0
176
     1
 90
        2
176
     1
 40
0.6
176
     1
 40
30.0
176
     1
 62
     7
420
 16777215
176
     1
 90
        0
176
     1
 90
        0
176
     1
 62
     7
176
     1
 62
   257
176
     1
 90
        1
176
     1
 90
        1
176
     1
 40
1.0
176
     1
 90
        8
176
     1
 62
   257
176
     1
 40
1.0
176
     1
 90
        1
176
     1
 90
        6
176
     1
 90
        2
176
     1
 62
     7
176
     1
 90
        3
176
     1
 90
        0
176
     1
 90
        0
176
     1
290
     0
176
     1
 90
       13
176
     1
 40
0.0
176
     1
 90
        0
176
     1
290
     0
176
     1
290
     1
176
     1
290
     1
176
     1
290
     0
176
     1
290
     0
176
     1
290
     0
176
     1
290
     0
176
     1
290
     0
176
     1
290
     0
176
     1
 90
       50
176
     1
 40
0.0
176
     1
 40
1.0
176
     1
 90
        0
176
     1
 62
    18
420
        0
176
     1
 90
       50
176
     1
 90
        3
176
     1
 62
     5
420
      255
176
     1
290
     0
176
     1
 90
       50
176
     1
 90
       50
176
     1
 90
       50
176
     1
290
     0
176
     1
 90
       50
176
     1
 62
   256
176
     0
 40
1.0
176
     0
 90
        2
176
     1
  1
strokes_ogs.tif
176
     1
290
     0
176
     1
 40
1.0
176
     1
 40
1.0
176
     1
  0
VISUALSTYLE
  5
42
102
{ACAD_REACTORS
330
2A
102
}
330
2A
100
AcDbVisualStyle
  2
Shaded
 70
    27
177
     3
291
     0
 70
    58
 90
        2
176
     1
 90
        2
176
     1
 90
        1
176
     1
 90
        2
176
     1
 40
0.6
176
     1
 40
30.0
176
     1
 62
     7
420
 16777215
176
     1
 90
        0
176
     1
 90
        4
176
     1
 62
     7
176
     1
 62
   257
176
     1
 90
        1
176
     1
 90
        1
176
     1
 40
1.0
176
     1
 90
        8
176
     1
 62
   257
176
     1
 40
1.0
176
     1
 90
        1
176
     1
 90
        6
176
     1
 90
        2
176
     1
 62
     8
420
  7895160
176
     1
 90
        3
176
     1
 90
        0
176
     1
 90
        0
176
     1
290
     0
176
     1
 90
        5
176
     1
 40
0.0
176
     1
 90
        0
176
     1
290
     0
176
     1
290
     1
176
     1
290
     1
176
     1
290
     0
176
     1
290
     0
176
     1
290
     0
176
     1
290
     0
176
     1
290
     0
176
     1
290
     0
176
     1
 90
       50
176
     1
 40
0.0
176
     1
 40
1.0
176
     1
 90
        0
176
     1
 62
    18
420
        0
176
     1
 90
       50
176
     1
 90
        3
176
     1
 62
     5
420
      255
176
     1
290
     0
176
     1
 90
       50
176
     1
 90
       50
176
     1
 90
       50
176
     1
290
     0
176
     1
 90
       50
176
     1
 62
   256
176
     0
 40
1.0
176
     0
 90
        2
176
     1
  1
strokes_ogs.tif
176
     1
290
     0
176
     1
 40
1.0
176
     1
 40
1.0
176
     1
  0
VISUALSTYLE
  5
41
102
{ACAD_REACTORS
330
2A
102
}
330
2A
100
AcDbVisualStyle
  2
Shaded with edges
 70
    26
177
     3
291
     0
 70
    58
 90
        2
176
     1
 90
        2
176
     1
 90
        1
176
     1
 90
        2
176
     1
 40
0.6
176
     1
 40
30.0
176
     1
 62
     7
420
 16777215
176
     1
 90
        1
176
     1
 90
       10
176
     1
 62
     7
176
     1
 62
   257
176
     1
 90
        2
176
     1
 90
        1
176
     1
 40
1.0
176
     1
 90
        8
176
     1
 62
   257
176
     1
 40
1.0
176
     1
 90
        1
176
     1
 90
        6
176
     1
 90
        2
176
     1
 62
     7
176
     1
 90
        3
176
     1
 90
        0
176
     1
 90
        0
176
     1
290
     0
176
     1
 90
        5
176
     1
 40
0.0
176
     1
 90
        0
176
     1
290
     0
176
     1
290
     1
176
     1
290
     1
176
     1
290
     0
176
     1
290
     0
176
     1
290
     0
176
     1
290
     0
176
     1
290
     0
176
     1
290
     0
176
     1
 90
       50
176
     1
 40
0.0
176
     1
 40
1.0
176
     1
 90
        0
176
     1
 62
    18
420
        0
176
     1
 90
       50
176
     1
 90
        3
176
     1
 62
     5
420
      255
176
     1
290
     0
176
     1
 90
       50
176
     1
 90
       50
176
     1
 90
       50
176
     1
290
     0
176
     1
 90
       50
176
     1
 62
   256
176
     0
 40
1.0
176
     0
 90
        2
176
     1
  1
strokes_ogs.tif
176
     1
290
     0
176
     1
 40
1.0
176
     1
 40
1.0
176
     1
  0
VISUALSTYLE
  5
3E
102
{ACAD_REACTORS
330
2A
102
}
330
2A
100
AcDbVisualStyle
  2
Shades of Gray
 70
    23
177
     3
291
     0
 70
    58
 90
        2
176
     1
 90
        2
176
     1
 90
        3
176
     1
 90
        0
176
     1
 40
0.6
176
     1
 40
30.0
176
     1
 62
     7
420
 16777215
176
     1
 90
        2
176
     1
 90
        2
176
     1
 62
     7
176
     1
 62
     7
176
     1
 90
        1
176
     1
 90
        1
176
     1
 40
40.0
176
     1
 90
        8
176
     1
 62
     7
176
     1
 40
1.0
176
     1
 90
        1
176
     1
 90
        6
176
     1
 90
        2
176
     1
 62
     7
176
     1
 90
        3
176
     1
 90
        0
176
     1
 90
        0
176
     1
290
     0
176
     1
 90
        1
176
     1
 40
0.0
176
     1
 90
        0
176
     1
290
     0
176
     1
290
     1
176
     1
290
     1
176
     1
290
     0
176
     1
290
     0
176
     1
290
     0
176
     1
290
     0
176
     1
290
     0
176
     1
290
     0
176
     1
 90
       50
176
     1
 40
0.0
176
     1
 40
1.0
176
     1
 90
        0
176
     1
 62
    18
420
        0
176
     1
 90
       50
176
     1
 90
        3
176
     1
 62
     5
420
      255
176
     1
290
     0
176
     1
 90
       50
176
     1
 90
       50
176
     1
 90
       50
176
     1
290
     0
176
     1
 90
       50
176
     1
 62
   256
176
     0
 40
1.0
176
     0
 90
        2
176
     1
  1
strokes_ogs.tif
176
     1
290
     0
176
     1
 40
1.0
176
     1
 40
1.0
176
     1
  0
VISUALSTYLE
  5
3F
102
{ACAD_REACTORS
330
2A
102
}
330
2A
100
AcDbVisualStyle
  2
Sketchy
 70
    24
177
     3
291
     0
 70
    58
 90
        1
176
     1
 90
        2
176
     1
 90
        2
176
     1
 90
        0
176
     1
 40
0.6
176
     1
 40
30.0
176
     1
 62
     7
420
 16777215
176
     1
 90
        2
176
     1
 90
        2
176
     1
 62
     7
176
     1
 62
     7
176
     1
 90
        1
176
     1
 90
        1
176
     1
 40
40.0
176
     1
 90
       11
176
     1
 62
     7
176
     1
 40
1.0
176
     1
 90
        1
176
     1
 90
        6
176
     1
 90
        2
176
     1
 62
     7
176
     1
 90
        6
176
     1
 90
        0
176
     1
 90
        0
176
     1
290
     0
176
     1
 90
        1
176
     1
 40
0.0
176
     1
 90
        0
176
     1
290
     0
176
     1
290
     1
176
     1
290
     1
176
     1
290
     0
176
     1
290
     0
176
     1
290
     0
176
     1
290
     0
176
     1
290
     0
176
     1
290
     0
176
     1
 90
       50
176
     1
 40
0.0
176
     1
 40
1.0
176
     1
 90
        0
176
     1
 62
    18
420
        0
176
     1
 90
       50
176
     1
 90
        3
176
     1
 62
     5
420
      255
176
     1
290
     0
176
     1
 90
       50
176
     1
 90
       50
176
     1
 90
       50
176
     1
290
     0
176
     1
 90
       50
176
     1
 62
   256
176
     0
 40
1.0
176
     0
 90
        2
176
     1
  1
strokes_ogs.tif
176
     1
290
     0
176
     1
 40
1.0
176
     1
 40
1.0
176
     1
  0
VISUALSTYLE
  5
37
102
{ACAD_REACTORS
330
2A
102
}
330
2A
100
AcDbVisualStyle
  2
Thicken
 70
    13
177
     3
291
     1
 70
    58
 90
        2
176
     1
 90
        2
176
     1
 90
        0
176
     1
 90
        0
176
     1
 40
0.6
176
     1
 40
30.0
176
     1
 62
     7
420
 16777215
176
     1
 90
        1
176
     1
 90
        4
176
     1
 62
     7
176
     1
 62
   257
176
     1
 90
        1
176
     1
 90
        1
176
     1
 40
1.0
176
     1
 90
       12
176
     1
 62
     7
176
     1
 40
1.0
176
     1
 90
        1
176
     1
 90
        6
176
     1
 90
        2
176
     1
 62
     7
176
     1
 90
        5
176
     1
 90
        0
176
     1
 90
        0
176
     1
290
     0
176
     1
 90
        1
176
     1
 40
0.0
176
     1
 90
        0
176
     1
290
     0
176
     1
290
     1
176
     1
290
     1
176
     1
290
     0
176
     1
290
     0
176
     1
290
     0
176
     1
290
     0
176
     1
290
     0
176
     1
290
     0
176
     1
 90
       50
176
     1
 40
0.0
176
     1
 40
1.0
176
     1
 90
        0
176
     1
 62
    18
420
        0
176
     1
 90
       50
176
     1
 90
        3
176
     1
 62
     5
420
      255
176
     1
290
     0
176
     1
 90
       50
176
     1
 90
       50
176
     1
 90
       50
176
     1
290
     0
176
     1
 90
       50
176
     1
 62
   256
176
     0
 40
1.0
176
     0
 90
        2
176
     1
  1
strokes_ogs.tif
176
     1
290
     0
176
     1
 40
1.0
176
     1
 40
1.0
176
     1
  0
VISUALSTYLE
  5
30
102
{ACAD_REACTORS
330
2A
102
}
330
2A
100
AcDbVisualStyle
  2
Wireframe
 70
     5
177
     3
291
     0
 70
    58
 90
        0
176
     1
 90
        2
176
     1
 90
        0
176
     1
 90
        0
176
     1
 40
0.6
176
     1
 40
30.0
176
     1
 62
     7
420
 16777215
176
     1
 90
        1
176
     1
 90
        4
176
     1
 62
     7
176
     1
 62
   257
176
     1
 90
        1
176
     1
 90
        1
176
     1
 40
1.0
176
     1
 90
        0
176
     1
 62
   257
176
     1
 40
1.0
176
     1
 90
        1
176
     1
 90
        6
176
     1
 90
        2
176
     1
 62
     7
176
     1
 90
        3
176
     1
 90
        0
176
     1
 90
        0
176
     1
290
     0
176
     1
 90
        1
176
     1
 40
0.0
176
     1
 90
        0
176
     1
290
     0
176
     1
290
     1
176
     1
290
     1
176
     1
290
     0
176
     1
290
     0
176
     1
290
     0
176
     1
290
     0
176
     1
290
     0
176
     1
290
     0
176
     1
 90
       50
176
     1
 40
0.0
176
     1
 40
1.0
176
     1
 90
        0
176
     1
 62
    18
420
        0
176
     1
 90
       50
176
     1
 90
        3
176
     1
 62
     5
420
      255
176
     1
290
     0
176
     1
 90
       50
176
     1
 90
       50
176
     1
 90
       50
176
     1
290
     0
176
     1
 90
       50
176
     1
 62
   256
176
     0
 40
1.0
176
     0
 90
        2
176
     1
  1
strokes_ogs.tif
176
     1
290
     0
176
     1
 40
1.0
176
     1
 40
1.0
176
     1
  0
VISUALSTYLE
  5
40
102
{ACAD_REACTORS
330
2A
102
}
330
2A
100
AcDbVisualStyle
  2
X-Ray
 70
    25
177
     3
291
     0
 70
    58
 90
        2
176
     1
 90
        2
176
     1
 90
        1
176
     1
 90
        1
176
     1
 40
0.5
176
     1
 40
30.0
176
     1
 62
     7
420
 16777215
176
     1
 90
        1
176
     1
 90
        0
176
     1
 62
     7
176
     1
 62
   257
176
     1
 90
        1
176
     1
 90
        1
176
     1
 40
1.0
176
     1
 90
        8
176
     1
 62
     7
176
     1
 40
1.0
176
     1
 90
        1
176
     1
 90
        6
176
     1
 90
        2
176
     1
 62
     7
176
     1
 90
        3
176
     1
 90
        0
176
     1
 90
        0
176
     1
290
     0
176
     1
 90
       13
176
     1
 40
0.0
176
     1
 90
        0
176
     1
290
     0
176
     1
290
     1
176
     1
290
     1
176
     1
290
     0
176
     1
290
     0
176
     1
290
     0
176
     1
290
     0
176
     1
290
     0
176
     1
290
     0
176
     1
 90
       50
176
     1
 40
0.0
176
     1
 40
1.0
176
     1
 90
        0
176
     1
 62
    18
420
        0
176
     1
 90
       50
176
     1
 90
        3
176
     1
 62
     5
420
      255
176
     1
290
     0
176
     1
 90
       50
176
     1
 90
       50
176
     1
 90
       50
176
     1
290
     0
176
     1
 90
       50
176
     1
 62
   256
176
     0
 40
1.0
176
     0
 90
        2
176
     1
  1
strokes_ogs.tif
176
     1
290
     0
176
     1
 40
1.0
176
     1
 40
1.0
176
     1
  0
DICTIONARYVAR
  5
259
102
{ACAD_REACTORS
330
258
102
}
330
258
100
DictionaryVariables
280
     0
  1
1:1
  0
DICTIONARYVAR
  5
25E
102
{ACAD_REACTORS
330
258
102
}
330
258
100
DictionaryVariables
280
     0
  1
Standard
  0
DICTIONARYVAR
  5
25D
102
{ACAD_REACTORS
330
258
102
}
330
258
100
DictionaryVariables
280
     0
  1
Standard
  0
DICTIONARY
  5
25A
330
6A
100
AcDbDictionary
280
     1
281
     1
  3
ACAD_ROUNDTRIP_2008_TABLESTYLE_CELLSTYLEMAP
360
25B
  0
CELLSTYLEMAP
  5
25B
102
{ACAD_REACTORS
330
25A
102
}
330
25A
100
AcDbCellStyleMap
 90
        3
300
CELLSTYLE
  1
TABLEFORMAT_BEGIN
 90
        5
170
     1
 91
        0
 92
    32768
 62
   257
 93
        1
300
CONTENTFORMAT
  1
CONTENTFORMAT_BEGIN
 90
        0
 91
        0
 92
        4
 93
        0
300

 40
0.0
140
1.0
 94
        5
 62
     0
340
11
144
0.25
309
CONTENTFORMAT_END
171
     1
301
MARGIN
  1
CELLMARGIN_BEGIN
 40
0.06
 40
0.06
 40
0.06
 40
0.06
 40
0.06
 40
0.06
309
CELLMARGIN_END
 94
        6
 95
        1
302
GRIDFORMAT
  1
GRIDFORMAT_BEGIN
 90
        0
 91
        1
 62
     0
 92
       -2
340
14
 93
        0
 40
0.045
309
GRIDFORMAT_END
 95
        2
302
GRIDFORMAT
  1
GRIDFORMAT_BEGIN
 90
        0
 91
        1
 62
     0
 92
       -2
340
14
 93
        0
 40
0.045
309
GRIDFORMAT_END
 95
        4
302
GRIDFORMAT
  1
GRIDFORMAT_BEGIN
 90
        0
 91
        1
 62
     0
 92
       -2
340
14
 93
        0
 40
0.045
309
GRIDFORMAT_END
 95
        8
302
GRIDFORMAT
  1
GRIDFORMAT_BEGIN
 90
        0
 91
        1
 62
     0
 92
       -2
340
14
 93
        0
 40
0.045
309
GRIDFORMAT_END
 95
       16
302
GRIDFORMAT
  1
GRIDFORMAT_BEGIN
 90
        0
 91
        1
 62
     0
 92
       -2
340
14
 93
        0
 40
0.045
309
GRIDFORMAT_END
 95
       32
302
GRIDFORMAT
  1
GRIDFORMAT_BEGIN
 90
        0
 91
        1
 62
     0
 92
       -2
340
14
 93
        0
 40
0.045
309
GRIDFORMAT_END
309
TABLEFORMAT_END
  1
CELLSTYLE_BEGIN
 90
        1
 91
        1
300
_TITLE
309
CELLSTYLE_END
300
CELLSTYLE
  1
TABLEFORMAT_BEGIN
 90
        5
170
     1
 91
        0
 92
        0
 62
   257
 93
        1
300
CONTENTFORMAT
  1
CONTENTFORMAT_BEGIN
 90
        0
 91
        0
 92
        4
 93
        0
300

 40
0.0
140
1.0
 94
        5
 62
     0
340
11
144
0.18
309
CONTENTFORMAT_END
171
     1
301
MARGIN
  1
CELLMARGIN_BEGIN
 40
0.06
 40
0.06
 40
0.06
 40
0.06
 40
0.06
 40
0.06
309
CELLMARGIN_END
 94
        6
 95
        1
302
GRIDFORMAT
  1
GRIDFORMAT_BEGIN
 90
        0
 91
        1
 62
     0
 92
       -2
340
14
 93
        0
 40
0.045
309
GRIDFORMAT_END
 95
        2
302
GRIDFORMAT
  1
GRIDFORMAT_BEGIN
 90
        0
 91
        1
 62
     0
 92
       -2
340
14
 93
        0
 40
0.045
309
GRIDFORMAT_END
 95
        4
302
GRIDFORMAT
  1
GRIDFORMAT_BEGIN
 90
        0
 91
        1
 62
     0
 92
       -2
340
14
 93
        0
 40
0.045
309
GRIDFORMAT_END
 95
        8
302
GRIDFORMAT
  1
GRIDFORMAT_BEGIN
 90
        0
 91
        1
 62
     0
 92
       -2
340
14
 93
        0
 40
0.045
309
GRIDFORMAT_END
 95
       16
302
GRIDFORMAT
  1
GRIDFORMAT_BEGIN
 90
        0
 91
        1
 62
     0
 92
       -2
340
14
 93
        0
 40
0.045
309
GRIDFORMAT_END
 95
       32
302
GRIDFORMAT
  1
GRIDFORMAT_BEGIN
 90
        0
 91
        1
 62
     0
 92
       -2
340
14
 93
        0
 40
0.045
309
GRIDFORMAT_END
309
TABLEFORMAT_END
  1
CELLSTYLE_BEGIN
 90
        2
 91
        1
300
_HEADER
309
CELLSTYLE_END
300
CELLSTYLE
  1
TABLEFORMAT_BEGIN
 90
        5
170
     1
 91
        0
 92
        0
 62
   257
 93
        1
300
CONTENTFORMAT
  1
CONTENTFORMAT_BEGIN
 90
        0
 91
        0
 92
        4
 93
        0
300

 40
0.0
140
1.0
 94
        2
 62
     0
340
11
144
0.18
309
CONTENTFORMAT_END
171
     1
301
MARGIN
  1
CELLMARGIN_BEGIN
 40
0.06
 40
0.06
 40
0.06
 40
0.06
 40
0.06
 40
0.06
309
CELLMARGIN_END
 94
        6
 95
        1
302
GRIDFORMAT
  1
GRIDFORMAT_BEGIN
 90
        0
 91
        1
 62
     0
 92
       -2
340
14
 93
        0
 40
0.045
309
GRIDFORMAT_END
 95
        2
302
GRIDFORMAT
  1
GRIDFORMAT_BEGIN
 90
        0
 91
        1
 62
     0
 92
       -2
340
14
 93
        0
 40
0.045
309
GRIDFORMAT_END
 95
        4
302
GRIDFORMAT
  1
GRIDFORMAT_BEGIN
 90
        0
 91
        1
 62
     0
 92
       -2
340
14
 93
        0
 40
0.045
309
GRIDFORMAT_END
 95
        8
302
GRIDFORMAT
  1
GRIDFORMAT_BEGIN
 90
        0
 91
        1
 62
     0
 92
       -2
340
14
 93
        0
 40
0.045
309
GRIDFORMAT_END
 95
       16
302
GRIDFORMAT
  1
GRIDFORMAT_BEGIN
 90
        0
 91
        1
 62
     0
 92
       -2
340
14
 93
        0
 40
0.045
309
GRIDFORMAT_END
 95
       32
302
GRIDFORMAT
  1
GRIDFORMAT_BEGIN
 90
        0
 91
        1
 62
     0
 92
       -2
340
14
 93
        0
 40
0.045
309
GRIDFORMAT_END
309
TABLEFORMAT_END
  1
CELLSTYLE_BEGIN
 90
        3
 91
        2
300
_DATA
309
CELLSTYLE_END
  0
ENDSEC
  0
EOF