0
SECTION
  2
HEADER
  9
$ACADVER
  1
AC1027
  9
$ACADMAINTVER
 70
     8
  9
$DWGCODEPAGE
  3
ANSI_1252
  9
$REQUIREDVERSIONS
160
                 0
  9
$COMMENTS
  1
File was created by Cadenas
  9
$CUSTOMPROPERTYTAG
  1
NN
  9
$CUSTOMPROPERTY
  1
Grip Tight Wide Slot Take Up Inch Bore
  9
$CUSTOMPROPERTYTAG
  1
NT
  9
$CUSTOMPROPERTY
  1
GT Wide Slot Take-Up Bearings -(Normal Duty)
  9
$CUSTOMPROPERTYTAG
  1
NB
  9
$CUSTOMPROPERTY
  1
136130
  9
$CUSTOMPROPERTYTAG
  1
NBSYN
  9
$CUSTOMPROPERTY
  1
$PN.
  9
$CUSTOMPROPERTYTAG
  1
LINA
  9
$CUSTOMPROPERTY
  1
136130
  9
$CUSTOMPROPERTYTAG
  1
SERIES
  9
$CUSTOMPROPERTY
  1
204
  9
$CUSTOMPROPERTYTAG
  1
SS
  9
$CUSTOMPROPERTY
  1
3/4
  9
$CUSTOMPROPERTYTAG
  1
PN
  9
$CUSTOMPROPERTY
  1
136130
  9
$CUSTOMPROPERTYTAG
  1
DESCRIPTION
  9
$CUSTOMPROPERTY
  1
WSTU-GT-012
  9
$CUSTOMPROPERTYTAG
  1
A
  9
$CUSTOMPROPERTY
  1
1-15/32 
  9
$CUSTOMPROPERTYTAG
  1
B
  9
$CUSTOMPROPERTY
  1
3-11/16
  9
$CUSTOMPROPERTYTAG
  1
C
  9
$CUSTOMPROPERTY
  1
0.516 / 0.546
  9
$CUSTOMPROPERTYTAG
  1
D
  9
$CUSTOMPROPERTY
  1
2
  9
$CUSTOMPROPERTYTAG
  1
E
  9
$CUSTOMPROPERTY
  1
2-3/8
  9
$CUSTOMPROPERTYTAG
  1
F
  9
$CUSTOMPROPERTY
  1
5/8
  9
$CUSTOMPROPERTYTAG
  1
G
  9
$CUSTOMPROPERTY
  1
3/8
  9
$CUSTOMPROPERTYTAG
  1
H
  9
$CUSTOMPROPERTY
  1
5/8
  9
$CUSTOMPROPERTYTAG
  1
J
  9
$CUSTOMPROPERTY
  1
2
  9
$CUSTOMPROPERTYTAG
  1
K
  9
$CUSTOMPROPERTY
  1
1-1/4
  9
$CUSTOMPROPERTYTAG
  1
L
  9
$CUSTOMPROPERTY
  1
1-1/2
  9
$CUSTOMPROPERTYTAG
  1
M
  9
$CUSTOMPROPERTY
  1
2.985 / 3.015
  9
$CUSTOMPROPERTYTAG
  1
N
  9
$CUSTOMPROPERTY
  1
3-5/8
  9
$CUSTOMPROPERTYTAG
  1
R
  9
$CUSTOMPROPERTY
  1
31/64
  9
$CUSTOMPROPERTYTAG
  1
S
  9
$CUSTOMPROPERTY
  1
63/64
  9
$CUSTOMPROPERTYTAG
  1
T
  9
$CUSTOMPROPERTY
  1
1-3/8
  9
$CUSTOMPROPERTYTAG
  1
Z
  9
$CUSTOMPROPERTY
  1
63/64
  9
$CUSTOMPROPERTYTAG
  1
COMPANY
  9
$CUSTOMPROPERTY
  1
baldor
  9
$INSBASE
 10
0.0
 20
0.0
 30
0.0
  9
$EXTMIN
 10
1.000000000000000E+20
 20
1.000000000000000E+20
 30
1.000000000000000E+20
  9
$EXTMAX
 10
-1.000000000000000E+20
 20
-1.000000000000000E+20
 30
-1.000000000000000E+20
  9
$LIMMIN
 10
0.0
 20
0.0
  9
$LIMMAX
 10
12.0
 20
9.0
  9
$ORTHOMODE
 70
     0
  9
$REGENMODE
 70
     1
  9
$FILLMODE
 70
     1
  9
$QTEXTMODE
 70
     0
  9
$MIRRTEXT
 70
     1
  9
$LTSCALE
 40
1.0
  9
$ATTMODE
 70
     1
  9
$TEXTSIZE
 40
0.2
  9
$TRACEWID
 40
0.05
  9
$TEXTSTYLE
  7
Standard
  9
$CLAYER
  8
0
  9
$CELTYPE
  6
ByLayer
  9
$CECOLOR
 62
   256
  9
$CELTSCALE
 40
1.0
  9
$DISPSILH
 70
     0
  9
$DIMSCALE
 40
1.0
  9
$DIMASZ
 40
0.18
  9
$DIMEXO
 40
0.0625
  9
$DIMDLI
 40
0.38
  9
$DIMRND
 40
0.0
  9
$DIMDLE
 40
0.0
  9
$DIMEXE
 40
0.18
  9
$DIMTP
 40
0.0
  9
$DIMTM
 40
0.0
  9
$DIMTXT
 40
0.18
  9
$DIMCEN
 40
0.09
  9
$DIMTSZ
 40
0.0
  9
$DIMTOL
 70
     0
  9
$DIMLIM
 70
     0
  9
$DIMTIH
 70
     1
  9
$DIMTOH
 70
     1
  9
$DIMSE1
 70
     0
  9
$DIMSE2
 70
     0
  9
$DIMTAD
 70
     0
  9
$DIMZIN
 70
     0
  9
$DIMBLK
  1

  9
$DIMASO
 70
     1
  9
$DIMSHO
 70
     1
  9
$DIMPOST
  1

  9
$DIMAPOST
  1

  9
$DIMALT
 70
     0
  9
$DIMALTD
 70
     2
  9
$DIMALTF
 40
25.4
  9
$DIMLFAC
 40
1.0
  9
$DIMTOFL
 70
     0
  9
$DIMTVP
 40
0.0
  9
$DIMTIX
 70
     0
  9
$DIMSOXD
 70
     0
  9
$DIMSAH
 70
     0
  9
$DIMBLK1
  1

  9
$DIMBLK2
  1

  9
$DIMSTYLE
  2
Standard
  9
$DIMCLRD
 70
     0
  9
$DIMCLRE
 70
     0
  9
$DIMCLRT
 70
     0
  9
$DIMTFAC
 40
1.0
  9
$DIMGAP
 40
0.09
  9
$DIMJUST
 70
     0
  9
$DIMSD1
 70
     0
  9
$DIMSD2
 70
     0
  9
$DIMTOLJ
 70
     1
  9
$DIMTZIN
 70
     0
  9
$DIMALTZ
 70
     0
  9
$DIMALTTZ
 70
     0
  9
$DIMUPT
 70
     0
  9
$DIMDEC
 70
     4
  9
$DIMTDEC
 70
     4
  9
$DIMALTU
 70
     2
  9
$DIMALTTD
 70
     2
  9
$DIMTXSTY
  7
Standard
  9
$DIMAUNIT
 70
     0
  9
$DIMADEC
 70
     0
  9
$DIMALTRND
 40
0.0
  9
$DIMAZIN
 70
     0
  9
$DIMDSEP
 70
    46
  9
$DIMATFIT
 70
     3
  9
$DIMFRAC
 70
     0
  9
$DIMLDRBLK
  1

  9
$DIMLUNIT
 70
     2
  9
$DIMLWD
 70
    -2
  9
$DIMLWE
 70
    -2
  9
$DIMTMOVE
 70
     0
  9
$DIMFXL
 40
1.0
  9
$DIMFXLON
 70
     0
  9
$DIMJOGANG
 40
0.7853981633974483
  9
$DIMTFILL
 70
     0
  9
$DIMTFILLCLR
 70
     0
  9
$DIMARCSYM
 70
     0
  9
$DIMLTYPE
  6

  9
$DIMLTEX1
  6

  9
$DIMLTEX2
  6

  9
$DIMTXTDIRECTION
 70
     0
  9
$LUNITS
 70
     2
  9
$LUPREC
 70
     4
  9
$SKETCHINC
 40
0.1
  9
$FILLETRAD
 40
0.5
  9
$AUNITS
 70
     0
  9
$AUPREC
 70
     0
  9
$MENU
  1
.
  9
$ELEVATION
 40
0.0
  9
$PELEVATION
 40
0.0
  9
$THICKNESS
 40
0.0
  9
$LIMCHECK
 70
     0
  9
$CHAMFERA
 40
0.0
  9
$CHAMFERB
 40
0.0
  9
$CHAMFERC
 40
0.0
  9
$CHAMFERD
 40
0.0
  9
$SKPOLY
 70
     0
  9
$TDCREATE
 40
2458168.993904421
  9
$TDUCREATE
 40
2458168.952237755
  9
$TDUPDATE
 40
2458168.993904606
  9
$TDUUPDATE
 40
2458168.95223794
  9
$TDINDWG
 40
0.0000000116
  9
$TDUSRTIMER
 40
0.0000000116
  9
$USRTIMER
 70
     1
  9
$ANGBASE
 50
0.0
  9
$ANGDIR
 70
     0
  9
$PDMODE
 70
     0
  9
$PDSIZE
 40
0.0
  9
$PLINEWID
 40
0.0
  9
$SPLFRAME
 70
     0
  9
$SPLINETYPE
 70
     6
  9
$SPLINESEGS
 70
     8
  9
$HANDSEED
  5
259
  9
$SURFTAB1
 70
     6
  9
$SURFTAB2
 70
     6
  9
$SURFTYPE
 70
     6
  9
$SURFU
 70
     6
  9
$SURFV
 70
     6
  9
$UCSBASE
  2

  9
$UCSNAME
  2

  9
$UCSORG
 10
0.0
 20
0.0
 30
0.0
  9
$UCSXDIR
 10
1.0
 20
0.0
 30
0.0
  9
$UCSYDIR
 10
0.0
 20
1.0
 30
0.0
  9
$UCSORTHOREF
  2

  9
$UCSORTHOVIEW
 70
     0
  9
$UCSORGTOP
 10
0.0
 20
0.0
 30
0.0
  9
$UCSORGBOTTOM
 10
0.0
 20
0.0
 30
0.0
  9
$UCSORGLEFT
 10
0.0
 20
0.0
 30
0.0
  9
$UCSORGRIGHT
 10
0.0
 20
0.0
 30
0.0
  9
$UCSORGFRONT
 10
0.0
 20
0.0
 30
0.0
  9
$UCSORGBACK
 10
0.0
 20
0.0
 30
0.0
  9
$PUCSBASE
  2

  9
$PUCSNAME
  2

  9
$PUCSORG
 10
0.0
 20
0.0
 30
0.0
  9
$PUCSXDIR
 10
1.0
 20
0.0
 30
0.0
  9
$PUCSYDIR
 10
0.0
 20
1.0
 30
0.0
  9
$PUCSORTHOREF
  2

  9
$PUCSORTHOVIEW
 70
     0
  9
$PUCSORGTOP
 10
0.0
 20
0.0
 30
0.0
  9
$PUCSORGBOTTOM
 10
0.0
 20
0.0
 30
0.0
  9
$PUCSORGLEFT
 10
0.0
 20
0.0
 30
0.0
  9
$PUCSORGRIGHT
 10
0.0
 20
0.0
 30
0.0
  9
$PUCSORGFRONT
 10
0.0
 20
0.0
 30
0.0
  9
$PUCSORGBACK
 10
0.0
 20
0.0
 30
0.0
  9
$USERI1
 70
     0
  9
$USERI2
 70
     0
  9
$USERI3
 70
     0
  9
$USERI4
 70
     0
  9
$USERI5
 70
     0
  9
$USERR1
 40
0.0
  9
$USERR2
 40
0.0
  9
$USERR3
 40
0.0
  9
$USERR4
 40
0.0
  9
$USERR5
 40
0.0
  9
$WORLDVIEW
 70
     1
  9
$SHADEDGE
 70
     3
  9
$SHADEDIF
 70
    70
  9
$TILEMODE
 70
     1
  9
$MAXACTVP
 70
    64
  9
$PINSBASE
 10
0.0
 20
0.0
 30
0.0
  9
$PLIMCHECK
 70
     0
  9
$PEXTMIN
 10
1.000000000000000E+20
 20
1.000000000000000E+20
 30
1.000000000000000E+20
  9
$PEXTMAX
 10
-1.000000000000000E+20
 20
-1.000000000000000E+20
 30
-1.000000000000000E+20
  9
$PLIMMIN
 10
0.0
 20
0.0
  9
$PLIMMAX
 10
12.0
 20
9.0
  9
$UNITMODE
 70
     0
  9
$VISRETAIN
 70
     1
  9
$PLINEGEN
 70
     0
  9
$PSLTSCALE
 70
     1
  9
$TREEDEPTH
 70
  3020
  9
$CMLSTYLE
  2
Standard
  9
$CMLJUST
 70
     0
  9
$CMLSCALE
 40
1.0
  9
$PROXYGRAPHICS
 70
     1
  9
$MEASUREMENT
 70
     0
  9
$CELWEIGHT
370
    -1
  9
$ENDCAPS
280
     0
  9
$JOINSTYLE
280
     0
  9
$LWDISPLAY
290
     0
  9
$INSUNITS
 70
     1
  9
$HYPERLINKBASE
  1

  9
$STYLESHEET
  1

  9
$XEDIT
290
     1
  9
$CEPSNTYPE
380
     0
  9
$PSTYLEMODE
290
     1
  9
$FINGERPRINTGUID
  2
{E9D8C549-35DA-45F2-89FB-C9277B237F77}
  9
$VERSIONGUID
  2
{FAEB1C32-E019-11D5-929B-00C0DF256EC4}
  9
$EXTNAMES
290
     1
  9
$PSVPSCALE
 40
0.0
  9
$OLESTARTUP
290
     0
  9
$SORTENTS
280
   127
  9
$INDEXCTL
280
     0
  9
$HIDETEXT
280
     1
  9
$XCLIPFRAME
280
     2
  9
$HALOGAP
280
     0
  9
$OBSCOLOR
 70
   257
  9
$OBSLTYPE
280
     0
  9
$INTERSECTIONDISPLAY
280
     0
  9
$INTERSECTIONCOLOR
 70
   257
  9
$DIMASSOC
280
     2
  9
$PROJECTNAME
  1

  9
$CAMERADISPLAY
290
     0
  9
$LENSLENGTH
 40
50.0
  9
$CAMERAHEIGHT
 40
0.0
  9
$STEPSPERSEC
 40
2.0
  9
$STEPSIZE
 40
6.0
  9
$3DDWFPREC
 40
2.0
  9
$PSOLWIDTH
 40
0.25
  9
$PSOLHEIGHT
 40
4.0
  9
$LOFTANG1
 40
1.570796326794897
  9
$LOFTANG2
 40
1.570796326794897
  9
$LOFTMAG1
 40
0.0
  9
$LOFTMAG2
 40
0.0
  9
$LOFTPARAM
 70
     7
  9
$LOFTNORMALS
280
     1
  9
$LATITUDE
 40
37.795
  9
$LONGITUDE
 40
-122.394
  9
$NORTHDIRECTION
 40
0.0
  9
$TIMEZONE
 70
 -8000
  9
$LIGHTGLYPHDISPLAY
280
     1
  9
$TILEMODELIGHTSYNCH
280
     1
  9
$CMATERIAL
347
44
  9
$SOLIDHIST
280
     0
  9
$SHOWHIST
280
     1
  9
$DWFFRAME
280
     2
  9
$DGNFRAME
280
     2
  9
$REALWORLDSCALE
290
     1
  9
$INTERFERECOLOR
 62
   256
  9
$CSHADOW
280
     0
  9
$SHADOWPLANELOCATION
 40
0.0
  0
ENDSEC
  0
SECTION
  2
CLASSES
  0
CLASS
  1
ACDBDICTIONARYWDFLT
  2
AcDbDictionaryWithDefault
  3
ObjectDBX Classes
 90
        0
 91
        4
280
     0
281
     0
  0
CLASS
  1
VISUALSTYLE
  2
AcDbVisualStyle
  3
ObjectDBX Classes
 90
     4095
 91
        4
280
     0
281
     0
  0
CLASS
  1
MATERIAL
  2
AcDbMaterial
  3
ObjectDBX Classes
 90
     1153
 91
        4
280
     0
281
     0
  0
CLASS
  1
SCALE
  2
AcDbScale
  3
ObjectDBX Classes
 90
     1153
 91
        4
280
     0
281
     0
  0
CLASS
  1
TABLESTYLE
  2
AcDbTableStyle
  3
ObjectDBX Classes
 90
     4095
 91
        4
280
     0
281
     0
  0
CLASS
  1
MLEADERSTYLE
  2
AcDbMLeaderStyle
  3
ACDB_MLEADERSTYLE_CLASS
 90
     4095
 91
        4
280
     0
281
     0
  0
CLASS
  1
SUN
  2
AcDbSun
  3
SCENEOE
 90
     1153
 91
        4
280
     0
281
     0
  0
CLASS
  1
DICTIONARYVAR
  2
AcDbDictionaryVar
  3
ObjectDBX Classes
 90
        0
 91
        4
280
     0
281
     0
  0
CLASS
  1
CELLSTYLEMAP
  2
AcDbCellStyleMap
  3
ObjectDBX Classes
 90
     1152
 91
        4
280
     0
281
     0
  0
ENDSEC
  0
SECTION
  2
TABLES
  0
TABLE
  2
VPORT
  5
8
330
0
100
AcDbSymbolTable
 70
     1
  0
VPORT
  5
29
330
8
100
AcDbSymbolTableRecord
100
AcDbViewportTableRecord
  2
*Active
 70
     0
 10
0.0
 20
0.0
 11
1.0
 21
1.0
 12
0.6075875574299285
 22
0.0
 13
0.0
 23
0.0
 14
0.5
 24
0.5
 15
0.5
 25
0.5
 16
0.0
 26
0.0
 36
1.0
 17
0.0
 27
0.0
 37
0.0
 40
3.085500000000001
 41
1.581760292608311
 42
50.0
 43
0.0
 44
0.0
 50
0.0
 51
0.0
 71
     0
 72
   100
 73
     1
 74
     3
 75
     0
 76
     0
 77
     0
 78
     0
281
     0
 65
     1
110
0.0
120
0.0
130
0.0
111
1.0
121
0.0
131
0.0
112
0.0
122
1.0
132
0.0
 79
     0
146
0.0
348
2F
 60
     3
 61
     5
292
     1
282
     1
141
0.0
142
0.0
 63
   250
361
6D
  0
ENDTAB
  0
TABLE
  2
LTYPE
  5
5
330
0
100
AcDbSymbolTable
 70
     3
  0
LTYPE
  5
14
330
5
100
AcDbSymbolTableRecord
100
AcDbLinetypeTableRecord
  2
ByBlock
 70
     0
  3

 72
    65
 73
     0
 40
0.0
  0
LTYPE
  5
15
330
5
100
AcDbSymbolTableRecord
100
AcDbLinetypeTableRecord
  2
ByLayer
 70
     0
  3

 72
    65
 73
     0
 40
0.0
  0
LTYPE
  5
16
330
5
100
AcDbSymbolTableRecord
100
AcDbLinetypeTableRecord
  2
Continuous
 70
     0
  3
Solid line
 72
    65
 73
     0
 40
0.0
  0
LTYPE
  5
9F
330
5
100
AcDbSymbolTableRecord
100
AcDbLinetypeTableRecord
  2
Dashed
 70
     0
  3

 72
    65
 73
     2
 40
2.0
 49
1.0
 74
     0
 49
-1.0
 74
     0
  0
LTYPE
  5
19D
330
5
100
AcDbSymbolTableRecord
100
AcDbLinetypeTableRecord
  2
Center
 70
     0
  3

 72
    65
 73
     4
 40
1.5
 49
0.45
 74
     0
 49
-0.5
 74
     0
 49
0.05
 74
     0
 49
-0.5
 74
     0
  0
ENDTAB
  0
TABLE
  2
LAYER
  5
2
330
0
100
AcDbSymbolTable
 70
     7
  0
LAYER
  5
10
330
2
100
AcDbSymbolTableRecord
100
AcDbLayerTableRecord
  2
0
 70
     0
 62
     7
  6
Continuous
370
    -3
390
F
347
46
348
0
  0
LAYER
  5
72
330
2
100
AcDbSymbolTableRecord
100
AcDbLayerTableRecord
  2
AM_6
 70
     0
 62
    -2
  6
Continuous
370
    35
390
F
347
46
348
0
  0
LAYER
  5
A0
330
2
100
AcDbSymbolTableRecord
100
AcDbLayerTableRecord
  2
AM_9
 70
     0
 62
     6
  6
Dashed
370
    25
390
F
347
46
348
0
  0
LAYER
  5
E1
330
2
100
AcDbSymbolTableRecord
100
AcDbLayerTableRecord
  2
AM_4
 70
     0
 62
     7
  6
Continuous
370
    50
390
F
347
46
348
0
  0
LAYER
  5
19B
330
2
100
AcDbSymbolTableRecord
100
AcDbLayerTableRecord
  2
AM_5
 70
     0
 62
     3
  6
Continuous
370
    25
390
F
347
46
348
0
  0
LAYER
  5
19E
330
2
100
AcDbSymbolTableRecord
100
AcDbLayerTableRecord
  2
AM_7
 70
     0
 62
     7
  6
Center
370
    25
390
F
347
46
348
0
  0
LAYER
  5
247
330
2
100
AcDbSymbolTableRecord
100
AcDbLayerTableRecord
  2
ConnectionPoints
 70
     0
 62
     7
  6
Continuous
370
    50
390
F
347
46
348
0
  0
ENDTAB
  0
TABLE
  2
STYLE
  5
3
330
0
100
AcDbSymbolTable
 70
     1
  0
STYLE
  5
11
330
3
100
AcDbSymbolTableRecord
100
AcDbTextStyleTableRecord
  2
Standard
 70
     0
 40
0.0
 41
1.0
 50
0.0
 71
     0
 42
0.2
  3
txt
  4

  0
ENDTAB
  0
TABLE
  2
VIEW
  5
6
330
0
100
AcDbSymbolTable
 70
     0
  0
ENDTAB
  0
TABLE
  2
UCS
  5
7
330
0
100
AcDbSymbolTable
 70
     0
  0
ENDTAB
  0
TABLE
  2
APPID
  5
9
330
0
100
AcDbSymbolTable
 70
     1
  0
APPID
  5
12
330
9
100
AcDbSymbolTableRecord
100
AcDbRegAppTableRecord
  2
ACAD
 70
     0
  0
ENDTAB
  0
TABLE
  2
DIMSTYLE
  5
A
330
0
100
AcDbSymbolTable
 70
     1
100
AcDbDimStyleTable
  0
DIMSTYLE
105
27
330
A
100
AcDbSymbolTableRecord
100
AcDbDimStyleTableRecord
  2
Standard
 70
     0
178
     0
340
11
  0
ENDTAB
  0
TABLE
  2
BLOCK_RECORD
  5
1
330
0
100
AcDbSymbolTable
 70
     6
  0
BLOCK_RECORD
  5
1F
330
1
100
AcDbSymbolTableRecord
100
AcDbBlockTableRecord
  2
*Model_Space
340
22
 70
     0
280
     1
281
     0
  0
BLOCK_RECORD
  5
1B
330
1
100
AcDbSymbolTableRecord
100
AcDbBlockTableRecord
  2
*Paper_Space
340
1E
 70
     0
280
     1
281
     0
  0
BLOCK_RECORD
  5
23
330
1
100
AcDbSymbolTableRecord
100
AcDbBlockTableRecord
  2
*Paper_Space0
340
26
 70
     0
280
     1
281
     0
  0
BLOCK_RECORD
  5
6E
330
1
100
AcDbSymbolTableRecord
100
AcDbBlockTableRecord
  2
1_136130_4
340
0
102
{BLKREFS
331
6F
102
}
 70
     0
280
     1
281
     0
  0
BLOCK_RECORD
  5
8E
330
1
100
AcDbSymbolTableRecord
100
AcDbBlockTableRecord
  2
2_405016_Inch_0_in_136130_4
340
0
102
{BLKREFS
331
8F
102
}
 70
     0
280
     1
281
     0
  0
BLOCK_RECORD
  5
119
330
1
100
AcDbSymbolTableRecord
100
AcDbBlockTableRecord
  2
3_129517I_0_in_136130_4
340
0
102
{BLKREFS
331
11A
102
}
 70
     0
280
     1
281
     0
  0
BLOCK_RECORD
  5
15C
330
1
100
AcDbSymbolTableRecord
100
AcDbBlockTableRecord
  2
4_129904_0_in_136130_4
340
0
102
{BLKREFS
331
15D
102
}
 70
     0
280
     1
281
     0
  0
BLOCK_RECORD
  5
1AF
330
1
100
AcDbSymbolTableRecord
100
AcDbBlockTableRecord
  2
5_WSTU_GT_04I_0_in_136130_4
340
0
102
{BLKREFS
331
1B0
102
}
 70
     0
280
     1
281
     0
  0
ENDTAB
  0
ENDSEC
  0
SECTION
  2
BLOCKS
  0
BLOCK
  5
20
330
1F
100
AcDbEntity
  8
0
100
AcDbBlockBegin
  2
*Model_Space
 70
     0
 10
0.0
 20
0.0
 30
0.0
  3
*Model_Space
  1

  0
ENDBLK
  5
21
330
1F
100
AcDbEntity
  8
0
100
AcDbBlockEnd
  0
BLOCK
  5
1C
330
1B
100
AcDbEntity
 67
     1
  8
0
100
AcDbBlockBegin
  2
*Paper_Space
 70
     0
 10
0.0
 20
0.0
 30
0.0
  3
*Paper_Space
  1

  0
ENDBLK
  5
1D
330
1B
100
AcDbEntity
 67
     1
  8
0
100
AcDbBlockEnd
  0
BLOCK
  5
24
330
23
100
AcDbEntity
  8
0
100
AcDbBlockBegin
  2
*Paper_Space0
 70
     0
 10
0.0
 20
0.0
 30
0.0
  3
*Paper_Space0
  1

  0
ENDBLK
  5
25
330
23
100
AcDbEntity
  8
0
100
AcDbBlockEnd
  0
BLOCK
  5
70
330
6E
100
AcDbEntity
  8
0
100
AcDbBlockBegin
  2
1_136130_4
 70
     2
 10
0.0
 20
0.0
 30
0.0
  3
1_136130_4
  1

  0
ATTDEF
  5
73
330
6E
100
AcDbEntity
  8
AM_6
100
AcDbText
 10
8.0
 20
1.5125
 30
0.0
 40
0.5
  1
Grip Tight Wide Slot Take Up Inch Bore
100
AcDbAttributeDefinition
  3

  2
NN
 70
     8
280
     0
  0
ATTDEF
  5
74
330
6E
100
AcDbEntity
  8
AM_6
100
AcDbText
 10
8.0
 20
1.0125
 30
0.0
 40
0.5
  1
GT Wide Slot Take-Up Bearings -(Normal Duty)
100
AcDbAttributeDefinition
  3

  2
NT
 70
     8
280
     0
  0
ATTDEF
  5
75
330
6E
100
AcDbEntity
  8
AM_6
100
AcDbText
 10
8.0
 20
0.5125
 30
0.0
 40
0.5
  1
136130
100
AcDbAttributeDefinition
  3

  2
NB
 70
     8
280
     0
  0
ATTDEF
  5
76
330
6E
100
AcDbEntity
  8
AM_6
100
AcDbText
 10
8.0
 20
0.0125
 30
0.0
 40
0.5
  1
$PN.
100
AcDbAttributeDefinition
  3

  2
NBSYN
 70
     8
280
     0
  0
ATTDEF
  5
77
330
6E
100
AcDbEntity
  8
AM_6
100
AcDbText
 10
8.0
 20
-0.4875
 30
0.0
 40
0.5
  1
136130
100
AcDbAttributeDefinition
  3

  2
LINA
 70
     8
280
     0
  0
ATTDEF
  5
78
330
6E
100
AcDbEntity
  8
AM_6
100
AcDbText
 10
8.0
 20
-0.9875
 30
0.0
 40
0.5
  1
204
100
AcDbAttributeDefinition
  3

  2
SERIES
 70
     8
280
     0
  0
ATTDEF
  5
79
330
6E
100
AcDbEntity
  8
AM_6
100
AcDbText
 10
8.0
 20
-1.4875
 30
0.0
 40
0.5
  1
3/4
100
AcDbAttributeDefinition
  3

  2
SS
 70
     8
280
     0
  0
ATTDEF
  5
7A
330
6E
100
AcDbEntity
  8
AM_6
100
AcDbText
 10
8.0
 20
-1.9875
 30
0.0
 40
0.5
  1
136130
100
AcDbAttributeDefinition
  3

  2
PN
 70
     8
280
     0
  0
ATTDEF
  5
7B
330
6E
100
AcDbEntity
  8
AM_6
100
AcDbText
 10
8.0
 20
-2.4875
 30
0.0
 40
0.5
  1
WSTU-GT-012
100
AcDbAttributeDefinition
  3

  2
DESCRIPTION
 70
     8
280
     0
  0
ATTDEF
  5
7C
330
6E
100
AcDbEntity
  8
AM_6
100
AcDbText
 10
8.0
 20
-2.9875
 30
0.0
 40
0.5
  1
1-15/32 
100
AcDbAttributeDefinition
  3

  2
A
 70
     8
280
     0
  0
ATTDEF
  5
7D
330
6E
100
AcDbEntity
  8
AM_6
100
AcDbText
 10
8.0
 20
-3.4875
 30
0.0
 40
0.5
  1
3-11/16
100
AcDbAttributeDefinition
  3

  2
B
 70
     8
280
     0
  0
ATTDEF
  5
7E
330
6E
100
AcDbEntity
  8
AM_6
100
AcDbText
 10
8.0
 20
-3.9875
 30
0.0
 40
0.5
  1
0.516 / 0.546
100
AcDbAttributeDefinition
  3

  2
C
 70
     8
280
     0
  0
ATTDEF
  5
7F
330
6E
100
AcDbEntity
  8
AM_6
100
AcDbText
 10
8.0
 20
-4.4875
 30
0.0
 40
0.5
  1
2
100
AcDbAttributeDefinition
  3

  2
D
 70
     8
280
     0
  0
ATTDEF
  5
80
330
6E
100
AcDbEntity
  8
AM_6
100
AcDbText
 10
8.0
 20
-4.9875
 30
0.0
 40
0.5
  1
2-3/8
100
AcDbAttributeDefinition
  3

  2
E
 70
     8
280
     0
  0
ATTDEF
  5
81
330
6E
100
AcDbEntity
  8
AM_6
100
AcDbText
 10
8.0
 20
-5.4875
 30
0.0
 40
0.5
  1
5/8
100
AcDbAttributeDefinition
  3

  2
F
 70
     8
280
     0
  0
ATTDEF
  5
82
330
6E
100
AcDbEntity
  8
AM_6
100
AcDbText
 10
8.0
 20
-5.9875
 30
0.0
 40
0.5
  1
3/8
100
AcDbAttributeDefinition
  3

  2
G
 70
     8
280
     0
  0
ATTDEF
  5
83
330
6E
100
AcDbEntity
  8
AM_6
100
AcDbText
 10
8.0
 20
-6.4875
 30
0.0
 40
0.5
  1
5/8
100
AcDbAttributeDefinition
  3

  2
H
 70
     8
280
     0
  0
ATTDEF
  5
84
330
6E
100
AcDbEntity
  8
AM_6
100
AcDbText
 10
8.0
 20
-6.9875
 30
0.0
 40
0.5
  1
2
100
AcDbAttributeDefinition
  3

  2
J
 70
     8
280
     0
  0
ATTDEF
  5
85
330
6E
100
AcDbEntity
  8
AM_6
100
AcDbText
 10
8.0
 20
-7.4875
 30
0.0
 40
0.5
  1
1-1/4
100
AcDbAttributeDefinition
  3

  2
K
 70
     8
280
     0
  0
ATTDEF
  5
86
330
6E
100
AcDbEntity
  8
AM_6
100
AcDbText
 10
8.0
 20
-7.9875
 30
0.0
 40
0.5
  1
1-1/2
100
AcDbAttributeDefinition
  3

  2
L
 70
     8
280
     0
  0
ATTDEF
  5
87
330
6E
100
AcDbEntity
  8
AM_6
100
AcDbText
 10
8.0
 20
-8.4875
 30
0.0
 40
0.5
  1
2.985 / 3.015
100
AcDbAttributeDefinition
  3

  2
M
 70
     8
280
     0
  0
ATTDEF
  5
88
330
6E
100
AcDbEntity
  8
AM_6
100
AcDbText
 10
8.0
 20
-8.9875
 30
0.0
 40
0.5
  1
3-5/8
100
AcDbAttributeDefinition
  3

  2
N
 70
     8
280
     0
  0
ATTDEF
  5
89
330
6E
100
AcDbEntity
  8
AM_6
100
AcDbText
 10
8.0
 20
-9.4875
 30
0.0
 40
0.5
  1
31/64
100
AcDbAttributeDefinition
  3

  2
R
 70
     8
280
     0
  0
ATTDEF
  5
8A
330
6E
100
AcDbEntity
  8
AM_6
100
AcDbText
 10
8.0
 20
-9.9875
 30
0.0
 40
0.5
  1
63/64
100
AcDbAttributeDefinition
  3

  2
S
 70
     8
280
     0
  0
ATTDEF
  5
8B
330
6E
100
AcDbEntity
  8
AM_6
100
AcDbText
 10
8.0
 20
-10.4875
 30
0.0
 40
0.5
  1
1-3/8
100
AcDbAttributeDefinition
  3

  2
T
 70
     8
280
     0
  0
ATTDEF
  5
8C
330
6E
100
AcDbEntity
  8
AM_6
100
AcDbText
 10
8.0
 20
-10.9875
 30
0.0
 40
0.5
  1
63/64
100
AcDbAttributeDefinition
  3

  2
Z
 70
     8
280
     0
  0
ATTDEF
  5
8D
330
6E
100
AcDbEntity
  8
AM_6
100
AcDbText
 10
8.0
 20
-11.4875
 30
0.0
 40
0.5
  1
baldor
100
AcDbAttributeDefinition
  3

  2
COMPANY
 70
     8
280
     0
  0
INSERT
  5
8F
330
6E
100
AcDbEntity
  8
0
100
AcDbBlockReference
  2
2_405016_Inch_0_in_136130_4
 10
0.0
 20
0.0
 30
0.0
  0
INSERT
  5
11A
330
6E
100
AcDbEntity
  8
0
100
AcDbBlockReference
  2
3_129517I_0_in_136130_4
 10
0.0
 20
0.0
 30
0.0
  0
INSERT
  5
15D
330
6E
100
AcDbEntity
  8
0
100
AcDbBlockReference
  2
4_129904_0_in_136130_4
 10
0.0
 20
0.0
 30
0.0
  0
INSERT
  5
1B0
330
6E
100
AcDbEntity
  8
0
100
AcDbBlockReference
  2
5_WSTU_GT_04I_0_in_136130_4
 10
0.0
 20
0.0
 30
0.0
  0
ENDBLK
  5
71
330
6E
100
AcDbEntity
  8
0
100
AcDbBlockEnd
  0
BLOCK
  5
90
330
8E
100
AcDbEntity
  8
0
100
AcDbBlockBegin
  2
2_405016_Inch_0_in_136130_4
 70
     2
 10
0.0
 20
0.0
 30
0.0
  3
2_405016_Inch_0_in_136130_4
  1

  0
ATTDEF
  5
92
330
8E
100
AcDbEntity
  8
AM_6
100
AcDbText
 10
4.04701403717094
 20
0.2187499999999999
 30
0.0
 40
0.5
  1
405016 -Inch
100
AcDbAttributeDefinition
  3

  2
NN
 70
     8
280
     0
  0
ATTDEF
  5
93
330
8E
100
AcDbEntity
  8
AM_6
100
AcDbText
 10
4.04701403717094
 20
-0.2812500000000001
 30
0.0
 40
0.5
  1
Grease Fitting
100
AcDbAttributeDefinition
  3

  2
NT
 70
     8
280
     0
  0
ATTDEF
  5
94
330
8E
100
AcDbEntity
  8
AM_6
100
AcDbText
 10
4.04701403717094
 20
-0.78125
 30
0.0
 40
0.5
  1
405016-Inch
100
AcDbAttributeDefinition
  3

  2
NB
 70
     8
280
     0
  0
ATTDEF
  5
95
330
8E
100
AcDbEntity
  8
AM_6
100
AcDbText
 10
4.04701403717094
 20
-1.28125
 30
0.0
 40
0.5
  1
$MN.-Inch
100
AcDbAttributeDefinition
  3

  2
NBSYN
 70
     8
280
     0
  0
ATTDEF
  5
96
330
8E
100
AcDbEntity
  8
AM_6
100
AcDbText
 10
4.04701403717094
 20
-1.78125
 30
0.0
 40
0.5
  1
405016
100
AcDbAttributeDefinition
  3

  2
LINA
 70
     8
280
     0
  0
ATTDEF
  5
97
330
8E
100
AcDbEntity
  8
AM_6
100
AcDbText
 10
4.04701403717094
 20
-2.28125
 30
0.0
 40
0.5
  1
405016
100
AcDbAttributeDefinition
  3

  2
MN
 70
     8
280
     0
  0
ATTDEF
  5
98
330
8E
100
AcDbEntity
  8
AM_6
100
AcDbText
 10
4.04701403717094
 20
-2.78125
 30
0.0
 40
0.5
  1
7/16 HEX
100
AcDbAttributeDefinition
  3

  2
H
 70
     8
280
     0
  0
ATTDEF
  5
99
330
8E
100
AcDbEntity
  8
AM_6
100
AcDbText
 10
4.04701403717094
 20
-3.28125
 30
0.0
 40
0.5
  1
0.383
100
AcDbAttributeDefinition
  3

  2
NDR
 70
     8
280
     0
  0
ATTDEF
  5
9A
330
8E
100
AcDbEntity
  8
AM_6
100
AcDbText
 10
4.04701403717094
 20
-3.78125
 30
0.0
 40
0.5
  1
0.337
100
AcDbAttributeDefinition
  3

  2
KDR
 70
     8
280
     0
  0
ATTDEF
  5
9B
330
8E
100
AcDbEntity
  8
AM_6
100
AcDbText
 10
4.04701403717094
 20
-4.28125
 30
0.0
 40
0.5
  1
0.1575
100
AcDbAttributeDefinition
  3

  2
BZE
 70
     8
280
     0
  0
ATTDEF
  5
9C
330
8E
100
AcDbEntity
  8
AM_6
100
AcDbText
 10
4.04701403717094
 20
-4.78125
 30
0.0
 40
0.5
  1
0.4375
100
AcDbAttributeDefinition
  3

  2
HEX
 70
     8
280
     0
  0
ATTDEF
  5
9D
330
8E
100
AcDbEntity
  8
AM_6
100
AcDbText
 10
4.04701403717094
 20
-5.28125
 30
0.0
 40
0.5
  1
0.281250
100
AcDbAttributeDefinition
  3

  2
HEX2
 70
     8
280
     0
  0
ATTDEF
  5
9E
330
8E
100
AcDbEntity
  8
AM_6
100
AcDbText
 10
4.04701403717094
 20
-5.78125
 30
0.0
 40
0.5
  1
baldor
100
AcDbAttributeDefinition
  3

  2
COMPANY
 70
     8
280
     0
  0
LINE
  5
A1
330
8E
100
AcDbEntity
  8
AM_9
100
AcDbLine
 10
-1.650128780659603
 20
-0.151074129835757
 30
0.0
 11
-1.66145035388348
 21
-0.1791093260592887
 31
0.0
  0
LINE
  5
A2
330
8E
100
AcDbEntity
  8
AM_9
100
AcDbLine
 10
-1.498953934621106
 20
-0.2099962668917053
 30
0.0
 11
-1.510641180840651
 21
-0.2389369657326276
 31
0.0
  0
LWPOLYLINE
  5
A3
330
8E
100
AcDbEntity
  8
AM_9
100
AcDbPolyline
 90
        3
 70
     0
 43
0.0
 10
-1.243373514820776
 20
-0.0000000000000001
 10
-1.264851185738399
 20
-0.0544416102741496
 10
-1.2828001293557
 20
-0.109375
  0
LWPOLYLINE
  5
A4
330
8E
100
AcDbEntity
  8
AM_9
100
AcDbPolyline
 90
        3
 70
     0
 43
0.0
 10
-1.2828001293557
 20
0.1093749999999999
 10
-1.264940479371777
 20
0.0546874999999999
 10
-1.243373514820776
 20
-0.0000000000000001
  0
LWPOLYLINE
  5
A5
330
8E
100
AcDbEntity
  8
AM_9
100
AcDbPolyline
 90
        3
 70
     0
 43
0.0
 10
-1.441023086199016
 20
-0.2987675689889718
 10
-1.456910370762112
 20
-0.2912216284034024
 10
-1.472120372460126
 20
-0.2813919000363599
  0
LWPOLYLINE
  5
A6
330
8E
100
AcDbEntity
  8
AM_9
100
AcDbPolyline
 90
        3
 70
     0
 43
0.0
 10
-1.196197588977256
 20
-0.109375
 10
-1.182483396114872
 20
-0.0546875000000001
 10
-1.172476517819565
 20
-0.0000000000000001
  0
LWPOLYLINE
  5
A7
330
8E
100
AcDbEntity
  8
AM_9
100
AcDbPolyline
 90
        3
 70
     0
 43
0.0
 10
-1.172476517819565
 20
-0.0000000000000001
 10
-1.182430725248839
 20
0.0544416102741495
 10
-1.196197588977256
 20
0.1093749999999999
  0
LWPOLYLINE
  5
A8
330
8E
100
AcDbEntity
  8
AM_9
100
AcDbPolyline
 90
        3
 70
     0
 43
0.0
 10
-1.306521200513392
 20
0.2187499999999999
 10
-1.296566993084117
 20
0.1643083897258504
 10
-1.2828001293557
 20
0.1093749999999999
  0
LINE
  5
A9
330
8E
100
AcDbEntity
  8
AM_9
100
AcDbLine
 10
-1.243373514820776
 20
-0.0000000000000001
 30
0.0
 11
-1.172476517819565
 21
-0.0000000000000001
 31
0.0
  0
LWPOLYLINE
  5
AA
330
8E
100
AcDbEntity
  8
AM_9
100
AcDbPolyline
 90
        3
 70
     0
 43
0.0
 10
-1.2828001293557
 20
-0.109375
 10
-1.296514322218084
 20
-0.1640625
 10
-1.306521200513392
 20
-0.21875
  0
ELLIPSE
  5
AB
330
8E
100
AcDbEntity
  8
AM_9
100
AcDbEllipse
 10
-1.683304729048106
 20
-0.4687500000000001
 30
0.0
 11
-0.0959538295573179
 21
0.03874944547499727
 31
0.0
210
0.0
220
0.0
230
1.0
 40
0.2113091308703482
 41
3.040609649696539
 42
6.384168311072846
  0
ELLIPSE
  5
AC
330
8E
100
AcDbEntity
  8
AM_9
100
AcDbEllipse
 10
-1.655311066850623
 20
-0.3994303217889761
 30
0.0
 11
-0.1290248947933271
 21
0.05210467522533577
 31
0.0
210
0.0
220
0.0
230
1.0
 40
0.2113091308703494
 41
3.039422660717122
 42
5.801105639492175
  0
ELLIPSE
  5
AD
330
8E
100
AcDbEntity
  8
AM_9
100
AcDbEllipse
 10
-1.644636085373288
 20
-0.3729962569746548
 30
0.0
 11
-0.1235034625625841
 21
0.04987493162722698
 31
0.0
210
0.0
220
0.0
230
1.0
 40
0.2113091308703388
 41
3.384778725716037
 42
6.034967388995195
  0
LWPOLYLINE
  5
AE
330
8E
100
AcDbEntity
  8
AM_9
100
AcDbPolyline
 90
        5
 70
     0
 43
0.0
 10
-1.66145035388348
 20
-0.1791093260592887
 10
-1.683312742382106
 20
-0.1842540823997054
 10
-1.704208829312099
 20
-0.1862220679364951
 10
-1.724126448867008
 20
-0.1844124966919381
 10
-1.742640235488271
 20
-0.1791093260592887
  0
LWPOLYLINE
  5
AF
330
8E
100
AcDbEntity
  8
AM_9
100
AcDbPolyline
 90
        5
 70
     0
 43
0.0
 10
-1.510641180840651
 20
-0.2389369657326276
 10
-1.54948246952808
 20
-0.2295338871417796
 10
-1.587617516239998
 20
-0.216687117104632
 10
-1.625236310601182
 20
-0.1996402057054678
 10
-1.66145035388348
 20
-0.1791093260592887
  0
LWPOLYLINE
  5
B0
330
8E
100
AcDbEntity
  8
AM_9
100
AcDbPolyline
 90
        3
 70
     0
 43
0.0
 10
-1.484141902641933
 20
-0.2711532636537956
 10
-1.497877080406506
 20
-0.256181552758992
 10
-1.510641180840651
 20
-0.2389369657326276
  0
ELLIPSE
  5
B1
330
8E
100
AcDbEntity
  8
AM_9
100
AcDbEllipse
 10
-1.593635182109295
 20
-0.2467045921760214
 30
0.0
 11
-0.1303939210191729
 21
0.05265753494273436
 31
0.0
210
0.0
220
0.0
230
1.0
 40
0.2113091308703447
 41
3.806340372002889
 42
6.919181903097276
  0
LWPOLYLINE
  5
B2
330
8E
100
AcDbEntity
  8
AM_9
100
AcDbPolyline
 90
        3
 70
     0
 43
0.0
 10
-1.22788456342353
 20
-0.2000409996967265
 10
-1.214146532594558
 20
-0.1643083897258504
 10
-1.196197588977256
 20
-0.109375
  0
LINE
  5
B3
330
8E
100
AcDbEntity
  8
AM_9
100
AcDbLine
 10
-1.23562420351218
 20
-0.21875
 30
0.0
 11
-1.22788456342353
 21
-0.2000409996967265
 31
0.0
  0
LINE
  5
B4
330
8E
100
AcDbEntity
  8
AM_9
100
AcDbLine
 10
-1.227884685505495
 20
0.2000413016192557
 30
0.0
 11
-1.23562420351218
 21
0.2187499999999999
 31
0.0
  0
LWPOLYLINE
  5
B5
330
8E
100
AcDbEntity
  8
AM_9
100
AcDbPolyline
 90
        3
 70
     0
 43
0.0
 10
-1.196197588977256
 20
0.1093749999999999
 10
-1.21405723896118
 20
0.1640624999999999
 10
-1.227884685505495
 20
0.2000413016192557
  0
LINE
  5
B6
330
8E
100
AcDbEntity
  8
AM_9
100
AcDbLine
 10
-1.661263581511493
 20
-0.1204089378707286
 30
0.0
 11
-1.662349026501205
 21
-0.1230967854582223
 31
0.0
  0
LINE
  5
B7
330
8E
100
AcDbEntity
  8
AM_9
100
AcDbLine
 10
-1.456143353085618
 20
-0.2
 30
0.0
 11
-1.453474873740914
 21
-0.1933921425434559
 31
0.0
  0
ELLIPSE
  5
B8
330
8E
100
AcDbEntity
  8
AM_9
100
AcDbEllipse
 10
-1.575335274570755
 20
-0.2013892028241924
 30
0.0
 11
-0.1019970226638927
 21
0.0411898939996538
 31
0.0
210
0.0
220
0.0
230
1.0
 40
0.2113091308703533
 41
3.141592653589793
 42
6.283185307179586
  0
LWPOLYLINE
  5
B9
330
8E
100
AcDbEntity
  8
AM_9
100
AcDbPolyline
 90
        4
 70
     0
 43
0.0
 10
-1.661268311166512
 20
-0.1204206514110939
 10
-1.661407477151042
 20
-0.1208367673933812
 10
-1.660829893193915
 20
-0.1245107513506023
 10
-1.658923401210811
 20
-0.1273618323840646
  0
LWPOLYLINE
  5
BA
330
8E
100
AcDbEntity
  8
AM_9
100
AcDbPolyline
 90
        5
 70
     0
 43
0.0
 10
-1.453473929539426
 20
-0.1933898041312625
 10
-1.453567265670578
 20
-0.1936098952159723
 10
-1.456782802623216
 20
-0.1971856748420371
 10
-1.462801165865998
 20
-0.1994144431868154
 10
-1.469665136446441
 20
-0.1999999999699528
  0
LWPOLYLINE
  5
BB
330
8E
100
AcDbEntity
  8
AM_9
100
AcDbPolyline
 90
        4
 70
     0
 43
0.0
 10
-1.56296226765888
 20
-0.1745741884610186
 10
-1.535573192285449
 20
-0.1876759562813857
 10
-1.51699175619132
 20
-0.1983452719285273
 10
-1.498953934621106
 20
-0.2099962668917053
  0
LWPOLYLINE
  5
BC
330
8E
100
AcDbEntity
  8
AM_9
100
AcDbPolyline
 90
        3
 70
     0
 43
0.0
 10
-1.650128780659603
 20
-0.151074129835757
 10
-1.620924173160079
 20
-0.1564222384464442
 10
-1.592253674217784
 20
-0.1639312493177434
  0
LWPOLYLINE
  5
BD
330
8E
100
AcDbEntity
  8
AM_9
100
AcDbPolyline
 90
        3
 70
     0
 43
0.0
 10
-1.498953934621106
 20
-0.2099962668917053
 10
-1.481980252287583
 20
-0.2163479371246912
 10
-1.4658419951034
 20
-0.2258378743019628
  0
LWPOLYLINE
  5
BE
330
8E
100
AcDbEntity
  8
AM_9
100
AcDbPolyline
 90
        5
 70
     0
 43
0.0
 10
-1.687039661004098
 20
-0.141958509815605
 10
-1.683164541558049
 20
-0.1420496512545706
 10
-1.668675626443299
 20
-0.1441228263802214
 10
-1.659157752144706
 20
-0.1470795994472237
 10
-1.650128780659603
 20
-0.151074129835757
  0
ELLIPSE
  5
BF
330
8E
100
AcDbEntity
  8
AM_9
100
AcDbEllipse
 10
-1.575335274570761
 20
-0.2013892028241886
 30
0.0
 11
-0.1303939210191755
 21
0.05265753494273408
 31
0.0
210
0.0
220
0.0
230
1.0
 40
0.2113091308703537
 41
3.814164134970076
 42
4.681541050332336
  0
ELLIPSE
  5
C0
330
8E
100
AcDbEntity
  8
AM_9
100
AcDbEllipse
 10
-1.575335274570761
 20
-0.2013892028241878
 30
0.0
 11
-0.1303939210191727
 21
0.05265753494273345
 31
0.0
210
0.0
220
0.0
230
1.0
 40
0.2113091308703529
 41
-1.278875418526302
 42
-0.6725714813802748
  0
LINE
  5
C1
330
8E
100
AcDbEntity
  8
AM_9
100
AcDbLine
 10
-1.472120372460126
 20
-0.2813919000363599
 30
0.0
 11
-1.484141902641933
 21
-0.2711532636537956
 31
0.0
  0
ELLIPSE
  5
C2
330
8E
100
AcDbEntity
  8
AM_9
100
AcDbEllipse
 10
-1.593635182109292
 20
-0.2467045921760213
 30
0.0
 11
-0.1303939210191738
 21
0.05265753494273324
 31
0.0
210
0.0
220
0.0
230
1.0
 40
0.2113091308703503
 41
2.800469246484365
 42
3.607080702195132
  0
ELLIPSE
  5
C3
330
8E
100
AcDbEntity
  8
AM_9
100
AcDbEllipse
 10
-1.593635182107342
 20
-0.2467045921794203
 30
0.0
 11
-0.1303939210162641
 21
0.05265753493977639
 31
0.0
210
0.0
220
0.0
230
1.0
 40
0.2113091308622135
 41
-3.777589249510198
 42
-3.764628581861556
  0
LWPOLYLINE
  5
C4
330
8E
100
AcDbEntity
  8
AM_9
100
AcDbPolyline
 90
        3
 70
     0
 43
0.0
 10
-1.721313859378344
 20
-0.2048087132352749
 10
-1.720383267584316
 20
-0.2062453909316611
 10
-1.720211079301967
 20
-0.206523282437258
  0
LWPOLYLINE
  5
C5
330
8E
100
AcDbEntity
  8
AM_9
100
AcDbPolyline
 90
       17
 70
     0
 43
0.0
 10
-1.460150038891502
 20
-0.1790373738501778
 10
-1.468117503967695
 20
-0.1733931390117467
 10
-1.478873577401877
 20
-0.167072978024251
 10
-1.49151662892432
 20
-0.1606047421316795
 10
-1.506407052070162
 20
-0.1538031670974776
 10
-1.522308928877042
 20
-0.1472336073736393
 10
-1.53966989869876
 20
-0.1407130262602576
 10
-1.557025375829005
 20
-0.1347930597680667
 10
-1.574883087413294
 20
-0.1293028157827817
 10
-1.591712848913368
 20
-0.1247141396218192
 10
-1.608029592814073
 20
-0.1208880884981781
 10
-1.622428643673907
 20
-0.1181545989145989
 10
-1.635360996539654
 20
-0.1164278875396128
 10
-1.645720724699355
 20
-0.1158549073091554
 10
-1.653830899516052
 20
-0.1164156227038167
 10
-1.659007540706893
 20
-0.1180609686233501
 10
-1.661268311166512
 20
-0.1204206514110939
  0
LWPOLYLINE
  5
C6
330
8E
100
AcDbEntity
  8
AM_9
100
AcDbPolyline
 90
        4
 70
     0
 43
0.0
 10
-1.460150038891502
 20
-0.1790373738501783
 10
-1.455195378419435
 20
-0.1842628795203941
 10
-1.453087493952692
 20
-0.1891729979031393
 10
-1.453473929539426
 20
-0.1933898041312625
  0
LINE
  5
C7
330
8E
100
AcDbEntity
  8
AM_9
100
AcDbLine
 10
-1.377521657894623
 20
0.2
 30
0.0
 11
-1.440210959744679
 21
0.2
 31
0.0
  0
LINE
  5
C8
330
8E
100
AcDbEntity
  8
AM_9
100
AcDbLine
 10
-1.440213603832055
 20
-0.2
 30
0.0
 11
-1.377521657894623
 21
-0.2
 31
0.0
  0
LINE
  5
C9
330
8E
100
AcDbEntity
  8
AM_9
100
AcDbLine
 10
-1.22326088284552
 20
0.1999999999999999
 30
0.0
 11
-1.290919117516179
 21
0.1999999999999999
 31
0.0
  0
LINE
  5
CA
330
8E
100
AcDbEntity
  8
AM_9
100
AcDbLine
 10
-1.290919117516179
 20
-0.2
 30
0.0
 11
-1.22326088284552
 21
-0.2
 31
0.0
  0
LINE
  5
CB
330
8E
100
AcDbEntity
  8
AM_9
100
AcDbLine
 10
-1.379362961911891
 20
0.2187499999999999
 30
0.0
 11
-1.23562420351218
 21
0.2187499999999999
 31
0.0
  0
LWPOLYLINE
  5
CC
330
8E
100
AcDbEntity
  8
AM_9
100
AcDbPolyline
 90
        3
 70
     0
 43
0.0
 10
-1.3917152006848
 20
0.0893151770594539
 10
-1.403500296039025
 20
0.0546875
 10
-1.410458744031108
 20
0.0360984582366055
  0
LINE
  5
CD
330
8E
100
AcDbEntity
  8
AM_9
100
AcDbLine
 10
-1.385640646055102
 20
0.1093749999999999
 30
0.0
 11
-1.3917152006848
 21
0.0893151770594539
 31
0.0
  0
LWPOLYLINE
  5
CE
330
8E
100
AcDbEntity
  8
AM_9
100
AcDbPolyline
 90
        3
 70
     0
 43
0.0
 10
-1.363840340357072
 20
0.2067717311564775
 10
-1.371873782326685
 20
0.1643083897258504
 10
-1.385640646055102
 20
0.1093749999999999
  0
LINE
  5
CF
330
8E
100
AcDbEntity
  8
AM_9
100
AcDbLine
 10
-1.361919574897411
 20
0.2187499999999999
 30
0.0
 11
-1.363840340357072
 21
0.2067717311564775
 31
0.0
  0
LINE
  5
D0
330
8E
100
AcDbEntity
  8
AM_9
100
AcDbLine
 10
-1.379335784521839
 20
-0.21875
 30
0.0
 11
-1.23562420351218
 21
-0.21875
 31
0.0
  0
LINE
  5
D1
330
8E
100
AcDbEntity
  8
AM_9
100
AcDbLine
 10
-1.363703607025925
 20
-0.2075966661864528
 30
0.0
 11
-1.361919574897411
 21
-0.21875
 31
0.0
  0
LWPOLYLINE
  5
D2
330
8E
100
AcDbEntity
  8
AM_9
100
AcDbPolyline
 90
        3
 70
     0
 43
0.0
 10
-1.385640646055102
 20
-0.109375
 10
-1.371926453192718
 20
-0.1640625
 10
-1.363703607025925
 20
-0.2075966661864528
  0
LINE
  5
D3
330
8E
100
AcDbEntity
  8
AM_9
100
AcDbLine
 10
-1.392025344514181
 20
-0.0883385581909286
 30
0.0
 11
-1.385640646055102
 21
-0.109375
 31
0.0
  0
LWPOLYLINE
  5
D4
330
8E
100
AcDbEntity
  8
AM_9
100
AcDbPolyline
 90
        3
 70
     0
 43
0.0
 10
-1.410479468925864
 20
-0.0360446789586083
 10
-1.403589589672404
 20
-0.0544416102741496
 10
-1.392025344514181
 20
-0.0883385581909286
  0
LINE
  5
D5
330
8E
100
AcDbEntity
  8
AM_9
100
AcDbLine
 10
-1.052716265223117
 20
0.1853871066562612
 30
0.0
 11
-1.221533154907186
 21
0.1914800577488989
 31
0.0
  0
LINE
  5
D6
330
8E
100
AcDbEntity
  8
AM_9
100
AcDbLine
 10
-1.221533154907186
 20
-0.191480057748899
 30
0.0
 11
-1.052716265223117
 21
-0.1853871066562613
 31
0.0
  0
LINE
  5
D7
330
8E
100
AcDbEntity
  8
AM_9
100
AcDbLine
 10
-0.987149527940967
 20
0.1319978794387896
 30
0.0
 11
-1.000863655000035
 21
0.1513925839218323
 31
0.0
  0
LINE
  5
D8
330
8E
100
AcDbEntity
  8
AM_9
100
AcDbLine
 10
-1.000863655000035
 20
-0.1513925839218324
 30
0.0
 11
-0.987149527940967
 21
-0.1319978794387897
 31
0.0
  0
ELLIPSE
  5
D9
330
8E
100
AcDbEntity
  8
AM_9
100
AcDbEllipse
 10
-1.377521657894623
 20
-0.0000000000000006
 30
0.0
 11
1.339457436567414E-17
 21
0.2187499999999994
 31
0.0
210
0.0
220
0.0
230
1.0
 40
0.4999999999999994
 41
0.0
 42
6.283185307179586
  0
ELLIPSE
  5
DA
330
8E
100
AcDbEntity
  8
AM_9
100
AcDbEllipse
 10
-1.377521657894623
 20
-0.0000000000000001
 30
0.0
 11
1.224646799147353E-17
 21
0.1999999999999999
 31
0.0
210
0.0
220
0.0
230
1.0
 40
0.4999999999999996
 41
0.0
 42
6.283185307179586
  0
ELLIPSE
  5
DB
330
8E
100
AcDbEntity
  8
AM_9
100
AcDbEllipse
 10
-1.29091911751618
 20
-0.0000000000000003
 30
0.0
 11
1.339457436567416E-17
 21
0.2187499999999997
 31
0.0
210
0.0
220
0.0
230
1.0
 40
0.4999999999999976
 41
0.0
 42
6.283185307179586
  0
ELLIPSE
  5
DC
330
8E
100
AcDbEntity
  8
AM_9
100
AcDbEllipse
 10
-1.290919117516183
 20
-0.0000000000000016
 30
0.0
 11
1.224646799147363E-17
 21
0.2000000000000016
 31
0.0
210
0.0
220
0.0
230
1.0
 40
0.4999999999999988
 41
0.0
 42
6.283185307179586
  0
ELLIPSE
  5
DD
330
8E
100
AcDbEntity
  8
AM_9
100
AcDbEllipse
 10
-1.22326088284552
 20
-0.0000000000000002
 30
0.0
 11
1.224646799147355E-17
 21
0.2000000000000004
 31
0.0
210
0.0
220
0.0
230
1.0
 40
0.4999999999999996
 41
0.0
 42
6.283185307179586
  0
ELLIPSE
  5
DE
330
8E
100
AcDbEntity
  8
AM_9
100
AcDbEllipse
 10
-1.22326088284552
 20
0.0000000000000002
 30
0.0
 11
1.172668097677217E-17
 21
0.1915112338502292
 31
0.0
210
0.0
220
0.0
230
1.0
 40
0.4999999999999987
 41
0.0
 42
6.283185307179586
  0
ELLIPSE
  5
DF
330
8E
100
AcDbEntity
  8
AM_9
100
AcDbEllipse
 10
-1.054389016356276
 20
-0.0000000000000004
 30
0.0
 11
1.135353457964637E-17
 21
0.1854172907249852
 31
0.0
210
0.0
220
0.0
230
1.0
 40
0.4999999999999968
 41
0.0
 42
6.283185307179586
  0
ELLIPSE
  5
E0
330
8E
100
AcDbEntity
  8
AM_9
100
AcDbEllipse
 10
-1.033817825767665
 20
0.0000000000000064
 30
0.0
 11
9.899048221688421E-18
 21
0.1616637258772166
 31
0.0
210
0.0
220
0.0
230
1.0
 40
0.4999999999999776
 41
0.0
 42
6.283185307179586
  0
LWPOLYLINE
  5
E2
330
8E
100
AcDbEntity
  8
AM_4
100
AcDbPolyline
 90
        4
 70
     0
 43
0.0
 10
-1.453820464921593
 20
-0.2360765106845276
 10
-1.444655478345035
 20
-0.2462091938631851
 10
-1.436564207566048
 20
-0.2570505402207574
 10
-1.428967436888038
 20
-0.2689146070947222
  0
LWPOLYLINE
  5
E3
330
8E
100
AcDbEntity
  8
AM_4
100
AcDbPolyline
 90
        3
 70
     0
 43
0.0
 10
-1.428967436888038
 20
-0.2689146070947222
 10
-1.441963324737649
 20
-0.2634308483997528
 10
-1.456177224851889
 20
-0.2602304684431305
  0
LWPOLYLINE
  5
E4
330
8E
100
AcDbEntity
  8
AM_4
100
AcDbPolyline
 90
        3
 70
     0
 43
0.0
 10
-1.474477132390422
 20
-0.3055458577949631
 10
-1.458095177771445
 20
-0.3030753670497808
 10
-1.441023086199016
 20
-0.2987675689889718
  0
LINE
  5
E5
330
8E
100
AcDbEntity
  8
AM_4
100
AcDbLine
 10
-1.428967436888038
 20
-0.2689146070947222
 30
0.0
 11
-1.441023086199016
 21
-0.2987675689889718
 31
0.0
  0
LINE
  5
E6
330
8E
100
AcDbEntity
  8
AM_4
100
AcDbLine
 10
-1.58866518717676
 20
-0.5093460834378319
 30
0.0
 11
-1.528053436909497
 21
-0.4540180898723598
 31
0.0
  0
LINE
  5
E7
330
8E
100
AcDbEntity
  8
AM_4
100
AcDbLine
 10
-1.784788604209371
 20
-0.3503396289636352
 30
0.0
 11
-1.779595181918641
 21
-0.4322420068738781
 31
0.0
  0
ELLIPSE
  5
E8
330
8E
100
AcDbEntity
  8
AM_4
100
AcDbEllipse
 10
-1.683304729048106
 20
-0.4687500000000001
 30
0.0
 11
-0.09595382955731788
 21
0.03874944547499721
 31
0.0
210
0.0
220
0.0
230
1.0
 40
0.2113091308703506
 41
0.1009830038932531
 42
3.04060964969654
  0
LINE
  5
E9
330
8E
100
AcDbEntity
  8
AM_4
100
AcDbLine
 10
-1.731318662264394
 20
-0.151074129835757
 30
0.0
 11
-1.742640235488271
 21
-0.1791093260592887
 31
0.0
  0
LWPOLYLINE
  5
EA
330
8E
100
AcDbEntity
  8
AM_4
100
AcDbPolyline
 90
        9
 70
     0
 43
0.0
 10
-1.761534453746141
 20
-0.3181628398745862
 10
-1.7663825742533
 20
-0.320070105071889
 10
-1.771199702598447
 20
-0.3228201127866513
 10
-1.775512775629614
 20
-0.3263286699835756
 10
-1.779191136052283
 20
-0.3305942438637372
 10
-1.782055844787455
 20
-0.335520246385807
 10
-1.78403985545518
 20
-0.3412823381597285
 10
-1.784824885140143
 20
-0.3470211434832063
 10
-1.7847782007383
 20
-0.3504975148648002
  0
LWPOLYLINE
  5
EB
330
8E
100
AcDbEntity
  8
AM_4
100
AcDbPolyline
 90
        9
 70
     0
 43
0.0
 10
-1.528169034593547
 20
-0.454123094543762
 10
-1.525259449182445
 20
-0.4511209116480439
 10
-1.522007420932759
 20
-0.4464736457017148
 10
-1.519503124996304
 20
-0.4407827124684901
 10
-1.518246607806876
 20
-0.4349961316258168
 10
-1.518098875748711
 20
-0.4293822204588473
 10
-1.518880680002012
 20
-0.4240526387502047
 10
-1.520448010586612
 20
-0.4190145737938037
 10
-1.522323720675053
 20
-0.4149390018236246
  0
ELLIPSE
  5
EC
330
8E
100
AcDbEntity
  8
AM_4
100
AcDbEllipse
 10
-1.655311066850623
 20
-0.3994303217889761
 30
0.0
 11
-0.129024894793327
 21
0.05210467522533588
 31
0.0
210
0.0
220
0.0
230
1.0
 40
0.2113091308703479
 41
0.1020791120640441
 42
3.039422660717122
  0
LWPOLYLINE
  5
ED
330
8E
100
AcDbEntity
  8
AM_4
100
AcDbPolyline
 90
        3
 70
     0
 43
0.0
 10
-1.522212967803807
 20
-0.2987675689889718
 10
-1.508679702303417
 20
-0.3030606061861223
 10
-1.495120417678432
 20
-0.305456396233367
  0
ELLIPSE
  5
EE
330
8E
100
AcDbEntity
  8
AM_4
100
AcDbEllipse
 10
-1.593635182109293
 20
-0.2467045921760222
 30
0.0
 11
-0.1303939210191732
 21
0.05265753494273284
 31
0.0
210
0.0
220
0.0
230
1.0
 40
0.2113091308703426
 41
1.71194526960963
 42
2.505596057672114
  0
LWPOLYLINE
  5
EF
330
8E
100
AcDbEntity
  8
AM_4
100
AcDbPolyline
 90
        4
 70
     0
 43
0.0
 10
-1.742640235488271
 20
-0.1791093260592887
 10
-1.727763117445195
 20
-0.1988355121406938
 10
-1.711333845202521
 20
-0.2156330920108724
 10
-1.705836826591178
 20
-0.2201680623457971
  0
LWPOLYLINE
  5
F0
330
8E
100
AcDbEntity
  8
AM_4
100
AcDbPolyline
 90
        3
 70
     0
 43
0.0
 10
-1.705836826591178
 20
-0.2201680623457971
 10
-1.69289630499255
 20
-0.229046210966002
 10
-1.673020944050234
 20
-0.2389369657326275
  0
LWPOLYLINE
  5
F1
330
8E
100
AcDbEntity
  8
AM_4
100
AcDbPolyline
 90
        4
 70
     0
 43
0.0
 10
-1.475933624805157
 20
-0.2602304684431209
 10
-1.485182260219051
 20
-0.2616913382589203
 10
-1.497479777668685
 20
-0.2647402074337706
 10
-1.510157318492829
 20
-0.2689146070947222
  0
LINE
  5
F2
330
8E
100
AcDbEntity
  8
AM_4
100
AcDbLine
 10
-1.662349026501205
 20
-0.1230967854582223
 30
0.0
 11
-1.677332297234647
 21
-0.1601993088245384
 31
0.0
  0
LINE
  5
F3
330
8E
100
AcDbEntity
  8
AM_4
100
AcDbLine
 10
-1.473338251906872
 20
-0.2425790968238376
 30
0.0
 11
-1.456143353085618
 21
-0.2
 31
0.0
  0
ELLIPSE
  5
F4
330
8E
100
AcDbEntity
  8
AM_4
100
AcDbEllipse
 10
-1.57533527457076
 20
-0.201389202824188
 30
0.0
 11
-0.1019970226638876
 21
0.04118989399964953
 31
0.0
210
0.0
220
0.0
230
1.0
 40
0.2113091308703492
 41
0.0
 42
3.141592653589793
  0
LWPOLYLINE
  5
F5
330
8E
100
AcDbEntity
  8
AM_4
100
AcDbPolyline
 90
        4
 70
     0
 43
0.0
 10
-1.731318662264394
 20
-0.151074129835757
 10
-1.714702820276865
 20
-0.145877822676052
 10
-1.698648207621733
 20
-0.1427138007556462
 10
-1.687039661004098
 20
-0.141958509815605
  0
LWPOLYLINE
  5
F6
330
8E
100
AcDbEntity
  8
AM_4
100
AcDbPolyline
 90
        7
 70
     0
 43
0.0
 10
-1.661333697830688
 20
-0.2099962668917053
 10
-1.671642834188017
 20
-0.1943573015029058
 10
-1.682986661022228
 20
-0.1805491420332303
 10
-1.695700635599035
 20
-0.1688997677199809
 10
-1.709596561788727
 20
-0.159872940321087
 10
-1.72026990142937
 20
-0.1549033058439655
 10
-1.731318662264394
 20
-0.151074129835757
  0
LINE
  5
F7
330
8E
100
AcDbEntity
  8
AM_4
100
AcDbLine
 10
-1.685709807461269
 20
-0.1419585097669023
 30
0.0
 11
-1.687148284109422
 21
-0.1419585097669023
 31
0.0
  0
ELLIPSE
  5
F8
330
8E
100
AcDbEntity
  8
AM_4
100
AcDbEllipse
 10
-1.575335274570748
 20
-0.2013892028242137
 30
0.0
 11
-0.130393921019192
 21
0.05265753494275629
 31
0.0
210
0.0
220
0.0
230
1.0
 40
0.2113091308704166
 41
5.610613825799339
 42
7.795870906981339
  0
ELLIPSE
  5
F9
330
8E
100
AcDbEntity
  8
AM_4
100
AcDbEllipse
 10
-1.593635182109293
 20
-0.2467045921760203
 30
0.0
 11
-0.1303939210191742
 21
0.05265753494273354
 31
0.0
210
0.0
220
0.0
230
1.0
 40
0.2113091308703523
 41
0.6359965959176845
 42
1.512685599801937
  0
LWPOLYLINE
  5
FA
330
8E
100
AcDbEntity
  8
AM_4
100
AcDbPolyline
 90
        3
 70
     0
 43
0.0
 10
-1.494233532343692
 20
-0.3055458577949631
 10
-1.484783333457383
 20
-0.3064767622622301
 10
-1.474477132390422
 20
-0.3055458577949631
  0
LWPOLYLINE
  5
FB
330
8E
100
AcDbEntity
  8
AM_4
100
AcDbPolyline
 90
       20
 70
     0
 43
0.0
 10
-1.52223461049035
 20
-0.4151085003035532
 10
-1.524126448261023
 20
-0.4111539308493196
 10
-1.526282992332425
 20
-0.4055609827852948
 10
-1.528184633895795
 20
-0.3988607564124291
 10
-1.529560638591818
 20
-0.3911758212784492
 10
-1.530163579394746
 20
-0.3827439312295995
 10
-1.529817324354345
 20
-0.3738558395906545
 10
-1.528209029746527
 20
-0.3637922314438161
 10
-1.525352802319614
 20
-0.3540360629384983
 10
-1.521392540377233
 20
-0.3449033984663299
 10
-1.516506701414175
 20
-0.3365738840588433
 10
-1.51089914505556
 20
-0.3291718764620881
 10
-1.504797612042196
 20
-0.3227815669993926
 10
-1.498465813346061
 20
-0.3174584319734726
 10
-1.492203294036772
 20
-0.3132186058874692
 10
-1.48631855507642
 20
-0.3100193131644305
 10
-1.481073713177944
 20
-0.3077478258708767
 10
-1.476639293651677
 20
-0.3062392062253872
 10
-1.473098686960752
 20
-0.3053145953253531
 10
-1.472578836643259
 20
-0.3052013262744201
  0
LWPOLYLINE
  5
FC
330
8E
100
AcDbEntity
  8
AM_4
100
AcDbPolyline
 90
       19
 70
     0
 43
0.0
 10
-1.720211079301967
 20
-0.206523282437258
 10
-1.718373307615777
 20
-0.2097458799802623
 10
-1.71619749923021
 20
-0.2142967846490584
 10
-1.714049465687574
 20
-0.2199611546129477
 10
-1.712173062374831
 20
-0.2267288879325472
 10
-1.710839325107717
 20
-0.2344692247906374
 10
-1.710292266607654
 20
-0.2429388515354877
 10
-1.710702718487783
 20
-0.2518460638385413
 10
-1.712383673290641
 20
-0.2619005926150222
 10
-1.715306497663268
 20
-0.271627774941962
 10
-1.719324037969452
 20
-0.2807191714105934
 10
-1.724256196781728
 20
-0.2889990513360862
 10
-1.72989801422523
 20
-0.2963459144678126
 10
-1.73601994608408
 20
-0.3026771420507172
 10
-1.742356085009749
 20
-0.3079390753676118
 10
-1.748605339459664
 20
-0.312118356002165
 10
-1.754460199429579
 20
-0.3152616192923663
 10
-1.759662879322377
 20
-0.3174853180897365
 10
-1.761900612267921
 20
-0.3182822652495136
  0
ELLIPSE
  5
FD
330
8E
100
AcDbEntity
  8
AM_4
100
AcDbEllipse
 10
-1.644636085373278
 20
-0.3729962569746642
 30
0.0
 11
-0.1235034625625955
 21
0.04987493162723571
 31
0.0
210
0.0
220
0.0
230
1.0
 40
0.2113091308703502
 41
6.040246730275133
 42
9.66796403289594
  0
ELLIPSE
  5
FE
330
8E
100
AcDbEntity
  8
AM_4
100
AcDbEllipse
 10
-1.575335274570761
 20
-0.201389202824188
 30
0.0
 11
-0.1303939210191833
 21
0.05265753494272086
 31
0.0
210
0.0
220
0.0
230
1.0
 40
0.2113091308703572
 41
1.711945269609617
 42
2.518556725320334
  0
LINE
  5
FF
330
8E
100
AcDbEntity
  8
AM_4
100
AcDbLine
 10
-1.456177224851889
 20
-0.2602304684431305
 30
0.0
 11
-1.475933624805157
 21
-0.2602304684431209
 31
0.0
  0
ELLIPSE
  5
100
330
8E
100
AcDbEntity
  8
AM_4
100
AcDbEllipse
 10
-1.575335274570761
 20
-0.2013892028241874
 30
0.0
 11
-0.1303939210191756
 21
0.05265753494273462
 31
0.0
210
0.0
220
0.0
230
1.0
 40
0.2113091308703493
 41
2.800469246484373
 42
3.607080702195121
  0
LINE
  5
101
330
8E
100
AcDbEntity
  8
AM_4
100
AcDbLine
 10
-1.4658419951034
 20
-0.2258378743019628
 30
0.0
 11
-1.453820464921593
 21
-0.2360765106845276
 31
0.0
  0
LWPOLYLINE
  5
102
330
8E
100
AcDbEntity
  8
AM_4
100
AcDbPolyline
 90
        3
 70
     0
 43
0.0
 10
-1.510157318492829
 20
-0.2689146070947222
 10
-1.538219618461673
 20
-0.251275593729576
 10
-1.568007723299659
 20
-0.2360765106845274
  0
LINE
  5
103
330
8E
100
AcDbEntity
  8
AM_4
100
AcDbLine
 10
-1.568007723299659
 20
-0.2360765106845274
 30
0.0
 11
-1.594016532325643
 21
-0.2258378743019626
 31
0.0
  0
LWPOLYLINE
  5
104
330
8E
100
AcDbEntity
  8
AM_4
100
AcDbPolyline
 90
        4
 70
     0
 43
0.0
 10
-1.594016532325643
 20
-0.2258378743019626
 10
-1.617006567017883
 20
-0.2189176876709014
 10
-1.639012436878568
 20
-0.2138633349839127
 10
-1.661333697830688
 20
-0.2099962668917053
  0
LINE
  5
105
330
8E
100
AcDbEntity
  8
AM_4
100
AcDbLine
 10
-1.661333697830688
 20
-0.2099962668917053
 30
0.0
 11
-1.673020944050233
 21
-0.2389369657326276
 31
0.0
  0
LWPOLYLINE
  5
106
330
8E
100
AcDbEntity
  8
AM_4
100
AcDbPolyline
 90
        3
 70
     0
 43
0.0
 10
-1.673020944050233
 20
-0.2389369657326276
 10
-1.643341122816431
 20
-0.2560939713202353
 10
-1.612316439864175
 20
-0.2711532636537956
  0
LINE
  5
107
330
8E
100
AcDbEntity
  8
AM_4
100
AcDbLine
 10
-1.612316439864175
 20
-0.2711532636537956
 30
0.0
 11
-1.586307630838192
 21
-0.2813919000363599
 31
0.0
  0
LWPOLYLINE
  5
108
330
8E
100
AcDbEntity
  8
AM_4
100
AcDbPolyline
 90
        3
 70
     0
 43
0.0
 10
-1.586307630838192
 20
-0.2813919000363599
 10
-1.554657079984168
 20
-0.2911775952746242
 10
-1.522212967803807
 20
-0.2987675689889718
  0
LINE
  5
109
330
8E
100
AcDbEntity
  8
AM_4
100
AcDbLine
 10
-1.510157318492829
 20
-0.2689146070947222
 30
0.0
 11
-1.522212967803807
 21
-0.2987675689889718
 31
0.0
  0
ARC
  5
10A
330
8E
100
AcDbEntity
  8
AM_4
100
AcDbCircle
 10
-1.504719139075463
 20
0.0000000000000002
 30
0.0
 40
0.1999999999999997
100
AcDbArc
 50
90.0
 51
219.6392689429245
  0
LWPOLYLINE
  5
10B
330
8E
100
AcDbEntity
  8
AM_4
100
AcDbPolyline
 90
       10
 70
     0
 43
0.0
 10
-1.658923401210811
 20
-0.1273618323840646
 10
-1.657258189384791
 20
-0.1291842652280562
 10
-1.650980642117128
 20
-0.1344729790611519
 10
-1.641823043054407
 20
-0.1405186270901959
 10
-1.630526853892396
 20
-0.146827078301712
 10
-1.616785702751646
 20
-0.1535654953592165
 10
-1.601724213012164
 20
-0.1601799433259583
 10
-1.584930790192504
 20
-0.1668493358980661
 10
-1.567531454038508
 20
-0.1731116383367605
 10
-1.549288239259405
 20
-0.1790373738502115
  0
ELLIPSE
  5
10C
330
8E
100
AcDbEntity
  8
AM_4
100
AcDbEllipse
 10
-1.504719139075462
 20
-0.0000000000000001
 30
0.0
 11
1.224646799147353E-17
 21
0.2
 31
0.0
210
0.0
220
0.0
230
1.0
 40
0.4999999999999994
 41
0.0
 42
2.679646633022827
  0
LINE
  5
10D
330
8E
100
AcDbEntity
  8
AM_4
100
AcDbLine
 10
-1.440210959744679
 20
0.2
 30
0.0
 11
-1.504719139075462
 21
0.2
 31
0.0
  0
LINE
  5
10E
330
8E
100
AcDbEntity
  8
AM_4
100
AcDbLine
 10
-1.469812920673349
 20
-0.2
 30
0.0
 11
-1.440213603832055
 21
-0.2
 31
0.0
  0
LWPOLYLINE
  5
10F
330
8E
100
AcDbEntity
  8
AM_4
100
AcDbPolyline
 90
        8
 70
     0
 43
0.0
 10
-1.469665136446441
 20
-0.1999999999699528
 10
-1.471152253685745
 20
-0.1999786710855127
 10
-1.482025854162494
 20
-0.1988321115509052
 10
-1.494424175876476
 20
-0.1961649429984259
 10
-1.508847606242468
 20
-0.1920694300574957
 10
-1.524360586103286
 20
-0.1870948030566195
 10
-1.541453989890257
 20
-0.181500594761393
 10
-1.549288239259422
 20
-0.1790373738501783
  0
LINE
  5
110
330
8E
100
AcDbEntity
  8
AM_4
100
AcDbLine
 10
-1.432816571898622
 20
0.2187499999999999
 30
0.0
 11
-1.379362961911891
 21
0.2187499999999999
 31
0.0
  0
LWPOLYLINE
  5
111
330
8E
100
AcDbEntity
  8
AM_4
100
AcDbPolyline
 90
        3
 70
     0
 43
0.0
 10
-1.472243186433546
 20
0.1093749999999999
 10
-1.454383536449623
 20
0.1640624999999999
 10
-1.432816571898622
 20
0.2187499999999999
  0
LWPOLYLINE
  5
112
330
8E
100
AcDbEntity
  8
AM_4
100
AcDbPolyline
 90
        3
 70
     0
 43
0.0
 10
-1.495964257591238
 20
0.0
 10
-1.486010050161963
 20
0.0544416102741495
 10
-1.472243186433546
 20
0.1093749999999999
  0
LINE
  5
113
330
8E
100
AcDbEntity
  8
AM_4
100
AcDbLine
 10
-1.410458744031108
 20
0.0360984582366055
 30
0.0
 11
-1.425067260590026
 21
0.0
 31
0.0
  0
LINE
  5
114
330
8E
100
AcDbEntity
  8
AM_4
100
AcDbLine
 10
-1.495964257591238
 20
0.0
 30
0.0
 11
-1.425067260590026
 21
0.0
 31
0.0
  0
LWPOLYLINE
  5
115
330
8E
100
AcDbEntity
  8
AM_4
100
AcDbPolyline
 90
        3
 70
     0
 43
0.0
 10
-1.472243186433546
 20
-0.1093749999999999
 10
-1.48595737929593
 20
-0.0546875
 10
-1.495964257591238
 20
0.0
  0
LWPOLYLINE
  5
116
330
8E
100
AcDbEntity
  8
AM_4
100
AcDbPolyline
 90
        3
 70
     0
 43
0.0
 10
-1.432816571898622
 20
-0.21875
 10
-1.454294242816244
 20
-0.1643083897258504
 10
-1.472243186433546
 20
-0.1093749999999999
  0
LINE
  5
117
330
8E
100
AcDbEntity
  8
AM_4
100
AcDbLine
 10
-1.432816571898622
 20
-0.21875
 30
0.0
 11
-1.379335784521839
 21
-0.21875
 31
0.0
  0
LINE
  5
118
330
8E
100
AcDbEntity
  8
AM_4
100
AcDbLine
 10
-1.425067260590026
 20
0.0
 30
0.0
 11
-1.410479468925864
 21
-0.0360446789586083
 31
0.0
  0
ENDBLK
  5
91
330
8E
100
AcDbEntity
  8
0
100
AcDbBlockEnd
  0
BLOCK
  5
11B
330
119
100
AcDbEntity
  8
0
100
AcDbBlockBegin
  2
3_129517I_0_in_136130_4
 70
     2
 10
0.0
 20
0.0
 30
0.0
  3
3_129517I_0_in_136130_4
  1

  0
ATTDEF
  5
11D
330
119
100
AcDbEntity
  8
AM_6
100
AcDbText
 10
5.925197302728476
 20
0.414
 30
0.0
 40
0.5
  1
INS-GT B
100
AcDbAttributeDefinition
  3

  2
NN
 70
     8
280
     0
  0
ATTDEF
  5
11E
330
119
100
AcDbEntity
  8
AM_6
100
AcDbText
 10
5.925197302728476
 20
-0.086
 30
0.0
 40
0.5
  1
GT Normal Duty Bearing Inserts
100
AcDbAttributeDefinition
  3

  2
NT
 70
     8
280
     0
  0
ATTDEF
  5
11F
330
119
100
AcDbEntity
  8
AM_6
100
AcDbText
 10
5.925197302728476
 20
-0.586
 30
0.0
 40
0.5
  1
129517I
100
AcDbAttributeDefinition
  3

  2
NB
 70
     8
280
     0
  0
ATTDEF
  5
120
330
119
100
AcDbEntity
  8
AM_6
100
AcDbText
 10
5.925197302728476
 20
-1.086
 30
0.0
 40
0.5
  1
$PN.I
100
AcDbAttributeDefinition
  3

  2
NBSYN
 70
     8
280
     0
  0
ATTDEF
  5
121
330
119
100
AcDbEntity
  8
AM_6
100
AcDbText
 10
5.925197302728476
 20
-1.586
 30
0.0
 40
0.5
  1
129517
100
AcDbAttributeDefinition
  3

  2
LINA
 70
     8
280
     0
  0
ATTDEF
  5
122
330
119
100
AcDbEntity
  8
AM_6
100
AcDbText
 10
5.925197302728476
 20
-2.086
 30
0.0
 40
0.5
  1
204
100
AcDbAttributeDefinition
  3

  2
SERIES
 70
     8
280
     0
  0
ATTDEF
  5
123
330
119
100
AcDbEntity
  8
AM_6
100
AcDbText
 10
5.925197302728476
 20
-2.586
 30
0.0
 40
0.5
  1
129517
100
AcDbAttributeDefinition
  3

  2
PN
 70
     8
280
     0
  0
ATTDEF
  5
124
330
119
100
AcDbEntity
  8
AM_6
100
AcDbText
 10
5.925197302728476
 20
-3.086
 30
0.0
 40
0.5
  1
INS-GT-04
100
AcDbAttributeDefinition
  3

  2
DESCRIPTION
 70
     8
280
     0
  0
ATTDEF
  5
125
330
119
100
AcDbEntity
  8
AM_6
100
AcDbText
 10
5.925197302728476
 20
-3.586
 30
0.0
 40
0.5
  1
1.48
100
AcDbAttributeDefinition
  3

  2
A
 70
     8
280
     0
  0
ATTDEF
  5
126
330
119
100
AcDbEntity
  8
AM_6
100
AcDbText
 10
5.925197302728476
 20
-4.086
 30
0.0
 40
0.5
  1
0.58
100
AcDbAttributeDefinition
  3

  2
C
 70
     8
280
     0
  0
ATTDEF
  5
127
330
119
100
AcDbEntity
  8
AM_6
100
AcDbText
 10
5.925197302728476
 20
-4.586
 30
0.0
 40
0.5
  1
1.8504
100
AcDbAttributeDefinition
  3

  2
D
 70
     8
280
     0
  0
ATTDEF
  5
128
330
119
100
AcDbEntity
  8
AM_6
100
AcDbText
 10
5.925197302728476
 20
-5.086
 30
0.0
 40
0.5
  1
0.15
100
AcDbAttributeDefinition
  3

  2
J
 70
     8
280
     0
  0
ATTDEF
  5
129
330
119
100
AcDbEntity
  8
AM_6
100
AcDbText
 10
5.925197302728476
 20
-5.586
 30
0.0
 40
0.5
  1
1.50
100
AcDbAttributeDefinition
  3

  2
L
 70
     8
280
     0
  0
ATTDEF
  5
12A
330
119
100
AcDbEntity
  8
AM_6
100
AcDbText
 10
5.925197302728476
 20
-6.086
 30
0.0
 40
0.5
  1
#10 - 32 x 1/4
100
AcDbAttributeDefinition
  3

  2
N
 70
     8
280
     0
  0
ATTDEF
  5
12B
330
119
100
AcDbEntity
  8
AM_6
100
AcDbText
 10
5.925197302728476
 20
-6.586
 30
0.0
 40
0.5
  1
0.46000
100
AcDbAttributeDefinition
  3

  2
W
 70
     8
280
     0
  0
ATTDEF
  5
12C
330
119
100
AcDbEntity
  8
AM_6
100
AcDbText
 10
5.925197302728476
 20
-7.086
 30
0.0
 40
0.5
  1
1.03
100
AcDbAttributeDefinition
  3

  2
X
 70
     8
280
     0
  0
ATTDEF
  5
12D
330
119
100
AcDbEntity
  8
AM_6
100
AcDbText
 10
5.925197302728476
 20
-7.586
 30
0.0
 40
0.5
  1
1.02
100
AcDbAttributeDefinition
  3

  2
Y
 70
     8
280
     0
  0
ATTDEF
  5
12E
330
119
100
AcDbEntity
  8
AM_6
100
AcDbText
 10
5.925197302728476
 20
-8.086
 30
0.0
 40
0.5
  1
baldor
100
AcDbAttributeDefinition
  3

  2
COMPANY
 70
     8
280
     0
  0
LINE
  5
12F
330
119
100
AcDbEntity
  8
AM_9
100
AcDbLine
 10
0.5595237666666666
 20
-0.7724993459486921
 30
0.0
 11
0.5595237666666666
 21
-0.3862493459486921
 31
0.0
  0
LINE
  5
130
330
119
100
AcDbEntity
  8
AM_9
100
AcDbLine
 10
-0.5595237666666666
 20
-0.3862493459486921
 30
0.0
 11
-0.5595237666666666
 21
-0.7724993459486921
 31
0.0
  0
LINE
  5
131
330
119
100
AcDbEntity
  8
AM_9
100
AcDbLine
 10
-0.5595237666666666
 20
-0.3862493459486921
 30
0.0
 11
0.5595237666666666
 21
-0.3862493459486921
 31
0.0
  0
LINE
  5
132
330
119
100
AcDbEntity
  8
AM_9
100
AcDbLine
 10
0.5595238095238096
 20
-0.3862481186806878
 30
0.0
 11
0.5874690896124627
 21
0.4139999999999999
 31
0.0
  0
LINE
  5
133
330
119
100
AcDbEntity
  8
AM_9
100
AcDbLine
 10
-0.5874690896124627
 20
0.4139999999999999
 30
0.0
 11
-0.5595238095238096
 21
-0.3862481186806878
 31
0.0
  0
LINE
  5
134
330
119
100
AcDbEntity
  8
AM_9
100
AcDbLine
 10
0.6130952166666666
 20
-0.643749345948692
 30
0.0
 11
0.6130952166666666
 21
-0.514999345948692
 31
0.0
  0
LINE
  5
135
330
119
100
AcDbEntity
  8
AM_9
100
AcDbLine
 10
-0.6130952166666666
 20
-0.514999345948692
 30
0.0
 11
-0.6130952166666666
 21
-0.643749345948692
 31
0.0
  0
LINE
  5
136
330
119
100
AcDbEntity
  8
AM_9
100
AcDbLine
 10
0.6666666666666666
 20
-0.7492993459486921
 30
0.0
 11
0.6666666666666666
 21
-0.643749345948692
 31
0.0
  0
LINE
  5
137
330
119
100
AcDbEntity
  8
AM_9
100
AcDbLine
 10
-0.6666666666666666
 20
-0.643749345948692
 30
0.0
 11
-0.6666666666666666
 21
-0.7492993459486921
 31
0.0
  0
LINE
  5
138
330
119
100
AcDbEntity
  8
AM_9
100
AcDbLine
 10
-0.6666666666666666
 20
-0.643749345948692
 30
0.0
 11
0.6666666666666666
 21
-0.643749345948692
 31
0.0
  0
LINE
  5
139
330
119
100
AcDbEntity
  8
AM_9
100
AcDbLine
 10
0.6666666666666665
 20
0.29
 30
0.0
 11
0.6666666666666665
 21
0.3908
 31
0.0
  0
LINE
  5
13A
330
119
100
AcDbEntity
  8
AM_9
100
AcDbLine
 10
-0.6666666666666665
 20
0.3908
 30
0.0
 11
-0.6666666666666665
 21
0.29
 31
0.0
  0
LINE
  5
13B
330
119
100
AcDbEntity
  8
AM_9
100
AcDbLine
 10
0.6434666666666665
 20
-0.7724993459486921
 30
0.0
 11
0.6666666666666666
 21
-0.7492993459486921
 31
0.0
  0
LINE
  5
13C
330
119
100
AcDbEntity
  8
AM_9
100
AcDbLine
 10
-0.6666666666666666
 20
-0.7492993459486921
 30
0.0
 11
-0.6434666666666665
 21
-0.7724993459486921
 31
0.0
  0
LINE
  5
13D
330
119
100
AcDbEntity
  8
AM_9
100
AcDbLine
 10
-0.6434666666666665
 20
-0.7724993459486921
 30
0.0
 11
0.6434666666666665
 21
-0.7724993459486921
 31
0.0
  0
LINE
  5
13E
330
119
100
AcDbEntity
  8
AM_9
100
AcDbLine
 10
-0.6666666666666666
 20
-0.7492993459486921
 30
0.0
 11
0.6666666666666666
 21
-0.7492993459486921
 31
0.0
  0
LINE
  5
13F
330
119
100
AcDbEntity
  8
AM_9
100
AcDbLine
 10
-0.6666666666666665
 20
-0.514999345948692
 30
0.0
 11
0.6666666666666665
 21
-0.514999345948692
 31
0.0
  0
LINE
  5
140
330
119
100
AcDbEntity
  8
AM_9
100
AcDbLine
 10
0.6666666666666665
 20
-0.514999345948692
 30
0.0
 11
0.6666666666666665
 21
-0.2899999999999999
 31
0.0
  0
LINE
  5
141
330
119
100
AcDbEntity
  8
AM_9
100
AcDbLine
 10
-0.6666666666666665
 20
-0.2899999999999999
 30
0.0
 11
-0.6666666666666665
 21
-0.514999345948692
 31
0.0
  0
LINE
  5
142
330
119
100
AcDbEntity
  8
AM_9
100
AcDbLine
 10
-0.6666666666666666
 20
0.3908
 30
0.0
 11
0.6666666666666666
 21
0.3908
 31
0.0
  0
LINE
  5
143
330
119
100
AcDbEntity
  8
AM_9
100
AcDbLine
 10
-0.6434666666666665
 20
0.414
 30
0.0
 11
0.6434666666666665
 21
0.414
 31
0.0
  0
LINE
  5
144
330
119
100
AcDbEntity
  8
AM_9
100
AcDbLine
 10
-0.6434666666666665
 20
0.414
 30
0.0
 11
-0.6666666666666666
 21
0.3908
 31
0.0
  0
LINE
  5
145
330
119
100
AcDbEntity
  8
AM_9
100
AcDbLine
 10
0.6666666666666666
 20
0.3908
 30
0.0
 11
0.6434666666666665
 21
0.414
 31
0.0
  0
LINE
  5
146
330
119
100
AcDbEntity
  8
AM_9
100
AcDbLine
 10
0.8672
 20
-0.18
 30
0.0
 11
0.8672
 21
-0.12
 31
0.0
  0
LINE
  5
147
330
119
100
AcDbEntity
  8
AM_9
100
AcDbLine
 10
-0.8672
 20
-0.12
 30
0.0
 11
-0.8672
 21
-0.18
 31
0.0
  0
LINE
  5
148
330
119
100
AcDbEntity
  8
AM_9
100
AcDbLine
 10
-0.8515575530557445
 20
-0.29
 30
0.0
 11
0.8515575530557445
 21
-0.29
 31
0.0
  0
ARC
  5
149
330
119
100
AcDbEntity
  8
AM_9
100
AcDbCircle
 10
0.8515575530557448
 20
-0.2668000000000007
 30
0.0
 40
0.0231999999999993
100
AcDbArc
 50
270.0
 51
338.5875329531167
  0
ARC
  5
14A
330
119
100
AcDbEntity
  8
AM_9
100
AcDbCircle
 10
-0.8515575530557445
 20
-0.2668000000000005
 30
0.0
 40
0.0231999999999996
100
AcDbArc
 50
201.4124670468835
 51
270.0
  0
LINE
  5
14B
330
119
100
AcDbEntity
  8
AM_9
100
AcDbLine
 10
-0.8515575530557441
 20
0.29
 30
0.0
 11
0.8515575530557441
 21
0.29
 31
0.0
  0
ARC
  5
14C
330
119
100
AcDbEntity
  8
AM_9
100
AcDbCircle
 10
0.851557553055744
 20
0.2667999999999996
 30
0.0
 40
0.0232000000000004
100
AcDbArc
 50
21.41246704688472
 51
90.0
  0
ARC
  5
14D
330
119
100
AcDbEntity
  8
AM_9
100
AcDbCircle
 10
-0.851557553055744
 20
0.2667999999999996
 30
0.0
 40
0.0232000000000003
100
AcDbArc
 50
90.0
 51
158.5875329531153
  0
LINE
  5
14E
330
119
100
AcDbEntity
  8
AM_9
100
AcDbLine
 10
-0.8731562055337044
 20
-0.2752698412698414
 30
0.0
 11
0.8731562055337044
 21
-0.2752698412698414
 31
0.0
  0
ARC
  5
14F
330
119
100
AcDbEntity
  8
AM_9
100
AcDbCircle
 10
0.1712000000001173
 20
-0.0000000000000379
 30
0.0
 40
0.7539999999998771
100
AcDbArc
 50
338.5875329531153
 51
345.6213278305025
  0
ARC
  5
150
330
119
100
AcDbEntity
  8
AM_9
100
AcDbCircle
 10
-0.1712000000005018
 20
-0.0000000000001623
 30
0.0
 40
0.7539999999994735
100
AcDbArc
 50
194.3786721694956
 51
201.4124670468865
  0
LINE
  5
151
330
119
100
AcDbEntity
  8
AM_9
100
AcDbLine
 10
-0.9015814525863005
 20
-0.1872403100775195
 30
0.0
 11
0.9015814525863005
 21
-0.1872403100775195
 31
0.0
  0
LINE
  5
152
330
119
100
AcDbEntity
  8
AM_9
100
AcDbLine
 10
-0.895963133720252
 20
-0.18
 30
0.0
 11
0.895963133720252
 21
-0.18
 31
0.0
  0
ARC
  5
153
330
119
100
AcDbEntity
  8
AM_9
100
AcDbCircle
 10
0.8959631337202519
 20
-0.1858000000000001
 30
0.0
 40
0.0058000000000001
100
AcDbArc
 50
345.6213278305023
 51
90.0
  0
ARC
  5
154
330
119
100
AcDbEntity
  8
AM_9
100
AcDbCircle
 10
-0.8959631337202519
 20
-0.1858000000000001
 30
0.0
 40
0.0058
100
AcDbArc
 50
90.0
 51
194.3786721694978
  0
LINE
  5
155
330
119
100
AcDbEntity
  8
AM_9
100
AcDbLine
 10
-0.9106332965183636
 20
-0.1200000000000001
 30
0.0
 11
0.9106332965183636
 21
-0.1200000000000001
 31
0.0
  0
ARC
  5
156
330
119
100
AcDbEntity
  8
AM_9
100
AcDbCircle
 10
0.9106332965183634
 20
-0.1141999999999999
 30
0.0
 40
0.0058000000000002
100
AcDbArc
 50
270.0
 51
351.2203530087226
  0
ARC
  5
157
330
119
100
AcDbEntity
  8
AM_9
100
AcDbCircle
 10
-0.9106332965183634
 20
-0.1141999999999999
 30
0.0
 40
0.0058000000000001
100
AcDbArc
 50
188.7796469912774
 51
270.0
  0
LINE
  5
158
330
119
100
AcDbEntity
  8
AM_9
100
AcDbLine
 10
-0.9163653359683859
 20
-0.1150852817310822
 30
0.0
 11
0.9163653359683859
 21
-0.1150852817310822
 31
0.0
  0
LINE
  5
159
330
119
100
AcDbEntity
  8
AM_9
100
AcDbLine
 10
-0.8731562055337044
 20
0.2752698412698413
 30
0.0
 11
0.8731562055337044
 21
0.2752698412698413
 31
0.0
  0
ARC
  5
15A
330
119
100
AcDbEntity
  8
AM_9
100
AcDbCircle
 10
0.1711999999999954
 20
-0.0000000000000006
 30
0.0
 40
0.7540000000000046
100
AcDbArc
 50
351.2204562958441
 51
21.41246704688399
  0
ARC
  5
15B
330
119
100
AcDbEntity
  8
AM_9
100
AcDbCircle
 10
-0.171200000000867
 20
0.0000000000000959
 30
0.0
 40
0.7539999999991578
100
AcDbArc
 50
158.5875329530987
 51
188.7795437041732
  0
ENDBLK
  5
11C
330
119
100
AcDbEntity
  8
0
100
AcDbBlockEnd
  0
BLOCK
  5
15E
330
15C
100
AcDbEntity
  8
0
100
AcDbBlockBegin
  2
4_129904_0_in_136130_4
 70
     2
 10
0.0
 20
0.0
 30
0.0
  3
4_129904_0_in_136130_4
  1

  0
ATTDEF
  5
160
330
15C
100
AcDbEntity
  8
AM_6
100
AcDbText
 10
5.746139397163827
 20
0.4843750000000001
 30
0.0
 40
0.5
  1
Grip Tight Normal Duty Adapter and Nut Inch Bore
100
AcDbAttributeDefinition
  3

  2
NN
 70
     8
280
     0
  0
ATTDEF
  5
161
330
15C
100
AcDbEntity
  8
AM_6
100
AcDbText
 10
5.746139397163827
 20
-0.0156249999999999
 30
0.0
 40
0.5
  1
GT and GTM Adapter & Lock Nut Assemblies
100
AcDbAttributeDefinition
  3

  2
NT
 70
     8
280
     0
  0
ATTDEF
  5
162
330
15C
100
AcDbEntity
  8
AM_6
100
AcDbText
 10
5.746139397163827
 20
-0.515625
 30
0.0
 40
0.5
  1
129904
100
AcDbAttributeDefinition
  3

  2
NB
 70
     8
280
     0
  0
ATTDEF
  5
163
330
15C
100
AcDbEntity
  8
AM_6
100
AcDbText
 10
5.746139397163827
 20
-1.015625
 30
0.0
 40
0.5
  1
$PN.
100
AcDbAttributeDefinition
  3

  2
NBSYN
 70
     8
280
     0
  0
ATTDEF
  5
164
330
15C
100
AcDbEntity
  8
AM_6
100
AcDbText
 10
5.746139397163827
 20
-1.515625
 30
0.0
 40
0.5
  1
129904
100
AcDbAttributeDefinition
  3

  2
LINA
 70
     8
280
     0
  0
ATTDEF
  5
165
330
15C
100
AcDbEntity
  8
AM_6
100
AcDbText
 10
5.746139397163827
 20
-2.015625
 30
0.0
 40
0.5
  1
204
100
AcDbAttributeDefinition
  3

  2
SERIES
 70
     8
280
     0
  0
ATTDEF
  5
166
330
15C
100
AcDbEntity
  8
AM_6
100
AcDbText
 10
5.746139397163827
 20
-2.515625
 30
0.0
 40
0.5
  1
3/4
100
AcDbAttributeDefinition
  3

  2
SS
 70
     8
280
     0
  0
ATTDEF
  5
167
330
15C
100
AcDbEntity
  8
AM_6
100
AcDbText
 10
5.746139397163827
 20
-3.015625
 30
0.0
 40
0.5
  1
129904
100
AcDbAttributeDefinition
  3

  2
PN
 70
     8
280
     0
  0
ATTDEF
  5
168
330
15C
100
AcDbEntity
  8
AM_6
100
AcDbText
 10
5.746139397163827
 20
-3.515625
 30
0.0
 40
0.5
  1
AN-GT-04-012
100
AcDbAttributeDefinition
  3

  2
DESCRIPTION
 70
     8
280
     0
  0
ATTDEF
  5
169
330
15C
100
AcDbEntity
  8
AM_6
100
AcDbText
 10
5.746139397163827
 20
-4.015625
 30
0.0
 40
0.5
  1
1-15/32
100
AcDbAttributeDefinition
  3

  2
A
 70
     8
280
     0
  0
ATTDEF
  5
16A
330
15C
100
AcDbEntity
  8
AM_6
100
AcDbText
 10
5.746139397163827
 20
-4.515625
 30
0.0
 40
0.5
  1
0.5906
100
AcDbAttributeDefinition
  3

  2
C
 70
     8
280
     0
  0
ATTDEF
  5
16B
330
15C
100
AcDbEntity
  8
AM_6
100
AcDbText
 10
5.746139397163827
 20
-5.015625
 30
0.0
 40
0.5
  1
1.8504
100
AcDbAttributeDefinition
  3

  2
D
 70
     8
280
     0
  0
ATTDEF
  5
16C
330
15C
100
AcDbEntity
  8
AM_6
100
AcDbText
 10
5.746139397163827
 20
-5.515625
 30
0.0
 40
0.5
  1
0.152
100
AcDbAttributeDefinition
  3

  2
J
 70
     8
280
     0
  0
ATTDEF
  5
16D
330
15C
100
AcDbEntity
  8
AM_6
100
AcDbText
 10
5.746139397163827
 20
-6.015625
 30
0.0
 40
0.5
  1
1-1/2
100
AcDbAttributeDefinition
  3

  2
L
 70
     8
280
     0
  0
ATTDEF
  5
16E
330
15C
100
AcDbEntity
  8
AM_6
100
AcDbText
 10
5.746139397163827
 20
-6.515625
 30
0.0
 40
0.5
  1
10 - 32 x 1/4
100
AcDbAttributeDefinition
  3

  2
N
 70
     8
280
     0
  0
ATTDEF
  5
16F
330
15C
100
AcDbEntity
  8
AM_6
100
AcDbText
 10
5.746139397163827
 20
-7.015625
 30
0.0
 40
0.5
  1
31/64
100
AcDbAttributeDefinition
  3

  2
W
 70
     8
280
     0
  0
ATTDEF
  5
170
330
15C
100
AcDbEntity
  8
AM_6
100
AcDbText
 10
5.746139397163827
 20
-7.515625
 30
0.0
 40
0.5
  1
63/64
100
AcDbAttributeDefinition
  3

  2
X
 70
     8
280
     0
  0
ATTDEF
  5
171
330
15C
100
AcDbEntity
  8
AM_6
100
AcDbText
 10
5.746139397163827
 20
-8.015625
 30
0.0
 40
0.5
  1
63/64
100
AcDbAttributeDefinition
  3

  2
Y
 70
     8
280
     0
  0
ATTDEF
  5
172
330
15C
100
AcDbEntity
  8
AM_6
100
AcDbText
 10
5.746139397163827
 20
-8.515625
 30
0.0
 40
0.5
  1
baldor
100
AcDbAttributeDefinition
  3

  2
COMPANY
 70
     8
280
     0
  0
LINE
  5
173
330
15C
100
AcDbEntity
  8
AM_9
100
AcDbLine
 10
-0.72745
 20
-0.9337730416772501
 30
0.0
 11
-0.58505
 21
-0.9337730416772501
 31
0.0
  0
LINE
  5
174
330
15C
100
AcDbEntity
  8
AM_9
100
AcDbLine
 10
-0.58505
 20
-0.7888730416772501
 30
0.0
 11
-0.72745
 21
-0.7888730416772501
 31
0.0
  0
LINE
  5
175
330
15C
100
AcDbEntity
  8
AM_9
100
AcDbLine
 10
0.6999998729997459
 20
-0.4921874999999999
 30
0.0
 11
0.6999998729997459
 21
-0.9843749999999999
 31
0.0
  0
LINE
  5
176
330
15C
100
AcDbEntity
  8
AM_9
100
AcDbLine
 10
-0.72745
 20
-0.7888730416772501
 30
0.0
 11
-0.7499999999999999
 21
-0.7663230416772502
 31
0.0
  0
LINE
  5
177
330
15C
100
AcDbEntity
  8
AM_9
100
AcDbLine
 10
-0.7499999999999999
 20
-0.95632304167725
 30
0.0
 11
-0.72745
 21
-0.9337730416772501
 31
0.0
  0
LINE
  5
178
330
15C
100
AcDbEntity
  8
AM_9
100
AcDbLine
 10
-0.72745
 20
-0.7888730416772501
 30
0.0
 11
-0.72745
 21
-0.9337730416772501
 31
0.0
  0
LINE
  5
179
330
15C
100
AcDbEntity
  8
AM_9
100
AcDbLine
 10
-0.58505
 20
-0.9337730416772501
 30
0.0
 11
-0.5625
 21
-0.95632304167725
 31
0.0
  0
LINE
  5
17A
330
15C
100
AcDbEntity
  8
AM_9
100
AcDbLine
 10
-0.5625
 20
-0.7663230416772502
 30
0.0
 11
-0.58505
 21
-0.7888730416772501
 31
0.0
  0
LINE
  5
17B
330
15C
100
AcDbEntity
  8
AM_9
100
AcDbLine
 10
-0.5625
 20
-0.7663230416772502
 30
0.0
 11
-0.5625
 21
-0.95632304167725
 31
0.0
  0
LINE
  5
17C
330
15C
100
AcDbEntity
  8
AM_9
100
AcDbLine
 10
-0.58505
 20
-0.7888730416772501
 30
0.0
 11
-0.58505
 21
-0.9337730416772501
 31
0.0
  0
LINE
  5
17D
330
15C
100
AcDbEntity
  8
AM_9
100
AcDbLine
 10
0.3749999999999999
 20
-0.9843750000000001
 30
0.0
 11
0.3749999999999999
 21
0.4843750000000001
 31
0.0
  0
LINE
  5
17E
330
15C
100
AcDbEntity
  8
AM_9
100
AcDbLine
 10
-0.3749999999999999
 20
0.4843750000000001
 30
0.0
 11
-0.3749999999999999
 21
-0.9843750000000001
 31
0.0
  0
LINE
  5
17F
330
15C
100
AcDbEntity
  8
AM_9
100
AcDbLine
 10
0.5595238095238096
 20
-0.7382812500000002
 30
0.0
 11
0.5595238095238096
 21
-0.3691406249999996
 31
0.0
  0
LINE
  5
180
330
15C
100
AcDbEntity
  8
AM_9
100
AcDbLine
 10
-0.5595238095238096
 20
-0.3691406249999996
 30
0.0
 11
-0.5595238095238096
 21
-0.7382812500000002
 31
0.0
  0
LINE
  5
181
330
15C
100
AcDbEntity
  8
AM_9
100
AcDbLine
 10
-0.05
 20
0.4843750000000001
 30
0.0
 11
-0.05
 21
-0.9843749999999999
 31
0.0
  0
LINE
  5
182
330
15C
100
AcDbEntity
  8
AM_9
100
AcDbLine
 10
0.05
 20
0.4843750000000001
 30
0.0
 11
0.05
 21
-0.9843749999999999
 31
0.0
  0
LINE
  5
183
330
15C
100
AcDbEntity
  8
AM_9
100
AcDbLine
 10
-0.5595238095238095
 20
-0.3691406249999996
 30
0.0
 11
0.5595238095238095
 21
-0.3691406249999996
 31
0.0
  0
LINE
  5
184
330
15C
100
AcDbEntity
  8
AM_9
100
AcDbLine
 10
0.5595238095238095
 20
-0.3691406249999996
 30
0.0
 11
0.5893292319220396
 21
0.484375
 31
0.0
  0
LINE
  5
185
330
15C
100
AcDbEntity
  8
AM_9
100
AcDbLine
 10
-0.5893292319220396
 20
0.484375
 30
0.0
 11
-0.5595238095238095
 21
-0.3691406249999996
 31
0.0
  0
LINE
  5
186
330
15C
100
AcDbEntity
  8
AM_9
100
AcDbLine
 10
-0.5893292319220396
 20
0.484375
 30
0.0
 11
0.5893292319220396
 21
0.484375
 31
0.0
  0
LINE
  5
187
330
15C
100
AcDbEntity
  8
AM_9
100
AcDbLine
 10
-0.7263759999999999
 20
-0.4921874999999999
 30
0.0
 11
-0.7499999999999999
 21
-0.5158115
 31
0.0
  0
LINE
  5
188
330
15C
100
AcDbEntity
  8
AM_9
100
AcDbLine
 10
-0.4270125089193514
 20
-0.4921874999999999
 30
0.0
 11
-0.4388876292695315
 21
-0.5158114999999999
 31
0.0
  0
LINE
  5
189
330
15C
100
AcDbEntity
  8
AM_9
100
AcDbLine
 10
-0.4388876292695315
 20
-0.5158114999999999
 30
0.0
 11
-0.4388876292695315
 21
-0.5328124999999999
 31
0.0
  0
LINE
  5
18A
330
15C
100
AcDbEntity
  8
AM_9
100
AcDbLine
 10
-0.7499999999999999
 20
-0.5158115
 30
0.0
 11
-0.7499999999999999
 21
-0.5328125000000001
 31
0.0
  0
LINE
  5
18B
330
15C
100
AcDbEntity
  8
AM_9
100
AcDbLine
 10
-0.7499999999999999
 20
-0.5158115
 30
0.0
 11
-0.4388876292695315
 21
-0.5158114999999999
 31
0.0
  0
LINE
  5
18C
330
15C
100
AcDbEntity
  8
AM_9
100
AcDbLine
 10
-0.7472775488589692
 20
-0.9279479698354762
 30
0.0
 11
-0.7467769201994581
 21
-0.9213128043362299
 31
0.0
  0
LINE
  5
18D
330
15C
100
AcDbEntity
  8
AM_9
100
AcDbLine
 10
0.6130952380952381
 20
-0.6152343750000001
 30
0.0
 11
0.6130952380952381
 21
-0.4921874999999999
 31
0.0
  0
LINE
  5
18E
330
15C
100
AcDbEntity
  8
AM_9
100
AcDbLine
 10
-0.6130952380952381
 20
-0.4921874999999999
 30
0.0
 11
-0.6130952380952381
 21
-0.6152343750000001
 31
0.0
  0
LINE
  5
18F
330
15C
100
AcDbEntity
  8
AM_9
100
AcDbLine
 10
-0.2841820058122558
 20
-0.4921874999999999
 30
0.0
 11
-0.2841820058122558
 21
-0.9843749999999999
 31
0.0
  0
LINE
  5
190
330
15C
100
AcDbEntity
  8
AM_9
100
AcDbLine
 10
-0.4158178671874905
 20
-0.4921874999999999
 30
0.0
 11
-0.4158178671874905
 21
-0.5328124999999999
 31
0.0
  0
LINE
  5
191
330
15C
100
AcDbEntity
  8
AM_9
100
AcDbLine
 10
-0.6666666666666662
 20
-0.6152343750000001
 30
0.0
 11
0.6666666666666662
 21
-0.6152343750000001
 31
0.0
  0
LINE
  5
192
330
15C
100
AcDbEntity
  8
AM_9
100
AcDbLine
 10
-0.6666666666666662
 20
-0.7382812500000002
 30
0.0
 11
0.6666666666666662
 21
-0.7382812500000002
 31
0.0
  0
LINE
  5
193
330
15C
100
AcDbEntity
  8
AM_9
100
AcDbLine
 10
0.6666666666666662
 20
-0.7382812500000002
 30
0.0
 11
0.6666666666666662
 21
-0.6152343750000001
 31
0.0
  0
LINE
  5
194
330
15C
100
AcDbEntity
  8
AM_9
100
AcDbLine
 10
-0.6666666666666662
 20
-0.6152343750000001
 30
0.0
 11
-0.6666666666666662
 21
-0.7382812500000002
 31
0.0
  0
LINE
  5
195
330
15C
100
AcDbEntity
  8
AM_9
100
AcDbLine
 10
0.7223891564634672
 20
-0.4921875000000001
 30
0.0
 11
0.7461393971638274
 21
-0.5158115
 31
0.0
  0
LINE
  5
196
330
15C
100
AcDbEntity
  8
AM_9
100
AcDbLine
 10
-0.7263759999999999
 20
-0.4921874999999999
 30
0.0
 11
0.7223891564634672
 21
-0.4921875000000001
 31
0.0
  0
LINE
  5
197
330
15C
100
AcDbEntity
  8
AM_9
100
AcDbLine
 10
-0.3072517678942966
 20
-0.5158114999999999
 30
0.0
 11
-0.2953766475441166
 21
-0.4921874999999999
 31
0.0
  0
LINE
  5
198
330
15C
100
AcDbEntity
  8
AM_9
100
AcDbLine
 10
0.7461393971638274
 20
-0.5158115
 30
0.0
 11
0.7461393971638273
 21
-0.5328125000000001
 31
0.0
  0
LINE
  5
199
330
15C
100
AcDbEntity
  8
AM_9
100
AcDbLine
 10
-0.3072517678942966
 20
-0.5158114999999999
 30
0.0
 11
0.7461393971638274
 21
-0.5158115
 31
0.0
  0
LINE
  5
19A
330
15C
100
AcDbEntity
  8
AM_9
100
AcDbLine
 10
-0.3072517678942966
 20
-0.5328124999999999
 30
0.0
 11
-0.3072517678942966
 21
-0.5158114999999999
 31
0.0
  0
LINE
  5
19C
330
15C
100
AcDbEntity
  8
AM_5
100
AcDbLine
 10
-0.7499999999999999
 20
-0.95632304167725
 30
0.0
 11
-0.5625
 21
-0.95632304167725
 31
0.0
  0
LINE
  5
19F
330
15C
100
AcDbEntity
  8
AM_7
100
AcDbLine
 10
-0.5531250000000001
 20
-0.86132304167725
 30
0.0
 11
-0.7593749999999999
 21
-0.86132304167725
 31
0.0
  0
LINE
  5
1A0
330
15C
100
AcDbEntity
  8
AM_4
100
AcDbLine
 10
-0.4388876292695315
 20
-0.9607510000000001
 30
0.0
 11
-0.4270125089193514
 21
-0.9843750000000001
 31
0.0
  0
LINE
  5
1A1
330
15C
100
AcDbEntity
  8
AM_4
100
AcDbLine
 10
-0.7499999999999999
 20
-0.9607510000000001
 30
0.0
 11
-0.7263759999999999
 21
-0.9843750000000001
 31
0.0
  0
LINE
  5
1A2
330
15C
100
AcDbEntity
  8
AM_4
100
AcDbLine
 10
-0.4388876292695315
 20
-0.5328124999999999
 30
0.0
 11
-0.4388876292695315
 21
-0.9607510000000001
 31
0.0
  0
LWPOLYLINE
  5
1A3
330
15C
100
AcDbEntity
  8
AM_4
100
AcDbPolyline
 90
        7
 70
     0
 43
0.0
 10
-0.7471638339037145
 20
-0.92649947126287
 10
-0.7479462746587645
 20
-0.9359061480007769
 10
-0.7486956930853401
 20
-0.9439312963935919
 10
-0.7493737494657841
 20
-0.9505834527038549
 10
-0.7498370845266041
 20
-0.9548630113846642
 10
-0.7499987337664696
 20
-0.9563117782123812
 10
-0.7499999999999934
 20
-0.9563230416771931
  0
LINE
  5
1A4
330
15C
100
AcDbEntity
  8
AM_4
100
AcDbLine
 10
-0.7499999999999999
 20
-0.5328125000000001
 30
0.0
 11
-0.7499999999999999
 21
-0.7663230416772502
 31
0.0
  0
LINE
  5
1A5
330
15C
100
AcDbEntity
  8
AM_4
100
AcDbLine
 10
-0.7499999999999999
 20
-0.9563230416772501
 30
0.0
 11
-0.7499999999999999
 21
-0.9607510000000001
 31
0.0
  0
LINE
  5
1A6
330
15C
100
AcDbEntity
  8
AM_4
100
AcDbLine
 10
-0.7499999999999999
 20
-0.9607510000000001
 30
0.0
 11
-0.4388876292695315
 21
-0.9607510000000001
 31
0.0
  0
LWPOLYLINE
  5
1A7
330
15C
100
AcDbEntity
  8
AM_4
100
AcDbPolyline
 90
       16
 70
     0
 43
0.0
 10
-0.7499999999999873
 20
-0.7663230416773619
 10
-0.7499890176379512
 20
-0.7664207759015464
 10
-0.749785572221813
 20
-0.7682493664870622
 10
-0.7493301737554963
 20
-0.7724754700661786
 10
-0.7486921589334075
 20
-0.7787508339196177
 10
-0.7479075867801454
 20
-0.7871773874242125
 10
-0.7470559419911073
 20
-0.797550971614479
 10
-0.7462163940333905
 20
-0.8097542791882091
 10
-0.7454760416103974
 20
-0.8236342804798661
 10
-0.744927840945358
 20
-0.8388618575453671
 10
-0.7446500578035411
 20
-0.8549323100293411
 10
-0.7446891965115077
 20
-0.8716260204617956
 10
-0.745047757566378
 20
-0.8878703522269343
 10
-0.7457063781227194
 20
-0.9038159752668018
 10
-0.7463861751547347
 20
-0.9155794281356772
 10
-0.7471638339037145
 20
-0.92649947126287
  0
LINE
  5
1A8
330
15C
100
AcDbEntity
  8
AM_4
100
AcDbLine
 10
-0.4158178671874905
 20
-0.5328124999999999
 30
0.0
 11
-0.4158178671874905
 21
-0.9843749999999999
 31
0.0
  0
LINE
  5
1A9
330
15C
100
AcDbEntity
  8
AM_4
100
AcDbLine
 10
0.7461393971638276
 20
-0.9607510000000001
 30
0.0
 11
0.7223891564634672
 21
-0.9843749999999999
 31
0.0
  0
LINE
  5
1AA
330
15C
100
AcDbEntity
  8
AM_4
100
AcDbLine
 10
-0.2953766475441165
 20
-0.9843750000000001
 30
0.0
 11
-0.3072517678942966
 21
-0.9607510000000001
 31
0.0
  0
LINE
  5
1AB
330
15C
100
AcDbEntity
  8
AM_4
100
AcDbLine
 10
-0.7263759999999999
 20
-0.9843750000000001
 30
0.0
 11
0.7223891564634672
 21
-0.9843749999999999
 31
0.0
  0
LINE
  5
1AC
330
15C
100
AcDbEntity
  8
AM_4
100
AcDbLine
 10
0.7461393971638273
 20
-0.5328125000000001
 30
0.0
 11
0.7461393971638276
 21
-0.9607510000000001
 31
0.0
  0
LINE
  5
1AD
330
15C
100
AcDbEntity
  8
AM_4
100
AcDbLine
 10
-0.3072517678942966
 20
-0.9607510000000001
 30
0.0
 11
-0.3072517678942966
 21
-0.5328124999999999
 31
0.0
  0
LINE
  5
1AE
330
15C
100
AcDbEntity
  8
AM_4
100
AcDbLine
 10
-0.3072517678942966
 20
-0.9607510000000001
 30
0.0
 11
0.7461393971638276
 21
-0.9607510000000001
 31
0.0
  0
ENDBLK
  5
15F
330
15C
100
AcDbEntity
  8
0
100
AcDbBlockEnd
  0
BLOCK
  5
1B1
330
1AF
100
AcDbEntity
  8
0
100
AcDbBlockBegin
  2
5_WSTU_GT_04I_0_in_136130_4
 70
     2
 10
0.0
 20
0.0
 30
0.0
  3
5_WSTU_GT_04I_0_in_136130_4
  1

  0
ATTDEF
  5
1B3
330
1AF
100
AcDbEntity
  8
AM_6
100
AcDbText
 10
8.0
 20
1.5125
 30
0.0
 40
0.5
  1
GTMMDWSTUB-Ib
100
AcDbAttributeDefinition
  3

  2
NN
 70
     8
280
     0
  0
ATTDEF
  5
1B4
330
1AF
100
AcDbEntity
  8
AM_6
100
AcDbText
 10
8.0
 20
1.0125
 30
0.0
 40
0.5
  1
Grip Tight Adapter Ball Bearings
100
AcDbAttributeDefinition
  3

  2
NT
 70
     8
280
     0
  0
ATTDEF
  5
1B5
330
1AF
100
AcDbEntity
  8
AM_6
100
AcDbText
 10
8.0
 20
0.5125
 30
0.0
 40
0.5
  1
WSTU-GT-04I
100
AcDbAttributeDefinition
  3

  2
NB
 70
     8
280
     0
  0
ATTDEF
  5
1B6
330
1AF
100
AcDbEntity
  8
AM_6
100
AcDbText
 10
8.0
 20
0.0125
 30
0.0
 40
0.5
  1
$PN.$LUBE.I
100
AcDbAttributeDefinition
  3

  2
NBSYN
 70
     8
280
     0
  0
ATTDEF
  5
1B7
330
1AF
100
AcDbEntity
  8
AM_6
100
AcDbText
 10
8.0
 20
-0.4875
 30
0.0
 40
0.5
  1
WSTU-GT-04
100
AcDbAttributeDefinition
  3

  2
LINA
 70
     8
280
     0
  0
ATTDEF
  5
1B8
330
1AF
100
AcDbEntity
  8
AM_6
100
AcDbText
 10
8.0
 20
-0.9875
 30
0.0
 40
0.5
  1
204
100
AcDbAttributeDefinition
  3

  2
SERIES
 70
     8
280
     0
  0
ATTDEF
  5
1B9
330
1AF
100
AcDbEntity
  8
AM_6
100
AcDbText
 10
8.0
 20
-1.4875
 30
0.0
 40
0.5
  1
WSTU-GT-04
100
AcDbAttributeDefinition
  3

  2
PN
 70
     8
280
     0
  0
ATTDEF
  5
1BA
330
1AF
100
AcDbEntity
  8
AM_6
100
AcDbText
 10
8.0
 20
-1.9875
 30
0.0
 40
0.5
  1
WSTU-GT-04
100
AcDbAttributeDefinition
  3

  2
DESCRIPTION
 70
     8
280
     0
  0
ATTDEF
  5
1BB
330
1AF
100
AcDbEntity
  8
AM_6
100
AcDbText
 10
8.0
 20
-2.4875
 30
0.0
 40
0.5
  1
1.9
100
AcDbAttributeDefinition
  3

  2
WEIGHT
 70
     8
280
     0
  0
ATTDEF
  5
1BC
330
1AF
100
AcDbEntity
  8
AM_6
100
AcDbText
 10
8.0
 20
-2.9875
 30
0.0
 40
0.5
  1
1.804000
100
AcDbAttributeDefinition
  3

  2
BOD1
 70
     8
280
     0
  0
ATTDEF
  5
1BD
330
1AF
100
AcDbEntity
  8
AM_6
100
AcDbText
 10
8.0
 20
-3.4875
 30
0.0
 40
0.5
  1
0.000
100
AcDbAttributeDefinition
  3

  2
VERS
 70
     8
280
     0
  0
ATTDEF
  5
1BE
330
1AF
100
AcDbEntity
  8
AM_6
100
AcDbText
 10
8.0
 20
-3.9875
 30
0.0
 40
0.5
  1
1-15/32
100
AcDbAttributeDefinition
  3

  2
A
 70
     8
280
     0
  0
ATTDEF
  5
1BF
330
1AF
100
AcDbEntity
  8
AM_6
100
AcDbText
 10
8.0
 20
-4.4875
 30
0.0
 40
0.5
  1
3-11/16
100
AcDbAttributeDefinition
  3

  2
B
 70
     8
280
     0
  0
ATTDEF
  5
1C0
330
1AF
100
AcDbEntity
  8
AM_6
100
AcDbText
 10
8.0
 20
-4.9875
 30
0.0
 40
0.5
  1
0.516 / 0.546
100
AcDbAttributeDefinition
  3

  2
C
 70
     8
280
     0
  0
ATTDEF
  5
1C1
330
1AF
100
AcDbEntity
  8
AM_6
100
AcDbText
 10
8.0
 20
-5.4875
 30
0.0
 40
0.5
  1
2-3/8
100
AcDbAttributeDefinition
  3

  2
E
 70
     8
280
     0
  0
ATTDEF
  5
1C2
330
1AF
100
AcDbEntity
  8
AM_6
100
AcDbText
 10
8.0
 20
-5.9875
 30
0.0
 40
0.5
  1
5/8
100
AcDbAttributeDefinition
  3

  2
F
 70
     8
280
     0
  0
ATTDEF
  5
1C3
330
1AF
100
AcDbEntity
  8
AM_6
100
AcDbText
 10
8.0
 20
-6.4875
 30
0.0
 40
0.5
  1
3/8
100
AcDbAttributeDefinition
  3

  2
G
 70
     8
280
     0
  0
ATTDEF
  5
1C4
330
1AF
100
AcDbEntity
  8
AM_6
100
AcDbText
 10
8.0
 20
-6.9875
 30
0.0
 40
0.5
  1
5/8
100
AcDbAttributeDefinition
  3

  2
H
 70
     8
280
     0
  0
ATTDEF
  5
1C5
330
1AF
100
AcDbEntity
  8
AM_6
100
AcDbText
 10
8.0
 20
-7.4875
 30
0.0
 40
0.5
  1
2
100
AcDbAttributeDefinition
  3

  2
J
 70
     8
280
     0
  0
ATTDEF
  5
1C6
330
1AF
100
AcDbEntity
  8
AM_6
100
AcDbText
 10
8.0
 20
-7.9875
 30
0.0
 40
0.5
  1
1-1/4
100
AcDbAttributeDefinition
  3

  2
K
 70
     8
280
     0
  0
ATTDEF
  5
1C7
330
1AF
100
AcDbEntity
  8
AM_6
100
AcDbText
 10
8.0
 20
-8.4875
 30
0.0
 40
0.5
  1
1-1/2
100
AcDbAttributeDefinition
  3

  2
L
 70
     8
280
     0
  0
ATTDEF
  5
1C8
330
1AF
100
AcDbEntity
  8
AM_6
100
AcDbText
 10
8.0
 20
-8.9875
 30
0.0
 40
0.5
  1
2.985 / 3.015
100
AcDbAttributeDefinition
  3

  2
M
 70
     8
280
     0
  0
ATTDEF
  5
1C9
330
1AF
100
AcDbEntity
  8
AM_6
100
AcDbText
 10
8.0
 20
-9.4875
 30
0.0
 40
0.5
  1
3-5/8
100
AcDbAttributeDefinition
  3

  2
N
 70
     8
280
     0
  0
ATTDEF
  5
1CA
330
1AF
100
AcDbEntity
  8
AM_6
100
AcDbText
 10
8.0
 20
-9.9875
 30
0.0
 40
0.5
  1
31/64
100
AcDbAttributeDefinition
  3

  2
R
 70
     8
280
     0
  0
ATTDEF
  5
1CB
330
1AF
100
AcDbEntity
  8
AM_6
100
AcDbText
 10
8.0
 20
-10.4875
 30
0.0
 40
0.5
  1
63/64
100
AcDbAttributeDefinition
  3

  2
S
 70
     8
280
     0
  0
ATTDEF
  5
1CC
330
1AF
100
AcDbEntity
  8
AM_6
100
AcDbText
 10
8.0
 20
-10.9875
 30
0.0
 40
0.5
  1
1-3/8
100
AcDbAttributeDefinition
  3

  2
T
 70
     8
280
     0
  0
ATTDEF
  5
1CD
330
1AF
100
AcDbEntity
  8
AM_6
100
AcDbText
 10
8.0
 20
-11.4875
 30
0.0
 40
0.5
  1
63/64
100
AcDbAttributeDefinition
  3

  2
Z
 70
     8
280
     0
  0
ATTDEF
  5
1CE
330
1AF
100
AcDbEntity
  8
AM_6
100
AcDbText
 10
8.0
 20
-11.9875
 30
0.0
 40
0.5
  1
baldor
100
AcDbAttributeDefinition
  3

  2
COMPANY
 70
     8
280
     0
  0
ELLIPSE
  5
1CF
330
1AF
100
AcDbEntity
  8
AM_9
100
AcDbEllipse
 10
-1.22326088284552
 20
0.0
 30
0.0
 11
2.143131898507868E-17
 21
0.35
 31
0.0
210
0.0
220
0.0
230
1.0
 40
0.5000000000000001
 41
0.0
 42
6.283185307179586
  0
ELLIPSE
  5
1D0
330
1AF
100
AcDbEntity
  8
AM_9
100
AcDbEllipse
 10
-1.136658342467076
 20
0.0000000000000013
 30
0.0
 11
-8.266365894244659E-17
 21
-0.4500000000000014
 31
0.0
210
0.0
220
0.0
230
1.0
 40
0.4999999999999991
 41
5.386089268570588
 42
6.935931613784463
  0
ELLIPSE
  5
1D1
330
1AF
100
AcDbEntity
  8
AM_9
100
AcDbEllipse
 10
-1.136658342467074
 20
0.0000000000000002
 30
0.0
 11
-8.266365894244631E-17
 21
-0.4499999999999998
 31
0.0
210
0.0
220
0.0
230
1.0
 40
0.4999999999999984
 41
2.48884634698492
 42
4.0386886921988
  0
LINE
  5
1D2
330
1AF
100
AcDbEntity
  8
AM_9
100
AcDbLine
 10
-1.137651053043303
 20
-0.4499973720565946
 30
0.0
 11
-1.136636903524059
 21
-0.4499999987743248
 31
0.0
  0
LWPOLYLINE
  5
1D3
330
1AF
100
AcDbEntity
  8
AM_9
100
AcDbPolyline
 90
       14
 70
     0
 43
0.0
 10
-1.312607672178852
 20
-0.3527064899975668
 10
-1.307382950013419
 20
-0.3594089402556367
 10
-1.294942057653976
 20
-0.3739935162520042
 10
-1.281907519604947
 20
-0.3874141133057665
 10
-1.268358732078296
 20
-0.3995865558319953
 10
-1.254379845611835
 20
-0.4104531383928857
 10
-1.24005099023946
 20
-0.4199843326163519
 10
-1.225443548932433
 20
-0.4281738488998929
 10
-1.210619932836615
 20
-0.4350307007201478
 10
-1.19563603935204
 20
-0.4405719363004691
 10
-1.180544210098504
 20
-0.4448178091079406
 10
-1.165395321799564
 20
-0.4477893803461306
 10
-1.150239582886327
 20
-0.4495077132604779
 10
-1.137651053043303
 20
-0.4499973720565946
  0
LWPOLYLINE
  5
1D4
330
1AF
100
AcDbEntity
  8
AM_9
100
AcDbPolyline
 90
       15
 70
     0
 43
0.0
 10
-1.138059094086456
 20
0.4499947676722819
 10
-1.144361752938858
 20
0.4498417098234863
 10
-1.159335863317614
 20
0.4486253431822173
 10
-1.17414141483383
 20
0.4462288404769949
 10
-1.188742949383823
 20
0.4426735907792354
 10
-1.203111025760112
 20
0.4379769863283078
 10
-1.217222163434005
 20
0.4321508940141539
 10
-1.231058008840462
 20
0.4252003746780557
 10
-1.244603592910709
 20
0.4171231150625036
 10
-1.257844667022491
 20
0.4079101452916829
 10
-1.270764280091506
 20
0.3975484497095362
 10
-1.283339062695119
 20
0.3860259036464297
 10
-1.295536106612889
 20
0.3733383898125184
 10
-1.307311700854033
 20
0.3594978664384737
 10
-1.312599860831485
 20
0.352716783720566
  0
LINE
  5
1D5
330
1AF
100
AcDbEntity
  8
AM_9
100
AcDbLine
 10
-1.136703528412443
 20
0.4499999945552808
 30
0.0
 11
-1.138059094086456
 21
0.4499947676722819
 31
0.0
  0
LINE
  5
1D6
330
1AF
100
AcDbEntity
  8
AM_9
100
AcDbLine
 10
2.0
 20
-0.312499375
 30
0.0
 11
2.375
 21
-0.312499375
 31
0.0
  0
LINE
  5
1D7
330
1AF
100
AcDbEntity
  8
AM_9
100
AcDbLine
 10
2.375
 20
0.312499375
 30
0.0
 11
2.0
 21
0.312499375
 31
0.0
  0
LINE
  5
1D8
330
1AF
100
AcDbEntity
  8
AM_9
100
AcDbLine
 10
1.96875
 20
-0.4601567343749998
 30
0.0
 11
1.96875
 21
0.460156734375
 31
0.0
  0
LINE
  5
1D9
330
1AF
100
AcDbEntity
  8
AM_9
100
AcDbLine
 10
2.0
 20
-0.4601567343749998
 30
0.0
 11
2.0
 21
0.460156734375
 31
0.0
  0
LINE
  5
1DA
330
1AF
100
AcDbEntity
  8
AM_9
100
AcDbLine
 10
1.375
 20
-0.4601567343749998
 30
0.0
 11
1.375
 21
0.460156734375
 31
0.0
  0
LINE
  5
1DB
330
1AF
100
AcDbEntity
  8
AM_9
100
AcDbLine
 10
1.40625
 20
-0.4601567343749998
 30
0.0
 11
1.40625
 21
0.460156734375
 31
0.0
  0
LWPOLYLINE
  5
1DC
330
1AF
100
AcDbEntity
  8
AM_9
100
AcDbPolyline
 90
        9
 70
     0
 43
0.0
 10
-1.136658342467076
 20
0.45
 10
-1.118134491222254
 20
0.4485402475332014
 10
-1.09889106380917
 20
0.4441861538138963
 10
-1.078483211256007
 20
0.4367063737408807
 10
-1.057675321010779
 20
0.4262691133074616
 10
-1.043316875310114
 20
0.4174688988307587
 10
-1.02893503264548
 20
0.4073621194367849
 10
-1.014407349202822
 20
0.3958241017587624
 10
-1.0
 20
0.3830261079050085
  0
LWPOLYLINE
  5
1DD
330
1AF
100
AcDbEntity
  8
AM_9
100
AcDbPolyline
 90
       39
 70
     0
 43
0.0
 10
-1.136658342467076
 20
-0.4500000000000001
 10
-1.154937790925873
 20
-0.4484359239585174
 10
-1.172288707251516
 20
-0.4437106169409482
 10
-1.187490288838678
 20
-0.4364448034121806
 10
-1.201594794506732
 20
-0.4265059843795961
 10
-1.214900034218187
 20
-0.413584209569536
 10
-1.226991897070053
 20
-0.3980285537963519
 10
-1.237874010477546
 20
-0.3799427823405082
 10
-1.247574703488995
 20
-0.3594627683288428
 10
-1.256342415051055
 20
-0.3360828984601257
 10
-1.263967552120151
 20
-0.3104668812011416
 10
-1.270635969625771
 20
-0.2821832189030172
 10
-1.276263918741237
 20
-0.2519036218376006
 10
-1.281052111269941
 20
-0.2188455928363426
 10
-1.284910981247212
 20
-0.1840827793156852
 10
-1.287840777128089
 20
-0.1489820447562856
 10
-1.29004161956853
 20
-0.1127393094110779
 10
-1.291608992088921
 20
-0.0743910531818958
 10
-1.29250526650394
 20
-0.0354120580131011
 10
-1.292762917024438
 20
0.0005921014558873
 10
-1.2924877402168
 20
0.0365919806824161
 10
-1.291639887923328
 20
0.0734063861765315
 10
-1.290194473448821
 20
0.1096650506617086
 10
-1.288229895757894
 20
0.1434069621850387
 10
-1.285646032525119
 20
0.1761986164819404
 10
-1.28229409241532
 20
0.2086668209235711
 10
-1.27817149899304
 20
0.2397393472497969
 10
-1.273107495457017
 20
0.2697741716429413
 10
-1.26710022707331
 20
0.2980089110841219
 10
-1.259872017603654
 20
0.3249526728236557
 10
-1.2514995626123
 20
0.3496677746646411
 10
-1.241775629401163
 20
0.3722734007096147
 10
-1.230754420630915
 20
0.3922728480220228
 10
-1.217995084626441
 20
0.4099864213134606
 10
-1.203803162150471
 20
0.4246224198384681
 10
-1.189081808000588
 20
0.4354891864442989
 10
-1.173133703475953
 20
0.4433891205665936
 10
-1.155456764284326
 20
0.4483391564136125
 10
-1.136658342467076
 20
0.45
  0
LWPOLYLINE
  5
1DE
330
1AF
100
AcDbEntity
  8
AM_9
100
AcDbPolyline
 90
        8
 70
     0
 43
0.0
 10
-1.0
 20
-0.3830261079050091
 10
-1.011709006087126
 20
-0.393531934094534
 10
-1.033224672693901
 20
-0.4105103389876833
 10
-1.05479748213976
 20
-0.4246088693818105
 10
-1.076870241375588
 20
-0.4359961197130121
 10
-1.098512021009246
 20
-0.4440732989060261
 10
-1.117882271756336
 20
-0.4485038255966164
 10
-1.136658342467076
 20
-0.4500000000000001
  0
LINE
  5
1DF
330
1AF
100
AcDbEntity
  8
AM_9
100
AcDbLine
 10
0.9019999999999999
 20
-0.4601567343749999
 30
0.0
 11
0.9019999999999999
 21
0.4601567343749999
 31
0.0
  0
LINE
  5
1E0
330
1AF
100
AcDbEntity
  8
AM_9
100
AcDbLine
 10
-0.9019999999999999
 20
0.4601567343749999
 30
0.0
 11
-0.9019999999999999
 21
-0.4601567343749999
 31
0.0
  0
LINE
  5
1E1
330
1AF
100
AcDbEntity
  8
AM_9
100
AcDbLine
 10
0.9999999999999997
 20
0.460156734375
 30
0.0
 11
-0.9999999999999997
 21
0.460156734375
 31
0.0
  0
LINE
  5
1E2
330
1AF
100
AcDbEntity
  8
AM_9
100
AcDbLine
 10
0.9999999999999997
 20
-0.4601567343749998
 30
0.0
 11
-0.9999999999999997
 21
-0.4601567343749999
 31
0.0
  0
LINE
  5
1E3
330
1AF
100
AcDbEntity
  8
AM_9
100
AcDbLine
 10
0.1668174863643074
 20
-0.5328124999999999
 30
0.0
 11
0.1668174863643074
 21
-0.4359375
 31
0.0
  0
LINE
  5
1E4
330
1AF
100
AcDbEntity
  8
AM_9
100
AcDbLine
 10
0.3351654074678528
 20
-0.5328124999999999
 30
0.0
 11
0.3351654074678528
 21
-0.4359375
 31
0.0
  0
LINE
  5
1E5
330
1AF
100
AcDbEntity
  8
AM_9
100
AcDbLine
 10
0.0933565798864461
 20
-0.5328124999999999
 30
0.0
 11
0.0933565798864461
 21
-0.4359375
 31
0.0
  0
LINE
  5
1E6
330
1AF
100
AcDbEntity
  8
AM_9
100
AcDbLine
 10
0.0688696074604557
 20
-0.5328124999999999
 30
0.0
 11
0.0688696074604557
 21
-0.4359375
 31
0.0
  0
LINE
  5
1E7
330
1AF
100
AcDbEntity
  8
AM_9
100
AcDbLine
 10
-0.0780522160952907
 20
-0.5328124999999999
 30
0.0
 11
-0.0780522160952907
 21
-0.4359375
 31
0.0
  0
LINE
  5
1E8
330
1AF
100
AcDbEntity
  8
AM_9
100
AcDbLine
 10
-0.224974039751081
 20
-0.5328124999999999
 30
0.0
 11
-0.224974039751081
 21
-0.4359375
 31
0.0
  0
LINE
  5
1E9
330
1AF
100
AcDbEntity
  8
AM_9
100
AcDbLine
 10
-0.2004870619250909
 20
-0.5328124999999999
 30
0.0
 11
-0.2004870619250909
 21
-0.4359375
 31
0.0
  0
LINE
  5
1EA
330
1AF
100
AcDbEntity
  8
AM_9
100
AcDbLine
 10
-0.1821218447556389
 20
-0.5328124999999999
 30
0.0
 11
-0.1821218447556389
 21
-0.4359375
 31
0.0
  0
LINE
  5
1EB
330
1AF
100
AcDbEntity
  8
AM_9
100
AcDbLine
 10
0.0505043795909926
 20
-0.5328124999999999
 30
0.0
 11
0.0505043795909926
 21
-0.4359375
 31
0.0
  0
LINE
  5
1EC
330
1AF
100
AcDbEntity
  8
AM_9
100
AcDbLine
 10
-0.243339256920531
 20
-0.5328124999999999
 30
0.0
 11
-0.243339256920531
 21
-0.4359375
 31
0.0
  0
LINE
  5
1ED
330
1AF
100
AcDbEntity
  8
AM_9
100
AcDbLine
 10
0.2127305616379964
 20
-0.5328124999999999
 30
0.0
 11
0.2127305616379964
 21
-0.4359375
 31
0.0
  0
LINE
  5
1EE
330
1AF
100
AcDbEntity
  8
AM_9
100
AcDbLine
 10
-0.0964174440647421
 20
-0.5328124999999999
 30
0.0
 11
-0.0964174440647421
 21
-0.4359375
 31
0.0
  0
LINE
  5
1EF
330
1AF
100
AcDbEntity
  8
AM_9
100
AcDbLine
 10
0.1117218024558974
 20
-0.5328124999999999
 30
0.0
 11
0.1117218024558974
 21
-0.4359375
 31
0.0
  0
LINE
  5
1F0
330
1AF
100
AcDbEntity
  8
AM_9
100
AcDbLine
 10
0.0964174494646811
 20
-0.5328124999999999
 30
0.0
 11
0.0964174494646811
 21
-0.4359375
 31
0.0
  0
LINE
  5
1F1
330
1AF
100
AcDbEntity
  8
AM_9
100
AcDbLine
 10
-0.1974261924468419
 20
-0.5328124999999999
 30
0.0
 11
-0.1974261924468419
 21
-0.4359375
 31
0.0
  0
LINE
  5
1F2
330
1AF
100
AcDbEntity
  8
AM_9
100
AcDbLine
 10
-0.22803490932926
 20
-0.5328124999999999
 30
0.0
 11
-0.22803490932926
 21
-0.4359375
 31
0.0
  0
LINE
  5
1F3
330
1AF
100
AcDbEntity
  8
AM_9
100
AcDbLine
 10
-0.0811130856735257
 20
-0.5328124999999999
 30
0.0
 11
-0.0811130856735257
 21
-0.4359375
 31
0.0
  0
LINE
  5
1F4
330
1AF
100
AcDbEntity
  8
AM_9
100
AcDbLine
 10
0.0658087379822068
 20
-0.5328124999999999
 30
0.0
 11
0.0658087379822068
 21
-0.4359375
 31
0.0
  0
LINE
  5
1F5
330
1AF
100
AcDbEntity
  8
AM_9
100
AcDbLine
 10
0.1943653228685454
 20
-0.5328124999999999
 30
0.0
 11
0.1943653228685454
 21
-0.4359375
 31
0.0
  0
LINE
  5
1F6
330
1AF
100
AcDbEntity
  8
AM_9
100
AcDbLine
 10
0.1209044217906864
 20
-0.5328124999999999
 30
0.0
 11
0.1209044217906864
 21
-0.4359375
 31
0.0
  0
LINE
  5
1F7
330
1AF
100
AcDbEntity
  8
AM_9
100
AcDbLine
 10
-0.2341566483858001
 20
-0.5328124999999999
 30
0.0
 11
-0.2341566483858001
 21
-0.4359375
 31
0.0
  0
LINE
  5
1F8
330
1AF
100
AcDbEntity
  8
AM_9
100
AcDbLine
 10
-0.1913044533903582
 20
-0.5328124999999999
 30
0.0
 11
-0.1913044533903579
 21
-0.4359375
 31
0.0
  0
LINE
  5
1F9
330
1AF
100
AcDbEntity
  8
AM_9
100
AcDbLine
 10
-0.252521865555308
 20
-0.5328124999999999
 30
0.0
 11
-0.252521865555308
 21
-0.4359375
 31
0.0
  0
LINE
  5
1FA
330
1AF
100
AcDbEntity
  8
AM_9
100
AcDbLine
 10
-0.1729392146209069
 20
-0.5328124999999999
 30
0.0
 11
-0.1729392146209069
 21
-0.4359375
 31
0.0
  0
LINE
  5
1FB
330
1AF
100
AcDbEntity
  8
AM_9
100
AcDbLine
 10
0.0413217655562739
 20
-0.5328124999999999
 30
0.0
 11
0.0413217655562739
 21
-0.4359375
 31
0.0
  0
LINE
  5
1FC
330
1AF
100
AcDbEntity
  8
AM_9
100
AcDbLine
 10
0.0596869935257813
 20
-0.5328124999999999
 30
0.0
 11
0.0596869935257813
 21
-0.4359375
 31
0.0
  0
LINE
  5
1FD
330
1AF
100
AcDbEntity
  8
AM_9
100
AcDbLine
 10
0.2096696920597614
 20
-0.5328124999999999
 30
0.0
 11
0.2096696920597614
 21
-0.4359375
 31
0.0
  0
LINE
  5
1FE
330
1AF
100
AcDbEntity
  8
AM_9
100
AcDbLine
 10
0.1025391939211649
 20
-0.5328124999999999
 30
0.0
 11
0.1025391939211645
 21
-0.4359375
 31
0.0
  0
LINE
  5
1FF
330
1AF
100
AcDbEntity
  8
AM_9
100
AcDbLine
 10
-0.1056000526995169
 20
-0.5328124999999999
 30
0.0
 11
-0.1056000526995169
 21
-0.4359375
 31
0.0
  0
LINE
  5
200
330
1AF
100
AcDbEntity
  8
AM_9
100
AcDbLine
 10
-0.0872348247300096
 20
-0.5328124999999999
 30
0.0
 11
-0.0872348247300096
 21
-0.4359375
 31
0.0
  0
LINE
  5
201
330
1AF
100
AcDbEntity
  8
AM_9
100
AcDbLine
 10
0.1913044533902994
 20
-0.5328124999999999
 30
0.0
 11
0.1913044533902994
 21
-0.4359375
 31
0.0
  0
LINE
  5
202
330
1AF
100
AcDbEntity
  8
AM_9
100
AcDbLine
 10
-0.2617044956899841
 20
-0.5328124999999999
 30
0.0
 11
-0.2617044956899841
 21
-0.4359375
 31
0.0
  0
LINE
  5
203
330
1AF
100
AcDbEntity
  8
AM_9
100
AcDbLine
 10
0.1300870304254055
 20
-0.5328124999999999
 30
0.0
 11
0.1300870304254055
 21
-0.4359375
 31
0.0
  0
LINE
  5
204
330
1AF
100
AcDbEntity
  8
AM_9
100
AcDbLine
 10
-0.3290436469114161
 20
-0.5328124999999999
 30
0.0
 11
-0.3290436469114161
 21
-0.4359375
 31
0.0
  0
LINE
  5
205
330
1AF
100
AcDbEntity
  8
AM_9
100
AcDbLine
 10
0.0321391529215476
 20
-0.5328124999999999
 30
0.0
 11
0.0321391529215476
 21
-0.4359375
 31
0.0
  0
LINE
  5
206
330
1AF
100
AcDbEntity
  8
AM_9
100
AcDbLine
 10
-0.1147826720341939
 20
-0.5328124999999999
 30
0.0
 11
-0.1147826720341939
 21
-0.4359375
 31
0.0
  0
LINE
  5
207
330
1AF
100
AcDbEntity
  8
AM_9
100
AcDbLine
 10
0.2555827565334539
 20
-0.5328124999999999
 30
0.0
 11
0.2555827565334539
 21
-0.4359375
 31
0.0
  0
LINE
  5
208
330
1AF
100
AcDbEntity
  8
AM_9
100
AcDbLine
 10
0.1821218447555225
 20
-0.5328124999999999
 30
0.0
 11
0.1821218447555225
 21
-0.4359375
 31
0.0
  0
LINE
  5
209
330
1AF
100
AcDbEntity
  8
AM_9
100
AcDbLine
 10
-0.0352000157998925
 20
-0.5328124999999999
 30
0.0
 11
-0.0352000157998925
 21
-0.4359375
 31
0.0
  0
LINE
  5
20A
330
1AF
100
AcDbEntity
  8
AM_9
100
AcDbLine
 10
-0.1637566060861759
 20
-0.5328124999999999
 30
0.0
 11
-0.1637566060861759
 21
-0.4359375
 31
0.0
  0
LINE
  5
20B
330
1AF
100
AcDbEntity
  8
AM_9
100
AcDbLine
 10
-0.1790609752773919
 20
-0.5328124999999999
 30
0.0
 11
-0.1790609752773919
 21
-0.4359375
 31
0.0
  0
LINE
  5
20C
330
1AF
100
AcDbEntity
  8
AM_9
100
AcDbLine
 10
-0.0994783136429771
 20
-0.5328124999999999
 30
0.0
 11
-0.0994783136429771
 21
-0.4359375
 31
0.0
  0
LINE
  5
20D
330
1AF
100
AcDbEntity
  8
AM_9
100
AcDbLine
 10
-0.2464001264987681
 20
-0.5328124999999999
 30
0.0
 11
-0.2464001264987681
 21
-0.4359375
 31
0.0
  0
LINE
  5
20E
330
1AF
100
AcDbEntity
  8
AM_9
100
AcDbLine
 10
0.0474435100127576
 20
-0.5328124999999999
 30
0.0
 11
0.0474435100127576
 21
-0.4359375
 31
0.0
  0
LINE
  5
20F
330
1AF
100
AcDbEntity
  8
AM_9
100
AcDbLine
 10
0.1147826720341884
 20
-0.5328124999999999
 30
0.0
 11
0.1147826720341884
 21
-0.4359375
 31
0.0
  0
LINE
  5
210
330
1AF
100
AcDbEntity
  8
AM_9
100
AcDbLine
 10
0.1974261924467804
 20
-0.5328124999999999
 30
0.0
 11
0.1974261924467804
 21
-0.4359375
 31
0.0
  0
LINE
  5
211
330
1AF
100
AcDbEntity
  8
AM_9
100
AcDbLine
 10
-0.1117217917560009
 20
-0.5328124999999999
 30
0.0
 11
-0.1117217917560009
 21
-0.4359375
 31
0.0
  0
LINE
  5
212
330
1AF
100
AcDbEntity
  8
AM_9
100
AcDbLine
 10
0.1270261609471564
 20
-0.5328124999999999
 30
0.0
 11
0.1270261609471564
 21
-0.4359375
 31
0.0
  0
LINE
  5
213
330
1AF
100
AcDbEntity
  8
AM_9
100
AcDbLine
 10
-0.1668174755644229
 20
-0.5328124999999999
 30
0.0
 11
-0.1668174755644229
 21
-0.4359375
 31
0.0
  0
LINE
  5
214
330
1AF
100
AcDbEntity
  8
AM_9
100
AcDbLine
 10
0.035200023799789
 20
-0.5328124999999999
 30
0.0
 11
0.035200023799789
 21
-0.4359375
 31
0.0
  0
LINE
  5
215
330
1AF
100
AcDbEntity
  8
AM_9
100
AcDbLine
 10
0.1851827143338154
 20
-0.5328124999999999
 30
0.0
 11
0.1851827143338154
 21
-0.4359375
 31
0.0
  0
LINE
  5
216
330
1AF
100
AcDbEntity
  8
AM_9
100
AcDbLine
 10
-0.2586436261117469
 20
-0.5328124999999999
 30
0.0
 11
-0.2586436261117471
 21
-0.4359375
 31
0.0
  0
LINE
  5
217
330
1AF
100
AcDbEntity
  8
AM_9
100
AcDbLine
 10
0.0198956674085485
 20
-0.5328124999999999
 30
0.0
 11
0.0198956674085483
 21
-0.4359375
 31
0.0
  0
LINE
  5
218
330
1AF
100
AcDbEntity
  8
AM_9
100
AcDbLine
 10
-0.2739479738029501
 20
-0.5328124999999999
 30
0.0
 11
-0.2739479738029501
 21
-0.4359375
 31
0.0
  0
LINE
  5
219
330
1AF
100
AcDbEntity
  8
AM_9
100
AcDbLine
 10
0.1423305193383725
 20
-0.5328124999999999
 30
0.0
 11
0.1423305193383725
 21
-0.4359375
 31
0.0
  0
LINE
  5
21A
330
1AF
100
AcDbEntity
  8
AM_9
100
AcDbLine
 10
0.2372175178639888
 20
-0.5328124999999999
 30
0.0
 11
0.2372175178639888
 21
-0.4359375
 31
0.0
  0
LINE
  5
21B
330
1AF
100
AcDbEntity
  8
AM_9
100
AcDbLine
 10
-0.1270261501472169
 20
-0.5328124999999999
 30
0.0
 11
-0.1270261501472169
 21
-0.4359375
 31
0.0
  0
LINE
  5
21C
330
1AF
100
AcDbEntity
  8
AM_9
100
AcDbLine
 10
0.3474088855808207
 20
-0.5328124999999999
 30
0.0
 11
0.3474088855808208
 21
-0.4359375
 31
0.0
  0
LINE
  5
21D
330
1AF
100
AcDbEntity
  8
AM_9
100
AcDbLine
 10
0.0688696074604557
 20
-0.4359375
 30
0.0
 11
-0.0535652437692857
 21
-0.4359375
 31
0.0
  0
LINE
  5
21E
330
1AF
100
AcDbEntity
  8
AM_9
100
AcDbLine
 10
-0.0535652437692857
 20
-0.5328124999999999
 30
0.0
 11
-0.0535652437692857
 21
-0.4359375
 31
0.0
  0
LINE
  5
21F
330
1AF
100
AcDbEntity
  8
AM_9
100
AcDbLine
 10
-0.224974039751081
 20
-0.4359375
 30
0.0
 11
-0.3474088855808231
 21
-0.4359375
 31
0.0
  0
LINE
  5
220
330
1AF
100
AcDbEntity
  8
AM_9
100
AcDbLine
 10
-0.3474088855808231
 20
-0.5328124999999999
 30
0.0
 11
-0.3474088855808231
 21
-0.4359375
 31
0.0
  0
LINE
  5
221
330
1AF
100
AcDbEntity
  8
AM_9
100
AcDbLine
 10
0.3474088855808208
 20
-0.4359375
 30
0.0
 11
0.2372175178639888
 21
-0.4359375
 31
0.0
  0
LINE
  5
222
330
1AF
100
AcDbEntity
  8
AM_9
100
AcDbLine
 10
0.2127305616379964
 20
-0.4359375
 30
0.0
 11
0.0933565798864461
 21
-0.4359375
 31
0.0
  0
LINE
  5
223
330
1AF
100
AcDbEntity
  8
AM_9
100
AcDbLine
 10
0.1698783558425545
 20
-0.5328124999999999
 30
0.0
 11
0.1698783558425545
 21
-0.4359375
 31
0.0
  0
LINE
  5
224
330
1AF
100
AcDbEntity
  8
AM_9
100
AcDbLine
 10
-0.0780522160952907
 20
-0.4359375
 30
0.0
 11
-0.2004870619250909
 21
-0.4359375
 31
0.0
  0
LINE
  5
225
330
1AF
100
AcDbEntity
  8
AM_9
100
AcDbLine
 10
-0.1515131279731519
 20
-0.5328124999999999
 30
0.0
 11
-0.1515131279731519
 21
-0.4359375
 31
0.0
  0
LINE
  5
226
330
1AF
100
AcDbEntity
  8
AM_7
100
AcDbLine
 10
1.625
 20
0.0
 30
0.0
 11
3.0
 21
0.0
 31
0.0
  0
LINE
  5
227
330
1AF
100
AcDbEntity
  8
AM_7
100
AcDbLine
 10
0.0
 20
1.5125
 30
0.0
 11
0.0
 21
-1.5125
 31
0.0
  0
LWPOLYLINE
  5
228
330
1AF
100
AcDbEntity
  8
AM_4
100
AcDbPolyline
 90
       19
 70
     0
 43
0.0
 10
-1.411658342467076
 20
0.0
 10
-1.411562899241156
 20
-0.0123562187150293
 10
-1.410874314110852
 20
-0.0353866878204763
 10
-1.409521118622421
 20
-0.058335342794988
 10
-1.407503395232008
 20
-0.0811506266947643
 10
-1.404820764240345
 20
-0.1037836559217524
 10
-1.401472240338831
 20
-0.1261862820306601
 10
-1.397456000804665
 20
-0.1483111807857589
 10
-1.392769104660783
 20
-0.1701118489060617
 10
-1.387407179773027
 20
-0.1915424610587067
 10
-1.381364112445367
 20
-0.2125575227552825
 10
-1.374631804147159
 20
-0.2331112337491902
 10
-1.367200108605097
 20
-0.253156455595439
 10
-1.359057135109803
 20
-0.2726431682465195
 10
-1.350190198892327
 20
-0.2915163318585582
 10
-1.340587791817862
 20
-0.3097131952976044
 10
-1.330242958133079
 20
-0.3271603931293583
 10
-1.319164980560756
 20
-0.3437621827120959
 10
-1.312607672178852
 20
-0.3527064899975668
  0
LWPOLYLINE
  5
229
330
1AF
100
AcDbEntity
  8
AM_4
100
AcDbPolyline
 90
       19
 70
     0
 43
0.0
 10
-1.312599860831485
 20
0.352716783720566
 10
-1.318613107803958
 20
0.3445389047106689
 10
-1.329383621027207
 20
0.3285207635439824
 10
-1.339569520997389
 20
0.3115234518270423
 10
-1.349126348555275
 20
0.2936390946270781
 10
-1.358019376053554
 20
0.2749686447869078
 10
-1.366227228720798
 20
0.2556093049895723
 10
-1.373744334577504
 20
0.2356371689152347
 10
-1.380570868489081
 20
0.2151195541297091
 10
-1.386710025885788
 20
0.1941167350599224
 10
-1.392166138792686
 20
0.1726840035208846
 10
-1.396943560851316
 20
0.1508734831779995
 10
-1.401046110925237
 20
0.1287355159830947
 10
-1.404476872232742
 20
0.1063196217517724
 10
-1.407238192687841
 20
0.0836751025329278
 10
-1.409331782376248
 20
0.0608513765701057
 10
-1.410758842872407
 20
0.0378981168812551
 10
-1.411520189369579
 20
0.0148652538317673
 10
-1.411658342467076
 20
0.0
  0
ELLIPSE
  5
22A
330
1AF
100
AcDbEntity
  8
AM_4
100
AcDbEllipse
 10
-1.136658342467076
 20
0.0
 30
0.0
 11
-8.266365894244631E-17
 21
-0.4499999999999998
 31
0.0
210
0.0
220
0.0
230
1.0
 40
0.5000000000000001
 41
4.038688692198791
 42
5.386089268570587
  0
LINE
  5
22B
330
1AF
100
AcDbEntity
  8
AM_4
100
AcDbLine
 10
2.0
 20
-0.6874986249999996
 30
0.0
 11
2.375
 21
-0.6874986249999996
 31
0.0
  0
LINE
  5
22C
330
1AF
100
AcDbEntity
  8
AM_4
100
AcDbLine
 10
2.0
 20
-0.6874986249999996
 30
0.0
 11
2.0
 21
-0.4601567343749999
 31
0.0
  0
LINE
  5
22D
330
1AF
100
AcDbEntity
  8
AM_4
100
AcDbLine
 10
2.375
 20
-0.6874986249999996
 30
0.0
 11
2.375
 21
0.6874986249999996
 31
0.0
  0
LINE
  5
22E
330
1AF
100
AcDbEntity
  8
AM_4
100
AcDbLine
 10
2.0
 20
0.4601567343749997
 30
0.0
 11
2.0
 21
0.6874986249999996
 31
0.0
  0
LINE
  5
22F
330
1AF
100
AcDbEntity
  8
AM_4
100
AcDbLine
 10
2.375
 20
0.6874986249999996
 30
0.0
 11
2.0
 21
0.6874986249999996
 31
0.0
  0
LINE
  5
230
330
1AF
100
AcDbEntity
  8
AM_4
100
AcDbLine
 10
-1.0
 20
-0.4601567343749998
 30
0.0
 11
-1.3125
 21
-0.4601567343749999
 31
0.0
  0
LINE
  5
231
330
1AF
100
AcDbEntity
  8
AM_4
100
AcDbLine
 10
-1.3125
 20
0.4601567343749999
 30
0.0
 11
-1.3125
 21
-0.4601567343749999
 31
0.0
  0
LINE
  5
232
330
1AF
100
AcDbEntity
  8
AM_4
100
AcDbLine
 10
-1.3125
 20
0.4601567343749999
 30
0.0
 11
-1.0
 21
0.460156734375
 31
0.0
  0
LINE
  5
233
330
1AF
100
AcDbEntity
  8
AM_4
100
AcDbLine
 10
1.0
 20
0.460156734375
 30
0.0
 11
2.375
 21
0.460156734375
 31
0.0
  0
LINE
  5
234
330
1AF
100
AcDbEntity
  8
AM_4
100
AcDbLine
 10
2.3125
 20
-0.4601567343749998
 30
0.0
 11
2.3125
 21
0.460156734375
 31
0.0
  0
LINE
  5
235
330
1AF
100
AcDbEntity
  8
AM_4
100
AcDbLine
 10
1.0
 20
-0.4601567343749998
 30
0.0
 11
2.375
 21
-0.4601567343749998
 31
0.0
  0
LINE
  5
236
330
1AF
100
AcDbEntity
  8
AM_4
100
AcDbLine
 10
1.0625
 20
-0.4601567343749998
 30
0.0
 11
1.0625
 21
0.460156734375
 31
0.0
  0
LINE
  5
237
330
1AF
100
AcDbEntity
  8
AM_4
100
AcDbLine
 10
0.9999999999999997
 20
0.5328125000000001
 30
0.0
 11
-0.9999999999999997
 21
0.5328125000000001
 31
0.0
  0
LINE
  5
238
330
1AF
100
AcDbEntity
  8
AM_4
100
AcDbLine
 10
0.9692259720152883
 20
-0.4934423999999999
 30
0.0
 11
0.9692259720152901
 21
-0.257999484
 31
0.0
  0
LINE
  5
239
330
1AF
100
AcDbEntity
  8
AM_4
100
AcDbLine
 10
-0.9999999999999997
 20
0.5328125000000001
 30
0.0
 11
-0.9999999999999997
 21
-0.5328124999999999
 31
0.0
  0
LINE
  5
23A
330
1AF
100
AcDbEntity
  8
AM_4
100
AcDbLine
 10
0.9999999999999997
 20
-0.5328124999999999
 30
0.0
 11
-0.9999999999999997
 21
-0.5328124999999999
 31
0.0
  0
LINE
  5
23B
330
1AF
100
AcDbEntity
  8
AM_4
100
AcDbLine
 10
0.9999999999999997
 20
-0.5328124999999999
 30
0.0
 11
0.9999999999999997
 21
0.5328125000000001
 31
0.0
  0
LWPOLYLINE
  5
23C
330
1AF
100
AcDbEntity
  8
AM_4
100
AcDbPolyline
 90
       19
 70
     0
 43
0.0
 10
1.0
 20
-0.5246887750000001
 10
0.999881084315367
 20
-0.5219651580391358
 10
0.9995252422816314
 20
-0.5192622694479084
 10
0.9989351820715333
 20
-0.5166006798405464
 10
0.9981153943995594
 20
-0.5140006455210729
 10
0.9970721183448951
 20
-0.5114819543206033
 10
0.9958132938682634
 20
-0.5090637750000001
 10
0.9943485013840307
 20
-0.50676451136403
 10
0.9926888888474678
 20
-0.5046016621972959
 10
0.9908470869120792
 20
-0.5025916880879205
 10
0.988837112802704
 20
-0.5007498861525322
 10
0.9866742636359699
 20
-0.4990902736159692
 10
0.9843749999999996
 20
-0.4976254811317366
 10
0.9819568206793964
 20
-0.496366656655105
 10
0.9794381294789267
 20
-0.4953233806004407
 10
0.9768380951594534
 20
-0.494503592928467
 10
0.974176505552091
 20
-0.4939135327183689
 10
0.9714736169608638
 20
-0.4935576906846335
 10
0.9692259720152884
 20
-0.4934423999999999
  0
LINE
  5
23D
330
1AF
100
AcDbEntity
  8
AM_4
100
AcDbLine
 10
0.9692259720152883
 20
-0.4934423999999999
 30
0.0
 11
-0.9692259720153062
 21
-0.4934423999999999
 31
0.0
  0
LWPOLYLINE
  5
23E
330
1AF
100
AcDbEntity
  8
AM_4
100
AcDbPolyline
 90
       19
 70
     0
 43
0.0
 10
-0.9692259720153061
 20
-0.4934423999999999
 10
-0.971947461819385
 20
-0.4936027855849345
 10
-0.9746446170083379
 20
-0.4939997543195515
 10
-0.9772969106025904
 20
-0.4946302850320839
 10
-0.9798841570463915
 20
-0.4954895790030847
 10
-0.9823866658320817
 20
-0.4965710964865786
 10
-0.9847853913567458
 20
-0.4978666064814781
 10
-0.9870620778707511
 20
-0.4993662493744717
 10
-0.9891993984150249
 20
-0.5010586119776347
 10
-0.9911810866896763
 20
-0.5029308143896803
 10
-0.9929920608503586
 20
-0.5049686080197863
 10
-0.9946185382902131
 20
-0.5071564840279742
 10
-0.9960481405338285
 20
-0.5094777913567458
 10
-0.9972699874449137
 20
-0.5119148634556857
 10
-0.9982747800307038
 20
-0.5144491527345765
 10
-0.9990548712129107
 20
-0.5170613717217601
 10
-0.9996043240266058
 20
-0.5197316398534433
 10
-0.9999189568041081
 20
-0.5224396347767917
 10
-1.0
 20
-0.5246887745343393
  0
LINE
  5
23F
330
1AF
100
AcDbEntity
  8
AM_4
100
AcDbLine
 10
-0.969225972015308
 20
-0.257999484
 30
0.0
 11
-0.9692259720153062
 21
-0.4934423999999999
 31
0.0
  0
LINE
  5
240
330
1AF
100
AcDbEntity
  8
AM_4
100
AcDbLine
 10
-1.0
 20
-0.257999484
 30
0.0
 11
1.0
 21
-0.257999484
 31
0.0
  0
LWPOLYLINE
  5
241
330
1AF
100
AcDbEntity
  8
AM_4
100
AcDbPolyline
 90
       19
 70
     0
 43
0.0
 10
-1.0
 20
0.5246887745343396
 10
-0.9998810842747823
 20
0.5219651575752473
 10
-0.9995252422007705
 20
0.5192622689893225
 10
-0.9989351819510117
 20
0.5166006793907528
 10
-0.9981153942402944
 20
0.5140006450834952
 10
-0.9970721181480986
 20
0.5114819538985714
 10
-0.9958132936354335
 20
0.5090637745967262
 10
-0.994348501116939
 20
0.5067645109825832
 10
-0.9926888885481471
 20
0.5046016618405792
 10
-0.9908470865828076
 20
0.5025916877586488
 10
-0.9888371124459874
 20
0.5007498858532113
 10
-0.986674263254523
 20
0.4990902733488773
 10
-0.9843749995967258
 20
0.4976254808989062
 10
-0.9819568202573646
 20
0.4963666564583084
 10
-0.9794381290413489
 20
0.4953233804411754
 10
-0.9768380947096597
 20
0.4945035928079451
 10
-0.9741765050935048
 20
0.4939135326375078
 10
-0.9714736164969752
 20
0.4935576906440484
 10
-0.9692259720153042
 20
0.4934424000000002
  0
LINE
  5
242
330
1AF
100
AcDbEntity
  8
AM_4
100
AcDbLine
 10
1.0
 20
0.2579994840000002
 30
0.0
 11
-1.0
 21
0.2579994840000002
 31
0.0
  0
LWPOLYLINE
  5
243
330
1AF
100
AcDbEntity
  8
AM_4
100
AcDbPolyline
 90
       19
 70
     0
 43
0.0
 10
0.9692259720152862
 20
0.4934424000000002
 10
0.9719474618193651
 20
0.4936027855849331
 10
0.9746446170083184
 20
0.4939997543195482
 10
0.9772969106025713
 20
0.494630285032079
 10
0.979884157046373
 20
0.4954895790030781
 10
0.9823866658320638
 20
0.4965710964865704
 10
0.9847853913567286
 20
0.4978666064814684
 10
0.9870620778707349
 20
0.4993662493744606
 10
0.9891993984150098
 20
0.501058611977622
 10
0.9911810866896622
 20
0.5029308143896665
 10
0.9929920608503457
 20
0.5049686080197714
 10
0.9946185382902017
 20
0.5071564840279581
 10
0.9960481405338186
 20
0.5094777913567289
 10
0.9972699874449054
 20
0.511914863455668
 10
0.9982747800306971
 20
0.514449152734558
 10
0.9990548712129056
 20
0.5170613717217413
 10
0.9996043240266024
 20
0.5197316398534239
 10
0.9999189568041065
 20
0.5224396347767721
 10
1.0
 20
0.5246887749999999
  0
LINE
  5
244
330
1AF
100
AcDbEntity
  8
AM_4
100
AcDbLine
 10
0.9692259720152901
 20
0.4934424000000001
 30
0.0
 11
-0.969225972015308
 21
0.4934424000000001
 31
0.0
  0
LINE
  5
245
330
1AF
100
AcDbEntity
  8
AM_4
100
AcDbLine
 10
-0.969225972015308
 20
0.4934424000000001
 30
0.0
 11
-0.969225972015308
 21
0.2579994840000002
 31
0.0
  0
LINE
  5
246
330
1AF
100
AcDbEntity
  8
AM_4
100
AcDbLine
 10
0.9692259720152901
 20
0.2579994840000002
 30
0.0
 11
0.9692259720152901
 21
0.4934424000000001
 31
0.0
  0
ENDBLK
  5
1B2
330
1AF
100
AcDbEntity
  8
0
100
AcDbBlockEnd
  0
ENDSEC
  0
SECTION
  2
ENTITIES
  0
INSERT
  5
6F
330
1F
100
AcDbEntity
  8
0
100
AcDbBlockReference
  2
1_136130_4
 10
0.0
 20
0.0
 30
0.0
  0
POINT
  5
248
330
1F
100
AcDbEntity
  8
ConnectionPoints
100
AcDbPoint
 10
0.0
 20
0.0
 30
0.0
  0
POINT
  5
249
330
1F
100
AcDbEntity
  8
ConnectionPoints
100
AcDbPoint
 10
0.0
 20
0.0
 30
0.0
  0
POINT
  5
24A
330
1F
100
AcDbEntity
  8
ConnectionPoints
100
AcDbPoint
 10
0.0
 20
0.484375
 30
0.0
  0
POINT
  5
24B
330
1F
100
AcDbEntity
  8
ConnectionPoints
100
AcDbPoint
 10
0.0
 20
0.0
 30
0.0
  0
POINT
  5
24C
330
1F
100
AcDbEntity
  8
ConnectionPoints
100
AcDbPoint
 10
0.0
 20
0.0
 30
0.0
  0
POINT
  5
24D
330
1F
100
AcDbEntity
  8
ConnectionPoints
100
AcDbPoint
 10
0.0
 20
0.0
 30
0.0
  0
POINT
  5
24E
330
1F
100
AcDbEntity
  8
ConnectionPoints
100
AcDbPoint
 10
-1.22326088284552
 20
0.0
 30
-0.7062499999999999
  0
POINT
  5
24F
330
1F
100
AcDbEntity
  8
ConnectionPoints
100
AcDbPoint
 10
0.0
 20
-0.484375
 30
0.0
  0
ENDSEC
  0
SECTION
  2
OBJECTS
  0
DICTIONARY
  5
C
330
0
100
AcDbDictionary
281
     1
  3
ACAD_DETAILVIEWSTYLE
350
257
  3
ACAD_GROUP
350
D
  3
ACAD_LAYOUT
350
1A
  3
ACAD_MATERIAL
350
43
  3
ACAD_MLEADERSTYLE
350
6B
  3
ACAD_MLINESTYLE
350
17
  3
ACAD_PLOTSETTINGS
350
19
  3
ACAD_PLOTSTYLENAME
350
E
  3
ACAD_SCALELIST
350
47
  3
ACAD_SECTIONVIEWSTYLE
350
258
  3
ACAD_TABLESTYLE
350
69
  3
ACAD_VISUALSTYLE
350
2A
  3
ACDB_RECOMPOSE_DATA
350
254
  3
AcDbVariableDictionary
350
250
  0
SUN
  5
6D
330
29
100
AcDbSun
 90
        1
290
     0
 63
     7
421
 16777215
 40
1.0
291
     1
 91
  2455826
 92
 54000000
292
     0
 70
     2
 71
   256
280
     1
  0
DICTIONARY
  5
257
102
{ACAD_REACTORS
330
C
102
}
330
C
100
AcDbDictionary
281
     1
  0
DICTIONARY
  5
D
102
{ACAD_REACTORS
330
C
102
}
330
C
100
AcDbDictionary
281
     1
  0
DICTIONARY
  5
1A
102
{ACAD_REACTORS
330
C
102
}
330
C
100
AcDbDictionary
281
     1
  3
Layout1
350
1E
  3
Layout2
350
26
  3
Model
350
22
  0
DICTIONARY
  5
43
102
{ACAD_REACTORS
330
C
102
}
330
C
100
AcDbDictionary
281
     1
  3
ByBlock
350
45
  3
ByLayer
350
44
  3
Global
350
46
  0
DICTIONARY
  5
6B
102
{ACAD_REACTORS
330
C
102
}
330
C
100
AcDbDictionary
281
     1
  3
Standard
350
6C
  0
DICTIONARY
  5
17
102
{ACAD_REACTORS
330
C
102
}
330
C
100
AcDbDictionary
281
     1
  3
Standard
350
18
  0
DICTIONARY
  5
19
102
{ACAD_REACTORS
330
C
102
}
330
C
100
AcDbDictionary
281
     1
  0
ACDBDICTIONARYWDFLT
  5
E
102
{ACAD_REACTORS
330
C
102
}
330
C
100
AcDbDictionary
281
     1
  3
Normal
350
F
100
AcDbDictionaryWithDefault
340
F
  0
DICTIONARY
  5
47
102
{ACAD_REACTORS
330
C
102
}
330
C
100
AcDbDictionary
281
     1
  3
A0
350
48
  3
A1
350
49
  3
A2
350
4A
  3
A3
350
4B
  3
A4
350
4C
  3
A5
350
4D
  3
A6
350
4E
  3
A7
350
4F
  3
A8
350
50
  3
A9
350
51
  3
B0
350
52
  3
B1
350
53
  3
B2
350
54
  3
B3
350
55
  3
B4
350
56
  3
B5
350
57
  3
B6
350
58
  3
B7
350
59
  3
B8
350
5A
  3
B9
350
5B
  3
C0
350
5C
  3
C1
350
5D
  3
C2
350
5E
  3
C3
350
5F
  3
C4
350
60
  3
C5
350
61
  3
C6
350
62
  3
C7
350
63
  3
C8
350
64
  3
C9
350
65
  3
D0
350
66
  3
D1
350
67
  3
D2
350
68
  0
DICTIONARY
  5
258
102
{ACAD_REACTORS
330
C
102
}
330
C
100
AcDbDictionary
281
     1
  0
DICTIONARY
  5
69
102
{ACAD_REACTORS
330
C
102
}
330
C
100
AcDbDictionary
281
     1
  3
Standard
350
6A
  0
DICTIONARY
  5
2A
102
{ACAD_REACTORS
330
C
102
}
330
C
100
AcDbDictionary
281
     1
  3
2dWireframe
350
2F
  3
Basic
350
32
  3
Brighten
350
36
  3
ColorChange
350
3A
  3
Conceptual
350
34
  3
Dim
350
35
  3
EdgeColorOff
350
3D
  3
Facepattern
350
39
  3
Flat
350
2B
  3
FlatWithEdges
350
2C
  3
Gouraud
350
2D
  3
GouraudWithEdges
350
2E
  3
Hidden
350
31
  3
JitterOff
350
3B
  3
Linepattern
350
38
  3
OverhangOff
350
3C
  3
Realistic
350
33
  3
Shaded
350
42
  3
Shaded with edges
350
41
  3
Shades of Gray
350
3E
  3
Sketchy
350
3F
  3
Thicken
350
37
  3
Wireframe
350
30
  3
X-Ray
350
40
  0
XRECORD
  5
254
102
{ACAD_REACTORS
330
C
102
}
330
C
100
AcDbXrecord
280
     1
 90
        1
330
6A
  0
DICTIONARY
  5
250
102
{ACAD_REACTORS
330
C
102
}
330
C
100
AcDbDictionary
281
     1
  3
CANNOSCALE
350
251
  3
CMLEADERSTYLE
350
256
  3
CTABLESTYLE
350
255
  0
LAYOUT
  5
1E
102
{ACAD_REACTORS
330
1A
102
}
330
1A
100
AcDbPlotSettings
  1

  2
none_device
  4

  6

 40
0.0
 41
0.0
 42
0.0
 43
0.0
 44
0.0
 45
0.0
 46
0.0
 47
0.0
 48
0.0
 49
0.0
140
0.0
141
0.0
142
1.0
143
1.0
 70
   688
 72
     0
 73
     0
 74
     5
  7

 75
    16
 76
     0
 77
     2
 78
   300
147
1.0
148
0.0
149
0.0
100
AcDbLayout
  1
Layout1
 70
     1
 71
     1
 10
0.0
 20
0.0
 11
12.0
 21
9.0
 12
0.0
 22
0.0
 32
0.0
 14
1.000000000000000E+20
 24
1.000000000000000E+20
 34
1.000000000000000E+20
 15
-1.000000000000000E+20
 25
-1.000000000000000E+20
 35
-1.000000000000000E+20
146
0.0
 13
0.0
 23
0.0
 33
0.0
 16
1.0
 26
0.0
 36
0.0
 17
0.0
 27
1.0
 37
0.0
 76
     0
330
1B
  0
LAYOUT
  5
26
102
{ACAD_REACTORS
330
1A
102
}
330
1A
100
AcDbPlotSettings
  1

  2
none_device
  4

  6

 40
0.0
 41
0.0
 42
0.0
 43
0.0
 44
0.0
 45
0.0
 46
0.0
 47
0.0
 48
0.0
 49
0.0
140
0.0
141
0.0
142
1.0
143
1.0
 70
   688
 72
     0
 73
     0
 74
     5
  7

 75
    16
 76
     0
 77
     2
 78
   300
147
1.0
148
0.0
149
0.0
100
AcDbLayout
  1
Layout2
 70
     1
 71
     2
 10
0.0
 20
0.0
 11
0.0
 21
0.0
 12
0.0
 22
0.0
 32
0.0
 14
0.0
 24
0.0
 34
0.0
 15
0.0
 25
0.0
 35
0.0
146
0.0
 13
0.0
 23
0.0
 33
0.0
 16
1.0
 26
0.0
 36
0.0
 17
0.0
 27
1.0
 37
0.0
 76
     0
330
23
  0
LAYOUT
  5
22
102
{ACAD_REACTORS
330
1A
102
}
330
1A
100
AcDbPlotSettings
  1

  2
none_device
  4
Letter_(8.50_x_11.00_Inches)
  6

 40
6.35
 41
6.35
 42
6.35000508
 43
6.35000508
 44
215.9
 45
279.4
 46
0.0
 47
0.0
 48
0.0
 49
0.0
140
0.0
141
0.0
142
1.0
143
1.0
 70
  1712
 72
     0
 73
     0
 74
     0
  7

 75
     0
 76
     0
 77
     2
 78
   300
147
1.0
148
0.0
149
0.0
100
AcDbLayout
  1
Model
 70
     1
 71
     0
 10
0.0
 20
0.0
 11
12.0
 21
9.0
 12
0.0
 22
0.0
 32
0.0
 14
1.000000000000000E+20
 24
1.000000000000000E+20
 34
1.000000000000000E+20
 15
-1.000000000000000E+20
 25
-1.000000000000000E+20
 35
-1.000000000000000E+20
146
0.0
 13
0.0
 23
0.0
 33
0.0
 16
1.0
 26
0.0
 36
0.0
 17
0.0
 27
1.0
 37
0.0
 76
     0
330
1F
331
29
  0
MATERIAL
  5
45
102
{ACAD_REACTORS
330
43
102
}
330
43
100
AcDbMaterial
  1
ByBlock
 72
     1
 94
      127
  0
MATERIAL
  5
44
102
{ACAD_REACTORS
330
43
102
}
330
43
100
AcDbMaterial
  1
ByLayer
 72
     1
 94
      127
  0
MATERIAL
  5
46
102
{ACAD_REACTORS
330
43
102
}
330
43
100
AcDbMaterial
  1
Global
 72
     1
 94
      127
  0
MLEADERSTYLE
  5
6C
102
{ACAD_REACTORS
330
6B
102
}
330
6B
100
AcDbMLeaderStyle
179
     2
170
     2
171
     1
172
     0
 90
        2
 40
0.0
 41
0.0
173
     1
 91
-1056964608
340
14
 92
       -2
290
     1
 42
0.09
291
     1
 43
0.36
  3
Standard
341
0
 44
0.18
300

342
11
174
     1
178
     6
175
     1
176
     0
 93
-1056964608
 45
0.18
292
     0
297
     0
 46
0.18
343
0
 94
-1056964608
 47
1.0
 49
1.0
140
1.0
293
     1
141
0.0
294
     1
177
     0
142
1.0
295
     0
296
     0
143
0.125
271
     0
272
     9
273
     9
298
     0
  0
MLINESTYLE
  5
18
102
{ACAD_REACTORS
330
17
102
}
330
17
100
AcDbMlineStyle
  2
Standard
 70
     0
  3

 62
   256
 51
90.0
 52
90.0
 71
     2
 49
0.5
 62
   256
  6
BYLAYER
 49
-0.5
 62
   256
  6
BYLAYER
  0
ACDBPLACEHOLDER
  5
F
102
{ACAD_REACTORS
330
E
102
}
330
E
  0
SCALE
  5
48
102
{ACAD_REACTORS
330
47
102
}
330
47
100
AcDbScale
 70
     0
300
1:1
140
1.0
141
1.0
290
     1
  0
SCALE
  5
49
102
{ACAD_REACTORS
330
47
102
}
330
47
100
AcDbScale
 70
     0
300
1:2
140
1.0
141
2.0
290
     0
  0
SCALE
  5
4A
102
{ACAD_REACTORS
330
47
102
}
330
47
100
AcDbScale
 70
     0
300
1:4
140
1.0
141
4.0
290
     0
  0
SCALE
  5
4B
102
{ACAD_REACTORS
330
47
102
}
330
47
100
AcDbScale
 70
     0
300
1:5
140
1.0
141
5.0
290
     0
  0
SCALE
  5
4C
102
{ACAD_REACTORS
330
47
102
}
330
47
100
AcDbScale
 70
     0
300
1:8
140
1.0
141
8.0
290
     0
  0
SCALE
  5
4D
102
{ACAD_REACTORS
330
47
102
}
330
47
100
AcDbScale
 70
     0
300
1:10
140
1.0
141
10.0
290
     0
  0
SCALE
  5
4E
102
{ACAD_REACTORS
330
47
102
}
330
47
100
AcDbScale
 70
     0
300
1:16
140
1.0
141
16.0
290
     0
  0
SCALE
  5
4F
102
{ACAD_REACTORS
330
47
102
}
330
47
100
AcDbScale
 70
     0
300
1:20
140
1.0
141
20.0
290
     0
  0
SCALE
  5
50
102
{ACAD_REACTORS
330
47
102
}
330
47
100
AcDbScale
 70
     0
300
1:30
140
1.0
141
30.0
290
     0
  0
SCALE
  5
51
102
{ACAD_REACTORS
330
47
102
}
330
47
100
AcDbScale
 70
     0
300
1:40
140
1.0
141
40.0
290
     0
  0
SCALE
  5
52
102
{ACAD_REACTORS
330
47
102
}
330
47
100
AcDbScale
 70
     0
300
1:50
140
1.0
141
50.0
290
     0
  0
SCALE
  5
53
102
{ACAD_REACTORS
330
47
102
}
330
47
100
AcDbScale
 70
     0
300
1:100
140
1.0
141
100.0
290
     0
  0
SCALE
  5
54
102
{ACAD_REACTORS
330
47
102
}
330
47
100
AcDbScale
 70
     0
300
2:1
140
2.0
141
1.0
290
     0
  0
SCALE
  5
55
102
{ACAD_REACTORS
330
47
102
}
330
47
100
AcDbScale
 70
     0
300
4:1
140
4.0
141
1.0
290
     0
  0
SCALE
  5
56
102
{ACAD_REACTORS
330
47
102
}
330
47
100
AcDbScale
 70
     0
300
8:1
140
8.0
141
1.0
290
     0
  0
SCALE
  5
57
102
{ACAD_REACTORS
330
47
102
}
330
47
100
AcDbScale
 70
     0
300
10:1
140
10.0
141
1.0
290
     0
  0
SCALE
  5
58
102
{ACAD_REACTORS
330
47
102
}
330
47
100
AcDbScale
 70
     0
300
100:1
140
100.0
141
1.0
290
     0
  0
SCALE
  5
59
102
{ACAD_REACTORS
330
47
102
}
330
47
100
AcDbScale
 70
     0
300
1/128" = 1'-0"
140
0.0078125
141
12.0
290
     0
  0
SCALE
  5
5A
102
{ACAD_REACTORS
330
47
102
}
330
47
100
AcDbScale
 70
     0
300
1/64" = 1'-0"
140
0.015625
141
12.0
290
     0
  0
SCALE
  5
5B
102
{ACAD_REACTORS
330
47
102
}
330
47
100
AcDbScale
 70
     0
300
1/32" = 1'-0"
140
0.03125
141
12.0
290
     0
  0
SCALE
  5
5C
102
{ACAD_REACTORS
330
47
102
}
330
47
100
AcDbScale
 70
     0
300
1/16" = 1'-0"
140
0.0625
141
12.0
290
     0
  0
SCALE
  5
5D
102
{ACAD_REACTORS
330
47
102
}
330
47
100
AcDbScale
 70
     0
300
3/32" = 1'-0"
140
0.09375
141
12.0
290
     0
  0
SCALE
  5
5E
102
{ACAD_REACTORS
330
47
102
}
330
47
100
AcDbScale
 70
     0
300
1/8" = 1'-0"
140
0.125
141
12.0
290
     0
  0
SCALE
  5
5F
102
{ACAD_REACTORS
330
47
102
}
330
47
100
AcDbScale
 70
     0
300
3/16" = 1'-0"
140
0.1875
141
12.0
290
     0
  0
SCALE
  5
60
102
{ACAD_REACTORS
330
47
102
}
330
47
100
AcDbScale
 70
     0
300
1/4" = 1'-0"
140
0.25
141
12.0
290
     0
  0
SCALE
  5
61
102
{ACAD_REACTORS
330
47
102
}
330
47
100
AcDbScale
 70
     0
300
3/8" = 1'-0"
140
0.375
141
12.0
290
     0
  0
SCALE
  5
62
102
{ACAD_REACTORS
330
47
102
}
330
47
100
AcDbScale
 70
     0
300
1/2" = 1'-0"
140
0.5
141
12.0
290
     0
  0
SCALE
  5
63
102
{ACAD_REACTORS
330
47
102
}
330
47
100
AcDbScale
 70
     0
300
3/4" = 1'-0"
140
0.75
141
12.0
290
     0
  0
SCALE
  5
64
102
{ACAD_REACTORS
330
47
102
}
330
47
100
AcDbScale
 70
     0
300
1" = 1'-0"
140
1.0
141
12.0
290
     0
  0
SCALE
  5
65
102
{ACAD_REACTORS
330
47
102
}
330
47
100
AcDbScale
 70
     0
300
1-1/2" = 1'-0"
140
1.5
141
12.0
290
     0
  0
SCALE
  5
66
102
{ACAD_REACTORS
330
47
102
}
330
47
100
AcDbScale
 70
     0
300
3" = 1'-0"
140
3.0
141
12.0
290
     0
  0
SCALE
  5
67
102
{ACAD_REACTORS
330
47
102
}
330
47
100
AcDbScale
 70
     0
300
6" = 1'-0"
140
6.0
141
12.0
290
     0
  0
SCALE
  5
68
102
{ACAD_REACTORS
330
47
102
}
330
47
100
AcDbScale
 70
     0
300
1'-0" = 1'-0"
140
12.0
141
12.0
290
     0
  0
TABLESTYLE
  5
6A
102
{ACAD_REACTORS
330
69
102
}
102
{ACAD_XDICTIONARY
360
252
102
}
330
69
100
AcDbTableStyle
  3
Standard
 70
     0
 71
     0
 40
0.06
 41
0.06
280
     0
281
     0
  7
Standard
140
0.18
170
     2
 62
     0
 63
   257
283
     0
 90
        4
 91
        0
  1

274
    -2
284
     1
 64
     0
275
    -2
285
     1
 65
     0
276
    -2
286
     1
 66
     0
277
    -2
287
     1
 67
     0
278
    -2
288
     1
 68
     0
279
    -2
289
     1
 69
     0
  7
Standard
140
0.25
170
     5
 62
     0
 63
   257
283
     0
 90
        4
 91
        0
  1

274
    -2
284
     1
 64
     0
275
    -2
285
     1
 65
     0
276
    -2
286
     1
 66
     0
277
    -2
287
     1
 67
     0
278
    -2
288
     1
 68
     0
279
    -2
289
     1
 69
     0
  7
Standard
140
0.18
170
     5
 62
     0
 63
   257
283
     0
 90
        4
 91
        0
  1

274
    -2
284
     1
 64
     0
275
    -2
285
     1
 65
     0
276
    -2
286
     1
 66
     0
277
    -2
287
     1
 67
     0
278
    -2
288
     1
 68
     0
279
    -2
289
     1
 69
     0
  0
VISUALSTYLE
  5
2F
102
{ACAD_REACTORS
330
2A
102
}
330
2A
100
AcDbVisualStyle
  2
2dWireframe
 70
     4
177
     3
291
     0
 70
    58
 90
        0
176
     1
 90
        2
176
     1
 90
        0
176
     1
 90
        0
176
     1
 40
0.6
176
     1
 40
30.0
176
     1
 62
     7
420
 16777215
176
     1
 90
        1
176
     1
 90
        4
176
     1
 62
     7
176
     1
 62
   257
176
     1
 90
        1
176
     1
 90
        1
176
     1
 40
1.0
176
     1
 90
        0
176
     1
 62
   257
176
     1
 40
1.0
176
     1
 90
        1
176
     1
 90
        6
176
     1
 90
        2
176
     1
 62
     7
176
     1
 90
        5
176
     1
 90
        0
176
     1
 90
        0
176
     1
290
     0
176
     1
 90
        1
176
     1
 40
0.0
176
     1
 90
        0
176
     1
290
     1
176
     1
290
     1
176
     1
290
     0
176
     1
290
     0
176
     1
290
     0
176
     1
290
     0
176
     1
290
     0
176
     1
290
     0
176
     1
290
     0
176
     1
 90
       50
176
     1
 40
0.0
176
     1
 40
1.0
176
     1
 90
        0
176
     1
 62
    18
420
        0
176
     1
 90
       50
176
     1
 90
        3
176
     1
 62
     5
420
      255
176
     1
290
     0
176
     1
 90
       50
176
     1
 90
       50
176
     1
 90
       50
176
     1
290
     0
176
     1
 90
       50
176
     1
 62
   256
176
     0
 40
1.0
176
     0
 90
        2
176
     1
  1
strokes_ogs.tif
176
     1
290
     0
176
     1
 40
1.0
176
     1
 40
1.0
176
     1
  0
VISUALSTYLE
  5
32
102
{ACAD_REACTORS
330
2A
102
}
330
2A
100
AcDbVisualStyle
  2
Basic
 70
     7
177
     3
291
     1
 70
    58
 90
        1
176
     1
 90
        0
176
     1
 90
        1
176
     1
 90
        0
176
     1
 40
0.6
176
     1
 40
30.0
176
     1
 62
     7
420
 16777215
176
     1
 90
        0
176
     1
 90
        4
176
     1
 62
     7
176
     1
 62
   257
176
     1
 90
        1
176
     1
 90
        1
176
     1
 40
1.0
176
     1
 90
        8
176
     1
 62
     7
176
     1
 40
1.0
176
     1
 90
        1
176
     1
 90
        6
176
     1
 90
        2
176
     1
 62
     7
176
     1
 90
        5
176
     1
 90
        0
176
     1
 90
        0
176
     1
290
     0
176
     1
 90
        1
176
     1
 40
0.0
176
     1
 90
        0
176
     1
290
     0
176
     1
290
     1
176
     1
290
     1
176
     1
290
     0
176
     1
290
     0
176
     1
290
     0
176
     1
290
     0
176
     1
290
     0
176
     1
290
     0
176
     1
 90
       50
176
     1
 40
0.0
176
     1
 40
1.0
176
     1
 90
        0
176
     1
 62
    18
420
        0
176
     1
 90
       50
176
     1
 90
        3
176
     1
 62
     5
420
      255
176
     1
290
     0
176
     1
 90
       50
176
     1
 90
       50
176
     1
 90
       50
176
     1
290
     0
176
     1
 90
       50
176
     1
 62
   256
176
     0
 40
1.0
176
     0
 90
        2
176
     1
  1
strokes_ogs.tif
176
     1
290
     0
176
     1
 40
1.0
176
     1
 40
1.0
176
     1
  0
VISUALSTYLE
  5
36
102
{ACAD_REACTORS
330
2A
102
}
330
2A
100
AcDbVisualStyle
  2
Brighten
 70
    12
177
     3
291
     1
 70
    58
 90
        2
176
     1
 90
        2
176
     1
 90
        0
176
     1
 90
        0
176
     1
 40
0.6
176
     1
 40
30.0
176
     1
 62
     7
420
 16777215
176
     1
 90
        1
176
     1
 90
        4
176
     1
 62
     7
176
     1
 62
   257
176
     1
 90
        1
176
     1
 90
        1
176
     1
 40
1.0
176
     1
 90
        8
176
     1
 62
     7
176
     1
 40
1.0
176
     1
 90
        1
176
     1
 90
        6
176
     1
 90
        2
176
     1
 62
     7
176
     1
 90
        5
176
     1
 90
        0
176
     1
 90
        0
176
     1
290
     0
176
     1
 90
        1
176
     1
 40
50.0
176
     1
 90
        0
176
     1
290
     0
176
     1
290
     1
176
     1
290
     1
176
     1
290
     0
176
     1
290
     0
176
     1
290
     0
176
     1
290
     0
176
     1
290
     0
176
     1
290
     0
176
     1
 90
       50
176
     1
 40
0.0
176
     1
 40
1.0
176
     1
 90
        0
176
     1
 62
    18
420
        0
176
     1
 90
       50
176
     1
 90
        3
176
     1
 62
     5
420
      255
176
     1
290
     0
176
     1
 90
       50
176
     1
 90
       50
176
     1
 90
       50
176
     1
290
     0
176
     1
 90
       50
176
     1
 62
   256
176
     0
 40
1.0
176
     0
 90
        2
176
     1
  1
strokes_ogs.tif
176
     1
290
     0
176
     1
 40
1.0
176
     1
 40
1.0
176
     1
  0
VISUALSTYLE
  5
3A
102
{ACAD_REACTORS
330
2A
102
}
330
2A
100
AcDbVisualStyle
  2
ColorChange
 70
    16
177
     3
291
     1
 70
    58
 90
        2
176
     1
 90
        2
176
     1
 90
        3
176
     1
 90
        0
176
     1
 40
0.6
176
     1
 40
30.0
176
     1
 62
     8
420
  8421504
176
     1
 90
        1
176
     1
 90
        4
176
     1
 62
     7
176
     1
 62
   257
176
     1
 90
        1
176
     1
 90
        1
176
     1
 40
1.0
176
     1
 90
        8
176
     1
 62
     8
420
  8421504
176
     1
 40
1.0
176
     1
 90
        1
176
     1
 90
        6
176
     1
 90
        2
176
     1
 62
     7
176
     1
 90
        5
176
     1
 90
        0
176
     1
 90
        0
176
     1
290
     0
176
     1
 90
        1
176
     1
 40
0.0
176
     1
 90
        0
176
     1
290
     0
176
     1
290
     1
176
     1
290
     1
176
     1
290
     0
176
     1
290
     0
176
     1
290
     0
176
     1
290
     0
176
     1
290
     0
176
     1
290
     0
176
     1
 90
       50
176
     1
 40
0.0
176
     1
 40
1.0
176
     1
 90
        0
176
     1
 62
    18
420
        0
176
     1
 90
       50
176
     1
 90
        3
176
     1
 62
     5
420
      255
176
     1
290
     0
176
     1
 90
       50
176
     1
 90
       50
176
     1
 90
       50
176
     1
290
     0
176
     1
 90
       50
176
     1
 62
   256
176
     0
 40
1.0
176
     0
 90
        2
176
     1
  1
strokes_ogs.tif
176
     1
290
     0
176
     1
 40
1.0
176
     1
 40
1.0
176
     1
  0
VISUALSTYLE
  5
34
102
{ACAD_REACTORS
330
2A
102
}
330
2A
100
AcDbVisualStyle
  2
Conceptual
 70
     9
177
     3
291
     0
 70
    58
 90
        3
176
     1
 90
        2
176
     1
 90
        0
176
     1
 90
        0
176
     1
 40
0.6
176
     1
 40
30.0
176
     1
 62
     7
420
 16777215
176
     1
 90
        2
176
     1
 90
        2
176
     1
 62
     7
176
     1
 62
   257
176
     1
 90
        1
176
     1
 90
        1
176
     1
 40
179.0
176
     1
 90
        8
176
     1
 62
     7
176
     1
 40
1.0
176
     1
 90
        1
176
     1
 90
        6
176
     1
 90
        2
176
     1
 62
     7
176
     1
 90
        3
176
     1
 90
        0
176
     1
 90
        0
176
     1
290
     0
176
     1
 90
        1
176
     1
 40
0.0
176
     1
 90
        0
176
     1
290
     0
176
     1
290
     1
176
     1
290
     1
176
     1
290
     0
176
     1
290
     0
176
     1
290
     0
176
     1
290
     0
176
     1
290
     0
176
     1
290
     0
176
     1
 90
       50
176
     1
 40
0.0
176
     1
 40
1.0
176
     1
 90
        0
176
     1
 62
    18
420
        0
176
     1
 90
       50
176
     1
 90
        3
176
     1
 62
     5
420
      255
176
     1
290
     0
176
     1
 90
       50
176
     1
 90
       50
176
     1
 90
       50
176
     1
290
     0
176
     1
 90
       50
176
     1
 62
   256
176
     0
 40
1.0
176
     0
 90
        2
176
     1
  1
strokes_ogs.tif
176
     1
290
     0
176
     1
 40
1.0
176
     1
 40
1.0
176
     1
  0
VISUALSTYLE
  5
35
102
{ACAD_REACTORS
330
2A
102
}
330
2A
100
AcDbVisualStyle
  2
Dim
 70
    11
177
     3
291
     1
 70
    58
 90
        2
176
     1
 90
        2
176
     1
 90
        0
176
     1
 90
        0
176
     1
 40
0.6
176
     1
 40
30.0
176
     1
 62
     7
420
 16777215
176
     1
 90
        1
176
     1
 90
        4
176
     1
 62
     7
176
     1
 62
   257
176
     1
 90
        1
176
     1
 90
        1
176
     1
 40
1.0
176
     1
 90
        8
176
     1
 62
     7
176
     1
 40
1.0
176
     1
 90
        1
176
     1
 90
        6
176
     1
 90
        2
176
     1
 62
     7
176
     1
 90
        5
176
     1
 90
        0
176
     1
 90
        0
176
     1
290
     0
176
     1
 90
        1
176
     1
 40
-50.0
176
     1
 90
        0
176
     1
290
     0
176
     1
290
     1
176
     1
290
     1
176
     1
290
     0
176
     1
290
     0
176
     1
290
     0
176
     1
290
     0
176
     1
290
     0
176
     1
290
     0
176
     1
 90
       50
176
     1
 40
0.0
176
     1
 40
1.0
176
     1
 90
        0
176
     1
 62
    18
420
        0
176
     1
 90
       50
176
     1
 90
        3
176
     1
 62
     5
420
      255
176
     1
290
     0
176
     1
 90
       50
176
     1
 90
       50
176
     1
 90
       50
176
     1
290
     0
176
     1
 90
       50
176
     1
 62
   256
176
     0
 40
1.0
176
     0
 90
        2
176
     1
  1
strokes_ogs.tif
176
     1
290
     0
176
     1
 40
1.0
176
     1
 40
1.0
176
     1
  0
VISUALSTYLE
  5
3D
102
{ACAD_REACTORS
330
2A
102
}
330
2A
100
AcDbVisualStyle
  2
EdgeColorOff
 70
    22
177
     3
291
     1
 70
    58
 90
        2
176
     0
 90
        2
176
     0
 90
        0
176
     0
 90
        0
176
     0
 40
0.6
176
     0
 40
30.0
176
     0
 62
     7
420
 16777215
176
     0
 90
        1
176
     0
 90
        4
176
     0
 62
     7
176
     0
 62
   257
176
     0
 90
        1
176
     0
 90
        1
176
     0
 40
1.0
176
     0
 90
        8
176
     2
 62
     7
176
     0
 40
1.0
176
     0
 90
        1
176
     0
 90
        6
176
     0
 90
        2
176
     0
 62
     7
176
     0
 90
        5
176
     0
 90
        0
176
     0
 90
        0
176
     0
290
     0
176
     0
 90
        1
176
     0
 40
0.0
176
     0
 90
        0
176
     0
290
     0
176
     0
290
     1
176
     0
290
     1
176
     0
290
     0
176
     0
290
     0
176
     0
290
     0
176
     0
290
     0
176
     0
290
     0
176
     0
290
     0
176
     0
 90
       50
176
     0
 40
0.0
176
     0
 40
1.0
176
     0
 90
        0
176
     0
 62
    18
420
        0
176
     0
 90
       50
176
     0
 90
        3
176
     0
 62
     5
420
      255
176
     0
290
     0
176
     0
 90
       50
176
     0
 90
       50
176
     0
 90
       50
176
     0
290
     0
176
     0
 90
       50
176
     0
 62
   256
176
     0
 40
1.0
176
     0
 90
        2
176
     0
  1
strokes_ogs.tif
176
     0
290
     0
176
     0
 40
1.0
176
     0
 40
1.0
176
     0
  0
VISUALSTYLE
  5
39
102
{ACAD_REACTORS
330
2A
102
}
330
2A
100
AcDbVisualStyle
  2
Facepattern
 70
    15
177
     3
291
     1
 70
    58
 90
        2
176
     1
 90
        2
176
     1
 90
        0
176
     1
 90
        0
176
     1
 40
0.6
176
     1
 40
30.0
176
     1
 62
     7
420
 16777215
176
     1
 90
        1
176
     1
 90
        4
176
     1
 62
     7
176
     1
 62
   257
176
     1
 90
        1
176
     1
 90
        1
176
     1
 40
1.0
176
     1
 90
        8
176
     1
 62
     7
176
     1
 40
1.0
176
     1
 90
        1
176
     1
 90
        6
176
     1
 90
        2
176
     1
 62
     7
176
     1
 90
        5
176
     1
 90
        0
176
     1
 90
        0
176
     1
290
     0
176
     1
 90
        1
176
     1
 40
0.0
176
     1
 90
        0
176
     1
290
     0
176
     1
290
     1
176
     1
290
     1
176
     1
290
     0
176
     1
290
     0
176
     1
290
     0
176
     1
290
     0
176
     1
290
     0
176
     1
290
     0
176
     1
 90
       50
176
     1
 40
0.0
176
     1
 40
1.0
176
     1
 90
        0
176
     1
 62
    18
420
        0
176
     1
 90
       50
176
     1
 90
        3
176
     1
 62
     5
420
      255
176
     1
290
     0
176
     1
 90
       50
176
     1
 90
       50
176
     1
 90
       50
176
     1
290
     0
176
     1
 90
       50
176
     1
 62
   256
176
     0
 40
1.0
176
     0
 90
        2
176
     1
  1
strokes_ogs.tif
176
     1
290
     0
176
     1
 40
1.0
176
     1
 40
1.0
176
     1
  0
VISUALSTYLE
  5
2B
102
{ACAD_REACTORS
330
2A
102
}
330
2A
100
AcDbVisualStyle
  2
Flat
 70
     0
177
     3
291
     1
 70
    58
 90
        2
176
     1
 90
        1
176
     1
 90
        1
176
     1
 90
        2
176
     1
 40
0.6
176
     1
 40
30.0
176
     1
 62
     7
420
 16777215
176
     1
 90
        0
176
     1
 90
        0
176
     1
 62
     7
176
     1
 62
   257
176
     1
 90
        1
176
     1
 90
        1
176
     1
 40
1.0
176
     1
 90
        8
176
     1
 62
     7
176
     1
 40
1.0
176
     1
 90
        1
176
     1
 90
        6
176
     1
 90
        2
176
     1
 62
     7
176
     1
 90
        5
176
     1
 90
        0
176
     1
 90
        0
176
     1
290
     0
176
     1
 90
       13
176
     1
 40
0.0
176
     1
 90
        0
176
     1
290
     0
176
     1
290
     1
176
     1
290
     1
176
     1
290
     0
176
     1
290
     0
176
     1
290
     0
176
     1
290
     0
176
     1
290
     0
176
     1
290
     0
176
     1
 90
       50
176
     1
 40
0.0
176
     1
 40
1.0
176
     1
 90
        0
176
     1
 62
    18
420
        0
176
     1
 90
       50
176
     1
 90
        3
176
     1
 62
     5
420
      255
176
     1
290
     0
176
     1
 90
       50
176
     1
 90
       50
176
     1
 90
       50
176
     1
290
     0
176
     1
 90
       50
176
     1
 62
   256
176
     0
 40
1.0
176
     0
 90
        2
176
     1
  1
strokes_ogs.tif
176
     1
290
     0
176
     1
 40
1.0
176
     1
 40
1.0
176
     1
  0
VISUALSTYLE
  5
2C
102
{ACAD_REACTORS
330
2A
102
}
330
2A
100
AcDbVisualStyle
  2
FlatWithEdges
 70
     1
177
     3
291
     1
 70
    58
 90
        2
176
     1
 90
        1
176
     1
 90
        1
176
     1
 90
        2
176
     1
 40
0.6
176
     1
 40
30.0
176
     1
 62
     7
420
 16777215
176
     1
 90
        1
176
     1
 90
        0
176
     1
 62
     7
176
     1
 62
   257
176
     1
 90
        1
176
     1
 90
        1
176
     1
 40
1.0
176
     1
 90
        0
176
     1
 62
   257
176
     1
 40
1.0
176
     1
 90
        1
176
     1
 90
        6
176
     1
 90
        2
176
     1
 62
     7
176
     1
 90
        5
176
     1
 90
        0
176
     1
 90
        0
176
     1
290
     0
176
     1
 90
       13
176
     1
 40
0.0
176
     1
 90
        0
176
     1
290
     0
176
     1
290
     1
176
     1
290
     1
176
     1
290
     0
176
     1
290
     0
176
     1
290
     0
176
     1
290
     0
176
     1
290
     0
176
     1
290
     0
176
     1
 90
       50
176
     1
 40
0.0
176
     1
 40
1.0
176
     1
 90
        0
176
     1
 62
    18
420
        0
176
     1
 90
       50
176
     1
 90
        3
176
     1
 62
     5
420
      255
176
     1
290
     0
176
     1
 90
       50
176
     1
 90
       50
176
     1
 90
       50
176
     1
290
     0
176
     1
 90
       50
176
     1
 62
   256
176
     0
 40
1.0
176
     0
 90
        2
176
     1
  1
strokes_ogs.tif
176
     1
290
     0
176
     1
 40
1.0
176
     1
 40
1.0
176
     1
  0
VISUALSTYLE
  5
2D
102
{ACAD_REACTORS
330
2A
102
}
330
2A
100
AcDbVisualStyle
  2
Gouraud
 70
     2
177
     3
291
     1
 70
    58
 90
        2
176
     1
 90
        2
176
     1
 90
        1
176
     1
 90
        2
176
     1
 40
0.6
176
     1
 40
30.0
176
     1
 62
     7
420
 16777215
176
     1
 90
        0
176
     1
 90
        0
176
     1
 62
     7
176
     1
 62
   257
176
     1
 90
        1
176
     1
 90
        1
176
     1
 40
1.0
176
     1
 90
        0
176
     1
 62
     7
176
     1
 40
1.0
176
     1
 90
        1
176
     1
 90
        6
176
     1
 90
        2
176
     1
 62
     7
176
     1
 90
        5
176
     1
 90
        0
176
     1
 90
        0
176
     1
290
     0
176
     1
 90
       13
176
     1
 40
0.0
176
     1
 90
        0
176
     1
290
     0
176
     1
290
     1
176
     1
290
     1
176
     1
290
     0
176
     1
290
     0
176
     1
290
     0
176
     1
290
     0
176
     1
290
     0
176
     1
290
     0
176
     1
 90
       50
176
     1
 40
0.0
176
     1
 40
1.0
176
     1
 90
        0
176
     1
 62
    18
420
        0
176
     1
 90
       50
176
     1
 90
        3
176
     1
 62
     5
420
      255
176
     1
290
     0
176
     1
 90
       50
176
     1
 90
       50
176
     1
 90
       50
176
     1
290
     0
176
     1
 90
       50
176
     1
 62
   256
176
     0
 40
1.0
176
     0
 90
        2
176
     1
  1
strokes_ogs.tif
176
     1
290
     0
176
     1
 40
1.0
176
     1
 40
1.0
176
     1
  0
VISUALSTYLE
  5
2E
102
{ACAD_REACTORS
330
2A
102
}
330
2A
100
AcDbVisualStyle
  2
GouraudWithEdges
 70
     3
177
     3
291
     1
 70
    58
 90
        2
176
     1
 90
        2
176
     1
 90
        1
176
     1
 90
        2
176
     1
 40
0.6
176
     1
 40
30.0
176
     1
 62
     7
420
 16777215
176
     1
 90
        1
176
     1
 90
        0
176
     1
 62
     7
176
     1
 62
   257
176
     1
 90
        1
176
     1
 90
        1
176
     1
 40
1.0
176
     1
 90
        0
176
     1
 62
   257
176
     1
 40
1.0
176
     1
 90
        1
176
     1
 90
        6
176
     1
 90
        2
176
     1
 62
     7
176
     1
 90
        5
176
     1
 90
        0
176
     1
 90
        0
176
     1
290
     0
176
     1
 90
       13
176
     1
 40
0.0
176
     1
 90
        0
176
     1
290
     0
176
     1
290
     1
176
     1
290
     1
176
     1
290
     0
176
     1
290
     0
176
     1
290
     0
176
     1
290
     0
176
     1
290
     0
176
     1
290
     0
176
     1
 90
       50
176
     1
 40
0.0
176
     1
 40
1.0
176
     1
 90
        0
176
     1
 62
    18
420
        0
176
     1
 90
       50
176
     1
 90
        3
176
     1
 62
     5
420
      255
176
     1
290
     0
176
     1
 90
       50
176
     1
 90
       50
176
     1
 90
       50
176
     1
290
     0
176
     1
 90
       50
176
     1
 62
   256
176
     0
 40
1.0
176
     0
 90
        2
176
     1
  1
strokes_ogs.tif
176
     1
290
     0
176
     1
 40
1.0
176
     1
 40
1.0
176
     1
  0
VISUALSTYLE
  5
31
102
{ACAD_REACTORS
330
2A
102
}
330
2A
100
AcDbVisualStyle
  2
Hidden
 70
     6
177
     3
291
     0
 70
    58
 90
        1
176
     1
 90
        2
176
     1
 90
        2
176
     1
 90
        0
176
     1
 40
0.6
176
     1
 40
30.0
176
     1
 62
     7
420
 16777215
176
     1
 90
        2
176
     1
 90
        2
176
     1
 62
     7
176
     1
 62
   257
176
     1
 90
        2
176
     1
 90
        1
176
     1
 40
40.0
176
     1
 90
        0
176
     1
 62
   257
176
     1
 40
1.0
176
     1
 90
        1
176
     1
 90
        6
176
     1
 90
        2
176
     1
 62
     7
176
     1
 90
        3
176
     1
 90
        0
176
     1
 90
        0
176
     1
290
     0
176
     1
 90
        1
176
     1
 40
0.0
176
     1
 90
        0
176
     1
290
     0
176
     1
290
     1
176
     1
290
     1
176
     1
290
     0
176
     1
290
     0
176
     1
290
     0
176
     1
290
     0
176
     1
290
     0
176
     1
290
     0
176
     1
 90
       50
176
     1
 40
0.0
176
     1
 40
1.0
176
     1
 90
        0
176
     1
 62
    18
420
        0
176
     1
 90
       50
176
     1
 90
        3
176
     1
 62
     5
420
      255
176
     1
290
     0
176
     1
 90
       50
176
     1
 90
       50
176
     1
 90
       50
176
     1
290
     0
176
     1
 90
       50
176
     1
 62
   256
176
     0
 40
1.0
176
     0
 90
        2
176
     1
  1
strokes_ogs.tif
176
     1
290
     0
176
     1
 40
1.0
176
     1
 40
1.0
176
     1
  0
VISUALSTYLE
  5
3B
102
{ACAD_REACTORS
330
2A
102
}
330
2A
100
AcDbVisualStyle
  2
JitterOff
 70
    20
177
     3
291
     1
 70
    58
 90
        2
176
     0
 90
        2
176
     0
 90
        0
176
     0
 90
        0
176
     0
 40
0.6
176
     0
 40
30.0
176
     0
 62
     7
420
 16777215
176
     0
 90
        1
176
     0
 90
        4
176
     0
 62
     7
176
     0
 62
   257
176
     0
 90
        1
176
     0
 90
        1
176
     0
 40
1.0
176
     0
 90
       10
176
     2
 62
     7
176
     0
 40
1.0
176
     0
 90
        1
176
     0
 90
        6
176
     0
 90
        2
176
     0
 62
     7
176
     0
 90
        5
176
     0
 90
        0
176
     0
 90
        0
176
     0
290
     0
176
     0
 90
        1
176
     0
 40
0.0
176
     0
 90
        0
176
     0
290
     0
176
     0
290
     1
176
     0
290
     1
176
     0
290
     0
176
     0
290
     0
176
     0
290
     0
176
     0
290
     0
176
     0
290
     0
176
     0
290
     0
176
     0
 90
       50
176
     0
 40
0.0
176
     0
 40
1.0
176
     0
 90
        0
176
     0
 62
    18
420
        0
176
     0
 90
       50
176
     0
 90
        3
176
     0
 62
     5
420
      255
176
     0
290
     0
176
     0
 90
       50
176
     0
 90
       50
176
     0
 90
       50
176
     0
290
     0
176
     0
 90
       50
176
     0
 62
   256
176
     0
 40
1.0
176
     0
 90
        2
176
     0
  1
strokes_ogs.tif
176
     0
290
     0
176
     0
 40
1.0
176
     0
 40
1.0
176
     0
  0
VISUALSTYLE
  5
38
102
{ACAD_REACTORS
330
2A
102
}
330
2A
100
AcDbVisualStyle
  2
Linepattern
 70
    14
177
     3
291
     1
 70
    58
 90
        2
176
     1
 90
        2
176
     1
 90
        0
176
     1
 90
        0
176
     1
 40
0.6
176
     1
 40
30.0
176
     1
 62
     7
420
 16777215
176
     1
 90
        1
176
     1
 90
        4
176
     1
 62
     7
176
     1
 62
   257
176
     1
 90
        7
176
     1
 90
        7
176
     1
 40
1.0
176
     1
 90
        8
176
     1
 62
     7
176
     1
 40
1.0
176
     1
 90
        1
176
     1
 90
        6
176
     1
 90
        2
176
     1
 62
     7
176
     1
 90
        5
176
     1
 90
        0
176
     1
 90
        0
176
     1
290
     0
176
     1
 90
        1
176
     1
 40
0.0
176
     1
 90
        0
176
     1
290
     0
176
     1
290
     1
176
     1
290
     1
176
     1
290
     0
176
     1
290
     0
176
     1
290
     0
176
     1
290
     0
176
     1
290
     0
176
     1
290
     0
176
     1
 90
       50
176
     1
 40
0.0
176
     1
 40
1.0
176
     1
 90
        0
176
     1
 62
    18
420
        0
176
     1
 90
       50
176
     1
 90
        3
176
     1
 62
     5
420
      255
176
     1
290
     0
176
     1
 90
       50
176
     1
 90
       50
176
     1
 90
       50
176
     1
290
     0
176
     1
 90
       50
176
     1
 62
   256
176
     0
 40
1.0
176
     0
 90
        2
176
     1
  1
strokes_ogs.tif
176
     1
290
     0
176
     1
 40
1.0
176
     1
 40
1.0
176
     1
  0
VISUALSTYLE
  5
3C
102
{ACAD_REACTORS
330
2A
102
}
330
2A
100
AcDbVisualStyle
  2
OverhangOff
 70
    21
177
     3
291
     1
 70
    58
 90
        2
176
     0
 90
        2
176
     0
 90
        0
176
     0
 90
        0
176
     0
 40
0.6
176
     0
 40
30.0
176
     0
 62
     7
420
 16777215
176
     0
 90
        1
176
     0
 90
        4
176
     0
 62
     7
176
     0
 62
   257
176
     0
 90
        1
176
     0
 90
        1
176
     0
 40
1.0
176
     0
 90
        9
176
     2
 62
     7
176
     0
 40
1.0
176
     0
 90
        1
176
     0
 90
        6
176
     0
 90
        2
176
     0
 62
     7
176
     0
 90
        5
176
     0
 90
        0
176
     0
 90
        0
176
     0
290
     0
176
     0
 90
        1
176
     0
 40
0.0
176
     0
 90
        0
176
     0
290
     0
176
     0
290
     1
176
     0
290
     1
176
     0
290
     0
176
     0
290
     0
176
     0
290
     0
176
     0
290
     0
176
     0
290
     0
176
     0
290
     0
176
     0
 90
       50
176
     0
 40
0.0
176
     0
 40
1.0
176
     0
 90
        0
176
     0
 62
    18
420
        0
176
     0
 90
       50
176
     0
 90
        3
176
     0
 62
     5
420
      255
176
     0
290
     0
176
     0
 90
       50
176
     0
 90
       50
176
     0
 90
       50
176
     0
290
     0
176
     0
 90
       50
176
     0
 62
   256
176
     0
 40
1.0
176
     0
 90
        2
176
     0
  1
strokes_ogs.tif
176
     0
290
     0
176
     0
 40
1.0
176
     0
 40
1.0
176
     0
  0
VISUALSTYLE
  5
33
102
{ACAD_REACTORS
330
2A
102
}
330
2A
100
AcDbVisualStyle
  2
Realistic
 70
     8
177
     3
291
     0
 70
    58
 90
        2
176
     1
 90
        3
176
     1
 90
        0
176
     1
 90
        2
176
     1
 40
0.6
176
     1
 40
30.0
176
     1
 62
     7
420
 16777215
176
     1
 90
        0
176
     1
 90
        0
176
     1
 62
     7
176
     1
 62
   257
176
     1
 90
        1
176
     1
 90
        1
176
     1
 40
1.0
176
     1
 90
        8
176
     1
 62
   257
176
     1
 40
1.0
176
     1
 90
        1
176
     1
 90
        6
176
     1
 90
        2
176
     1
 62
     7
176
     1
 90
        3
176
     1
 90
        0
176
     1
 90
        0
176
     1
290
     0
176
     1
 90
       13
176
     1
 40
0.0
176
     1
 90
        0
176
     1
290
     0
176
     1
290
     1
176
     1
290
     1
176
     1
290
     0
176
     1
290
     0
176
     1
290
     0
176
     1
290
     0
176
     1
290
     0
176
     1
290
     0
176
     1
 90
       50
176
     1
 40
0.0
176
     1
 40
1.0
176
     1
 90
        0
176
     1
 62
    18
420
        0
176
     1
 90
       50
176
     1
 90
        3
176
     1
 62
     5
420
      255
176
     1
290
     0
176
     1
 90
       50
176
     1
 90
       50
176
     1
 90
       50
176
     1
290
     0
176
     1
 90
       50
176
     1
 62
   256
176
     0
 40
1.0
176
     0
 90
        2
176
     1
  1
strokes_ogs.tif
176
     1
290
     0
176
     1
 40
1.0
176
     1
 40
1.0
176
     1
  0
VISUALSTYLE
  5
42
102
{ACAD_REACTORS
330
2A
102
}
330
2A
100
AcDbVisualStyle
  2
Shaded
 70
    27
177
     3
291
     0
 70
    58
 90
        2
176
     1
 90
        2
176
     1
 90
        1
176
     1
 90
        2
176
     1
 40
0.6
176
     1
 40
30.0
176
     1
 62
     7
420
 16777215
176
     1
 90
        0
176
     1
 90
        4
176
     1
 62
     7
176
     1
 62
   257
176
     1
 90
        1
176
     1
 90
        1
176
     1
 40
1.0
176
     1
 90
        8
176
     1
 62
   257
176
     1
 40
1.0
176
     1
 90
        1
176
     1
 90
        6
176
     1
 90
        2
176
     1
 62
     8
420
  7895160
176
     1
 90
        3
176
     1
 90
        0
176
     1
 90
        0
176
     1
290
     0
176
     1
 90
        5
176
     1
 40
0.0
176
     1
 90
        0
176
     1
290
     0
176
     1
290
     1
176
     1
290
     1
176
     1
290
     0
176
     1
290
     0
176
     1
290
     0
176
     1
290
     0
176
     1
290
     0
176
     1
290
     0
176
     1
 90
       50
176
     1
 40
0.0
176
     1
 40
1.0
176
     1
 90
        0
176
     1
 62
    18
420
        0
176
     1
 90
       50
176
     1
 90
        3
176
     1
 62
     5
420
      255
176
     1
290
     0
176
     1
 90
       50
176
     1
 90
       50
176
     1
 90
       50
176
     1
290
     0
176
     1
 90
       50
176
     1
 62
   256
176
     0
 40
1.0
176
     0
 90
        2
176
     1
  1
strokes_ogs.tif
176
     1
290
     0
176
     1
 40
1.0
176
     1
 40
1.0
176
     1
  0
VISUALSTYLE
  5
41
102
{ACAD_REACTORS
330
2A
102
}
330
2A
100
AcDbVisualStyle
  2
Shaded with edges
 70
    26
177
     3
291
     0
 70
    58
 90
        2
176
     1
 90
        2
176
     1
 90
        1
176
     1
 90
        2
176
     1
 40
0.6
176
     1
 40
30.0
176
     1
 62
     7
420
 16777215
176
     1
 90
        1
176
     1
 90
       10
176
     1
 62
     7
176
     1
 62
   257
176
     1
 90
        2
176
     1
 90
        1
176
     1
 40
1.0
176
     1
 90
        8
176
     1
 62
   257
176
     1
 40
1.0
176
     1
 90
        1
176
     1
 90
        6
176
     1
 90
        2
176
     1
 62
     7
176
     1
 90
        3
176
     1
 90
        0
176
     1
 90
        0
176
     1
290
     0
176
     1
 90
        5
176
     1
 40
0.0
176
     1
 90
        0
176
     1
290
     0
176
     1
290
     1
176
     1
290
     1
176
     1
290
     0
176
     1
290
     0
176
     1
290
     0
176
     1
290
     0
176
     1
290
     0
176
     1
290
     0
176
     1
 90
       50
176
     1
 40
0.0
176
     1
 40
1.0
176
     1
 90
        0
176
     1
 62
    18
420
        0
176
     1
 90
       50
176
     1
 90
        3
176
     1
 62
     5
420
      255
176
     1
290
     0
176
     1
 90
       50
176
     1
 90
       50
176
     1
 90
       50
176
     1
290
     0
176
     1
 90
       50
176
     1
 62
   256
176
     0
 40
1.0
176
     0
 90
        2
176
     1
  1
strokes_ogs.tif
176
     1
290
     0
176
     1
 40
1.0
176
     1
 40
1.0
176
     1
  0
VISUALSTYLE
  5
3E
102
{ACAD_REACTORS
330
2A
102
}
330
2A
100
AcDbVisualStyle
  2
Shades of Gray
 70
    23
177
     3
291
     0
 70
    58
 90
        2
176
     1
 90
        2
176
     1
 90
        3
176
     1
 90
        0
176
     1
 40
0.6
176
     1
 40
30.0
176
     1
 62
     7
420
 16777215
176
     1
 90
        2
176
     1
 90
        2
176
     1
 62
     7
176
     1
 62
     7
176
     1
 90
        1
176
     1
 90
        1
176
     1
 40
40.0
176
     1
 90
        8
176
     1
 62
     7
176
     1
 40
1.0
176
     1
 90
        1
176
     1
 90
        6
176
     1
 90
        2
176
     1
 62
     7
176
     1
 90
        3
176
     1
 90
        0
176
     1
 90
        0
176
     1
290
     0
176
     1
 90
        1
176
     1
 40
0.0
176
     1
 90
        0
176
     1
290
     0
176
     1
290
     1
176
     1
290
     1
176
     1
290
     0
176
     1
290
     0
176
     1
290
     0
176
     1
290
     0
176
     1
290
     0
176
     1
290
     0
176
     1
 90
       50
176
     1
 40
0.0
176
     1
 40
1.0
176
     1
 90
        0
176
     1
 62
    18
420
        0
176
     1
 90
       50
176
     1
 90
        3
176
     1
 62
     5
420
      255
176
     1
290
     0
176
     1
 90
       50
176
     1
 90
       50
176
     1
 90
       50
176
     1
290
     0
176
     1
 90
       50
176
     1
 62
   256
176
     0
 40
1.0
176
     0
 90
        2
176
     1
  1
strokes_ogs.tif
176
     1
290
     0
176
     1
 40
1.0
176
     1
 40
1.0
176
     1
  0
VISUALSTYLE
  5
3F
102
{ACAD_REACTORS
330
2A
102
}
330
2A
100
AcDbVisualStyle
  2
Sketchy
 70
    24
177
     3
291
     0
 70
    58
 90
        1
176
     1
 90
        2
176
     1
 90
        2
176
     1
 90
        0
176
     1
 40
0.6
176
     1
 40
30.0
176
     1
 62
     7
420
 16777215
176
     1
 90
        2
176
     1
 90
        2
176
     1
 62
     7
176
     1
 62
     7
176
     1
 90
        1
176
     1
 90
        1
176
     1
 40
40.0
176
     1
 90
       11
176
     1
 62
     7
176
     1
 40
1.0
176
     1
 90
        1
176
     1
 90
        6
176
     1
 90
        2
176
     1
 62
     7
176
     1
 90
        6
176
     1
 90
        0
176
     1
 90
        0
176
     1
290
     0
176
     1
 90
        1
176
     1
 40
0.0
176
     1
 90
        0
176
     1
290
     0
176
     1
290
     1
176
     1
290
     1
176
     1
290
     0
176
     1
290
     0
176
     1
290
     0
176
     1
290
     0
176
     1
290
     0
176
     1
290
     0
176
     1
 90
       50
176
     1
 40
0.0
176
     1
 40
1.0
176
     1
 90
        0
176
     1
 62
    18
420
        0
176
     1
 90
       50
176
     1
 90
        3
176
     1
 62
     5
420
      255
176
     1
290
     0
176
     1
 90
       50
176
     1
 90
       50
176
     1
 90
       50
176
     1
290
     0
176
     1
 90
       50
176
     1
 62
   256
176
     0
 40
1.0
176
     0
 90
        2
176
     1
  1
strokes_ogs.tif
176
     1
290
     0
176
     1
 40
1.0
176
     1
 40
1.0
176
     1
  0
VISUALSTYLE
  5
37
102
{ACAD_REACTORS
330
2A
102
}
330
2A
100
AcDbVisualStyle
  2
Thicken
 70
    13
177
     3
291
     1
 70
    58
 90
        2
176
     1
 90
        2
176
     1
 90
        0
176
     1
 90
        0
176
     1
 40
0.6
176
     1
 40
30.0
176
     1
 62
     7
420
 16777215
176
     1
 90
        1
176
     1
 90
        4
176
     1
 62
     7
176
     1
 62
   257
176
     1
 90
        1
176
     1
 90
        1
176
     1
 40
1.0
176
     1
 90
       12
176
     1
 62
     7
176
     1
 40
1.0
176
     1
 90
        1
176
     1
 90
        6
176
     1
 90
        2
176
     1
 62
     7
176
     1
 90
        5
176
     1
 90
        0
176
     1
 90
        0
176
     1
290
     0
176
     1
 90
        1
176
     1
 40
0.0
176
     1
 90
        0
176
     1
290
     0
176
     1
290
     1
176
     1
290
     1
176
     1
290
     0
176
     1
290
     0
176
     1
290
     0
176
     1
290
     0
176
     1
290
     0
176
     1
290
     0
176
     1
 90
       50
176
     1
 40
0.0
176
     1
 40
1.0
176
     1
 90
        0
176
     1
 62
    18
420
        0
176
     1
 90
       50
176
     1
 90
        3
176
     1
 62
     5
420
      255
176
     1
290
     0
176
     1
 90
       50
176
     1
 90
       50
176
     1
 90
       50
176
     1
290
     0
176
     1
 90
       50
176
     1
 62
   256
176
     0
 40
1.0
176
     0
 90
        2
176
     1
  1
strokes_ogs.tif
176
     1
290
     0
176
     1
 40
1.0
176
     1
 40
1.0
176
     1
  0
VISUALSTYLE
  5
30
102
{ACAD_REACTORS
330
2A
102
}
330
2A
100
AcDbVisualStyle
  2
Wireframe
 70
     5
177
     3
291
     0
 70
    58
 90
        0
176
     1
 90
        2
176
     1
 90
        0
176
     1
 90
        0
176
     1
 40
0.6
176
     1
 40
30.0
176
     1
 62
     7
420
 16777215
176
     1
 90
        1
176
     1
 90
        4
176
     1
 62
     7
176
     1
 62
   257
176
     1
 90
        1
176
     1
 90
        1
176
     1
 40
1.0
176
     1
 90
        0
176
     1
 62
   257
176
     1
 40
1.0
176
     1
 90
        1
176
     1
 90
        6
176
     1
 90
        2
176
     1
 62
     7
176
     1
 90
        3
176
     1
 90
        0
176
     1
 90
        0
176
     1
290
     0
176
     1
 90
        1
176
     1
 40
0.0
176
     1
 90
        0
176
     1
290
     0
176
     1
290
     1
176
     1
290
     1
176
     1
290
     0
176
     1
290
     0
176
     1
290
     0
176
     1
290
     0
176
     1
290
     0
176
     1
290
     0
176
     1
 90
       50
176
     1
 40
0.0
176
     1
 40
1.0
176
     1
 90
        0
176
     1
 62
    18
420
        0
176
     1
 90
       50
176
     1
 90
        3
176
     1
 62
     5
420
      255
176
     1
290
     0
176
     1
 90
       50
176
     1
 90
       50
176
     1
 90
       50
176
     1
290
     0
176
     1
 90
       50
176
     1
 62
   256
176
     0
 40
1.0
176
     0
 90
        2
176
     1
  1
strokes_ogs.tif
176
     1
290
     0
176
     1
 40
1.0
176
     1
 40
1.0
176
     1
  0
VISUALSTYLE
  5
40
102
{ACAD_REACTORS
330
2A
102
}
330
2A
100
AcDbVisualStyle
  2
X-Ray
 70
    25
177
     3
291
     0
 70
    58
 90
        2
176
     1
 90
        2
176
     1
 90
        1
176
     1
 90
        1
176
     1
 40
0.5
176
     1
 40
30.0
176
     1
 62
     7
420
 16777215
176
     1
 90
        1
176
     1
 90
        0
176
     1
 62
     7
176
     1
 62
   257
176
     1
 90
        1
176
     1
 90
        1
176
     1
 40
1.0
176
     1
 90
        8
176
     1
 62
     7
176
     1
 40
1.0
176
     1
 90
        1
176
     1
 90
        6
176
     1
 90
        2
176
     1
 62
     7
176
     1
 90
        3
176
     1
 90
        0
176
     1
 90
        0
176
     1
290
     0
176
     1
 90
       13
176
     1
 40
0.0
176
     1
 90
        0
176
     1
290
     0
176
     1
290
     1
176
     1
290
     1
176
     1
290
     0
176
     1
290
     0
176
     1
290
     0
176
     1
290
     0
176
     1
290
     0
176
     1
290
     0
176
     1
 90
       50
176
     1
 40
0.0
176
     1
 40
1.0
176
     1
 90
        0
176
     1
 62
    18
420
        0
176
     1
 90
       50
176
     1
 90
        3
176
     1
 62
     5
420
      255
176
     1
290
     0
176
     1
 90
       50
176
     1
 90
       50
176
     1
 90
       50
176
     1
290
     0
176
     1
 90
       50
176
     1
 62
   256
176
     0
 40
1.0
176
     0
 90
        2
176
     1
  1
strokes_ogs.tif
176
     1
290
     0
176
     1
 40
1.0
176
     1
 40
1.0
176
     1
  0
DICTIONARYVAR
  5
251
102
{ACAD_REACTORS
330
250
102
}
330
250
100
DictionaryVariables
280
     0
  1
1:1
  0
DICTIONARYVAR
  5
256
102
{ACAD_REACTORS
330
250
102
}
330
250
100
DictionaryVariables
280
     0
  1
Standard
  0
DICTIONARYVAR
  5
255
102
{ACAD_REACTORS
330
250
102
}
330
250
100
DictionaryVariables
280
     0
  1
Standard
  0
DICTIONARY
  5
252
330
6A
100
AcDbDictionary
280
     1
281
     1
  3
ACAD_ROUNDTRIP_2008_TABLESTYLE_CELLSTYLEMAP
360
253
  0
CELLSTYLEMAP
  5
253
102
{ACAD_REACTORS
330
252
102
}
330
252
100
AcDbCellStyleMap
 90
        3
300
CELLSTYLE
  1
TABLEFORMAT_BEGIN
 90
        5
170
     1
 91
        0
 92
    32768
 62
   257
 93
        1
300
CONTENTFORMAT
  1
CONTENTFORMAT_BEGIN
 90
        0
 91
        0
 92
        4
 93
        0
300

 40
0.0
140
1.0
 94
        5
 62
     0
340
11
144
0.25
309
CONTENTFORMAT_END
171
     1
301
MARGIN
  1
CELLMARGIN_BEGIN
 40
0.06
 40
0.06
 40
0.06
 40
0.06
 40
0.06
 40
0.06
309
CELLMARGIN_END
 94
        6
 95
        1
302
GRIDFORMAT
  1
GRIDFORMAT_BEGIN
 90
        0
 91
        1
 62
     0
 92
       -2
340
14
 93
        0
 40
0.045
309
GRIDFORMAT_END
 95
        2
302
GRIDFORMAT
  1
GRIDFORMAT_BEGIN
 90
        0
 91
        1
 62
     0
 92
       -2
340
14
 93
        0
 40
0.045
309
GRIDFORMAT_END
 95
        4
302
GRIDFORMAT
  1
GRIDFORMAT_BEGIN
 90
        0
 91
        1
 62
     0
 92
       -2
340
14
 93
        0
 40
0.045
309
GRIDFORMAT_END
 95
        8
302
GRIDFORMAT
  1
GRIDFORMAT_BEGIN
 90
        0
 91
        1
 62
     0
 92
       -2
340
14
 93
        0
 40
0.045
309
GRIDFORMAT_END
 95
       16
302
GRIDFORMAT
  1
GRIDFORMAT_BEGIN
 90
        0
 91
        1
 62
     0
 92
       -2
340
14
 93
        0
 40
0.045
309
GRIDFORMAT_END
 95
       32
302
GRIDFORMAT
  1
GRIDFORMAT_BEGIN
 90
        0
 91
        1
 62
     0
 92
       -2
340
14
 93
        0
 40
0.045
309
GRIDFORMAT_END
309
TABLEFORMAT_END
  1
CELLSTYLE_BEGIN
 90
        1
 91
        1
300
_TITLE
309
CELLSTYLE_END
300
CELLSTYLE
  1
TABLEFORMAT_BEGIN
 90
        5
170
     1
 91
        0
 92
        0
 62
   257
 93
        1
300
CONTENTFORMAT
  1
CONTENTFORMAT_BEGIN
 90
        0
 91
        0
 92
        4
 93
        0
300

 40
0.0
140
1.0
 94
        5
 62
     0
340
11
144
0.18
309
CONTENTFORMAT_END
171
     1
301
MARGIN
  1
CELLMARGIN_BEGIN
 40
0.06
 40
0.06
 40
0.06
 40
0.06
 40
0.06
 40
0.06
309
CELLMARGIN_END
 94
        6
 95
        1
302
GRIDFORMAT
  1
GRIDFORMAT_BEGIN
 90
        0
 91
        1
 62
     0
 92
       -2
340
14
 93
        0
 40
0.045
309
GRIDFORMAT_END
 95
        2
302
GRIDFORMAT
  1
GRIDFORMAT_BEGIN
 90
        0
 91
        1
 62
     0
 92
       -2
340
14
 93
        0
 40
0.045
309
GRIDFORMAT_END
 95
        4
302
GRIDFORMAT
  1
GRIDFORMAT_BEGIN
 90
        0
 91
        1
 62
     0
 92
       -2
340
14
 93
        0
 40
0.045
309
GRIDFORMAT_END
 95
        8
302
GRIDFORMAT
  1
GRIDFORMAT_BEGIN
 90
        0
 91
        1
 62
     0
 92
       -2
340
14
 93
        0
 40
0.045
309
GRIDFORMAT_END
 95
       16
302
GRIDFORMAT
  1
GRIDFORMAT_BEGIN
 90
        0
 91
        1
 62
     0
 92
       -2
340
14
 93
        0
 40
0.045
309
GRIDFORMAT_END
 95
       32
302
GRIDFORMAT
  1
GRIDFORMAT_BEGIN
 90
        0
 91
        1
 62
     0
 92
       -2
340
14
 93
        0
 40
0.045
309
GRIDFORMAT_END
309
TABLEFORMAT_END
  1
CELLSTYLE_BEGIN
 90
        2
 91
        1
300
_HEADER
309
CELLSTYLE_END
300
CELLSTYLE
  1
TABLEFORMAT_BEGIN
 90
        5
170
     1
 91
        0
 92
        0
 62
   257
 93
        1
300
CONTENTFORMAT
  1
CONTENTFORMAT_BEGIN
 90
        0
 91
        0
 92
        4
 93
        0
300

 40
0.0
140
1.0
 94
        2
 62
     0
340
11
144
0.18
309
CONTENTFORMAT_END
171
     1
301
MARGIN
  1
CELLMARGIN_BEGIN
 40
0.06
 40
0.06
 40
0.06
 40
0.06
 40
0.06
 40
0.06
309
CELLMARGIN_END
 94
        6
 95
        1
302
GRIDFORMAT
  1
GRIDFORMAT_BEGIN
 90
        0
 91
        1
 62
     0
 92
       -2
340
14
 93
        0
 40
0.045
309
GRIDFORMAT_END
 95
        2
302
GRIDFORMAT
  1
GRIDFORMAT_BEGIN
 90
        0
 91
        1
 62
     0
 92
       -2
340
14
 93
        0
 40
0.045
309
GRIDFORMAT_END
 95
        4
302
GRIDFORMAT
  1
GRIDFORMAT_BEGIN
 90
        0
 91
        1
 62
     0
 92
       -2
340
14
 93
        0
 40
0.045
309
GRIDFORMAT_END
 95
        8
302
GRIDFORMAT
  1
GRIDFORMAT_BEGIN
 90
        0
 91
        1
 62
     0
 92
       -2
340
14
 93
        0
 40
0.045
309
GRIDFORMAT_END
 95
       16
302
GRIDFORMAT
  1
GRIDFORMAT_BEGIN
 90
        0
 91
        1
 62
     0
 92
       -2
340
14
 93
        0
 40
0.045
309
GRIDFORMAT_END
 95
       32
302
GRIDFORMAT
  1
GRIDFORMAT_BEGIN
 90
        0
 91
        1
 62
     0
 92
       -2
340
14
 93
        0
 40
0.045
309
GRIDFORMAT_END
309
TABLEFORMAT_END
  1
CELLSTYLE_BEGIN
 90
        3
 91
        2
300
_DATA
309
CELLSTYLE_END
  0
ENDSEC
  0
EOF