0
SECTION
  2
HEADER
  9
$ACADVER
  1
AC1027
  9
$ACADMAINTVER
 70
     8
  9
$DWGCODEPAGE
  3
ANSI_1252
  9
$REQUIREDVERSIONS
160
                 0
  9
$COMMENTS
  1
File was created by Cadenas
  9
$CUSTOMPROPERTYTAG
  1
NN
  9
$CUSTOMPROPERTY
  1
Grip Tight Wide Slot Take Up Inch Bore
  9
$CUSTOMPROPERTYTAG
  1
NT
  9
$CUSTOMPROPERTY
  1
GT Wide Slot Take-Up Bearings -(Normal Duty)
  9
$CUSTOMPROPERTYTAG
  1
NB
  9
$CUSTOMPROPERTY
  1
136130
  9
$CUSTOMPROPERTYTAG
  1
NBSYN
  9
$CUSTOMPROPERTY
  1
$PN.
  9
$CUSTOMPROPERTYTAG
  1
LINA
  9
$CUSTOMPROPERTY
  1
136130
  9
$CUSTOMPROPERTYTAG
  1
SERIES
  9
$CUSTOMPROPERTY
  1
204
  9
$CUSTOMPROPERTYTAG
  1
SS
  9
$CUSTOMPROPERTY
  1
3/4
  9
$CUSTOMPROPERTYTAG
  1
PN
  9
$CUSTOMPROPERTY
  1
136130
  9
$CUSTOMPROPERTYTAG
  1
DESCRIPTION
  9
$CUSTOMPROPERTY
  1
WSTU-GT-012
  9
$CUSTOMPROPERTYTAG
  1
A
  9
$CUSTOMPROPERTY
  1
1-15/32 
  9
$CUSTOMPROPERTYTAG
  1
B
  9
$CUSTOMPROPERTY
  1
3-11/16
  9
$CUSTOMPROPERTYTAG
  1
C
  9
$CUSTOMPROPERTY
  1
0.516 / 0.546
  9
$CUSTOMPROPERTYTAG
  1
D
  9
$CUSTOMPROPERTY
  1
2
  9
$CUSTOMPROPERTYTAG
  1
E
  9
$CUSTOMPROPERTY
  1
2-3/8
  9
$CUSTOMPROPERTYTAG
  1
F
  9
$CUSTOMPROPERTY
  1
5/8
  9
$CUSTOMPROPERTYTAG
  1
G
  9
$CUSTOMPROPERTY
  1
3/8
  9
$CUSTOMPROPERTYTAG
  1
H
  9
$CUSTOMPROPERTY
  1
5/8
  9
$CUSTOMPROPERTYTAG
  1
J
  9
$CUSTOMPROPERTY
  1
2
  9
$CUSTOMPROPERTYTAG
  1
K
  9
$CUSTOMPROPERTY
  1
1-1/4
  9
$CUSTOMPROPERTYTAG
  1
L
  9
$CUSTOMPROPERTY
  1
1-1/2
  9
$CUSTOMPROPERTYTAG
  1
M
  9
$CUSTOMPROPERTY
  1
2.985 / 3.015
  9
$CUSTOMPROPERTYTAG
  1
N
  9
$CUSTOMPROPERTY
  1
3-5/8
  9
$CUSTOMPROPERTYTAG
  1
R
  9
$CUSTOMPROPERTY
  1
31/64
  9
$CUSTOMPROPERTYTAG
  1
S
  9
$CUSTOMPROPERTY
  1
63/64
  9
$CUSTOMPROPERTYTAG
  1
T
  9
$CUSTOMPROPERTY
  1
1-3/8
  9
$CUSTOMPROPERTYTAG
  1
Z
  9
$CUSTOMPROPERTY
  1
63/64
  9
$CUSTOMPROPERTYTAG
  1
COMPANY
  9
$CUSTOMPROPERTY
  1
baldor
  9
$INSBASE
 10
0.0
 20
0.0
 30
0.0
  9
$EXTMIN
 10
1.000000000000000E+20
 20
1.000000000000000E+20
 30
1.000000000000000E+20
  9
$EXTMAX
 10
-1.000000000000000E+20
 20
-1.000000000000000E+20
 30
-1.000000000000000E+20
  9
$LIMMIN
 10
0.0
 20
0.0
  9
$LIMMAX
 10
12.0
 20
9.0
  9
$ORTHOMODE
 70
     0
  9
$REGENMODE
 70
     1
  9
$FILLMODE
 70
     1
  9
$QTEXTMODE
 70
     0
  9
$MIRRTEXT
 70
     1
  9
$LTSCALE
 40
1.0
  9
$ATTMODE
 70
     1
  9
$TEXTSIZE
 40
0.2
  9
$TRACEWID
 40
0.05
  9
$TEXTSTYLE
  7
Standard
  9
$CLAYER
  8
0
  9
$CELTYPE
  6
ByLayer
  9
$CECOLOR
 62
   256
  9
$CELTSCALE
 40
1.0
  9
$DISPSILH
 70
     0
  9
$DIMSCALE
 40
1.0
  9
$DIMASZ
 40
0.18
  9
$DIMEXO
 40
0.0625
  9
$DIMDLI
 40
0.38
  9
$DIMRND
 40
0.0
  9
$DIMDLE
 40
0.0
  9
$DIMEXE
 40
0.18
  9
$DIMTP
 40
0.0
  9
$DIMTM
 40
0.0
  9
$DIMTXT
 40
0.18
  9
$DIMCEN
 40
0.09
  9
$DIMTSZ
 40
0.0
  9
$DIMTOL
 70
     0
  9
$DIMLIM
 70
     0
  9
$DIMTIH
 70
     1
  9
$DIMTOH
 70
     1
  9
$DIMSE1
 70
     0
  9
$DIMSE2
 70
     0
  9
$DIMTAD
 70
     0
  9
$DIMZIN
 70
     0
  9
$DIMBLK
  1

  9
$DIMASO
 70
     1
  9
$DIMSHO
 70
     1
  9
$DIMPOST
  1

  9
$DIMAPOST
  1

  9
$DIMALT
 70
     0
  9
$DIMALTD
 70
     2
  9
$DIMALTF
 40
25.4
  9
$DIMLFAC
 40
1.0
  9
$DIMTOFL
 70
     0
  9
$DIMTVP
 40
0.0
  9
$DIMTIX
 70
     0
  9
$DIMSOXD
 70
     0
  9
$DIMSAH
 70
     0
  9
$DIMBLK1
  1

  9
$DIMBLK2
  1

  9
$DIMSTYLE
  2
Standard
  9
$DIMCLRD
 70
     0
  9
$DIMCLRE
 70
     0
  9
$DIMCLRT
 70
     0
  9
$DIMTFAC
 40
1.0
  9
$DIMGAP
 40
0.09
  9
$DIMJUST
 70
     0
  9
$DIMSD1
 70
     0
  9
$DIMSD2
 70
     0
  9
$DIMTOLJ
 70
     1
  9
$DIMTZIN
 70
     0
  9
$DIMALTZ
 70
     0
  9
$DIMALTTZ
 70
     0
  9
$DIMUPT
 70
     0
  9
$DIMDEC
 70
     4
  9
$DIMTDEC
 70
     4
  9
$DIMALTU
 70
     2
  9
$DIMALTTD
 70
     2
  9
$DIMTXSTY
  7
Standard
  9
$DIMAUNIT
 70
     0
  9
$DIMADEC
 70
     0
  9
$DIMALTRND
 40
0.0
  9
$DIMAZIN
 70
     0
  9
$DIMDSEP
 70
    46
  9
$DIMATFIT
 70
     3
  9
$DIMFRAC
 70
     0
  9
$DIMLDRBLK
  1

  9
$DIMLUNIT
 70
     2
  9
$DIMLWD
 70
    -2
  9
$DIMLWE
 70
    -2
  9
$DIMTMOVE
 70
     0
  9
$DIMFXL
 40
1.0
  9
$DIMFXLON
 70
     0
  9
$DIMJOGANG
 40
0.7853981633974483
  9
$DIMTFILL
 70
     0
  9
$DIMTFILLCLR
 70
     0
  9
$DIMARCSYM
 70
     0
  9
$DIMLTYPE
  6

  9
$DIMLTEX1
  6

  9
$DIMLTEX2
  6

  9
$DIMTXTDIRECTION
 70
     0
  9
$LUNITS
 70
     2
  9
$LUPREC
 70
     4
  9
$SKETCHINC
 40
0.1
  9
$FILLETRAD
 40
0.5
  9
$AUNITS
 70
     0
  9
$AUPREC
 70
     0
  9
$MENU
  1
.
  9
$ELEVATION
 40
0.0
  9
$PELEVATION
 40
0.0
  9
$THICKNESS
 40
0.0
  9
$LIMCHECK
 70
     0
  9
$CHAMFERA
 40
0.0
  9
$CHAMFERB
 40
0.0
  9
$CHAMFERC
 40
0.0
  9
$CHAMFERD
 40
0.0
  9
$SKPOLY
 70
     0
  9
$TDCREATE
 40
2458168.993891771
  9
$TDUCREATE
 40
2458168.952225104
  9
$TDUPDATE
 40
2458168.993891945
  9
$TDUUPDATE
 40
2458168.952225278
  9
$TDINDWG
 40
0.0000000116
  9
$TDUSRTIMER
 40
0.0000000116
  9
$USRTIMER
 70
     1
  9
$ANGBASE
 50
0.0
  9
$ANGDIR
 70
     0
  9
$PDMODE
 70
     0
  9
$PDSIZE
 40
0.0
  9
$PLINEWID
 40
0.0
  9
$SPLFRAME
 70
     0
  9
$SPLINETYPE
 70
     6
  9
$SPLINESEGS
 70
     8
  9
$HANDSEED
  5
25F
  9
$SURFTAB1
 70
     6
  9
$SURFTAB2
 70
     6
  9
$SURFTYPE
 70
     6
  9
$SURFU
 70
     6
  9
$SURFV
 70
     6
  9
$UCSBASE
  2

  9
$UCSNAME
  2

  9
$UCSORG
 10
0.0
 20
0.0
 30
0.0
  9
$UCSXDIR
 10
1.0
 20
0.0
 30
0.0
  9
$UCSYDIR
 10
0.0
 20
1.0
 30
0.0
  9
$UCSORTHOREF
  2

  9
$UCSORTHOVIEW
 70
     0
  9
$UCSORGTOP
 10
0.0
 20
0.0
 30
0.0
  9
$UCSORGBOTTOM
 10
0.0
 20
0.0
 30
0.0
  9
$UCSORGLEFT
 10
0.0
 20
0.0
 30
0.0
  9
$UCSORGRIGHT
 10
0.0
 20
0.0
 30
0.0
  9
$UCSORGFRONT
 10
0.0
 20
0.0
 30
0.0
  9
$UCSORGBACK
 10
0.0
 20
0.0
 30
0.0
  9
$PUCSBASE
  2

  9
$PUCSNAME
  2

  9
$PUCSORG
 10
0.0
 20
0.0
 30
0.0
  9
$PUCSXDIR
 10
1.0
 20
0.0
 30
0.0
  9
$PUCSYDIR
 10
0.0
 20
1.0
 30
0.0
  9
$PUCSORTHOREF
  2

  9
$PUCSORTHOVIEW
 70
     0
  9
$PUCSORGTOP
 10
0.0
 20
0.0
 30
0.0
  9
$PUCSORGBOTTOM
 10
0.0
 20
0.0
 30
0.0
  9
$PUCSORGLEFT
 10
0.0
 20
0.0
 30
0.0
  9
$PUCSORGRIGHT
 10
0.0
 20
0.0
 30
0.0
  9
$PUCSORGFRONT
 10
0.0
 20
0.0
 30
0.0
  9
$PUCSORGBACK
 10
0.0
 20
0.0
 30
0.0
  9
$USERI1
 70
     0
  9
$USERI2
 70
     0
  9
$USERI3
 70
     0
  9
$USERI4
 70
     0
  9
$USERI5
 70
     0
  9
$USERR1
 40
0.0
  9
$USERR2
 40
0.0
  9
$USERR3
 40
0.0
  9
$USERR4
 40
0.0
  9
$USERR5
 40
0.0
  9
$WORLDVIEW
 70
     1
  9
$SHADEDGE
 70
     3
  9
$SHADEDIF
 70
    70
  9
$TILEMODE
 70
     1
  9
$MAXACTVP
 70
    64
  9
$PINSBASE
 10
0.0
 20
0.0
 30
0.0
  9
$PLIMCHECK
 70
     0
  9
$PEXTMIN
 10
1.000000000000000E+20
 20
1.000000000000000E+20
 30
1.000000000000000E+20
  9
$PEXTMAX
 10
-1.000000000000000E+20
 20
-1.000000000000000E+20
 30
-1.000000000000000E+20
  9
$PLIMMIN
 10
0.0
 20
0.0
  9
$PLIMMAX
 10
12.0
 20
9.0
  9
$UNITMODE
 70
     0
  9
$VISRETAIN
 70
     1
  9
$PLINEGEN
 70
     0
  9
$PSLTSCALE
 70
     1
  9
$TREEDEPTH
 70
  3020
  9
$CMLSTYLE
  2
Standard
  9
$CMLJUST
 70
     0
  9
$CMLSCALE
 40
1.0
  9
$PROXYGRAPHICS
 70
     1
  9
$MEASUREMENT
 70
     0
  9
$CELWEIGHT
370
    -1
  9
$ENDCAPS
280
     0
  9
$JOINSTYLE
280
     0
  9
$LWDISPLAY
290
     0
  9
$INSUNITS
 70
     1
  9
$HYPERLINKBASE
  1

  9
$STYLESHEET
  1

  9
$XEDIT
290
     1
  9
$CEPSNTYPE
380
     0
  9
$PSTYLEMODE
290
     1
  9
$FINGERPRINTGUID
  2
{20C0278C-4084-48F5-A69B-50980AB2DEB0}
  9
$VERSIONGUID
  2
{FAEB1C32-E019-11D5-929B-00C0DF256EC4}
  9
$EXTNAMES
290
     1
  9
$PSVPSCALE
 40
0.0
  9
$OLESTARTUP
290
     0
  9
$SORTENTS
280
   127
  9
$INDEXCTL
280
     0
  9
$HIDETEXT
280
     1
  9
$XCLIPFRAME
280
     2
  9
$HALOGAP
280
     0
  9
$OBSCOLOR
 70
   257
  9
$OBSLTYPE
280
     0
  9
$INTERSECTIONDISPLAY
280
     0
  9
$INTERSECTIONCOLOR
 70
   257
  9
$DIMASSOC
280
     2
  9
$PROJECTNAME
  1

  9
$CAMERADISPLAY
290
     0
  9
$LENSLENGTH
 40
50.0
  9
$CAMERAHEIGHT
 40
0.0
  9
$STEPSPERSEC
 40
2.0
  9
$STEPSIZE
 40
6.0
  9
$3DDWFPREC
 40
2.0
  9
$PSOLWIDTH
 40
0.25
  9
$PSOLHEIGHT
 40
4.0
  9
$LOFTANG1
 40
1.570796326794897
  9
$LOFTANG2
 40
1.570796326794897
  9
$LOFTMAG1
 40
0.0
  9
$LOFTMAG2
 40
0.0
  9
$LOFTPARAM
 70
     7
  9
$LOFTNORMALS
280
     1
  9
$LATITUDE
 40
37.795
  9
$LONGITUDE
 40
-122.394
  9
$NORTHDIRECTION
 40
0.0
  9
$TIMEZONE
 70
 -8000
  9
$LIGHTGLYPHDISPLAY
280
     1
  9
$TILEMODELIGHTSYNCH
280
     1
  9
$CMATERIAL
347
44
  9
$SOLIDHIST
280
     0
  9
$SHOWHIST
280
     1
  9
$DWFFRAME
280
     2
  9
$DGNFRAME
280
     2
  9
$REALWORLDSCALE
290
     1
  9
$INTERFERECOLOR
 62
   256
  9
$CSHADOW
280
     0
  9
$SHADOWPLANELOCATION
 40
0.0
  0
ENDSEC
  0
SECTION
  2
CLASSES
  0
CLASS
  1
ACDBDICTIONARYWDFLT
  2
AcDbDictionaryWithDefault
  3
ObjectDBX Classes
 90
        0
 91
        4
280
     0
281
     0
  0
CLASS
  1
VISUALSTYLE
  2
AcDbVisualStyle
  3
ObjectDBX Classes
 90
     4095
 91
        4
280
     0
281
     0
  0
CLASS
  1
MATERIAL
  2
AcDbMaterial
  3
ObjectDBX Classes
 90
     1153
 91
        4
280
     0
281
     0
  0
CLASS
  1
SCALE
  2
AcDbScale
  3
ObjectDBX Classes
 90
     1153
 91
        4
280
     0
281
     0
  0
CLASS
  1
TABLESTYLE
  2
AcDbTableStyle
  3
ObjectDBX Classes
 90
     4095
 91
        4
280
     0
281
     0
  0
CLASS
  1
MLEADERSTYLE
  2
AcDbMLeaderStyle
  3
ACDB_MLEADERSTYLE_CLASS
 90
     4095
 91
        4
280
     0
281
     0
  0
CLASS
  1
SUN
  2
AcDbSun
  3
SCENEOE
 90
     1153
 91
        4
280
     0
281
     0
  0
CLASS
  1
DICTIONARYVAR
  2
AcDbDictionaryVar
  3
ObjectDBX Classes
 90
        0
 91
        4
280
     0
281
     0
  0
CLASS
  1
CELLSTYLEMAP
  2
AcDbCellStyleMap
  3
ObjectDBX Classes
 90
     1152
 91
        4
280
     0
281
     0
  0
ENDSEC
  0
SECTION
  2
TABLES
  0
TABLE
  2
VPORT
  5
8
330
0
100
AcDbSymbolTable
 70
     1
  0
VPORT
  5
29
330
8
100
AcDbSymbolTableRecord
100
AcDbViewportTableRecord
  2
*Active
 70
     0
 10
0.0
 20
0.0
 11
1.0
 21
1.0
 12
0.607597559620892
 22
0.0
 13
0.0
 23
0.0
 14
0.5
 24
0.5
 15
0.5
 25
0.5
 16
0.0
 26
0.0
 36
1.0
 17
0.0
 27
0.0
 37
0.0
 40
3.697492605000001
 41
1.319948813899894
 42
50.0
 43
0.0
 44
0.0
 50
0.0
 51
0.0
 71
     0
 72
   100
 73
     1
 74
     3
 75
     0
 76
     0
 77
     0
 78
     0
281
     0
 65
     1
110
0.0
120
0.0
130
0.0
111
1.0
121
0.0
131
0.0
112
0.0
122
1.0
132
0.0
 79
     0
146
0.0
348
2F
 60
     3
 61
     5
292
     1
282
     1
141
0.0
142
0.0
 63
   250
361
6D
  0
ENDTAB
  0
TABLE
  2
LTYPE
  5
5
330
0
100
AcDbSymbolTable
 70
     3
  0
LTYPE
  5
14
330
5
100
AcDbSymbolTableRecord
100
AcDbLinetypeTableRecord
  2
ByBlock
 70
     0
  3

 72
    65
 73
     0
 40
0.0
  0
LTYPE
  5
15
330
5
100
AcDbSymbolTableRecord
100
AcDbLinetypeTableRecord
  2
ByLayer
 70
     0
  3

 72
    65
 73
     0
 40
0.0
  0
LTYPE
  5
16
330
5
100
AcDbSymbolTableRecord
100
AcDbLinetypeTableRecord
  2
Continuous
 70
     0
  3
Solid line
 72
    65
 73
     0
 40
0.0
  0
LTYPE
  5
9F
330
5
100
AcDbSymbolTableRecord
100
AcDbLinetypeTableRecord
  2
Dashed
 70
     0
  3

 72
    65
 73
     2
 40
2.0
 49
1.0
 74
     0
 49
-1.0
 74
     0
  0
LTYPE
  5
C6
330
5
100
AcDbSymbolTableRecord
100
AcDbLinetypeTableRecord
  2
Center
 70
     0
  3

 72
    65
 73
     4
 40
1.5
 49
0.45
 74
     0
 49
-0.5
 74
     0
 49
0.05
 74
     0
 49
-0.5
 74
     0
  0
ENDTAB
  0
TABLE
  2
LAYER
  5
2
330
0
100
AcDbSymbolTable
 70
     7
  0
LAYER
  5
10
330
2
100
AcDbSymbolTableRecord
100
AcDbLayerTableRecord
  2
0
 70
     0
 62
     7
  6
Continuous
370
    -3
390
F
347
46
348
0
  0
LAYER
  5
72
330
2
100
AcDbSymbolTableRecord
100
AcDbLayerTableRecord
  2
AM_6
 70
     0
 62
    -2
  6
Continuous
370
    35
390
F
347
46
348
0
  0
LAYER
  5
A0
330
2
100
AcDbSymbolTableRecord
100
AcDbLayerTableRecord
  2
AM_9
 70
     0
 62
     6
  6
Dashed
370
    25
390
F
347
46
348
0
  0
LAYER
  5
BF
330
2
100
AcDbSymbolTableRecord
100
AcDbLayerTableRecord
  2
AM_5
 70
     0
 62
     3
  6
Continuous
370
    25
390
F
347
46
348
0
  0
LAYER
  5
C7
330
2
100
AcDbSymbolTableRecord
100
AcDbLayerTableRecord
  2
AM_7
 70
     0
 62
     7
  6
Center
370
    25
390
F
347
46
348
0
  0
LAYER
  5
CA
330
2
100
AcDbSymbolTableRecord
100
AcDbLayerTableRecord
  2
AM_4
 70
     0
 62
     7
  6
Continuous
370
    50
390
F
347
46
348
0
  0
LAYER
  5
24D
330
2
100
AcDbSymbolTableRecord
100
AcDbLayerTableRecord
  2
ConnectionPoints
 70
     0
 62
     7
  6
Continuous
370
    50
390
F
347
46
348
0
  0
ENDTAB
  0
TABLE
  2
STYLE
  5
3
330
0
100
AcDbSymbolTable
 70
     1
  0
STYLE
  5
11
330
3
100
AcDbSymbolTableRecord
100
AcDbTextStyleTableRecord
  2
Standard
 70
     0
 40
0.0
 41
1.0
 50
0.0
 71
     0
 42
0.2
  3
txt
  4

  0
ENDTAB
  0
TABLE
  2
VIEW
  5
6
330
0
100
AcDbSymbolTable
 70
     0
  0
ENDTAB
  0
TABLE
  2
UCS
  5
7
330
0
100
AcDbSymbolTable
 70
     0
  0
ENDTAB
  0
TABLE
  2
APPID
  5
9
330
0
100
AcDbSymbolTable
 70
     1
  0
APPID
  5
12
330
9
100
AcDbSymbolTableRecord
100
AcDbRegAppTableRecord
  2
ACAD
 70
     0
  0
ENDTAB
  0
TABLE
  2
DIMSTYLE
  5
A
330
0
100
AcDbSymbolTable
 70
     1
100
AcDbDimStyleTable
  0
DIMSTYLE
105
27
330
A
100
AcDbSymbolTableRecord
100
AcDbDimStyleTableRecord
  2
Standard
 70
     0
178
     0
340
11
  0
ENDTAB
  0
TABLE
  2
BLOCK_RECORD
  5
1
330
0
100
AcDbSymbolTable
 70
     6
  0
BLOCK_RECORD
  5
1F
330
1
100
AcDbSymbolTableRecord
100
AcDbBlockTableRecord
  2
*Model_Space
340
22
 70
     0
280
     1
281
     0
  0
BLOCK_RECORD
  5
1B
330
1
100
AcDbSymbolTableRecord
100
AcDbBlockTableRecord
  2
*Paper_Space
340
1E
 70
     0
280
     1
281
     0
  0
BLOCK_RECORD
  5
23
330
1
100
AcDbSymbolTableRecord
100
AcDbBlockTableRecord
  2
*Paper_Space0
340
26
 70
     0
280
     1
281
     0
  0
BLOCK_RECORD
  5
6E
330
1
100
AcDbSymbolTableRecord
100
AcDbBlockTableRecord
  2
1_136130_0
340
0
102
{BLKREFS
331
6F
102
}
 70
     0
280
     1
281
     0
  0
BLOCK_RECORD
  5
8E
330
1
100
AcDbSymbolTableRecord
100
AcDbBlockTableRecord
  2
2_405016_Inch_0_in_136130_0
340
0
102
{BLKREFS
331
8F
102
}
 70
     0
280
     1
281
     0
  0
BLOCK_RECORD
  5
10B
330
1
100
AcDbSymbolTableRecord
100
AcDbBlockTableRecord
  2
3_129517I_0_in_136130_0
340
0
102
{BLKREFS
331
10C
102
}
 70
     0
280
     1
281
     0
  0
BLOCK_RECORD
  5
131
330
1
100
AcDbSymbolTableRecord
100
AcDbBlockTableRecord
  2
4_129904_0_in_136130_0
340
0
102
{BLKREFS
331
132
102
}
 70
     0
280
     1
281
     0
  0
BLOCK_RECORD
  5
169
330
1
100
AcDbSymbolTableRecord
100
AcDbBlockTableRecord
  2
5_WSTU_GT_04I_0_in_136130_0
340
0
102
{BLKREFS
331
16A
102
}
 70
     0
280
     1
281
     0
  0
ENDTAB
  0
ENDSEC
  0
SECTION
  2
BLOCKS
  0
BLOCK
  5
20
330
1F
100
AcDbEntity
  8
0
100
AcDbBlockBegin
  2
*Model_Space
 70
     0
 10
0.0
 20
0.0
 30
0.0
  3
*Model_Space
  1

  0
ENDBLK
  5
21
330
1F
100
AcDbEntity
  8
0
100
AcDbBlockEnd
  0
BLOCK
  5
1C
330
1B
100
AcDbEntity
 67
     1
  8
0
100
AcDbBlockBegin
  2
*Paper_Space
 70
     0
 10
0.0
 20
0.0
 30
0.0
  3
*Paper_Space
  1

  0
ENDBLK
  5
1D
330
1B
100
AcDbEntity
 67
     1
  8
0
100
AcDbBlockEnd
  0
BLOCK
  5
24
330
23
100
AcDbEntity
  8
0
100
AcDbBlockBegin
  2
*Paper_Space0
 70
     0
 10
0.0
 20
0.0
 30
0.0
  3
*Paper_Space0
  1

  0
ENDBLK
  5
25
330
23
100
AcDbEntity
  8
0
100
AcDbBlockEnd
  0
BLOCK
  5
70
330
6E
100
AcDbEntity
  8
0
100
AcDbBlockBegin
  2
1_136130_0
 70
     2
 10
0.0
 20
0.0
 30
0.0
  3
1_136130_0
  1

  0
ATTDEF
  5
73
330
6E
100
AcDbEntity
  8
AM_6
100
AcDbText
 10
8.0
 20
1.812496375
 30
0.0
 40
0.5
  1
Grip Tight Wide Slot Take Up Inch Bore
100
AcDbAttributeDefinition
  3

  2
NN
 70
     8
280
     0
  0
ATTDEF
  5
74
330
6E
100
AcDbEntity
  8
AM_6
100
AcDbText
 10
8.0
 20
1.312496375
 30
0.0
 40
0.5
  1
GT Wide Slot Take-Up Bearings -(Normal Duty)
100
AcDbAttributeDefinition
  3

  2
NT
 70
     8
280
     0
  0
ATTDEF
  5
75
330
6E
100
AcDbEntity
  8
AM_6
100
AcDbText
 10
8.0
 20
0.812496375
 30
0.0
 40
0.5
  1
136130
100
AcDbAttributeDefinition
  3

  2
NB
 70
     8
280
     0
  0
ATTDEF
  5
76
330
6E
100
AcDbEntity
  8
AM_6
100
AcDbText
 10
8.0
 20
0.312496375
 30
0.0
 40
0.5
  1
$PN.
100
AcDbAttributeDefinition
  3

  2
NBSYN
 70
     8
280
     0
  0
ATTDEF
  5
77
330
6E
100
AcDbEntity
  8
AM_6
100
AcDbText
 10
8.0
 20
-0.187503625
 30
0.0
 40
0.5
  1
136130
100
AcDbAttributeDefinition
  3

  2
LINA
 70
     8
280
     0
  0
ATTDEF
  5
78
330
6E
100
AcDbEntity
  8
AM_6
100
AcDbText
 10
8.0
 20
-0.687503625
 30
0.0
 40
0.5
  1
204
100
AcDbAttributeDefinition
  3

  2
SERIES
 70
     8
280
     0
  0
ATTDEF
  5
79
330
6E
100
AcDbEntity
  8
AM_6
100
AcDbText
 10
8.0
 20
-1.187503625
 30
0.0
 40
0.5
  1
3/4
100
AcDbAttributeDefinition
  3

  2
SS
 70
     8
280
     0
  0
ATTDEF
  5
7A
330
6E
100
AcDbEntity
  8
AM_6
100
AcDbText
 10
8.0
 20
-1.687503625
 30
0.0
 40
0.5
  1
136130
100
AcDbAttributeDefinition
  3

  2
PN
 70
     8
280
     0
  0
ATTDEF
  5
7B
330
6E
100
AcDbEntity
  8
AM_6
100
AcDbText
 10
8.0
 20
-2.187503625
 30
0.0
 40
0.5
  1
WSTU-GT-012
100
AcDbAttributeDefinition
  3

  2
DESCRIPTION
 70
     8
280
     0
  0
ATTDEF
  5
7C
330
6E
100
AcDbEntity
  8
AM_6
100
AcDbText
 10
8.0
 20
-2.687503625
 30
0.0
 40
0.5
  1
1-15/32 
100
AcDbAttributeDefinition
  3

  2
A
 70
     8
280
     0
  0
ATTDEF
  5
7D
330
6E
100
AcDbEntity
  8
AM_6
100
AcDbText
 10
8.0
 20
-3.187503625
 30
0.0
 40
0.5
  1
3-11/16
100
AcDbAttributeDefinition
  3

  2
B
 70
     8
280
     0
  0
ATTDEF
  5
7E
330
6E
100
AcDbEntity
  8
AM_6
100
AcDbText
 10
8.0
 20
-3.687503625
 30
0.0
 40
0.5
  1
0.516 / 0.546
100
AcDbAttributeDefinition
  3

  2
C
 70
     8
280
     0
  0
ATTDEF
  5
7F
330
6E
100
AcDbEntity
  8
AM_6
100
AcDbText
 10
8.0
 20
-4.187503625
 30
0.0
 40
0.5
  1
2
100
AcDbAttributeDefinition
  3

  2
D
 70
     8
280
     0
  0
ATTDEF
  5
80
330
6E
100
AcDbEntity
  8
AM_6
100
AcDbText
 10
8.0
 20
-4.687503625
 30
0.0
 40
0.5
  1
2-3/8
100
AcDbAttributeDefinition
  3

  2
E
 70
     8
280
     0
  0
ATTDEF
  5
81
330
6E
100
AcDbEntity
  8
AM_6
100
AcDbText
 10
8.0
 20
-5.187503625
 30
0.0
 40
0.5
  1
5/8
100
AcDbAttributeDefinition
  3

  2
F
 70
     8
280
     0
  0
ATTDEF
  5
82
330
6E
100
AcDbEntity
  8
AM_6
100
AcDbText
 10
8.0
 20
-5.687503625
 30
0.0
 40
0.5
  1
3/8
100
AcDbAttributeDefinition
  3

  2
G
 70
     8
280
     0
  0
ATTDEF
  5
83
330
6E
100
AcDbEntity
  8
AM_6
100
AcDbText
 10
8.0
 20
-6.187503625
 30
0.0
 40
0.5
  1
5/8
100
AcDbAttributeDefinition
  3

  2
H
 70
     8
280
     0
  0
ATTDEF
  5
84
330
6E
100
AcDbEntity
  8
AM_6
100
AcDbText
 10
8.0
 20
-6.687503625
 30
0.0
 40
0.5
  1
2
100
AcDbAttributeDefinition
  3

  2
J
 70
     8
280
     0
  0
ATTDEF
  5
85
330
6E
100
AcDbEntity
  8
AM_6
100
AcDbText
 10
8.0
 20
-7.187503625
 30
0.0
 40
0.5
  1
1-1/4
100
AcDbAttributeDefinition
  3

  2
K
 70
     8
280
     0
  0
ATTDEF
  5
86
330
6E
100
AcDbEntity
  8
AM_6
100
AcDbText
 10
8.0
 20
-7.687503625
 30
0.0
 40
0.5
  1
1-1/2
100
AcDbAttributeDefinition
  3

  2
L
 70
     8
280
     0
  0
ATTDEF
  5
87
330
6E
100
AcDbEntity
  8
AM_6
100
AcDbText
 10
8.0
 20
-8.187503625
 30
0.0
 40
0.5
  1
2.985 / 3.015
100
AcDbAttributeDefinition
  3

  2
M
 70
     8
280
     0
  0
ATTDEF
  5
88
330
6E
100
AcDbEntity
  8
AM_6
100
AcDbText
 10
8.0
 20
-8.687503625
 30
0.0
 40
0.5
  1
3-5/8
100
AcDbAttributeDefinition
  3

  2
N
 70
     8
280
     0
  0
ATTDEF
  5
89
330
6E
100
AcDbEntity
  8
AM_6
100
AcDbText
 10
8.0
 20
-9.187503625
 30
0.0
 40
0.5
  1
31/64
100
AcDbAttributeDefinition
  3

  2
R
 70
     8
280
     0
  0
ATTDEF
  5
8A
330
6E
100
AcDbEntity
  8
AM_6
100
AcDbText
 10
8.0
 20
-9.687503625
 30
0.0
 40
0.5
  1
63/64
100
AcDbAttributeDefinition
  3

  2
S
 70
     8
280
     0
  0
ATTDEF
  5
8B
330
6E
100
AcDbEntity
  8
AM_6
100
AcDbText
 10
8.0
 20
-10.187503625
 30
0.0
 40
0.5
  1
1-3/8
100
AcDbAttributeDefinition
  3

  2
T
 70
     8
280
     0
  0
ATTDEF
  5
8C
330
6E
100
AcDbEntity
  8
AM_6
100
AcDbText
 10
8.0
 20
-10.687503625
 30
0.0
 40
0.5
  1
63/64
100
AcDbAttributeDefinition
  3

  2
Z
 70
     8
280
     0
  0
ATTDEF
  5
8D
330
6E
100
AcDbEntity
  8
AM_6
100
AcDbText
 10
8.0
 20
-11.187503625
 30
0.0
 40
0.5
  1
baldor
100
AcDbAttributeDefinition
  3

  2
COMPANY
 70
     8
280
     0
  0
INSERT
  5
8F
330
6E
100
AcDbEntity
  8
0
100
AcDbBlockReference
  2
2_405016_Inch_0_in_136130_0
 10
0.0
 20
0.0
 30
0.0
  0
INSERT
  5
10C
330
6E
100
AcDbEntity
  8
0
100
AcDbBlockReference
  2
3_129517I_0_in_136130_0
 10
0.0
 20
0.0
 30
0.0
  0
INSERT
  5
132
330
6E
100
AcDbEntity
  8
0
100
AcDbBlockReference
  2
4_129904_0_in_136130_0
 10
0.0
 20
0.0
 30
0.0
  0
INSERT
  5
16A
330
6E
100
AcDbEntity
  8
0
100
AcDbBlockReference
  2
5_WSTU_GT_04I_0_in_136130_0
 10
0.0
 20
0.0
 30
0.0
  0
ENDBLK
  5
71
330
6E
100
AcDbEntity
  8
0
100
AcDbBlockEnd
  0
BLOCK
  5
90
330
8E
100
AcDbEntity
  8
0
100
AcDbBlockBegin
  2
2_405016_Inch_0_in_136130_0
 70
     2
 10
0.0
 20
0.0
 30
0.0
  3
2_405016_Inch_0_in_136130_0
  1

  0
ATTDEF
  5
92
330
8E
100
AcDbEntity
  8
AM_6
100
AcDbText
 10
4.047014037170938
 20
-0.4481756983551584
 30
0.0
 40
0.5
  1
405016 -Inch
100
AcDbAttributeDefinition
  3

  2
NN
 70
     8
280
     0
  0
ATTDEF
  5
93
330
8E
100
AcDbEntity
  8
AM_6
100
AcDbText
 10
4.047014037170938
 20
-0.9481756983551584
 30
0.0
 40
0.5
  1
Grease Fitting
100
AcDbAttributeDefinition
  3

  2
NT
 70
     8
280
     0
  0
ATTDEF
  5
94
330
8E
100
AcDbEntity
  8
AM_6
100
AcDbText
 10
4.047014037170938
 20
-1.448175698355158
 30
0.0
 40
0.5
  1
405016-Inch
100
AcDbAttributeDefinition
  3

  2
NB
 70
     8
280
     0
  0
ATTDEF
  5
95
330
8E
100
AcDbEntity
  8
AM_6
100
AcDbText
 10
4.047014037170938
 20
-1.948175698355158
 30
0.0
 40
0.5
  1
$MN.-Inch
100
AcDbAttributeDefinition
  3

  2
NBSYN
 70
     8
280
     0
  0
ATTDEF
  5
96
330
8E
100
AcDbEntity
  8
AM_6
100
AcDbText
 10
4.047014037170938
 20
-2.448175698355159
 30
0.0
 40
0.5
  1
405016
100
AcDbAttributeDefinition
  3

  2
LINA
 70
     8
280
     0
  0
ATTDEF
  5
97
330
8E
100
AcDbEntity
  8
AM_6
100
AcDbText
 10
4.047014037170938
 20
-2.948175698355159
 30
0.0
 40
0.5
  1
405016
100
AcDbAttributeDefinition
  3

  2
MN
 70
     8
280
     0
  0
ATTDEF
  5
98
330
8E
100
AcDbEntity
  8
AM_6
100
AcDbText
 10
4.047014037170938
 20
-3.448175698355159
 30
0.0
 40
0.5
  1
7/16 HEX
100
AcDbAttributeDefinition
  3

  2
H
 70
     8
280
     0
  0
ATTDEF
  5
99
330
8E
100
AcDbEntity
  8
AM_6
100
AcDbText
 10
4.047014037170938
 20
-3.948175698355159
 30
0.0
 40
0.5
  1
0.383
100
AcDbAttributeDefinition
  3

  2
NDR
 70
     8
280
     0
  0
ATTDEF
  5
9A
330
8E
100
AcDbEntity
  8
AM_6
100
AcDbText
 10
4.047014037170938
 20
-4.448175698355159
 30
0.0
 40
0.5
  1
0.337
100
AcDbAttributeDefinition
  3

  2
KDR
 70
     8
280
     0
  0
ATTDEF
  5
9B
330
8E
100
AcDbEntity
  8
AM_6
100
AcDbText
 10
4.047014037170938
 20
-4.948175698355159
 30
0.0
 40
0.5
  1
0.1575
100
AcDbAttributeDefinition
  3

  2
BZE
 70
     8
280
     0
  0
ATTDEF
  5
9C
330
8E
100
AcDbEntity
  8
AM_6
100
AcDbText
 10
4.047014037170938
 20
-5.448175698355159
 30
0.0
 40
0.5
  1
0.4375
100
AcDbAttributeDefinition
  3

  2
HEX
 70
     8
280
     0
  0
ATTDEF
  5
9D
330
8E
100
AcDbEntity
  8
AM_6
100
AcDbText
 10
4.047014037170938
 20
-5.948175698355159
 30
0.0
 40
0.5
  1
0.281250
100
AcDbAttributeDefinition
  3

  2
HEX2
 70
     8
280
     0
  0
ATTDEF
  5
9E
330
8E
100
AcDbEntity
  8
AM_6
100
AcDbText
 10
4.047014037170938
 20
-6.448175698355159
 30
0.0
 40
0.5
  1
baldor
100
AcDbAttributeDefinition
  3

  2
COMPANY
 70
     8
280
     0
  0
LINE
  5
A1
330
8E
100
AcDbEntity
  8
AM_9
100
AcDbLine
 10
-0.952985962829062
 20
-0.7368798934801195
 30
0.0
 11
-1.114649688706286
 21
-0.4568701065198804
 31
0.0
  0
LINE
  5
A2
330
8E
100
AcDbEntity
  8
AM_9
100
AcDbLine
 10
-1.114649688706286
 20
-0.4568701065198804
 30
0.0
 11
-1.14709766171877
 21
-0.4481756983551584
 31
0.0
  0
LINE
  5
A3
330
8E
100
AcDbEntity
  8
AM_9
100
AcDbLine
 10
-0.9616803709937839
 20
-0.7693278664926033
 30
0.0
 11
-0.952985962829062
 21
-0.7368798934801195
 31
0.0
  0
ARC
  5
A4
330
8E
100
AcDbEntity
  8
AM_9
100
AcDbCircle
 10
-1.504719139081357
 20
-0.8687500000034021
 30
0.0
 40
0.1999999999951078
100
AcDbArc
 50
165.9477892176377
 51
254.0374591435522
  0
LINE
  5
A5
330
8E
100
AcDbEntity
  8
AM_9
100
AcDbLine
 10
-0.9616803709937839
 20
-0.7693278664926033
 30
0.0
 11
-1.14709766171877
 21
-0.4481756983551584
 31
0.0
  0
LINE
  5
A6
330
8E
100
AcDbEntity
  8
AM_9
100
AcDbLine
 10
-1.14709766171877
 20
-0.4481756983551584
 30
0.0
 11
-1.319016499770634
 21
-0.5403964063755988
 31
0.0
  0
LINE
  5
A7
330
8E
100
AcDbEntity
  8
AM_9
100
AcDbLine
 10
-1.127505265920405
 20
-0.8721035936244009
 30
0.0
 11
-0.9616803709937839
 21
-0.7693278664926033
 31
0.0
  0
LINE
  5
A8
330
8E
100
AcDbEntity
  8
AM_9
100
AcDbLine
 10
-1.650128780659603
 20
-1.04645229571137
 30
0.0
 11
-1.66145035388348
 21
-1.052988809059826
 31
0.0
  0
LINE
  5
A9
330
8E
100
AcDbEntity
  8
AM_9
100
AcDbLine
 10
-1.731318662264394
 20
-0.9058272957113702
 30
0.0
 11
-1.742640235488271
 21
-0.9123638090598257
 31
0.0
  0
LWPOLYLINE
  5
AA
330
8E
100
AcDbEntity
  8
AM_9
100
AcDbPolyline
 90
        5
 70
     0
 43
0.0
 10
-1.731318662264394
 20
-0.9058272957113702
 10
-1.698648207621733
 20
-0.9546172121093315
 10
-1.683101315717993
 20
-0.9809488772646098
 10
-1.668675626443299
 20
-1.007845324422914
 10
-1.650128780659603
 20
-1.04645229571137
  0
LINE
  5
AB
330
8E
100
AcDbEntity
  8
AM_9
100
AcDbLine
 10
-1.44968493120074
 20
-0.9640720441933269
 30
0.0
 11
-1.559804754829224
 21
-0.7733389147482687
 31
0.0
  0
ELLIPSE
  5
AC
330
8E
100
AcDbEntity
  8
AM_9
100
AcDbEllipse
 10
-1.57533527457076
 20
-0.9095202448373408
 30
0.0
 11
-0.07031249999999997
 21
0.1217848224071866
 31
0.0
210
0.0
220
0.0
230
1.0
 40
0.9063077870366507
 41
5.859216366485141
 42
9.848746901463826
  0
LWPOLYLINE
  5
AD
330
8E
100
AcDbEntity
  8
AM_9
100
AcDbPolyline
 90
        5
 70
     0
 43
0.0
 10
-1.650128780659603
 20
-1.04645229571137
 10
-1.592050404445948
 20
-1.046835121917566
 10
-1.563232657653335
 20
-1.047908211919086
 10
-1.535573192285449
 20
-1.049613121169831
 10
-1.498953934621106
 20
-1.052921457656344
  0
LWPOLYLINE
  5
AE
330
8E
100
AcDbEntity
  8
AM_9
100
AcDbPolyline
 90
        5
 70
     0
 43
0.0
 10
-1.661333697830688
 20
-0.7716714576563437
 10
-1.682986661022228
 20
-0.8177068843635378
 10
-1.695772239627276
 20
-0.8425844966946624
 10
-1.709596561788727
 20
-0.8680186897126437
 10
-1.731318662264394
 20
-0.9058272957113702
  0
LWPOLYLINE
  5
AF
330
8E
100
AcDbEntity
  8
AM_9
100
AcDbPolyline
 90
        5
 70
     0
 43
0.0
 10
-1.460150038891502
 20
-0.945945945966246
 10
-1.468117503967695
 20
-0.9614599760063108
 10
-1.478873577401877
 20
-0.9756079756306697
 10
-1.49151662892432
 20
-0.9872059434157929
 10
-1.501926154544373
 20
-0.9941545281051566
  0
LWPOLYLINE
  5
B0
330
8E
100
AcDbEntity
  8
AM_9
100
AcDbPolyline
 90
       12
 70
     0
 43
0.0
 10
-1.460150038891502
 20
-0.945945945966246
 10
-1.455195378419435
 20
-0.929951216295605
 10
-1.453567265670578
 20
-0.8971278251052953
 10
-1.456855612831937
 20
-0.87943328717911
 10
-1.462801165865998
 20
-0.8622076332075926
 10
-1.471299058842638
 20
-0.8457713197667046
 10
-1.482025854162494
 20
-0.8307270462991153
 10
-1.494617064381745
 20
-0.8176348217275874
 10
-1.508847606242468
 20
-0.8067458498463314
 10
-1.524606404519593
 20
-0.7983835159361695
 10
-1.541453989890257
 20
-0.7929534871441516
 10
-1.549288239259422
 20
-0.7915540540337536
  0
LINE
  5
B1
330
8E
100
AcDbEntity
  8
AM_9
100
AcDbLine
 10
-1.611916365184804
 20
-0.8036232881288918
 30
0.0
 11
-1.63033527457076
 21
-0.8142574504210526
 31
0.0
  0
LINE
  5
B2
330
8E
100
AcDbEntity
  8
AM_9
100
AcDbLine
 10
-1.52033527457076
 20
-1.004783039253629
 30
0.0
 11
-1.501916436543648
 21
-0.9941489181605158
 31
0.0
  0
LWPOLYLINE
  5
B3
330
8E
100
AcDbEntity
  8
AM_9
100
AcDbPolyline
 90
        3
 70
     0
 43
0.0
 10
-1.623611631294749
 20
-0.8115765622400697
 10
-1.616785702751646
 20
-0.8066313720298789
 10
-1.611924055587393
 20
-0.8036277286414942
  0
LWPOLYLINE
  5
B4
330
8E
100
AcDbEntity
  8
AM_9
100
AcDbPolyline
 90
       20
 70
     0
 43
0.0
 10
-1.501926154544373
 20
-0.9941545281051566
 10
-1.506407052070162
 20
-0.996584802540261
 10
-1.522308928877042
 20
-1.002962011960484
 10
-1.53966989869876
 20
-1.006511709638181
 10
-1.557025375829005
 20
-1.006934256104104
 10
-1.574883087413294
 20
-1.004240967168627
 10
-1.591712848913368
 20
-0.998667196040507
 10
-1.608029592814073
 20
-0.9900472390764891
 10
-1.622428643673907
 20
-0.9791309914909218
 10
-1.635360996539654
 20
-0.9655862126550239
 10
-1.645720724699355
 20
-0.9505802713177414
 10
-1.653830899516052
 20
-0.9336582867497737
 10
-1.659007540706893
 20
-0.9162547030275384
 10
-1.661407477151042
 20
-0.897857393511457
 10
-1.660829893193915
 20
-0.8799974551200028
 10
-1.657258189384791
 20
-0.8621724816066244
 10
-1.650980642117128
 20
-0.8458460564441002
 10
-1.641823043054407
 20
-0.8305788727646308
 10
-1.630526853892396
 20
-0.8176204784891934
 10
-1.623611631294749
 20
-0.8115765622400697
  0
LWPOLYLINE
  5
B5
330
8E
100
AcDbEntity
  8
AM_9
100
AcDbPolyline
 90
        5
 70
     0
 43
0.0
 10
-1.611924055587393
 20
-0.8036277286414942
 10
-1.601724213012164
 20
-0.7985189428626642
 10
-1.584930790192504
 20
-0.7930704774364151
 10
-1.567531454038508
 20
-0.7907309397560726
 10
-1.549288239259405
 20
-0.7915540540337612
  0
ELLIPSE
  5
B6
330
8E
100
AcDbEntity
  8
AM_9
100
AcDbEllipse
 10
-1.575335274570761
 20
-0.9095202448373407
 30
0.0
 11
-0.07031250000000046
 21
0.1217848224071878
 31
0.0
210
0.0
220
0.0
230
1.0
 40
0.9063077870366507
 41
3.764821264091951
 42
4.571432719802701
  0
ELLIPSE
  5
B7
330
8E
100
AcDbEntity
  8
AM_9
100
AcDbEllipse
 10
-1.575335274570761
 20
-0.9095202448373438
 30
0.0
 11
-0.07031250000001797
 21
0.12178482240718
 31
0.0
210
0.0
220
0.0
230
1.0
 40
0.9063077870366886
 41
4.853345240966593
 42
5.659956696677309
  0
LWPOLYLINE
  5
B8
330
8E
100
AcDbEntity
  8
AM_9
100
AcDbPolyline
 90
        5
 70
     0
 43
0.0
 10
-1.66145035388348
 20
-1.052988809059826
 10
-1.683388400030204
 20
-1.019782427593056
 10
-1.704208829312099
 20
-0.9855624091789144
 10
-1.72419572896924
 20
-0.9492176844201169
 10
-1.742640235488271
 20
-0.9123638090598257
  0
LWPOLYLINE
  5
B9
330
8E
100
AcDbEntity
  8
AM_9
100
AcDbPolyline
 90
        4
 70
     0
 43
0.0
 10
-1.558479068350534
 20
-1.05904498204178
 10
-1.587617516239998
 20
-1.058052555641742
 10
-1.62537879148503
 20
-1.05591027073816
 10
-1.66145035388348
 20
-1.052988809059826
  0
LWPOLYLINE
  5
BA
330
8E
100
AcDbEntity
  8
AM_9
100
AcDbPolyline
 90
        4
 70
     0
 43
0.0
 10
-1.742640235488271
 20
-0.9123638090598257
 10
-1.727693740366779
 20
-0.8808084709099016
 10
-1.711333845202521
 20
-0.8482477243283275
 10
-1.696374062552384
 20
-0.8201134433254889
  0
ELLIPSE
  5
BB
330
8E
100
AcDbEntity
  8
AM_9
100
AcDbEllipse
 10
-1.593635182109293
 20
-0.9200857013808583
 30
0.0
 11
-0.07031250000000003
 21
0.1217848224071867
 31
0.0
210
0.0
220
0.0
230
1.0
 40
0.9063077870366499
 41
0.2380991073786163
 42
2.908153401456417
  0
LWPOLYLINE
  5
BC
330
8E
100
AcDbEntity
  8
AM_9
100
AcDbPolyline
 90
       21
 70
     0
 43
0.0
 10
-1.535999892354075
 20
-0.9157854951508754
 10
-1.534621582310722
 20
-0.9202787191416554
 10
-1.531373212755358
 20
-0.9353222956453936
 10
-1.530182386742392
 20
-0.9502570665374168
 10
-1.531014539788745
 20
-0.9647266116097731
 10
-1.53378480570054
 20
-0.9784151244941625
 10
-1.538379806209378
 20
-0.9910622772091618
 10
-1.544689443522372
 20
-1.002468300008412
 10
-1.552644422885429
 20
-1.012480450087154
 10
-1.562241083826915
 20
-1.020949141590934
 10
-1.573501782004083
 20
-1.027651942738365
 10
-1.586302920075796
 20
-1.032245870473564
 10
-1.600035835799737
 20
-1.034381347949947
 10
-1.614146869052103
 20
-1.034015983503582
 10
-1.628255487279942
 20
-1.03125361463693
 10
-1.642075068482145
 20
-1.026220853532509
 10
-1.655328822603708
 20
-1.01905106426272
 10
-1.667727887283262
 20
-1.00990591972279
 10
-1.678981107800308
 20
-0.9989927515624017
 10
-1.68881336112883
 20
-0.986570725948377
 10
-1.694158540914947
 20
-0.978122889647148
  0
LWPOLYLINE
  5
BD
330
8E
100
AcDbEntity
  8
AM_9
100
AcDbPolyline
 90
       21
 70
     0
 43
0.0
 10
-1.694158540914947
 20
-0.978122889647148
 10
-1.697412038616519
 20
-0.9721086956955973
 10
-1.703608838575016
 20
-0.9576072366882831
 10
-1.70781905692676
 20
-0.9426425918688959
 10
-1.70997662014272
 20
-0.9276104867549582
 10
-1.710087740565694
 20
-0.9128799711071447
 10
-1.708215723200993
 20
-0.8987881558082246
 10
-1.704463912599552
 20
-0.8856228466306167
 10
-1.698948468214125
 20
-0.8736119889523538
 10
-1.691762450763917
 20
-0.8629271055828129
 10
-1.682941123613652
 20
-0.8537114581039716
 10
-1.672462042380537
 20
-0.8461428256655709
 10
-1.660350560031829
 20
-0.8405091725709333
 10
-1.646977899668095
 20
-0.8371930931803738
 10
-1.632987506396502
 20
-0.8363879440772289
 10
-1.618839033344854
 20
-0.8380361525049128
 10
-1.604849243881375
 20
-0.8420145106634169
 10
-1.591293498307976
 20
-0.8481948459955165
 10
-1.578455027655703
 20
-0.8564316359541869
 10
-1.566625983588566
 20
-0.8665405085334904
 10
-1.566082589875455
 20
-0.8670749061835874
  0
ELLIPSE
  5
BE
330
8E
100
AcDbEntity
  8
AM_9
100
AcDbEllipse
 10
-1.644636085373278
 20
-0.9495310866092339
 30
0.0
 11
0.06659694825923297
 21
-0.1153492980140274
 31
0.0
210
0.0
220
0.0
230
1.0
 40
0.90630778703665
 41
0.0
 42
6.283185307179586
  0
LINE
  5
C0
330
8E
100
AcDbEntity
  8
AM_5
100
AcDbLine
 10
-1.103177174699979
 20
-0.8299661035794529
 30
0.0
 11
-0.952985962829062
 21
-0.7368798934801195
 31
0.0
  0
LINE
  5
C1
330
8E
100
AcDbEntity
  8
AM_5
100
AcDbLine
 10
-1.127505265920405
 20
-0.8721035936244014
 30
0.0
 11
-1.103177174699979
 21
-0.8299661035794529
 31
0.0
  0
LINE
  5
C2
330
8E
100
AcDbEntity
  8
AM_5
100
AcDbLine
 10
-1.091671560274867
 20
-0.8498944123360447
 30
0.0
 11
-1.281865931754895
 21
-0.5204680976190069
 31
0.0
  0
LINE
  5
C3
330
8E
100
AcDbEntity
  8
AM_5
100
AcDbLine
 10
-1.270360317329783
 20
-0.5403964063755988
 30
0.0
 11
-1.114649688706286
 21
-0.4568701065198804
 31
0.0
  0
LINE
  5
C4
330
8E
100
AcDbEntity
  8
AM_5
100
AcDbLine
 10
-1.319016499770635
 20
-0.5403964063755987
 30
0.0
 11
-1.270360317329783
 21
-0.5403964063755988
 31
0.0
  0
ELLIPSE
  5
C5
330
8E
100
AcDbEntity
  8
AM_9
100
AcDbEllipse
 10
-1.57533527457076
 20
-0.9095202448373407
 30
0.0
 11
-0.05500000000000016
 21
0.09526279441628827
 31
0.0
210
0.0
220
0.0
230
1.0
 40
0.9063077870366507
 41
0.0
 42
6.283185307179586
  0
LINE
  5
C8
330
8E
100
AcDbEntity
  8
AM_7
100
AcDbLine
 10
-1.714719139075465
 20
-0.8687499999999977
 30
0.0
 11
-1.294719139075461
 21
-0.8687499999999977
 31
0.0
  0
LINE
  5
C9
330
8E
100
AcDbEntity
  8
AM_7
100
AcDbLine
 10
-1.504719139075463
 20
-1.07875
 30
0.0
 11
-1.504719139075463
 21
-0.6587499999999956
 31
0.0
  0
LINE
  5
CB
330
8E
100
AcDbEntity
  8
AM_4
100
AcDbLine
 10
-1.268146657894623
 20
-0.9847555570778459
 30
0.0
 11
-1.243373514820776
 21
-1.009528700151693
 31
0.0
  0
LINE
  5
CC
330
8E
100
AcDbEntity
  8
AM_4
100
AcDbLine
 10
-1.268146657894623
 20
-0.9847555570778459
 30
0.0
 11
-1.486896657894623
 21
-0.6058694429221538
 31
0.0
  0
LINE
  5
CD
330
8E
100
AcDbEntity
  8
AM_4
100
AcDbLine
 10
-1.495964257591238
 20
-0.5720287001516927
 30
0.0
 11
-1.486896657894623
 21
-0.6058694429221538
 31
0.0
  0
LINE
  5
CE
330
8E
100
AcDbEntity
  8
AM_4
100
AcDbLine
 10
-1.181544117516179
 20
-0.9347555570778459
 30
0.0
 11
-1.400294117516179
 21
-0.5558694429221539
 31
0.0
  0
LINE
  5
CF
330
8E
100
AcDbEntity
  8
AM_4
100
AcDbLine
 10
-1.400294117516179
 20
-0.5558694429221539
 30
0.0
 11
-1.425067260590026
 21
-0.5310962998483071
 31
0.0
  0
LINE
  5
D0
330
8E
100
AcDbEntity
  8
AM_4
100
AcDbLine
 10
-1.172476517819565
 20
-0.968596299848307
 30
0.0
 11
-1.181544117516179
 21
-0.9347555570778459
 31
0.0
  0
ARC
  5
D1
330
8E
100
AcDbEntity
  8
AM_4
100
AcDbCircle
 10
-1.504719139075463
 20
-0.8687499999999978
 30
0.0
 40
0.2000000000000018
100
AcDbArc
 50
254.0374591421972
 51
299.9999999999998
  0
ARC
  5
D2
330
8E
100
AcDbEntity
  8
AM_4
100
AcDbCircle
 10
-1.504719139075459
 20
-0.8687500000000022
 30
0.0
 40
0.2000000000000035
100
AcDbArc
 50
120.0000000000004
 51
165.9477892189928
  0
LINE
  5
D3
330
8E
100
AcDbEntity
  8
AM_4
100
AcDbLine
 10
-1.32326088284552
 20
-0.5330449192431121
 30
0.0
 11
-1.390919117516179
 21
-0.5721074192431123
 31
0.0
  0
LINE
  5
D4
330
8E
100
AcDbEntity
  8
AM_4
100
AcDbLine
 10
-1.190919117516179
 20
-0.9185175807568875
 30
0.0
 11
-1.12326088284552
 21
-0.8794550807568876
 31
0.0
  0
LINE
  5
D5
330
8E
100
AcDbEntity
  8
AM_4
100
AcDbLine
 10
-1.559804754829224
 20
-0.7733389147482687
 30
0.0
 11
-1.604719139075462
 21
-0.6955449192431121
 31
0.0
  0
LINE
  5
D6
330
8E
100
AcDbEntity
  8
AM_4
100
AcDbLine
 10
-1.477521657894623
 20
-0.6221074192431121
 30
0.0
 11
-1.604719139075462
 21
-0.6955449192431121
 31
0.0
  0
LINE
  5
D7
330
8E
100
AcDbEntity
  8
AM_4
100
AcDbLine
 10
-1.404719139075463
 20
-1.041955080756888
 30
0.0
 11
-1.277521657894623
 21
-0.9685175807568875
 31
0.0
  0
LINE
  5
D8
330
8E
100
AcDbEntity
  8
AM_4
100
AcDbLine
 10
-1.404719139075463
 20
-1.041955080756888
 30
0.0
 11
-1.44968493120074
 21
-0.9640720441933269
 31
0.0
  0
LWPOLYLINE
  5
D9
330
8E
100
AcDbEntity
  8
AM_4
100
AcDbPolyline
 90
        4
 70
     0
 43
0.0
 10
-1.361919574897411
 20
-0.6404712998483071
 10
-1.344066842086556
 20
-0.664222765773117
 10
-1.31642514161999
 20
-0.7039864268392669
 10
-1.290919117516179
 20
-0.7453124999999998
  0
LWPOLYLINE
  5
DA
330
8E
100
AcDbEntity
  8
AM_4
100
AcDbPolyline
 90
        3
 70
     0
 43
0.0
 10
-1.306521200513392
 20
-0.9001537001516927
 10
-1.343714810604463
 20
-0.8490386272510403
 10
-1.377521657894623
 20
-0.7953124999999999
  0
LWPOLYLINE
  5
DB
330
8E
100
AcDbEntity
  8
AM_4
100
AcDbPolyline
 90
        3
 70
     0
 43
0.0
 10
-1.290919117516179
 20
-0.7453124999999998
 10
-1.261418003230641
 20
-0.8011966903925173
 10
-1.23562420351218
 20
-0.8592212998483072
  0
LWPOLYLINE
  5
DC
330
8E
100
AcDbEntity
  8
AM_4
100
AcDbPolyline
 90
        4
 70
     0
 43
0.0
 10
-1.377521657894623
 20
-0.7953124999999999
 10
-1.400493922330124
 20
-0.7526882493985289
 10
-1.421173565436044
 20
-0.7087403532552732
 10
-1.432816571898622
 20
-0.6814037001516926
  0
LINE
  5
DD
330
8E
100
AcDbEntity
  8
AM_4
100
AcDbLine
 10
-1.306521200513392
 20
-0.9001537001516927
 30
0.0
 11
-1.23562420351218
 21
-0.8592212998483072
 31
0.0
  0
LWPOLYLINE
  5
DE
330
8E
100
AcDbEntity
  8
AM_4
100
AcDbPolyline
 90
        3
 70
     0
 43
0.0
 10
-1.2828001293557
 20
-0.959375
 10
-1.296514322218084
 20
-0.9308345596074825
 10
-1.306521200513392
 20
-0.9001537001516927
  0
LWPOLYLINE
  5
DF
330
8E
100
AcDbEntity
  8
AM_4
100
AcDbPolyline
 90
        3
 70
     0
 43
0.0
 10
-1.243373514820776
 20
-1.009528700151693
 10
-1.264851185738399
 20
-0.9856344323881151
 10
-1.2828001293557
 20
-0.959375
  0
LINE
  5
E0
330
8E
100
AcDbEntity
  8
AM_4
100
AcDbLine
 10
-1.243373514820776
 20
-1.009528700151693
 30
0.0
 11
-1.172476517819565
 21
-0.968596299848307
 31
0.0
  0
LWPOLYLINE
  5
E1
330
8E
100
AcDbEntity
  8
AM_4
100
AcDbPolyline
 90
        3
 70
     0
 43
0.0
 10
-1.196197588977256
 20
-0.9093749999999999
 10
-1.182483396114872
 20
-0.9379154403925172
 10
-1.172476517819565
 20
-0.968596299848307
  0
LWPOLYLINE
  5
E2
330
8E
100
AcDbEntity
  8
AM_4
100
AcDbPolyline
 90
        3
 70
     0
 43
0.0
 10
-1.23562420351218
 20
-0.8592212998483072
 10
-1.214146532594558
 20
-0.8831155676118847
 10
-1.196197588977256
 20
-0.9093749999999999
  0
LINE
  5
E3
330
8E
100
AcDbEntity
  8
AM_4
100
AcDbLine
 10
-1.495964257591238
 20
-0.5720287001516927
 30
0.0
 11
-1.425067260590026
 21
-0.5310962998483071
 31
0.0
  0
LWPOLYLINE
  5
E4
330
8E
100
AcDbEntity
  8
AM_4
100
AcDbPolyline
 90
        3
 70
     0
 43
0.0
 10
-1.472243186433546
 20
-0.6312499999999999
 10
-1.48595737929593
 20
-0.6027095596074825
 10
-1.495964257591238
 20
-0.5720287001516927
  0
LWPOLYLINE
  5
E5
330
8E
100
AcDbEntity
  8
AM_4
100
AcDbPolyline
 90
        3
 70
     0
 43
0.0
 10
-1.432816571898622
 20
-0.6814037001516926
 10
-1.454294242816244
 20
-0.6575094323881151
 10
-1.472243186433546
 20
-0.6312499999999999
  0
LINE
  5
E6
330
8E
100
AcDbEntity
  8
AM_4
100
AcDbLine
 10
-1.432816571898622
 20
-0.6814037001516926
 30
0.0
 11
-1.361919574897411
 21
-0.6404712998483071
 31
0.0
  0
LWPOLYLINE
  5
E7
330
8E
100
AcDbEntity
  8
AM_4
100
AcDbPolyline
 90
        3
 70
     0
 43
0.0
 10
-1.385640646055102
 20
-0.5812499999999998
 10
-1.371926453192718
 20
-0.6097904403925172
 10
-1.361919574897411
 20
-0.6404712998483071
  0
LWPOLYLINE
  5
E8
330
8E
100
AcDbEntity
  8
AM_4
100
AcDbPolyline
 90
        3
 70
     0
 43
0.0
 10
-1.425067260590026
 20
-0.5310962998483071
 10
-1.403589589672404
 20
-0.5549905676118846
 10
-1.385640646055102
 20
-0.5812499999999998
  0
LINE
  5
E9
330
8E
100
AcDbEntity
  8
AM_4
100
AcDbLine
 10
-1.510641180840651
 20
-1.059669092407283
 30
0.0
 11
-1.558479068350534
 21
-1.05904498204178
 31
0.0
  0
LINE
  5
EA
330
8E
100
AcDbEntity
  8
AM_4
100
AcDbLine
 10
-1.696374062552384
 20
-0.8201134433254889
 30
0.0
 11
-1.673020944050233
 21
-0.7784190924072835
 31
0.0
  0
LWPOLYLINE
  5
EB
330
8E
100
AcDbEntity
  8
AM_4
100
AcDbPolyline
 90
        3
 70
     0
 43
0.0
 10
-1.510157318492829
 20
-0.7781397343505176
 10
-1.538219618461673
 20
-0.7754888430145476
 10
-1.568007723299659
 20
-0.7734375924132664
  0
LINE
  5
EC
330
8E
100
AcDbEntity
  8
AM_4
100
AcDbLine
 10
-1.568007723299659
 20
-0.7734375924132664
 30
0.0
 11
-1.594016532325643
 21
-0.7723026668938883
 31
0.0
  0
LWPOLYLINE
  5
ED
330
8E
100
AcDbEntity
  8
AM_4
100
AcDbPolyline
 90
        3
 70
     0
 43
0.0
 10
-1.594016532325643
 20
-0.7723026668938883
 10
-1.617006567017883
 20
-0.7717603698475838
 10
-1.661333697830688
 20
-0.7716714576563437
  0
LINE
  5
EE
330
8E
100
AcDbEntity
  8
AM_4
100
AcDbLine
 10
-1.661333697830688
 20
-0.7716714576563437
 30
0.0
 11
-1.673020944050233
 21
-0.7784190924072835
 31
0.0
  0
LWPOLYLINE
  5
EF
330
8E
100
AcDbEntity
  8
AM_4
100
AcDbPolyline
 90
        3
 70
     0
 43
0.0
 10
-1.673020944050233
 20
-0.7784190924072835
 10
-1.643341122816431
 20
-0.7808984915217362
 10
-1.612316439864175
 20
-0.7828681234374057
  0
LWPOLYLINE
  5
F0
330
8E
100
AcDbEntity
  8
AM_4
100
AcDbPolyline
 90
        3
 70
     0
 43
0.0
 10
-1.498953934621106
 20
-1.052921457656344
 10
-1.481980252287583
 20
-1.023589189975666
 10
-1.4658419951034
 20
-0.9943074775994406
  0
LINE
  5
F1
330
8E
100
AcDbEntity
  8
AM_4
100
AcDbLine
 10
-1.4658419951034
 20
-0.9943074775994406
 30
0.0
 11
-1.453820464921593
 21
-0.9712157255010712
 31
0.0
  0
LWPOLYLINE
  5
F2
330
8E
100
AcDbEntity
  8
AM_4
100
AcDbPolyline
 90
        3
 70
     0
 43
0.0
 10
-1.453820464921593
 20
-0.9712157255010712
 10
-1.444655478345035
 20
-0.9526716112135014
 10
-1.428967436888038
 20
-0.9187647343505178
  0
LWPOLYLINE
  5
F3
330
8E
100
AcDbEntity
  8
AM_4
100
AcDbPolyline
 90
        3
 70
     0
 43
0.0
 10
-1.484141902641933
 20
-1.004872934142958
 10
-1.497877080406506
 20
-1.032577936735335
 10
-1.510641180840651
 20
-1.059669092407283
  0
LINE
  5
F4
330
8E
100
AcDbEntity
  8
AM_4
100
AcDbLine
 10
-1.498953934621106
 20
-1.052921457656344
 30
0.0
 11
-1.510641180840651
 21
-1.059669092407283
 31
0.0
  0
LWPOLYLINE
  5
F5
330
8E
100
AcDbEntity
  8
AM_4
100
AcDbPolyline
 90
        3
 70
     0
 43
0.0
 10
-1.441023086199016
 20
-0.9257250667254666
 10
-1.456910370762112
 20
-0.9538261834951972
 10
-1.472120372460126
 20
-0.9817811820445894
  0
LWPOLYLINE
  5
F6
330
8E
100
AcDbEntity
  8
AM_4
100
AcDbPolyline
 90
        3
 70
     0
 43
0.0
 10
-1.586307630838192
 20
-0.784003048956784
 10
-1.554657079984168
 20
-0.7848055934942604
 10
-1.522212967803807
 20
-0.7851000667254666
  0
LWPOLYLINE
  5
F7
330
8E
100
AcDbEntity
  8
AM_4
100
AcDbPolyline
 90
        3
 70
     0
 43
0.0
 10
-1.428967436888038
 20
-0.9187647343505178
 10
-1.441963324737649
 20
-0.8911409589556474
 10
-1.456177224851889
 20
-0.8635370384185166
  0
LINE
  5
F8
330
8E
100
AcDbEntity
  8
AM_4
100
AcDbLine
 10
-1.456177224851889
 20
-0.8635370384185166
 30
0.0
 11
-1.475933624805157
 21
-0.8293179499247961
 31
0.0
  0
LWPOLYLINE
  5
F9
330
8E
100
AcDbEntity
  8
AM_4
100
AcDbPolyline
 90
        3
 70
     0
 43
0.0
 10
-1.475933624805157
 20
-0.8293179499247961
 10
-1.485182260219051
 20
-0.8146612730526003
 10
-1.510157318492829
 20
-0.7781397343505176
  0
LINE
  5
FA
330
8E
100
AcDbEntity
  8
AM_4
100
AcDbLine
 10
-1.510157318492829
 20
-0.7781397343505176
 30
0.0
 11
-1.522212967803807
 21
-0.7851000667254666
 31
0.0
  0
LINE
  5
FB
330
8E
100
AcDbEntity
  8
AM_4
100
AcDbLine
 10
-1.522212967803807
 20
-0.7851000667254666
 30
0.0
 11
-1.494233532343692
 21
-0.8398834064683195
 31
0.0
  0
LINE
  5
FC
330
8E
100
AcDbEntity
  8
AM_4
100
AcDbLine
 10
-1.474477132390422
 20
-0.874102494962034
 30
0.0
 11
-1.441023086199016
 21
-0.9257250667254666
 31
0.0
  0
LINE
  5
FD
330
8E
100
AcDbEntity
  8
AM_4
100
AcDbLine
 10
-1.428967436888038
 20
-0.9187647343505178
 30
0.0
 11
-1.441023086199016
 21
-0.9257250667254666
 31
0.0
  0
LINE
  5
FE
330
8E
100
AcDbEntity
  8
AM_4
100
AcDbLine
 10
-1.612316439864175
 20
-0.7828681234374057
 30
0.0
 11
-1.586307630838192
 21
-0.784003048956784
 31
0.0
  0
ELLIPSE
  5
FF
330
8E
100
AcDbEntity
  8
AM_4
100
AcDbEllipse
 10
-1.593635182109293
 20
-0.9200857013808572
 30
0.0
 11
-0.07031249999999577
 21
0.1217848224071898
 31
0.0
210
0.0
220
0.0
230
1.0
 40
0.9063077870366488
 41
2.908153401456453
 42
3.565561594284274
  0
ELLIPSE
  5
100
330
8E
100
AcDbEntity
  8
AM_4
100
AcDbEllipse
 10
-1.593635182109292
 20
-0.9200857013808609
 30
0.0
 11
-0.07031249999999976
 21
0.1217848224071897
 31
0.0
210
0.0
220
0.0
230
1.0
 40
0.9063077870366513
 41
5.859216366485152
 42
6.521284414558209
  0
LINE
  5
101
330
8E
100
AcDbEntity
  8
AM_4
100
AcDbLine
 10
-1.472120372460126
 20
-0.9817811820445894
 30
0.0
 11
-1.484141902641933
 21
-1.004872934142958
 31
0.0
  0
ELLIPSE
  5
102
330
8E
100
AcDbEntity
  8
AM_4
100
AcDbEllipse
 10
-1.593635182109292
 20
-0.9200857013808583
 30
0.0
 11
-0.07031249999999953
 21
0.1217848224071861
 31
0.0
210
0.0
220
0.0
230
1.0
 40
0.9063077870366493
 41
3.764821264091939
 42
4.571432719802708
  0
LINE
  5
103
330
8E
100
AcDbEntity
  8
AM_4
100
AcDbLine
 10
-1.494233532343692
 20
-0.8398834064683195
 30
0.0
 11
-1.474477132390422
 21
-0.874102494962034
 31
0.0
  0
ELLIPSE
  5
104
330
8E
100
AcDbEntity
  8
AM_4
100
AcDbEllipse
 10
-1.593635182109294
 20
-0.920085701380859
 30
0.0
 11
-0.07031250000000043
 21
0.1217848224071872
 31
0.0
210
0.0
220
0.0
230
1.0
 40
0.9063077870366512
 41
4.853345240966675
 42
5.659956696677436
  0
LINE
  5
105
330
8E
100
AcDbEntity
  8
AM_4
100
AcDbLine
 10
-1.777250563244036
 20
-0.9904169489818838
 30
0.0
 11
-1.776753946690748
 21
-0.9918892796840295
 31
0.0
  0
LWPOLYLINE
  5
106
330
8E
100
AcDbEntity
  8
AM_4
100
AcDbPolyline
 90
        6
 70
     0
 43
0.0
 10
-1.781592023549539
 20
-0.9135950782540747
 10
-1.782615653816237
 20
-0.918695919763204
 10
-1.784702766420141
 20
-0.937236631528616
 10
-1.784326708589398
 20
-0.956099299800588
 10
-1.781486798190387
 20
-0.9749358314609261
 10
-1.777250563244036
 20
-0.9904169489818838
  0
LWPOLYLINE
  5
107
330
8E
100
AcDbEntity
  8
AM_4
100
AcDbPolyline
 90
       36
 70
     0
 43
0.0
 10
-1.672732268146895
 20
-1.088680848435373
 10
-1.666291165180642
 20
-1.090059984152428
 10
-1.648009836380799
 20
-1.092191267344407
 10
-1.62981091373244
 20
-1.091712260502778
 10
-1.61204459035417
 20
-1.088643355798743
 10
-1.595046530275493
 20
-1.083057526298709
 10
-1.579129939651631
 20
-1.075074833506098
 10
-1.564580646440769
 20
-1.064855759144259
 10
-1.551657950508001
 20
-1.052598432429321
 10
-1.540587821619791
 20
-1.038530885812324
 10
-1.531562442759327
 20
-1.022905570540259
 10
-1.52474197814228
 20
-1.005999663865623
 10
-1.52025208922465
 20
-0.9881139231755456
 10
-1.518180196133054
 20
-0.9695701509816325
 10
-1.51857161858486
 20
-0.9507065632671311
 10
-1.521426754037027
 20
-0.93187129214746
 10
-1.526699950148273
 20
-0.9134148896892798
 10
-1.534300079945925
 20
-0.8956827976788612
 10
-1.544092379961733
 20
-0.8790084269570834
 10
-1.555900896050069
 20
-0.8637071423270577
 10
-1.569509708713576
 20
-0.8500720455675429
 10
-1.584668505422891
 20
-0.838365262502397
 10
-1.601094747350085
 20
-0.8288144937895747
 10
-1.618477700874145
 20
-0.8216072163234664
 10
-1.636483917590963
 20
-0.8168848127048842
 10
-1.654764648346315
 20
-0.8147373520834853
 10
-1.672965175336398
 20
-0.8152001362916264
 10
-1.690735245028709
 20
-0.8182531121066873
 10
-1.707739075718094
 20
-0.823823618571343
 10
-1.723663303167864
 20
-0.8317918665969491
 10
-1.73822192018905
 20
-0.8419976056119379
 10
-1.751155468134909
 20
-0.8542429406686644
 10
-1.762237741703675
 20
-0.8682999859625357
 10
-1.771276362910535
 20
-0.8839164468102659
 10
-1.778110962528442
 20
-0.9008152969452539
 10
-1.781592023549539
 20
-0.9135950782540747
  0
ELLIPSE
  5
108
330
8E
100
AcDbEntity
  8
AM_4
100
AcDbEllipse
 10
-1.655311066850611
 20
-0.9556942900387678
 30
0.0
 11
-0.06957427803572805
 21
0.1205061844578026
 31
0.0
210
0.0
220
0.0
230
1.0
 40
0.9063077870366533
 41
1.358241915021735
 42
1.570796326794897
  0
ELLIPSE
  5
109
330
8E
100
AcDbEntity
  8
AM_4
100
AcDbEllipse
 10
-1.655311066850623
 20
-0.9556942900387739
 30
0.0
 11
-0.06957427803572025
 21
0.1205061844577909
 31
0.0
210
0.0
220
0.0
230
1.0
 40
0.9063077870366498
 41
1.570796326794897
 42
7.64142722220131
  0
ELLIPSE
  5
10A
330
8E
100
AcDbEntity
  8
AM_4
100
AcDbEllipse
 10
-1.683304729048106
 20
-0.971856438444094
 30
0.0
 11
0.05174132036229489
 21
-0.08961859571819301
 31
0.0
210
0.0
220
0.0
230
1.0
 40
0.9063077870366497
 41
0.0
 42
6.283185307179586
  0
ENDBLK
  5
91
330
8E
100
AcDbEntity
  8
0
100
AcDbBlockEnd
  0
BLOCK
  5
10D
330
10B
100
AcDbEntity
  8
0
100
AcDbBlockBegin
  2
3_129517I_0_in_136130_0
 70
     2
 10
0.0
 20
0.0
 30
0.0
  3
3_129517I_0_in_136130_0
  1

  0
ATTDEF
  5
10F
330
10B
100
AcDbEntity
  8
AM_6
100
AcDbText
 10
5.97146
 20
0.9714600000000001
 30
0.0
 40
0.5
  1
INS-GT B
100
AcDbAttributeDefinition
  3

  2
NN
 70
     8
280
     0
  0
ATTDEF
  5
110
330
10B
100
AcDbEntity
  8
AM_6
100
AcDbText
 10
5.97146
 20
0.4714600000000001
 30
0.0
 40
0.5
  1
GT Normal Duty Bearing Inserts
100
AcDbAttributeDefinition
  3

  2
NT
 70
     8
280
     0
  0
ATTDEF
  5
111
330
10B
100
AcDbEntity
  8
AM_6
100
AcDbText
 10
5.97146
 20
-0.0285399999999999
 30
0.0
 40
0.5
  1
129517I
100
AcDbAttributeDefinition
  3

  2
NB
 70
     8
280
     0
  0
ATTDEF
  5
112
330
10B
100
AcDbEntity
  8
AM_6
100
AcDbText
 10
5.97146
 20
-0.5285399999999999
 30
0.0
 40
0.5
  1
$PN.I
100
AcDbAttributeDefinition
  3

  2
NBSYN
 70
     8
280
     0
  0
ATTDEF
  5
113
330
10B
100
AcDbEntity
  8
AM_6
100
AcDbText
 10
5.97146
 20
-1.02854
 30
0.0
 40
0.5
  1
129517
100
AcDbAttributeDefinition
  3

  2
LINA
 70
     8
280
     0
  0
ATTDEF
  5
114
330
10B
100
AcDbEntity
  8
AM_6
100
AcDbText
 10
5.97146
 20
-1.52854
 30
0.0
 40
0.5
  1
204
100
AcDbAttributeDefinition
  3

  2
SERIES
 70
     8
280
     0
  0
ATTDEF
  5
115
330
10B
100
AcDbEntity
  8
AM_6
100
AcDbText
 10
5.97146
 20
-2.02854
 30
0.0
 40
0.5
  1
129517
100
AcDbAttributeDefinition
  3

  2
PN
 70
     8
280
     0
  0
ATTDEF
  5
116
330
10B
100
AcDbEntity
  8
AM_6
100
AcDbText
 10
5.97146
 20
-2.52854
 30
0.0
 40
0.5
  1
INS-GT-04
100
AcDbAttributeDefinition
  3

  2
DESCRIPTION
 70
     8
280
     0
  0
ATTDEF
  5
117
330
10B
100
AcDbEntity
  8
AM_6
100
AcDbText
 10
5.97146
 20
-3.02854
 30
0.0
 40
0.5
  1
1.48
100
AcDbAttributeDefinition
  3

  2
A
 70
     8
280
     0
  0
ATTDEF
  5
118
330
10B
100
AcDbEntity
  8
AM_6
100
AcDbText
 10
5.97146
 20
-3.52854
 30
0.0
 40
0.5
  1
0.58
100
AcDbAttributeDefinition
  3

  2
C
 70
     8
280
     0
  0
ATTDEF
  5
119
330
10B
100
AcDbEntity
  8
AM_6
100
AcDbText
 10
5.97146
 20
-4.02854
 30
0.0
 40
0.5
  1
1.8504
100
AcDbAttributeDefinition
  3

  2
D
 70
     8
280
     0
  0
ATTDEF
  5
11A
330
10B
100
AcDbEntity
  8
AM_6
100
AcDbText
 10
5.97146
 20
-4.52854
 30
0.0
 40
0.5
  1
0.15
100
AcDbAttributeDefinition
  3

  2
J
 70
     8
280
     0
  0
ATTDEF
  5
11B
330
10B
100
AcDbEntity
  8
AM_6
100
AcDbText
 10
5.97146
 20
-5.02854
 30
0.0
 40
0.5
  1
1.50
100
AcDbAttributeDefinition
  3

  2
L
 70
     8
280
     0
  0
ATTDEF
  5
11C
330
10B
100
AcDbEntity
  8
AM_6
100
AcDbText
 10
5.97146
 20
-5.52854
 30
0.0
 40
0.5
  1
#10 - 32 x 1/4
100
AcDbAttributeDefinition
  3

  2
N
 70
     8
280
     0
  0
ATTDEF
  5
11D
330
10B
100
AcDbEntity
  8
AM_6
100
AcDbText
 10
5.97146
 20
-6.02854
 30
0.0
 40
0.5
  1
0.46000
100
AcDbAttributeDefinition
  3

  2
W
 70
     8
280
     0
  0
ATTDEF
  5
11E
330
10B
100
AcDbEntity
  8
AM_6
100
AcDbText
 10
5.97146
 20
-6.52854
 30
0.0
 40
0.5
  1
1.03
100
AcDbAttributeDefinition
  3

  2
X
 70
     8
280
     0
  0
ATTDEF
  5
11F
330
10B
100
AcDbEntity
  8
AM_6
100
AcDbText
 10
5.97146
 20
-7.02854
 30
0.0
 40
0.5
  1
1.02
100
AcDbAttributeDefinition
  3

  2
Y
 70
     8
280
     0
  0
ATTDEF
  5
120
330
10B
100
AcDbEntity
  8
AM_6
100
AcDbText
 10
5.97146
 20
-7.52854
 30
0.0
 40
0.5
  1
baldor
100
AcDbAttributeDefinition
  3

  2
COMPANY
 70
     8
280
     0
  0
CIRCLE
  5
121
330
10B
100
AcDbEntity
  8
AM_9
100
AcDbCircle
 10
0.0
 20
0.0
 30
0.0
 40
0.5874690896124627
  0
CIRCLE
  5
122
330
10B
100
AcDbEntity
  8
AM_9
100
AcDbCircle
 10
0.0
 20
0.0
 30
0.0
 40
0.9252
  0
CIRCLE
  5
123
330
10B
100
AcDbEntity
  8
AM_9
100
AcDbCircle
 10
0.0
 20
0.0
 30
0.0
 40
0.9106332965183636
  0
CIRCLE
  5
124
330
10B
100
AcDbEntity
  8
AM_9
100
AcDbCircle
 10
0.0
 20
0.0
 30
0.0
 40
0.9163653359683859
  0
CIRCLE
  5
125
330
10B
100
AcDbEntity
  8
AM_9
100
AcDbCircle
 10
0.0
 20
0.0
 30
0.0
 40
0.8672
  0
CIRCLE
  5
126
330
10B
100
AcDbEntity
  8
AM_9
100
AcDbCircle
 10
0.0
 20
0.0
 30
0.0
 40
0.895963133720252
  0
CIRCLE
  5
127
330
10B
100
AcDbEntity
  8
AM_9
100
AcDbCircle
 10
0.0
 20
0.0
 30
0.0
 40
0.6130952166666666
  0
CIRCLE
  5
128
330
10B
100
AcDbEntity
  8
AM_9
100
AcDbCircle
 10
0.0
 20
0.0
 30
0.0
 40
0.6666666666666666
  0
ARC
  5
129
330
10B
100
AcDbEntity
  8
AM_9
100
AcDbCircle
 10
0.0000000000000002
 20
0.0
 30
0.0
 40
0.5595237666666666
100
AcDbArc
 50
95.10973881521504
 51
84.93251768337984
  0
CIRCLE
  5
12A
330
10B
100
AcDbEntity
  8
AM_9
100
AcDbCircle
 10
0.0
 20
0.0
 30
0.0
 40
0.6434666666666665
  0
LINE
  5
12B
330
10B
100
AcDbEntity
  8
AM_7
100
AcDbLine
 10
-0.9714600000000001
 20
0.0
 30
0.0
 11
0.9714600000000001
 21
0.0
 31
0.0
  0
LINE
  5
12C
330
10B
100
AcDbEntity
  8
AM_7
100
AcDbLine
 10
0.0
 20
-0.9714600000000001
 30
0.0
 11
0.0
 21
0.9714600000000001
 31
0.0
  0
CIRCLE
  5
12D
330
10B
100
AcDbEntity
  8
AM_4
100
AcDbCircle
 10
0.0
 20
0.0
 30
0.0
 40
0.9015814525863005
  0
CIRCLE
  5
12E
330
10B
100
AcDbEntity
  8
AM_4
100
AcDbCircle
 10
0.0
 20
0.0
 30
0.0
 40
0.8731562055337044
  0
CIRCLE
  5
12F
330
10B
100
AcDbEntity
  8
AM_4
100
AcDbCircle
 10
0.0
 20
0.0
 30
0.0
 40
0.8515575530557445
  0
ARC
  5
130
330
10B
100
AcDbEntity
  8
AM_4
100
AcDbCircle
 10
-0.0000000000000004
 20
0.0000000000000024
 30
0.0
 40
0.5595237666666641
100
AcDbArc
 50
84.93251768337976
 51
95.10973881521501
  0
ENDBLK
  5
10E
330
10B
100
AcDbEntity
  8
0
100
AcDbBlockEnd
  0
BLOCK
  5
133
330
131
100
AcDbEntity
  8
0
100
AcDbBlockBegin
  2
4_129904_0_in_136130_0
 70
     2
 10
0.0
 20
0.0
 30
0.0
  3
4_129904_0_in_136130_0
  1

  0
ATTDEF
  5
135
330
131
100
AcDbEntity
  8
AM_6
100
AcDbText
 10
5.746139397163827
 20
0.7499773726724237
 30
0.0
 40
0.5
  1
Grip Tight Normal Duty Adapter and Nut Inch Bore
100
AcDbAttributeDefinition
  3

  2
NN
 70
     8
280
     0
  0
ATTDEF
  5
136
330
131
100
AcDbEntity
  8
AM_6
100
AcDbText
 10
5.746139397163827
 20
0.2499773726724237
 30
0.0
 40
0.5
  1
GT and GTM Adapter & Lock Nut Assemblies
100
AcDbAttributeDefinition
  3

  2
NT
 70
     8
280
     0
  0
ATTDEF
  5
137
330
131
100
AcDbEntity
  8
AM_6
100
AcDbText
 10
5.746139397163827
 20
-0.2500226273275763
 30
0.0
 40
0.5
  1
129904
100
AcDbAttributeDefinition
  3

  2
NB
 70
     8
280
     0
  0
ATTDEF
  5
138
330
131
100
AcDbEntity
  8
AM_6
100
AcDbText
 10
5.746139397163827
 20
-0.7500226273275763
 30
0.0
 40
0.5
  1
$PN.
100
AcDbAttributeDefinition
  3

  2
NBSYN
 70
     8
280
     0
  0
ATTDEF
  5
139
330
131
100
AcDbEntity
  8
AM_6
100
AcDbText
 10
5.746139397163827
 20
-1.250022627327576
 30
0.0
 40
0.5
  1
129904
100
AcDbAttributeDefinition
  3

  2
LINA
 70
     8
280
     0
  0
ATTDEF
  5
13A
330
131
100
AcDbEntity
  8
AM_6
100
AcDbText
 10
5.746139397163827
 20
-1.750022627327576
 30
0.0
 40
0.5
  1
204
100
AcDbAttributeDefinition
  3

  2
SERIES
 70
     8
280
     0
  0
ATTDEF
  5
13B
330
131
100
AcDbEntity
  8
AM_6
100
AcDbText
 10
5.746139397163827
 20
-2.250022627327576
 30
0.0
 40
0.5
  1
3/4
100
AcDbAttributeDefinition
  3

  2
SS
 70
     8
280
     0
  0
ATTDEF
  5
13C
330
131
100
AcDbEntity
  8
AM_6
100
AcDbText
 10
5.746139397163827
 20
-2.750022627327576
 30
0.0
 40
0.5
  1
129904
100
AcDbAttributeDefinition
  3

  2
PN
 70
     8
280
     0
  0
ATTDEF
  5
13D
330
131
100
AcDbEntity
  8
AM_6
100
AcDbText
 10
5.746139397163827
 20
-3.250022627327576
 30
0.0
 40
0.5
  1
AN-GT-04-012
100
AcDbAttributeDefinition
  3

  2
DESCRIPTION
 70
     8
280
     0
  0
ATTDEF
  5
13E
330
131
100
AcDbEntity
  8
AM_6
100
AcDbText
 10
5.746139397163827
 20
-3.750022627327576
 30
0.0
 40
0.5
  1
1-15/32
100
AcDbAttributeDefinition
  3

  2
A
 70
     8
280
     0
  0
ATTDEF
  5
13F
330
131
100
AcDbEntity
  8
AM_6
100
AcDbText
 10
5.746139397163827
 20
-4.250022627327576
 30
0.0
 40
0.5
  1
0.5906
100
AcDbAttributeDefinition
  3

  2
C
 70
     8
280
     0
  0
ATTDEF
  5
140
330
131
100
AcDbEntity
  8
AM_6
100
AcDbText
 10
5.746139397163827
 20
-4.750022627327576
 30
0.0
 40
0.5
  1
1.8504
100
AcDbAttributeDefinition
  3

  2
D
 70
     8
280
     0
  0
ATTDEF
  5
141
330
131
100
AcDbEntity
  8
AM_6
100
AcDbText
 10
5.746139397163827
 20
-5.250022627327576
 30
0.0
 40
0.5
  1
0.152
100
AcDbAttributeDefinition
  3

  2
J
 70
     8
280
     0
  0
ATTDEF
  5
142
330
131
100
AcDbEntity
  8
AM_6
100
AcDbText
 10
5.746139397163827
 20
-5.750022627327576
 30
0.0
 40
0.5
  1
1-1/2
100
AcDbAttributeDefinition
  3

  2
L
 70
     8
280
     0
  0
ATTDEF
  5
143
330
131
100
AcDbEntity
  8
AM_6
100
AcDbText
 10
5.746139397163827
 20
-6.250022627327576
 30
0.0
 40
0.5
  1
10 - 32 x 1/4
100
AcDbAttributeDefinition
  3

  2
N
 70
     8
280
     0
  0
ATTDEF
  5
144
330
131
100
AcDbEntity
  8
AM_6
100
AcDbText
 10
5.746139397163827
 20
-6.750022627327576
 30
0.0
 40
0.5
  1
31/64
100
AcDbAttributeDefinition
  3

  2
W
 70
     8
280
     0
  0
ATTDEF
  5
145
330
131
100
AcDbEntity
  8
AM_6
100
AcDbText
 10
5.746139397163827
 20
-7.250022627327576
 30
0.0
 40
0.5
  1
63/64
100
AcDbAttributeDefinition
  3

  2
X
 70
     8
280
     0
  0
ATTDEF
  5
146
330
131
100
AcDbEntity
  8
AM_6
100
AcDbText
 10
5.746139397163827
 20
-7.750022627327576
 30
0.0
 40
0.5
  1
63/64
100
AcDbAttributeDefinition
  3

  2
Y
 70
     8
280
     0
  0
ATTDEF
  5
147
330
131
100
AcDbEntity
  8
AM_6
100
AcDbText
 10
5.746139397163827
 20
-8.250022627327576
 30
0.0
 40
0.5
  1
baldor
100
AcDbAttributeDefinition
  3

  2
COMPANY
 70
     8
280
     0
  0
LINE
  5
148
330
131
100
AcDbEntity
  8
AM_9
100
AcDbLine
 10
0.05
 20
0.5595494500621679
 30
0.0
 11
0.05
 21
0.5872043456905109
 31
0.0
  0
LINE
  5
149
330
131
100
AcDbEntity
  8
AM_9
100
AcDbLine
 10
-0.05
 20
0.5595494500621679
 30
0.0
 11
-0.05
 21
0.5872043456905109
 31
0.0
  0
ARC
  5
14A
330
131
100
AcDbEntity
  8
AM_9
100
AcDbCircle
 10
0.0
 20
0.0
 30
0.0
 40
0.5893292319220396
100
AcDbArc
 50
94.86695193339413
 51
85.13304806660588
  0
LINE
  5
14B
330
131
100
AcDbEntity
  8
AM_9
100
AcDbLine
 10
-0.72745
 20
-0.0724499999999999
 30
0.0
 11
-0.58505
 21
-0.0724499999999999
 31
0.0
  0
LINE
  5
14C
330
131
100
AcDbEntity
  8
AM_9
100
AcDbLine
 10
-0.58505
 20
0.0724499999999999
 30
0.0
 11
-0.72745
 21
0.0724499999999999
 31
0.0
  0
LINE
  5
14D
330
131
100
AcDbEntity
  8
AM_9
100
AcDbLine
 10
-0.58505
 20
-0.0724499999999999
 30
0.0
 11
-0.5625
 21
-0.0949999999999999
 31
0.0
  0
LINE
  5
14E
330
131
100
AcDbEntity
  8
AM_9
100
AcDbLine
 10
-0.5625
 20
0.0949999999999999
 30
0.0
 11
-0.58505
 21
0.0724499999999999
 31
0.0
  0
LINE
  5
14F
330
131
100
AcDbEntity
  8
AM_9
100
AcDbLine
 10
-0.5625
 20
0.0949999999999999
 30
0.0
 11
-0.5625
 21
-0.0949999999999999
 31
0.0
  0
LINE
  5
150
330
131
100
AcDbEntity
  8
AM_9
100
AcDbLine
 10
-0.58505
 20
0.0724499999999999
 30
0.0
 11
-0.58505
 21
-0.0724499999999999
 31
0.0
  0
LINE
  5
151
330
131
100
AcDbEntity
  8
AM_9
100
AcDbLine
 10
-0.72745
 20
0.0724499999999999
 30
0.0
 11
-0.7441138012251568
 21
0.0891138012251568
 31
0.0
  0
LINE
  5
152
330
131
100
AcDbEntity
  8
AM_9
100
AcDbLine
 10
-0.7440666154562215
 20
-0.0890666154562216
 30
0.0
 11
-0.72745
 21
-0.0724499999999999
 31
0.0
  0
LINE
  5
153
330
131
100
AcDbEntity
  8
AM_9
100
AcDbLine
 10
-0.72745
 20
0.0724499999999999
 30
0.0
 11
-0.72745
 21
-0.0724499999999999
 31
0.0
  0
LINE
  5
154
330
131
100
AcDbEntity
  8
AM_5
100
AcDbLine
 10
-0.7439590042468738
 20
-0.0949999999999999
 30
0.0
 11
-0.5625
 21
-0.0949999999999999
 31
0.0
  0
LINE
  5
155
330
131
100
AcDbEntity
  8
AM_5
100
AcDbLine
 10
-0.7439590042468738
 20
0.0950000000000001
 30
0.0
 11
-0.5625
 21
0.0950000000000001
 31
0.0
  0
LINE
  5
156
330
131
100
AcDbEntity
  8
AM_4
100
AcDbLine
 10
-0.2841820058122558
 20
0.6442176726636606
 30
0.0
 11
-0.3072517678942966
 21
0.6841756727082814
 31
0.0
  0
LINE
  5
157
330
131
100
AcDbEntity
  8
AM_4
100
AcDbLine
 10
0.7461393971638276
 20
0.076
 30
0.0
 11
0.6999998729997459
 21
0.076
 31
0.0
  0
ARC
  5
158
330
131
100
AcDbEntity
  8
AM_4
100
AcDbCircle
 10
-0.0000000000000001
 20
-0.0000000000000002
 30
0.0
 40
0.7500000000000001
100
AcDbArc
 50
5.815954904688717
 51
114.1840450953113
  0
LINE
  5
159
330
131
100
AcDbEntity
  8
AM_4
100
AcDbLine
 10
-0.4158178671874901
 20
-0.5682176726636607
 30
0.0
 11
-0.4388876292695311
 21
-0.6081756727082814
 31
0.0
  0
LINE
  5
15A
330
131
100
AcDbEntity
  8
AM_4
100
AcDbLine
 10
-0.4388876292695315
 20
0.6081756727082812
 30
0.0
 11
-0.4158178671874905
 21
0.5682176726636604
 31
0.0
  0
ARC
  5
15B
330
131
100
AcDbEntity
  8
AM_4
100
AcDbCircle
 10
0.0000000000000003
 20
0.0000000000000001
 30
0.0
 40
0.7500000000000001
100
AcDbArc
 50
125.8159549046888
 51
234.1840450953113
  0
LINE
  5
15C
330
131
100
AcDbEntity
  8
AM_4
100
AcDbLine
 10
-0.3072517678942964
 20
-0.6841756727082815
 30
0.0
 11
-0.2841820058122556
 21
-0.6442176726636608
 31
0.0
  0
LINE
  5
15D
330
131
100
AcDbEntity
  8
AM_4
100
AcDbLine
 10
0.6999998729997459
 20
-0.076
 30
0.0
 11
0.7461393971638274
 21
-0.076
 31
0.0
  0
ARC
  5
15E
330
131
100
AcDbEntity
  8
AM_4
100
AcDbCircle
 10
-0.0000000000000004
 20
0.0000000000000002
 30
0.0
 40
0.7500000000000001
100
AcDbArc
 50
245.8159549046888
 51
354.1840450953113
  0
LINE
  5
15F
330
131
100
AcDbEntity
  8
AM_4
100
AcDbLine
 10
0.05
 20
0.5595238095238095
 30
0.0
 11
0.05
 21
0.3716517186829625
 31
0.0
  0
ARC
  5
160
330
131
100
AcDbEntity
  8
AM_4
100
AcDbCircle
 10
0.0
 20
0.0
 30
0.0
 40
0.3749999999999999
100
AcDbArc
 50
97.66225566076608
 51
82.33774433923394
  0
LINE
  5
161
330
131
100
AcDbEntity
  8
AM_4
100
AcDbLine
 10
-0.05
 20
0.5595238095238095
 30
0.0
 11
-0.05
 21
0.3716517186829625
 31
0.0
  0
LINE
  5
162
330
131
100
AcDbEntity
  8
AM_4
100
AcDbLine
 10
0.05
 20
0.5595238095238095
 30
0.0
 11
-0.05
 21
0.5595238095238095
 31
0.0
  0
LINE
  5
163
330
131
100
AcDbEntity
  8
AM_4
100
AcDbLine
 10
0.6999998729997459
 20
0.076
 30
0.0
 11
0.6999998729997459
 21
-0.076
 31
0.0
  0
ARC
  5
164
330
131
100
AcDbEntity
  8
AM_4
100
AcDbCircle
 10
0.0000000000000001
 20
0.0000000000000003
 30
0.0
 40
0.7263759999999998
100
AcDbArc
 50
6.005792526651968
 51
113.9942074733481
  0
LINE
  5
165
330
131
100
AcDbEntity
  8
AM_4
100
AcDbLine
 10
-0.4158178671874905
 20
0.5682176726636604
 30
0.0
 11
-0.2841820058122558
 21
0.6442176726636606
 31
0.0
  0
ARC
  5
166
330
131
100
AcDbEntity
  8
AM_4
100
AcDbCircle
 10
0.0000000000000002
 20
0.0
 30
0.0
 40
0.7263760000000001
100
AcDbArc
 50
126.005792526652
 51
233.9942074733481
  0
LINE
  5
167
330
131
100
AcDbEntity
  8
AM_4
100
AcDbLine
 10
-0.2841820058122556
 20
-0.6442176726636608
 30
0.0
 11
-0.4158178671874901
 21
-0.5682176726636607
 31
0.0
  0
ARC
  5
168
330
131
100
AcDbEntity
  8
AM_4
100
AcDbCircle
 10
-0.0000000000000002
 20
0.0
 30
0.0
 40
0.7263759999999999
100
AcDbArc
 50
246.0057925266519
 51
353.9942074733482
  0
ENDBLK
  5
134
330
131
100
AcDbEntity
  8
0
100
AcDbBlockEnd
  0
BLOCK
  5
16B
330
169
100
AcDbEntity
  8
0
100
AcDbBlockBegin
  2
5_WSTU_GT_04I_0_in_136130_0
 70
     2
 10
0.0
 20
0.0
 30
0.0
  3
5_WSTU_GT_04I_0_in_136130_0
  1

  0
ATTDEF
  5
16D
330
169
100
AcDbEntity
  8
AM_6
100
AcDbText
 10
8.0
 20
1.812496375
 30
0.0
 40
0.5
  1
GTMMDWSTUB-Ib
100
AcDbAttributeDefinition
  3

  2
NN
 70
     8
280
     0
  0
ATTDEF
  5
16E
330
169
100
AcDbEntity
  8
AM_6
100
AcDbText
 10
8.0
 20
1.312496375
 30
0.0
 40
0.5
  1
Grip Tight Adapter Ball Bearings
100
AcDbAttributeDefinition
  3

  2
NT
 70
     8
280
     0
  0
ATTDEF
  5
16F
330
169
100
AcDbEntity
  8
AM_6
100
AcDbText
 10
8.0
 20
0.812496375
 30
0.0
 40
0.5
  1
WSTU-GT-04I
100
AcDbAttributeDefinition
  3

  2
NB
 70
     8
280
     0
  0
ATTDEF
  5
170
330
169
100
AcDbEntity
  8
AM_6
100
AcDbText
 10
8.0
 20
0.312496375
 30
0.0
 40
0.5
  1
$PN.$LUBE.I
100
AcDbAttributeDefinition
  3

  2
NBSYN
 70
     8
280
     0
  0
ATTDEF
  5
171
330
169
100
AcDbEntity
  8
AM_6
100
AcDbText
 10
8.0
 20
-0.187503625
 30
0.0
 40
0.5
  1
WSTU-GT-04
100
AcDbAttributeDefinition
  3

  2
LINA
 70
     8
280
     0
  0
ATTDEF
  5
172
330
169
100
AcDbEntity
  8
AM_6
100
AcDbText
 10
8.0
 20
-0.687503625
 30
0.0
 40
0.5
  1
204
100
AcDbAttributeDefinition
  3

  2
SERIES
 70
     8
280
     0
  0
ATTDEF
  5
173
330
169
100
AcDbEntity
  8
AM_6
100
AcDbText
 10
8.0
 20
-1.187503625
 30
0.0
 40
0.5
  1
WSTU-GT-04
100
AcDbAttributeDefinition
  3

  2
PN
 70
     8
280
     0
  0
ATTDEF
  5
174
330
169
100
AcDbEntity
  8
AM_6
100
AcDbText
 10
8.0
 20
-1.687503625
 30
0.0
 40
0.5
  1
WSTU-GT-04
100
AcDbAttributeDefinition
  3

  2
DESCRIPTION
 70
     8
280
     0
  0
ATTDEF
  5
175
330
169
100
AcDbEntity
  8
AM_6
100
AcDbText
 10
8.0
 20
-2.187503625
 30
0.0
 40
0.5
  1
1.9
100
AcDbAttributeDefinition
  3

  2
WEIGHT
 70
     8
280
     0
  0
ATTDEF
  5
176
330
169
100
AcDbEntity
  8
AM_6
100
AcDbText
 10
8.0
 20
-2.687503625
 30
0.0
 40
0.5
  1
1.804000
100
AcDbAttributeDefinition
  3

  2
BOD1
 70
     8
280
     0
  0
ATTDEF
  5
177
330
169
100
AcDbEntity
  8
AM_6
100
AcDbText
 10
8.0
 20
-3.187503625
 30
0.0
 40
0.5
  1
0.000
100
AcDbAttributeDefinition
  3

  2
VERS
 70
     8
280
     0
  0
ATTDEF
  5
178
330
169
100
AcDbEntity
  8
AM_6
100
AcDbText
 10
8.0
 20
-3.687503625
 30
0.0
 40
0.5
  1
1-15/32
100
AcDbAttributeDefinition
  3

  2
A
 70
     8
280
     0
  0
ATTDEF
  5
179
330
169
100
AcDbEntity
  8
AM_6
100
AcDbText
 10
8.0
 20
-4.187503625
 30
0.0
 40
0.5
  1
3-11/16
100
AcDbAttributeDefinition
  3

  2
B
 70
     8
280
     0
  0
ATTDEF
  5
17A
330
169
100
AcDbEntity
  8
AM_6
100
AcDbText
 10
8.0
 20
-4.687503625
 30
0.0
 40
0.5
  1
0.516 / 0.546
100
AcDbAttributeDefinition
  3

  2
C
 70
     8
280
     0
  0
ATTDEF
  5
17B
330
169
100
AcDbEntity
  8
AM_6
100
AcDbText
 10
8.0
 20
-5.187503625
 30
0.0
 40
0.5
  1
2-3/8
100
AcDbAttributeDefinition
  3

  2
E
 70
     8
280
     0
  0
ATTDEF
  5
17C
330
169
100
AcDbEntity
  8
AM_6
100
AcDbText
 10
8.0
 20
-5.687503625
 30
0.0
 40
0.5
  1
5/8
100
AcDbAttributeDefinition
  3

  2
F
 70
     8
280
     0
  0
ATTDEF
  5
17D
330
169
100
AcDbEntity
  8
AM_6
100
AcDbText
 10
8.0
 20
-6.187503625
 30
0.0
 40
0.5
  1
3/8
100
AcDbAttributeDefinition
  3

  2
G
 70
     8
280
     0
  0
ATTDEF
  5
17E
330
169
100
AcDbEntity
  8
AM_6
100
AcDbText
 10
8.0
 20
-6.687503625
 30
0.0
 40
0.5
  1
5/8
100
AcDbAttributeDefinition
  3

  2
H
 70
     8
280
     0
  0
ATTDEF
  5
17F
330
169
100
AcDbEntity
  8
AM_6
100
AcDbText
 10
8.0
 20
-7.187503625
 30
0.0
 40
0.5
  1
2
100
AcDbAttributeDefinition
  3

  2
J
 70
     8
280
     0
  0
ATTDEF
  5
180
330
169
100
AcDbEntity
  8
AM_6
100
AcDbText
 10
8.0
 20
-7.687503625
 30
0.0
 40
0.5
  1
1-1/4
100
AcDbAttributeDefinition
  3

  2
K
 70
     8
280
     0
  0
ATTDEF
  5
181
330
169
100
AcDbEntity
  8
AM_6
100
AcDbText
 10
8.0
 20
-8.187503625
 30
0.0
 40
0.5
  1
1-1/2
100
AcDbAttributeDefinition
  3

  2
L
 70
     8
280
     0
  0
ATTDEF
  5
182
330
169
100
AcDbEntity
  8
AM_6
100
AcDbText
 10
8.0
 20
-8.687503625
 30
0.0
 40
0.5
  1
2.985 / 3.015
100
AcDbAttributeDefinition
  3

  2
M
 70
     8
280
     0
  0
ATTDEF
  5
183
330
169
100
AcDbEntity
  8
AM_6
100
AcDbText
 10
8.0
 20
-9.187503625
 30
0.0
 40
0.5
  1
3-5/8
100
AcDbAttributeDefinition
  3

  2
N
 70
     8
280
     0
  0
ATTDEF
  5
184
330
169
100
AcDbEntity
  8
AM_6
100
AcDbText
 10
8.0
 20
-9.687503625
 30
0.0
 40
0.5
  1
31/64
100
AcDbAttributeDefinition
  3

  2
R
 70
     8
280
     0
  0
ATTDEF
  5
185
330
169
100
AcDbEntity
  8
AM_6
100
AcDbText
 10
8.0
 20
-10.187503625
 30
0.0
 40
0.5
  1
63/64
100
AcDbAttributeDefinition
  3

  2
S
 70
     8
280
     0
  0
ATTDEF
  5
186
330
169
100
AcDbEntity
  8
AM_6
100
AcDbText
 10
8.0
 20
-10.687503625
 30
0.0
 40
0.5
  1
1-3/8
100
AcDbAttributeDefinition
  3

  2
T
 70
     8
280
     0
  0
ATTDEF
  5
187
330
169
100
AcDbEntity
  8
AM_6
100
AcDbText
 10
8.0
 20
-11.187503625
 30
0.0
 40
0.5
  1
63/64
100
AcDbAttributeDefinition
  3

  2
Z
 70
     8
280
     0
  0
ATTDEF
  5
188
330
169
100
AcDbEntity
  8
AM_6
100
AcDbText
 10
8.0
 20
-11.687503625
 30
0.0
 40
0.5
  1
baldor
100
AcDbAttributeDefinition
  3

  2
COMPANY
 70
     8
280
     0
  0
LINE
  5
189
330
169
100
AcDbEntity
  8
AM_9
100
AcDbLine
 10
2.0
 20
-0.312499375
 30
0.0
 11
2.375
 21
-0.312499375
 31
0.0
  0
LINE
  5
18A
330
169
100
AcDbEntity
  8
AM_9
100
AcDbLine
 10
2.375
 20
0.312499375
 30
0.0
 11
2.0
 21
0.312499375
 31
0.0
  0
LINE
  5
18B
330
169
100
AcDbEntity
  8
AM_7
100
AcDbLine
 10
1.625
 20
0.0
 30
0.0
 11
3.0
 21
0.0
 31
0.0
  0
LINE
  5
18C
330
169
100
AcDbEntity
  8
AM_7
100
AcDbLine
 10
-1.710129539535584
 20
-0.9873437499999999
 30
0.0
 11
0.2454140250294283
 21
0.14168985341365
 31
0.0
  0
LINE
  5
18D
330
169
100
AcDbEntity
  8
AM_4
100
AcDbLine
 10
-1.39826088284552
 20
-0.4031411086754465
 30
0.0
 11
-1.048260883040351
 21
-1.009358890987096
 31
0.0
  0
ARC
  5
18E
330
169
100
AcDbEntity
  8
AM_4
100
AcDbCircle
 10
-0.9616583424670767
 20
-0.9593588913245539
 30
0.0
 40
0.0999999999999998
100
AcDbArc
 50
210.0
 51
247.3876682985884
  0
ARC
  5
18F
330
169
100
AcDbEntity
  8
AM_4
100
AcDbCircle
 10
-1.311658342467077
 20
-0.3531411086754463
 30
0.0
 40
0.0999999999999997
100
AcDbArc
 50
119.9999999999996
 51
210.0000000000002
  0
LINE
  5
190
330
169
100
AcDbEntity
  8
AM_4
100
AcDbLine
 10
-1.361658342467076
 20
-0.2665385682970023
 30
0.0
 11
-1.0
 21
-0.8929491924311231
 31
0.0
  0
LINE
  5
191
330
169
100
AcDbEntity
  8
AM_4
100
AcDbLine
 10
2.0
 20
-0.5937499995343386
 30
0.0
 11
2.0
 21
0.5937499999999999
 31
0.0
  0
LINE
  5
192
330
169
100
AcDbEntity
  8
AM_4
100
AcDbLine
 10
2.375
 20
-0.9374999999999994
 30
0.0
 11
2.375
 21
0.9375
 31
0.0
  0
LINE
  5
193
330
169
100
AcDbEntity
  8
AM_4
100
AcDbLine
 10
-1.0
 20
1.781250000465661
 30
0.0
 11
-1.0
 21
0.8500919067959649
 31
0.0
  0
LINE
  5
194
330
169
100
AcDbEntity
  8
AM_4
100
AcDbLine
 10
-1.0
 20
-0.8500919067959647
 30
0.0
 11
-0.9999999999999999
 21
-1.78125
 31
0.0
  0
LINE
  5
195
330
169
100
AcDbEntity
  8
AM_4
100
AcDbLine
 10
1.0
 20
-1.781249999534338
 30
0.0
 11
1.0
 21
-1.0625
 31
0.0
  0
CIRCLE
  5
196
330
169
100
AcDbEntity
  8
AM_4
100
AcDbCircle
 10
0.0
 20
0.0
 30
0.0
 40
0.9019999999999999
  0
ARC
  5
197
330
169
100
AcDbEntity
  8
AM_4
100
AcDbCircle
 10
1.96875
 20
-0.5937499999999999
 30
0.0
 40
0.0312500000000001
100
AcDbArc
 50
270.0
 51
0.0
  0
LINE
  5
198
330
169
100
AcDbEntity
  8
AM_4
100
AcDbLine
 10
1.40625
 20
-0.625
 30
0.0
 11
1.96875
 21
-0.625
 31
0.0
  0
ARC
  5
199
330
169
100
AcDbEntity
  8
AM_4
100
AcDbCircle
 10
1.40625
 20
-0.5937499999999996
 30
0.0
 40
0.0312500000000002
100
AcDbArc
 50
180.0
 51
270.0
  0
LINE
  5
19A
330
169
100
AcDbEntity
  8
AM_4
100
AcDbLine
 10
1.375
 20
0.5937499999999996
 30
0.0
 11
1.375
 21
-0.5937499999999996
 31
0.0
  0
ARC
  5
19B
330
169
100
AcDbEntity
  8
AM_4
100
AcDbCircle
 10
1.40625
 20
0.5937499999999999
 30
0.0
 40
0.0312500000000001
100
AcDbArc
 50
90.0
 51
180.0
  0
LINE
  5
19C
330
169
100
AcDbEntity
  8
AM_4
100
AcDbLine
 10
1.96875
 20
0.625
 30
0.0
 11
1.40625
 21
0.625
 31
0.0
  0
ARC
  5
19D
330
169
100
AcDbEntity
  8
AM_4
100
AcDbCircle
 10
1.96875
 20
0.5937499999999998
 30
0.0
 40
0.0312500000000002
100
AcDbArc
 50
0.0
 51
90.0
  0
ARC
  5
19E
330
169
100
AcDbEntity
  8
AM_4
100
AcDbCircle
 10
2.312499999999999
 20
0.9374999999999988
 30
0.0
 40
0.0625000000000013
100
AcDbArc
 50
0.0
 51
90.0
  0
LINE
  5
19F
330
169
100
AcDbEntity
  8
AM_4
100
AcDbLine
 10
2.3125
 20
1.0
 30
0.0
 11
1.0625
 21
1.0
 31
0.0
  0
ARC
  5
1A0
330
169
100
AcDbEntity
  8
AM_4
100
AcDbCircle
 10
1.0625
 20
1.0625
 30
0.0
 40
0.0625
100
AcDbArc
 50
180.0
 51
270.0
  0
ARC
  5
1A1
330
169
100
AcDbEntity
  8
AM_4
100
AcDbCircle
 10
0.0
 20
0.0
 30
0.0
 40
1.3125
100
AcDbArc
 50
139.6324064558145
 51
220.3675935441856
  0
ARC
  5
1A2
330
169
100
AcDbEntity
  8
AM_4
100
AcDbCircle
 10
1.0625
 20
-1.0625
 30
0.0
 40
0.0625
100
AcDbArc
 50
90.0
 51
180.0
  0
LINE
  5
1A3
330
169
100
AcDbEntity
  8
AM_4
100
AcDbLine
 10
1.0625
 20
-1.0
 30
0.0
 11
2.3125
 21
-1.0
 31
0.0
  0
ARC
  5
1A4
330
169
100
AcDbEntity
  8
AM_4
100
AcDbCircle
 10
2.312499999999999
 20
-0.937499999999999
 30
0.0
 40
0.062500000000001
100
AcDbArc
 50
270.0
 51
0.0
  0
LINE
  5
1A5
330
169
100
AcDbEntity
  8
AM_4
100
AcDbLine
 10
-1.292771770478235
 20
-0.2267668874156943
 30
0.0
 11
-1.361658342467076
 21
-0.2665385682970023
 31
0.0
  0
LINE
  5
1A6
330
169
100
AcDbEntity
  8
AM_4
100
AcDbLine
 10
-0.2739479738029501
 20
1.651321301697135
 30
0.0
 11
-0.3290436469114161
 21
1.651321301697135
 31
0.0
  0
LINE
  5
1A7
330
169
100
AcDbEntity
  8
AM_4
100
AcDbLine
 10
-0.2617044956899841
 20
1.648407857424025
 30
0.0
 11
-0.2739479738029501
 21
1.651321301697135
 31
0.0
  0
LINE
  5
1A8
330
169
100
AcDbEntity
  8
AM_4
100
AcDbLine
 10
-0.2464001264987681
 20
1.56683142507722
 30
0.0
 11
-0.243339256920531
 21
1.578485201869612
 31
0.0
  0
LINE
  5
1A9
330
169
100
AcDbEntity
  8
AM_4
100
AcDbLine
 10
-0.252521865555308
 20
1.558091095157922
 30
0.0
 11
-0.2464001264987681
 21
1.56683142507722
 31
0.0
  0
LINE
  5
1AA
330
169
100
AcDbEntity
  8
AM_4
100
AcDbLine
 10
-0.243339256920531
 20
1.578485201869612
 30
0.0
 11
-0.243339256920531
 21
1.622186862266131
 31
0.0
  0
LINE
  5
1AB
330
169
100
AcDbEntity
  8
AM_4
100
AcDbLine
 10
-0.2739479738029503
 20
1.549350759838624
 30
0.0
 11
-0.2617044956899841
 21
1.552264204111734
 31
0.0
  0
LINE
  5
1AC
330
169
100
AcDbEntity
  8
AM_4
100
AcDbLine
 10
-0.252521865555308
 20
1.642580969077837
 30
0.0
 11
-0.2617044956899841
 21
1.648407857424025
 31
0.0
  0
LINE
  5
1AD
330
169
100
AcDbEntity
  8
AM_4
100
AcDbLine
 10
-0.2617044956899841
 20
1.552264204111734
 30
0.0
 11
-0.252521865555308
 21
1.558091095157922
 31
0.0
  0
LINE
  5
1AE
330
169
100
AcDbEntity
  8
AM_4
100
AcDbLine
 10
-0.3290436469114161
 20
1.651321301697135
 30
0.0
 11
-0.3290436469114161
 21
1.549350759838624
 31
0.0
  0
LINE
  5
1AF
330
169
100
AcDbEntity
  8
AM_4
100
AcDbLine
 10
-0.243339256920531
 20
1.622186862266131
 30
0.0
 11
-0.2464001264987681
 21
1.633840636458539
 31
0.0
  0
LINE
  5
1B0
330
169
100
AcDbEntity
  8
AM_4
100
AcDbLine
 10
-0.2464001264987681
 20
1.633840636458539
 30
0.0
 11
-0.252521865555308
 21
1.642580969077837
 31
0.0
  0
LINE
  5
1B1
330
169
100
AcDbEntity
  8
AM_4
100
AcDbLine
 10
-0.3290436469114161
 20
1.549350759838624
 30
0.0
 11
-0.2739479738029503
 21
1.549350759838624
 31
0.0
  0
LINE
  5
1B2
330
169
100
AcDbEntity
  8
AM_4
100
AcDbLine
 10
-0.0352000157998925
 20
1.651321301697135
 30
0.0
 11
-0.0352000157998925
 21
1.549350759838624
 31
0.0
  0
LINE
  5
1B3
330
169
100
AcDbEntity
  8
AM_4
100
AcDbLine
 10
0.0198956674085483
 20
1.651321301697135
 30
0.0
 11
-0.0352000157998925
 21
1.651321301697135
 31
0.0
  0
LINE
  5
1B4
330
169
100
AcDbEntity
  8
AM_4
100
AcDbLine
 10
0.0321391529215476
 20
1.648407857424025
 30
0.0
 11
0.0198956674085483
 21
1.651321301697135
 31
0.0
  0
LINE
  5
1B5
330
169
100
AcDbEntity
  8
AM_4
100
AcDbLine
 10
0.0413217655562739
 20
1.642580969077837
 30
0.0
 11
0.0321391529215476
 21
1.648407857424025
 31
0.0
  0
LINE
  5
1B6
330
169
100
AcDbEntity
  8
AM_4
100
AcDbLine
 10
0.0474435100127576
 20
1.633840636458539
 30
0.0
 11
0.0413217655562739
 21
1.642580969077837
 31
0.0
  0
LINE
  5
1B7
330
169
100
AcDbEntity
  8
AM_4
100
AcDbLine
 10
0.0505043795909926
 20
1.622186862266131
 30
0.0
 11
0.0474435100127576
 21
1.633840636458539
 31
0.0
  0
LINE
  5
1B8
330
169
100
AcDbEntity
  8
AM_4
100
AcDbLine
 10
0.0505043795909926
 20
1.578485201869612
 30
0.0
 11
0.0505043795909926
 21
1.622186862266131
 31
0.0
  0
LINE
  5
1B9
330
169
100
AcDbEntity
  8
AM_4
100
AcDbLine
 10
0.0474435100127576
 20
1.56683142507722
 30
0.0
 11
0.0505043795909926
 21
1.578485201869612
 31
0.0
  0
LINE
  5
1BA
330
169
100
AcDbEntity
  8
AM_4
100
AcDbLine
 10
0.0413217655562739
 20
1.558091095157922
 30
0.0
 11
0.0474435100127576
 21
1.56683142507722
 31
0.0
  0
LINE
  5
1BB
330
169
100
AcDbEntity
  8
AM_4
100
AcDbLine
 10
0.0321391529215476
 20
1.552264204111734
 30
0.0
 11
0.0413217655562739
 21
1.558091095157922
 31
0.0
  0
LINE
  5
1BC
330
169
100
AcDbEntity
  8
AM_4
100
AcDbLine
 10
0.0198956674085485
 20
1.549350759838624
 30
0.0
 11
0.0321391529215476
 21
1.552264204111734
 31
0.0
  0
LINE
  5
1BD
330
169
100
AcDbEntity
  8
AM_4
100
AcDbLine
 10
-0.0352000157998925
 20
1.549350759838624
 30
0.0
 11
0.0198956674085485
 21
1.549350759838624
 31
0.0
  0
LINE
  5
1BE
330
169
100
AcDbEntity
  8
AM_4
100
AcDbLine
 10
-0.1515131279731519
 20
1.549350759838624
 30
0.0
 11
-0.1270261501472169
 21
1.549350759838624
 31
0.0
  0
LINE
  5
1BF
330
169
100
AcDbEntity
  8
AM_4
100
AcDbLine
 10
-0.1790609752773919
 20
1.633840636458539
 30
0.0
 11
-0.1821218447556389
 21
1.622186862266131
 31
0.0
  0
LINE
  5
1C0
330
169
100
AcDbEntity
  8
AM_4
100
AcDbLine
 10
-0.1729392146209069
 20
1.642580969077837
 30
0.0
 11
-0.1790609752773919
 21
1.633840636458539
 31
0.0
  0
LINE
  5
1C1
330
169
100
AcDbEntity
  8
AM_4
100
AcDbLine
 10
-0.1637566060861759
 20
1.648407857424025
 30
0.0
 11
-0.1729392146209069
 21
1.642580969077837
 31
0.0
  0
LINE
  5
1C2
330
169
100
AcDbEntity
  8
AM_4
100
AcDbLine
 10
-0.1515131279731519
 20
1.651321301697135
 30
0.0
 11
-0.1637566060861759
 21
1.648407857424025
 31
0.0
  0
LINE
  5
1C3
330
169
100
AcDbEntity
  8
AM_4
100
AcDbLine
 10
-0.1270261501472169
 20
1.651321301697135
 30
0.0
 11
-0.1515131279731519
 21
1.651321301697135
 31
0.0
  0
LINE
  5
1C4
330
169
100
AcDbEntity
  8
AM_4
100
AcDbLine
 10
-0.1147826720341939
 20
1.648407857424025
 30
0.0
 11
-0.1270261501472169
 21
1.651321301697135
 31
0.0
  0
LINE
  5
1C5
330
169
100
AcDbEntity
  8
AM_4
100
AcDbLine
 10
-0.1056000526995169
 20
1.642580969077837
 30
0.0
 11
-0.1147826720341939
 21
1.648407857424025
 31
0.0
  0
LINE
  5
1C6
330
169
100
AcDbEntity
  8
AM_4
100
AcDbLine
 10
-0.0994783136429771
 20
1.633840636458539
 30
0.0
 11
-0.1056000526995169
 21
1.642580969077837
 31
0.0
  0
LINE
  5
1C7
330
169
100
AcDbEntity
  8
AM_4
100
AcDbLine
 10
-0.1056000526995169
 20
1.558091095157922
 30
0.0
 11
-0.0994783136429771
 21
1.56683142507722
 31
0.0
  0
LINE
  5
1C8
330
169
100
AcDbEntity
  8
AM_4
100
AcDbLine
 10
-0.1147826720341939
 20
1.552264204111734
 30
0.0
 11
-0.1056000526995169
 21
1.558091095157922
 31
0.0
  0
LINE
  5
1C9
330
169
100
AcDbEntity
  8
AM_4
100
AcDbLine
 10
-0.1270261501472169
 20
1.549350759838624
 30
0.0
 11
-0.1147826720341939
 21
1.552264204111734
 31
0.0
  0
LINE
  5
1CA
330
169
100
AcDbEntity
  8
AM_4
100
AcDbLine
 10
-0.1637566060861759
 20
1.552264204111734
 30
0.0
 11
-0.1515131279731519
 21
1.549350759838624
 31
0.0
  0
LINE
  5
1CB
330
169
100
AcDbEntity
  8
AM_4
100
AcDbLine
 10
-0.1729392146209069
 20
1.558091095157922
 30
0.0
 11
-0.1637566060861759
 21
1.552264204111734
 31
0.0
  0
LINE
  5
1CC
330
169
100
AcDbEntity
  8
AM_4
100
AcDbLine
 10
-0.1790609752773919
 20
1.56683142507722
 30
0.0
 11
-0.1729392146209069
 21
1.558091095157922
 31
0.0
  0
LINE
  5
1CD
330
169
100
AcDbEntity
  8
AM_4
100
AcDbLine
 10
-0.1821218447556388
 20
1.578485201869612
 30
0.0
 11
-0.1790609752773919
 21
1.56683142507722
 31
0.0
  0
LINE
  5
1CE
330
169
100
AcDbEntity
  8
AM_4
100
AcDbLine
 10
-0.1821218447556389
 20
1.622186862266131
 30
0.0
 11
-0.1821218447556388
 21
1.578485201869612
 31
0.0
  0
LINE
  5
1CF
330
169
100
AcDbEntity
  8
AM_4
100
AcDbLine
 10
-0.0994783136429771
 20
1.56683142507722
 30
0.0
 11
-0.0964174440647421
 21
1.578485201869612
 31
0.0
  0
LINE
  5
1D0
330
169
100
AcDbEntity
  8
AM_4
100
AcDbLine
 10
-0.0964174440647421
 20
1.578485201869612
 30
0.0
 11
-0.0964174440647421
 21
1.622186862266131
 31
0.0
  0
LINE
  5
1D1
330
169
100
AcDbEntity
  8
AM_4
100
AcDbLine
 10
-0.0964174440647421
 20
1.622186862266131
 30
0.0
 11
-0.0994783136429771
 21
1.633840636458539
 31
0.0
  0
LWPOLYLINE
  5
1D2
330
169
100
AcDbEntity
  8
AM_4
100
AcDbPolyline
 90
       19
 70
     0
 43
0.0
 10
0.969225972015301
 20
-1.812496375
 10
0.9719474618193799
 20
-1.812335989415066
 10
0.9746446170083329
 20
-1.81193902068045
 10
0.9772969106025856
 20
-1.811308489967918
 10
0.9798841570463869
 20
-1.810449195996917
 10
0.9823866658320772
 20
-1.809367678513424
 10
0.9847853913567416
 20
-1.808072168518524
 10
0.987062077870747
 20
-1.806572525625531
 10
0.9891993984150212
 20
-1.804880163022369
 10
0.9911810866896728
 20
-1.803007960610323
 10
0.9929920608503553
 20
-1.800970166980218
 10
0.9946185382902102
 20
-1.79878229097203
 10
0.9960481405338262
 20
-1.796460983643259
 10
0.9972699874449117
 20
-1.794023911544319
 10
0.9982747800307021
 20
-1.791489622265428
 10
0.9990548712129095
 20
-1.788877403278245
 10
0.999604324026605
 20
-1.786207135146562
 10
0.9999189568041078
 20
-1.783499140223213
 10
1.0
 20
-1.781249999534338
  0
LWPOLYLINE
  5
1D3
330
169
100
AcDbEntity
  8
AM_4
100
AcDbPolyline
 90
       19
 70
     0
 43
0.0
 10
-1.0
 20
-1.78125
 10
-0.9998810843153669
 20
-1.783973616960864
 10
-0.9995252422816314
 20
-1.786676505552092
 10
-0.9989351820715332
 20
-1.789338095159454
 10
-0.9981153943995594
 20
-1.791938129478927
 10
-0.9970721183448951
 20
-1.794456820679397
 10
-0.9958132938682633
 20
-1.796875
 10
-0.9943485013840306
 20
-1.79917426363597
 10
-0.9926888888474676
 20
-1.801337112802704
 10
-0.9908470869120791
 20
-1.80334708691208
 10
-0.9888371128027039
 20
-1.805188888847468
 10
-0.9866742636359697
 20
-1.806848501384031
 10
-0.9843749999999996
 20
-1.808313293868264
 10
-0.9819568206793963
 20
-1.809572118344895
 10
-0.9794381294789266
 20
-1.810615394399559
 10
-0.9768380951594532
 20
-1.811435182071533
 10
-0.974176505552091
 20
-1.812025242281631
 10
-0.9714736169608637
 20
-1.812381084315367
 10
-0.9692259720152828
 20
-1.812496375
  0
LINE
  5
1D4
330
169
100
AcDbEntity
  8
AM_4
100
AcDbLine
 10
0.969225972015308
 20
-1.812496375
 30
0.0
 11
-0.9692259720152901
 21
-1.812496375
 31
0.0
  0
LINE
  5
1D5
330
169
100
AcDbEntity
  8
AM_4
100
AcDbLine
 10
0.9999999999999997
 20
-1.773126275000001
 30
0.0
 11
-0.9999999999999997
 21
-1.773126275000001
 31
0.0
  0
LINE
  5
1D6
330
169
100
AcDbEntity
  8
AM_4
100
AcDbLine
 10
0.9999999999999997
 20
-1.492496375
 30
0.0
 11
-0.9999999999999997
 21
-1.492496375
 31
0.0
  0
LINE
  5
1D7
330
169
100
AcDbEntity
  8
AM_4
100
AcDbLine
 10
0.9999999999999997
 20
-1.374386375
 30
0.0
 11
-0.9999999999999997
 21
-1.374386375
 31
0.0
  0
LINE
  5
1D8
330
169
100
AcDbEntity
  8
AM_4
100
AcDbLine
 10
0.1270261609471564
 20
1.665888522662621
 30
0.0
 11
0.1147826720341884
 21
1.660061634316433
 31
0.0
  0
LINE
  5
1D9
330
169
100
AcDbEntity
  8
AM_4
100
AcDbLine
 10
0.1423305193383725
 20
1.549350759838624
 30
0.0
 11
0.1300870304254055
 21
1.552264204111734
 31
0.0
  0
LINE
  5
1DA
330
169
100
AcDbEntity
  8
AM_4
100
AcDbLine
 10
0.1943653228685454
 20
1.633840636458539
 30
0.0
 11
0.2127305616379964
 21
1.633840636458539
 31
0.0
  0
LINE
  5
1DB
330
169
100
AcDbEntity
  8
AM_4
100
AcDbLine
 10
0.1300870304254055
 20
1.648407857424025
 30
0.0
 11
0.1423305193383725
 21
1.651321301697135
 31
0.0
  0
LINE
  5
1DC
330
169
100
AcDbEntity
  8
AM_4
100
AcDbLine
 10
0.2372175178639888
 20
1.5318701
 30
0.0
 11
0.3474088855808208
 21
1.5318701
 31
0.0
  0
LINE
  5
1DD
330
169
100
AcDbEntity
  8
AM_4
100
AcDbLine
 10
0.3351654074678528
 20
1.595965865808202
 30
0.0
 11
0.3351654074678528
 21
1.613446529646804
 31
0.0
  0
LINE
  5
1DE
330
169
100
AcDbEntity
  8
AM_4
100
AcDbLine
 10
0.1300870304254055
 20
1.552264204111734
 30
0.0
 11
0.1209044217906864
 21
1.558091095157922
 31
0.0
  0
LINE
  5
1DF
330
169
100
AcDbEntity
  8
AM_4
100
AcDbLine
 10
0.1209044217906864
 20
1.558091095157922
 30
0.0
 11
0.1147826720341884
 21
1.56683142507722
 31
0.0
  0
LINE
  5
1E0
330
169
100
AcDbEntity
  8
AM_4
100
AcDbLine
 10
0.2555827565334539
 20
1.651321301697135
 30
0.0
 11
0.3474088855808208
 21
1.651321301697135
 31
0.0
  0
LINE
  5
1E1
330
169
100
AcDbEntity
  8
AM_4
100
AcDbLine
 10
0.3474088855808208
 20
1.651321301697135
 30
0.0
 11
0.3474088855808207
 21
1.668801966935731
 31
0.0
  0
LINE
  5
1E2
330
169
100
AcDbEntity
  8
AM_4
100
AcDbLine
 10
0.3474088855808207
 20
1.668801966935731
 30
0.0
 11
0.2372175178639888
 21
1.668801966935731
 31
0.0
  0
LINE
  5
1E3
330
169
100
AcDbEntity
  8
AM_4
100
AcDbLine
 10
0.0474435100127576
 20
1.540610432619298
 30
0.0
 11
0.0596869935257813
 21
1.552264204111734
 31
0.0
  0
LINE
  5
1E4
330
169
100
AcDbEntity
  8
AM_4
100
AcDbLine
 10
0.2555827565334539
 20
1.613446529646804
 30
0.0
 11
0.2555827565334539
 21
1.651321301697135
 31
0.0
  0
LINE
  5
1E5
330
169
100
AcDbEntity
  8
AM_4
100
AcDbLine
 10
0.2555827565334539
 20
1.549350759838624
 30
0.0
 11
0.2555827565334539
 21
1.595965865808202
 31
0.0
  0
LINE
  5
1E6
330
169
100
AcDbEntity
  8
AM_4
100
AcDbLine
 10
-0.2739479738029501
 20
1.668801966935731
 30
0.0
 11
-0.3474088855808231
 21
1.668801966935731
 31
0.0
  0
LINE
  5
1E7
330
169
100
AcDbEntity
  8
AM_4
100
AcDbLine
 10
-0.3474088855808231
 20
1.668801966935731
 30
0.0
 11
-0.3474088855808231
 21
1.5318701
 31
0.0
  0
LINE
  5
1E8
330
169
100
AcDbEntity
  8
AM_4
100
AcDbLine
 10
-0.3474088855808231
 20
1.5318701
 30
0.0
 11
-0.2739479738029501
 21
1.5318701
 31
0.0
  0
LINE
  5
1E9
330
169
100
AcDbEntity
  8
AM_4
100
AcDbLine
 10
-0.2739479738029501
 20
1.5318701
 30
0.0
 11
-0.2586436261117471
 21
1.534783544173094
 31
0.0
  0
LINE
  5
1EA
330
169
100
AcDbEntity
  8
AM_4
100
AcDbLine
 10
0.1147826720341884
 20
1.56683142507722
 30
0.0
 11
0.1117218024558974
 21
1.578485201869612
 31
0.0
  0
LINE
  5
1EB
330
169
100
AcDbEntity
  8
AM_4
100
AcDbLine
 10
0.1117218024558974
 20
1.578485201869612
 30
0.0
 11
0.1117218024558974
 21
1.622186862266131
 31
0.0
  0
LINE
  5
1EC
330
169
100
AcDbEntity
  8
AM_4
100
AcDbLine
 10
0.1117218024558974
 20
1.622186862266131
 30
0.0
 11
0.1147826720341884
 21
1.633840636458539
 31
0.0
  0
LINE
  5
1ED
330
169
100
AcDbEntity
  8
AM_4
100
AcDbLine
 10
0.1147826720341884
 20
1.633840636458539
 30
0.0
 11
0.1209044217906864
 21
1.642580969077837
 31
0.0
  0
LINE
  5
1EE
330
169
100
AcDbEntity
  8
AM_4
100
AcDbLine
 10
0.1209044217906864
 20
1.642580969077837
 30
0.0
 11
0.1300870304254055
 21
1.648407857424025
 31
0.0
  0
LINE
  5
1EF
330
169
100
AcDbEntity
  8
AM_4
100
AcDbLine
 10
-0.224974039751081
 20
1.622186862266131
 30
0.0
 11
-0.22803490932926
 21
1.636754080631633
 31
0.0
  0
LINE
  5
1F0
330
169
100
AcDbEntity
  8
AM_4
100
AcDbLine
 10
0.3351654074678528
 20
1.613446529646804
 30
0.0
 11
0.2555827565334539
 21
1.613446529646804
 31
0.0
  0
LINE
  5
1F1
330
169
100
AcDbEntity
  8
AM_4
100
AcDbLine
 10
0.1913044533902994
 20
1.642580969077837
 30
0.0
 11
0.1943653228685454
 21
1.633840636458539
 31
0.0
  0
LINE
  5
1F2
330
169
100
AcDbEntity
  8
AM_4
100
AcDbLine
 10
0.2096696920597614
 20
1.648407857424025
 30
0.0
 11
0.1974261924467804
 21
1.660061634316433
 31
0.0
  0
LINE
  5
1F3
330
169
100
AcDbEntity
  8
AM_4
100
AcDbLine
 10
0.1974261924467804
 20
1.660061634316433
 30
0.0
 11
0.1851827143338154
 21
1.665888522662621
 31
0.0
  0
LINE
  5
1F4
330
169
100
AcDbEntity
  8
AM_4
100
AcDbLine
 10
-0.224974039751081
 20
1.578485201869612
 30
0.0
 11
-0.224974039751081
 21
1.622186862266131
 31
0.0
  0
LINE
  5
1F5
330
169
100
AcDbEntity
  8
AM_4
100
AcDbLine
 10
0.0658087379822068
 20
1.563917980904126
 30
0.0
 11
0.0688696074604557
 21
1.578485201869612
 31
0.0
  0
LINE
  5
1F6
330
169
100
AcDbEntity
  8
AM_4
100
AcDbLine
 10
0.1147826720341884
 20
1.660061634316433
 30
0.0
 11
0.1025391939211649
 21
1.648407857424025
 31
0.0
  0
LINE
  5
1F7
330
169
100
AcDbEntity
  8
AM_4
100
AcDbLine
 10
0.1025391939211649
 20
1.648407857424025
 30
0.0
 11
0.0964174494646811
 21
1.636754080631633
 31
0.0
  0
LINE
  5
1F8
330
169
100
AcDbEntity
  8
AM_4
100
AcDbLine
 10
0.2372175178639888
 20
1.668801966935731
 30
0.0
 11
0.2372175178639888
 21
1.5318701
 31
0.0
  0
LINE
  5
1F9
330
169
100
AcDbEntity
  8
AM_4
100
AcDbLine
 10
0.1147826720341884
 20
1.540610432619298
 30
0.0
 11
0.1270261609471564
 21
1.534783544173094
 31
0.0
  0
LINE
  5
1FA
330
169
100
AcDbEntity
  8
AM_4
100
AcDbLine
 10
0.0964174494646811
 20
1.636754080631633
 30
0.0
 11
0.0933565798864461
 21
1.622186862266131
 31
0.0
  0
LINE
  5
1FB
330
169
100
AcDbEntity
  8
AM_4
100
AcDbLine
 10
0.1423305193383725
 20
1.668801966935731
 30
0.0
 11
0.1270261609471564
 21
1.665888522662621
 31
0.0
  0
LINE
  5
1FC
330
169
100
AcDbEntity
  8
AM_4
100
AcDbLine
 10
0.1698783558425545
 20
1.668801966935731
 30
0.0
 11
0.1423305193383725
 21
1.668801966935731
 31
0.0
  0
LINE
  5
1FD
330
169
100
AcDbEntity
  8
AM_4
100
AcDbLine
 10
0.1851827143338154
 20
1.665888522662621
 30
0.0
 11
0.1698783558425545
 21
1.668801966935731
 31
0.0
  0
LINE
  5
1FE
330
169
100
AcDbEntity
  8
AM_4
100
AcDbLine
 10
0.2127305616379964
 20
1.633840636458539
 30
0.0
 11
0.2096696920597614
 21
1.648407857424025
 31
0.0
  0
LINE
  5
1FF
330
169
100
AcDbEntity
  8
AM_4
100
AcDbLine
 10
0.1821218447555225
 20
1.648407857424025
 30
0.0
 11
0.1913044533902994
 21
1.642580969077837
 31
0.0
  0
LINE
  5
200
330
169
100
AcDbEntity
  8
AM_4
100
AcDbLine
 10
0.1698783558425545
 20
1.651321301697135
 30
0.0
 11
0.1821218447555225
 21
1.648407857424025
 31
0.0
  0
LINE
  5
201
330
169
100
AcDbEntity
  8
AM_4
100
AcDbLine
 10
0.1423305193383725
 20
1.651321301697135
 30
0.0
 11
0.1698783558425545
 21
1.651321301697135
 31
0.0
  0
LINE
  5
202
330
169
100
AcDbEntity
  8
AM_4
100
AcDbLine
 10
0.1698783558425545
 20
1.549350759838624
 30
0.0
 11
0.1423305193383725
 21
1.549350759838624
 31
0.0
  0
LINE
  5
203
330
169
100
AcDbEntity
  8
AM_4
100
AcDbLine
 10
0.1821218447555225
 20
1.552264204111734
 30
0.0
 11
0.1698783558425545
 21
1.549350759838624
 31
0.0
  0
LINE
  5
204
330
169
100
AcDbEntity
  8
AM_4
100
AcDbLine
 10
0.1913044533902994
 20
1.558091095157922
 30
0.0
 11
0.1821218447555225
 21
1.552264204111734
 31
0.0
  0
LINE
  5
205
330
169
100
AcDbEntity
  8
AM_4
100
AcDbLine
 10
0.1943653228685454
 20
1.56683142507722
 30
0.0
 11
0.1913044533902994
 21
1.558091095157922
 31
0.0
  0
LINE
  5
206
330
169
100
AcDbEntity
  8
AM_4
100
AcDbLine
 10
0.1943653228685454
 20
1.590138978062024
 30
0.0
 11
0.1943653228685454
 21
1.56683142507722
 31
0.0
  0
LINE
  5
207
330
169
100
AcDbEntity
  8
AM_4
100
AcDbLine
 10
0.1668174863643074
 20
1.590138978062024
 30
0.0
 11
0.1943653228685454
 21
1.590138978062024
 31
0.0
  0
LINE
  5
208
330
169
100
AcDbEntity
  8
AM_4
100
AcDbLine
 10
0.1668174863643074
 20
1.607619642000613
 30
0.0
 11
0.1668174863643074
 21
1.590138978062024
 31
0.0
  0
LINE
  5
209
330
169
100
AcDbEntity
  8
AM_4
100
AcDbLine
 10
0.2127305616379964
 20
1.607619642000613
 30
0.0
 11
0.1668174863643074
 21
1.607619642000613
 31
0.0
  0
LINE
  5
20A
330
169
100
AcDbEntity
  8
AM_4
100
AcDbLine
 10
0.2127305616379964
 20
1.563917980904126
 30
0.0
 11
0.2127305616379964
 21
1.607619642000613
 31
0.0
  0
LINE
  5
20B
330
169
100
AcDbEntity
  8
AM_4
100
AcDbLine
 10
0.2096696920597614
 20
1.552264204111734
 30
0.0
 11
0.2127305616379964
 21
1.563917980904126
 31
0.0
  0
LINE
  5
20C
330
169
100
AcDbEntity
  8
AM_4
100
AcDbLine
 10
0.1974261924467804
 20
1.540610432619298
 30
0.0
 11
0.2096696920597614
 21
1.552264204111734
 31
0.0
  0
LINE
  5
20D
330
169
100
AcDbEntity
  8
AM_4
100
AcDbLine
 10
0.1851827143338154
 20
1.534783544173094
 30
0.0
 11
0.1974261924467804
 21
1.540610432619298
 31
0.0
  0
LINE
  5
20E
330
169
100
AcDbEntity
  8
AM_4
100
AcDbLine
 10
0.1698783558425545
 20
1.5318701
 30
0.0
 11
0.1851827143338154
 21
1.534783544173094
 31
0.0
  0
LINE
  5
20F
330
169
100
AcDbEntity
  8
AM_4
100
AcDbLine
 10
0.1423305193383725
 20
1.5318701
 30
0.0
 11
0.1698783558425545
 21
1.5318701
 31
0.0
  0
LINE
  5
210
330
169
100
AcDbEntity
  8
AM_4
100
AcDbLine
 10
0.1270261609471564
 20
1.534783544173094
 30
0.0
 11
0.1423305193383725
 21
1.5318701
 31
0.0
  0
LINE
  5
211
330
169
100
AcDbEntity
  8
AM_4
100
AcDbLine
 10
0.1025391939211645
 20
1.552264204111734
 30
0.0
 11
0.1147826720341884
 21
1.540610432619298
 31
0.0
  0
LINE
  5
212
330
169
100
AcDbEntity
  8
AM_4
100
AcDbLine
 10
0.0964174494646811
 20
1.563917980904126
 30
0.0
 11
0.1025391939211645
 21
1.552264204111734
 31
0.0
  0
LINE
  5
213
330
169
100
AcDbEntity
  8
AM_4
100
AcDbLine
 10
0.0933565798864461
 20
1.578485201869612
 30
0.0
 11
0.0964174494646811
 21
1.563917980904126
 31
0.0
  0
LINE
  5
214
330
169
100
AcDbEntity
  8
AM_4
100
AcDbLine
 10
0.0933565798864461
 20
1.622186862266131
 30
0.0
 11
0.0933565798864461
 21
1.578485201869612
 31
0.0
  0
LINE
  5
215
330
169
100
AcDbEntity
  8
AM_4
100
AcDbLine
 10
-0.1974261924468419
 20
1.636754080631633
 30
0.0
 11
-0.2004870619250909
 21
1.622186862266131
 31
0.0
  0
LINE
  5
216
330
169
100
AcDbEntity
  8
AM_4
100
AcDbLine
 10
-0.1913044533903582
 20
1.648407857424025
 30
0.0
 11
-0.1974261924468419
 21
1.636754080631633
 31
0.0
  0
LINE
  5
217
330
169
100
AcDbEntity
  8
AM_4
100
AcDbLine
 10
-0.1790609752773919
 20
1.660061634316433
 30
0.0
 11
-0.1913044533903582
 21
1.648407857424025
 31
0.0
  0
LINE
  5
218
330
169
100
AcDbEntity
  8
AM_4
100
AcDbLine
 10
-0.1668174755644229
 20
1.665888522662621
 30
0.0
 11
-0.1790609752773919
 21
1.660061634316433
 31
0.0
  0
LINE
  5
219
330
169
100
AcDbEntity
  8
AM_4
100
AcDbLine
 10
-0.1515131279731519
 20
1.668801966935731
 30
0.0
 11
-0.1668174755644229
 21
1.665888522662621
 31
0.0
  0
LINE
  5
21A
330
169
100
AcDbEntity
  8
AM_4
100
AcDbLine
 10
-0.1270261501472169
 20
1.668801966935731
 30
0.0
 11
-0.1515131279731519
 21
1.668801966935731
 31
0.0
  0
LINE
  5
21B
330
169
100
AcDbEntity
  8
AM_4
100
AcDbLine
 10
-0.1117217917560009
 20
1.665888522662621
 30
0.0
 11
-0.1270261501472169
 21
1.668801966935731
 31
0.0
  0
LINE
  5
21C
330
169
100
AcDbEntity
  8
AM_4
100
AcDbLine
 10
-0.0994783136429771
 20
1.660061634316433
 30
0.0
 11
-0.1117217917560009
 21
1.665888522662621
 31
0.0
  0
LINE
  5
21D
330
169
100
AcDbEntity
  8
AM_4
100
AcDbLine
 10
-0.0872348247300096
 20
1.648407857424025
 30
0.0
 11
-0.0994783136429771
 21
1.660061634316433
 31
0.0
  0
LINE
  5
21E
330
169
100
AcDbEntity
  8
AM_4
100
AcDbLine
 10
-0.0811130856735257
 20
1.636754080631633
 30
0.0
 11
-0.0872348247300096
 21
1.648407857424025
 31
0.0
  0
LINE
  5
21F
330
169
100
AcDbEntity
  8
AM_4
100
AcDbLine
 10
-0.0780522160952907
 20
1.622186862266131
 30
0.0
 11
-0.0811130856735257
 21
1.636754080631633
 31
0.0
  0
LINE
  5
220
330
169
100
AcDbEntity
  8
AM_4
100
AcDbLine
 10
-0.0780522160952907
 20
1.578485201869612
 30
0.0
 11
-0.0780522160952907
 21
1.622186862266131
 31
0.0
  0
LINE
  5
221
330
169
100
AcDbEntity
  8
AM_4
100
AcDbLine
 10
-0.0811130856735257
 20
1.563917980904126
 30
0.0
 11
-0.0780522160952907
 21
1.578485201869612
 31
0.0
  0
LINE
  5
222
330
169
100
AcDbEntity
  8
AM_4
100
AcDbLine
 10
-0.0872348247300096
 20
1.552264204111734
 30
0.0
 11
-0.0811130856735257
 21
1.563917980904126
 31
0.0
  0
LINE
  5
223
330
169
100
AcDbEntity
  8
AM_4
100
AcDbLine
 10
-0.0994783136429771
 20
1.540610432619298
 30
0.0
 11
-0.0872348247300096
 21
1.552264204111734
 31
0.0
  0
LINE
  5
224
330
169
100
AcDbEntity
  8
AM_4
100
AcDbLine
 10
-0.1117217917560009
 20
1.534783544173094
 30
0.0
 11
-0.0994783136429771
 21
1.540610432619298
 31
0.0
  0
LINE
  5
225
330
169
100
AcDbEntity
  8
AM_4
100
AcDbLine
 10
-0.1270261501472169
 20
1.5318701
 30
0.0
 11
-0.1117217917560009
 21
1.534783544173094
 31
0.0
  0
LINE
  5
226
330
169
100
AcDbEntity
  8
AM_4
100
AcDbLine
 10
-0.1515131279731519
 20
1.5318701
 30
0.0
 11
-0.1270261501472169
 21
1.5318701
 31
0.0
  0
LINE
  5
227
330
169
100
AcDbEntity
  8
AM_4
100
AcDbLine
 10
-0.1668174755644229
 20
1.534783544173094
 30
0.0
 11
-0.1515131279731519
 21
1.5318701
 31
0.0
  0
LINE
  5
228
330
169
100
AcDbEntity
  8
AM_4
100
AcDbLine
 10
-0.1790609752773919
 20
1.540610432619298
 30
0.0
 11
-0.1668174755644229
 21
1.534783544173094
 31
0.0
  0
LINE
  5
229
330
169
100
AcDbEntity
  8
AM_4
100
AcDbLine
 10
-0.1913044533903579
 20
1.552264204111734
 30
0.0
 11
-0.1790609752773919
 21
1.540610432619298
 31
0.0
  0
LINE
  5
22A
330
169
100
AcDbEntity
  8
AM_4
100
AcDbLine
 10
-0.1974261924468419
 20
1.563917980904126
 30
0.0
 11
-0.1913044533903579
 21
1.552264204111734
 31
0.0
  0
LINE
  5
22B
330
169
100
AcDbEntity
  8
AM_4
100
AcDbLine
 10
-0.2004870619250909
 20
1.578485201869612
 30
0.0
 11
-0.1974261924468419
 21
1.563917980904126
 31
0.0
  0
LINE
  5
22C
330
169
100
AcDbEntity
  8
AM_4
100
AcDbLine
 10
-0.2004870619250909
 20
1.622186862266131
 30
0.0
 11
-0.2004870619250909
 21
1.578485201869612
 31
0.0
  0
LINE
  5
22D
330
169
100
AcDbEntity
  8
AM_4
100
AcDbLine
 10
-0.2586436261117469
 20
1.665888522662621
 30
0.0
 11
-0.2739479738029501
 21
1.668801966935731
 31
0.0
  0
LINE
  5
22E
330
169
100
AcDbEntity
  8
AM_4
100
AcDbLine
 10
-0.2464001264987681
 20
1.660061634316433
 30
0.0
 11
-0.2586436261117469
 21
1.665888522662621
 31
0.0
  0
LINE
  5
22F
330
169
100
AcDbEntity
  8
AM_4
100
AcDbLine
 10
-0.2341566483858001
 20
1.648407857424025
 30
0.0
 11
-0.2464001264987681
 21
1.660061634316433
 31
0.0
  0
LINE
  5
230
330
169
100
AcDbEntity
  8
AM_4
100
AcDbLine
 10
-0.22803490932926
 20
1.636754080631633
 30
0.0
 11
-0.2341566483858001
 21
1.648407857424025
 31
0.0
  0
LINE
  5
231
330
169
100
AcDbEntity
  8
AM_4
100
AcDbLine
 10
-0.22803490932926
 20
1.563917980904126
 30
0.0
 11
-0.224974039751081
 21
1.578485201869612
 31
0.0
  0
LINE
  5
232
330
169
100
AcDbEntity
  8
AM_4
100
AcDbLine
 10
-0.2341566483858001
 20
1.552264204111734
 30
0.0
 11
-0.22803490932926
 21
1.563917980904126
 31
0.0
  0
LINE
  5
233
330
169
100
AcDbEntity
  8
AM_4
100
AcDbLine
 10
-0.2464001264987681
 20
1.540610432619298
 30
0.0
 11
-0.2341566483858001
 21
1.552264204111734
 31
0.0
  0
LINE
  5
234
330
169
100
AcDbEntity
  8
AM_4
100
AcDbLine
 10
-0.2586436261117471
 20
1.534783544173094
 30
0.0
 11
-0.2464001264987681
 21
1.540610432619298
 31
0.0
  0
LINE
  5
235
330
169
100
AcDbEntity
  8
AM_4
100
AcDbLine
 10
-0.0535652437692857
 20
1.668801966935731
 30
0.0
 11
-0.0535652437692857
 21
1.5318701
 31
0.0
  0
LINE
  5
236
330
169
100
AcDbEntity
  8
AM_4
100
AcDbLine
 10
0.0198956674085485
 20
1.668801966935731
 30
0.0
 11
-0.0535652437692857
 21
1.668801966935731
 31
0.0
  0
LINE
  5
237
330
169
100
AcDbEntity
  8
AM_4
100
AcDbLine
 10
0.035200023799789
 20
1.665888522662621
 30
0.0
 11
0.0198956674085485
 21
1.668801966935731
 31
0.0
  0
LINE
  5
238
330
169
100
AcDbEntity
  8
AM_4
100
AcDbLine
 10
0.0474435100127576
 20
1.660061634316433
 30
0.0
 11
0.035200023799789
 21
1.665888522662621
 31
0.0
  0
LINE
  5
239
330
169
100
AcDbEntity
  8
AM_4
100
AcDbLine
 10
0.0596869935257813
 20
1.648407857424025
 30
0.0
 11
0.0474435100127576
 21
1.660061634316433
 31
0.0
  0
LINE
  5
23A
330
169
100
AcDbEntity
  8
AM_4
100
AcDbLine
 10
0.0658087379822068
 20
1.636754080631633
 30
0.0
 11
0.0596869935257813
 21
1.648407857424025
 31
0.0
  0
LINE
  5
23B
330
169
100
AcDbEntity
  8
AM_4
100
AcDbLine
 10
0.0688696074604557
 20
1.622186862266131
 30
0.0
 11
0.0658087379822068
 21
1.636754080631633
 31
0.0
  0
LINE
  5
23C
330
169
100
AcDbEntity
  8
AM_4
100
AcDbLine
 10
0.0688696074604557
 20
1.578485201869612
 30
0.0
 11
0.0688696074604557
 21
1.622186862266131
 31
0.0
  0
LINE
  5
23D
330
169
100
AcDbEntity
  8
AM_4
100
AcDbLine
 10
0.0596869935257813
 20
1.552264204111734
 30
0.0
 11
0.0658087379822068
 21
1.563917980904126
 31
0.0
  0
LINE
  5
23E
330
169
100
AcDbEntity
  8
AM_4
100
AcDbLine
 10
0.035200023799789
 20
1.534783544173094
 30
0.0
 11
0.0474435100127576
 21
1.540610432619298
 31
0.0
  0
LINE
  5
23F
330
169
100
AcDbEntity
  8
AM_4
100
AcDbLine
 10
0.0198956674085483
 20
1.5318701
 30
0.0
 11
0.035200023799789
 21
1.534783544173094
 31
0.0
  0
LINE
  5
240
330
169
100
AcDbEntity
  8
AM_4
100
AcDbLine
 10
-0.0535652437692857
 20
1.5318701
 30
0.0
 11
0.0198956674085483
 21
1.5318701
 31
0.0
  0
LINE
  5
241
330
169
100
AcDbEntity
  8
AM_4
100
AcDbLine
 10
0.2555827565334539
 20
1.595965865808202
 30
0.0
 11
0.3351654074678528
 21
1.595965865808202
 31
0.0
  0
LINE
  5
242
330
169
100
AcDbEntity
  8
AM_4
100
AcDbLine
 10
0.3474088855808208
 20
1.549350759838624
 30
0.0
 11
0.2555827565334539
 21
1.549350759838624
 31
0.0
  0
LINE
  5
243
330
169
100
AcDbEntity
  8
AM_4
100
AcDbLine
 10
0.3474088855808208
 20
1.5318701
 30
0.0
 11
0.3474088855808208
 21
1.549350759838624
 31
0.0
  0
LINE
  5
244
330
169
100
AcDbEntity
  8
AM_4
100
AcDbLine
 10
0.9999999999999997
 20
1.492496375
 30
0.0
 11
-0.9999999999999997
 21
1.492496375
 31
0.0
  0
LINE
  5
245
330
169
100
AcDbEntity
  8
AM_4
100
AcDbLine
 10
0.9999999999999997
 20
1.374386375
 30
0.0
 11
-0.9999999999999997
 21
1.374386375
 31
0.0
  0
LINE
  5
246
330
169
100
AcDbEntity
  8
AM_4
100
AcDbLine
 10
1.0
 20
1.0625
 30
0.0
 11
0.9999999999999999
 21
1.78125
 31
0.0
  0
LWPOLYLINE
  5
247
330
169
100
AcDbEntity
  8
AM_4
100
AcDbPolyline
 90
       19
 70
     0
 43
0.0
 10
-0.9692259720153061
 20
1.812496375
 10
-0.971947461819385
 20
1.812335989415065
 10
-0.9746446170083379
 20
1.811939020680449
 10
-0.9772969106025904
 20
1.811308489967916
 10
-0.9798841570463915
 20
1.810449195996916
 10
-0.9823866658320817
 20
1.809367678513422
 10
-0.9847853913567458
 20
1.808072168518522
 10
-0.9870620778707511
 20
1.806572525625528
 10
-0.9891993984150249
 20
1.804880163022365
 10
-0.9911810866896763
 20
1.80300796061032
 10
-0.9929920608503586
 20
1.800970166980214
 10
-0.9946185382902131
 20
1.798782290972026
 10
-0.9960481405338285
 20
1.796460983643254
 10
-0.9972699874449137
 20
1.794023911544314
 10
-0.9982747800307038
 20
1.791489622265424
 10
-0.9990548712129107
 20
1.78887740327824
 10
-0.9996043240266058
 20
1.786207135146557
 10
-0.9999189568041081
 20
1.783499140223209
 10
-1.0
 20
1.781250000465661
  0
LINE
  5
248
330
169
100
AcDbEntity
  8
AM_4
100
AcDbLine
 10
0.9999999999999997
 20
1.773126275
 30
0.0
 11
-0.9999999999999997
 21
1.773126275
 31
0.0
  0
LWPOLYLINE
  5
249
330
169
100
AcDbEntity
  8
AM_4
100
AcDbPolyline
 90
       19
 70
     0
 43
0.0
 10
1.0
 20
1.78125
 10
0.999881084315367
 20
1.783973616960864
 10
0.9995252422816314
 20
1.786676505552091
 10
0.9989351820715333
 20
1.789338095159454
 10
0.9981153943995594
 20
1.791938129478927
 10
0.9970721183448951
 20
1.794456820679397
 10
0.9958132938682634
 20
1.796875
 10
0.9943485013840307
 20
1.79917426363597
 10
0.9926888888474678
 20
1.801337112802704
 10
0.9908470869120792
 20
1.80334708691208
 10
0.988837112802704
 20
1.805188888847468
 10
0.9866742636359699
 20
1.806848501384031
 10
0.9843749999999996
 20
1.808313293868263
 10
0.9819568206793964
 20
1.809572118344895
 10
0.9794381294789267
 20
1.810615394399559
 10
0.9768380951594534
 20
1.811435182071533
 10
0.974176505552091
 20
1.812025242281631
 10
0.9714736169608638
 20
1.812381084315367
 10
0.9692259720152884
 20
1.812496375
  0
LINE
  5
24A
330
169
100
AcDbEntity
  8
AM_4
100
AcDbLine
 10
0.9692259720152883
 20
1.812496375
 30
0.0
 11
-0.9692259720153062
 21
1.812496375
 31
0.0
  0
LINE
  5
24B
330
169
100
AcDbEntity
  8
AM_4
100
AcDbLine
 10
2.375
 20
-0.5107936365952751
 30
0.0
 11
2.0
 21
-0.5107936365952751
 31
0.0
  0
LINE
  5
24C
330
169
100
AcDbEntity
  8
AM_4
100
AcDbLine
 10
2.375
 20
0.5107936365952753
 30
0.0
 11
2.0
 21
0.5107936365952752
 31
0.0
  0
ENDBLK
  5
16C
330
169
100
AcDbEntity
  8
0
100
AcDbBlockEnd
  0
ENDSEC
  0
SECTION
  2
ENTITIES
  0
INSERT
  5
6F
330
1F
100
AcDbEntity
  8
0
100
AcDbBlockReference
  2
1_136130_0
 10
0.0
 20
0.0
 30
0.0
  0
POINT
  5
24E
330
1F
100
AcDbEntity
  8
ConnectionPoints
100
AcDbPoint
 10
0.0
 20
0.0
 30
0.0
  0
POINT
  5
24F
330
1F
100
AcDbEntity
  8
ConnectionPoints
100
AcDbPoint
 10
0.0
 20
0.0
 30
0.0
  0
POINT
  5
250
330
1F
100
AcDbEntity
  8
ConnectionPoints
100
AcDbPoint
 10
0.0
 20
0.0
 30
-0.484375
  0
POINT
  5
251
330
1F
100
AcDbEntity
  8
ConnectionPoints
100
AcDbPoint
 10
0.0
 20
0.0
 30
0.0
  0
POINT
  5
252
330
1F
100
AcDbEntity
  8
ConnectionPoints
100
AcDbPoint
 10
0.0
 20
0.0
 30
0.0
  0
POINT
  5
253
330
1F
100
AcDbEntity
  8
ConnectionPoints
100
AcDbPoint
 10
0.0
 20
0.0
 30
0.0
  0
POINT
  5
254
330
1F
100
AcDbEntity
  8
ConnectionPoints
100
AcDbPoint
 10
-1.22326088284552
 20
-0.7062499999999999
 30
0.0
  0
POINT
  5
255
330
1F
100
AcDbEntity
  8
ConnectionPoints
100
AcDbPoint
 10
0.0
 20
0.0
 30
0.484375
  0
ENDSEC
  0
SECTION
  2
OBJECTS
  0
DICTIONARY
  5
C
330
0
100
AcDbDictionary
281
     1
  3
ACAD_DETAILVIEWSTYLE
350
25D
  3
ACAD_GROUP
350
D
  3
ACAD_LAYOUT
350
1A
  3
ACAD_MATERIAL
350
43
  3
ACAD_MLEADERSTYLE
350
6B
  3
ACAD_MLINESTYLE
350
17
  3
ACAD_PLOTSETTINGS
350
19
  3
ACAD_PLOTSTYLENAME
350
E
  3
ACAD_SCALELIST
350
47
  3
ACAD_SECTIONVIEWSTYLE
350
25E
  3
ACAD_TABLESTYLE
350
69
  3
ACAD_VISUALSTYLE
350
2A
  3
ACDB_RECOMPOSE_DATA
350
25A
  3
AcDbVariableDictionary
350
256
  0
SUN
  5
6D
330
29
100
AcDbSun
 90
        1
290
     0
 63
     7
421
 16777215
 40
1.0
291
     1
 91
  2455826
 92
 54000000
292
     0
 70
     2
 71
   256
280
     1
  0
DICTIONARY
  5
25D
102
{ACAD_REACTORS
330
C
102
}
330
C
100
AcDbDictionary
281
     1
  0
DICTIONARY
  5
D
102
{ACAD_REACTORS
330
C
102
}
330
C
100
AcDbDictionary
281
     1
  0
DICTIONARY
  5
1A
102
{ACAD_REACTORS
330
C
102
}
330
C
100
AcDbDictionary
281
     1
  3
Layout1
350
1E
  3
Layout2
350
26
  3
Model
350
22
  0
DICTIONARY
  5
43
102
{ACAD_REACTORS
330
C
102
}
330
C
100
AcDbDictionary
281
     1
  3
ByBlock
350
45
  3
ByLayer
350
44
  3
Global
350
46
  0
DICTIONARY
  5
6B
102
{ACAD_REACTORS
330
C
102
}
330
C
100
AcDbDictionary
281
     1
  3
Standard
350
6C
  0
DICTIONARY
  5
17
102
{ACAD_REACTORS
330
C
102
}
330
C
100
AcDbDictionary
281
     1
  3
Standard
350
18
  0
DICTIONARY
  5
19
102
{ACAD_REACTORS
330
C
102
}
330
C
100
AcDbDictionary
281
     1
  0
ACDBDICTIONARYWDFLT
  5
E
102
{ACAD_REACTORS
330
C
102
}
330
C
100
AcDbDictionary
281
     1
  3
Normal
350
F
100
AcDbDictionaryWithDefault
340
F
  0
DICTIONARY
  5
47
102
{ACAD_REACTORS
330
C
102
}
330
C
100
AcDbDictionary
281
     1
  3
A0
350
48
  3
A1
350
49
  3
A2
350
4A
  3
A3
350
4B
  3
A4
350
4C
  3
A5
350
4D
  3
A6
350
4E
  3
A7
350
4F
  3
A8
350
50
  3
A9
350
51
  3
B0
350
52
  3
B1
350
53
  3
B2
350
54
  3
B3
350
55
  3
B4
350
56
  3
B5
350
57
  3
B6
350
58
  3
B7
350
59
  3
B8
350
5A
  3
B9
350
5B
  3
C0
350
5C
  3
C1
350
5D
  3
C2
350
5E
  3
C3
350
5F
  3
C4
350
60
  3
C5
350
61
  3
C6
350
62
  3
C7
350
63
  3
C8
350
64
  3
C9
350
65
  3
D0
350
66
  3
D1
350
67
  3
D2
350
68
  0
DICTIONARY
  5
25E
102
{ACAD_REACTORS
330
C
102
}
330
C
100
AcDbDictionary
281
     1
  0
DICTIONARY
  5
69
102
{ACAD_REACTORS
330
C
102
}
330
C
100
AcDbDictionary
281
     1
  3
Standard
350
6A
  0
DICTIONARY
  5
2A
102
{ACAD_REACTORS
330
C
102
}
330
C
100
AcDbDictionary
281
     1
  3
2dWireframe
350
2F
  3
Basic
350
32
  3
Brighten
350
36
  3
ColorChange
350
3A
  3
Conceptual
350
34
  3
Dim
350
35
  3
EdgeColorOff
350
3D
  3
Facepattern
350
39
  3
Flat
350
2B
  3
FlatWithEdges
350
2C
  3
Gouraud
350
2D
  3
GouraudWithEdges
350
2E
  3
Hidden
350
31
  3
JitterOff
350
3B
  3
Linepattern
350
38
  3
OverhangOff
350
3C
  3
Realistic
350
33
  3
Shaded
350
42
  3
Shaded with edges
350
41
  3
Shades of Gray
350
3E
  3
Sketchy
350
3F
  3
Thicken
350
37
  3
Wireframe
350
30
  3
X-Ray
350
40
  0
XRECORD
  5
25A
102
{ACAD_REACTORS
330
C
102
}
330
C
100
AcDbXrecord
280
     1
 90
        1
330
6A
  0
DICTIONARY
  5
256
102
{ACAD_REACTORS
330
C
102
}
330
C
100
AcDbDictionary
281
     1
  3
CANNOSCALE
350
257
  3
CMLEADERSTYLE
350
25C
  3
CTABLESTYLE
350
25B
  0
LAYOUT
  5
1E
102
{ACAD_REACTORS
330
1A
102
}
330
1A
100
AcDbPlotSettings
  1

  2
none_device
  4

  6

 40
0.0
 41
0.0
 42
0.0
 43
0.0
 44
0.0
 45
0.0
 46
0.0
 47
0.0
 48
0.0
 49
0.0
140
0.0
141
0.0
142
1.0
143
1.0
 70
   688
 72
     0
 73
     0
 74
     5
  7

 75
    16
 76
     0
 77
     2
 78
   300
147
1.0
148
0.0
149
0.0
100
AcDbLayout
  1
Layout1
 70
     1
 71
     1
 10
0.0
 20
0.0
 11
12.0
 21
9.0
 12
0.0
 22
0.0
 32
0.0
 14
1.000000000000000E+20
 24
1.000000000000000E+20
 34
1.000000000000000E+20
 15
-1.000000000000000E+20
 25
-1.000000000000000E+20
 35
-1.000000000000000E+20
146
0.0
 13
0.0
 23
0.0
 33
0.0
 16
1.0
 26
0.0
 36
0.0
 17
0.0
 27
1.0
 37
0.0
 76
     0
330
1B
  0
LAYOUT
  5
26
102
{ACAD_REACTORS
330
1A
102
}
330
1A
100
AcDbPlotSettings
  1

  2
none_device
  4

  6

 40
0.0
 41
0.0
 42
0.0
 43
0.0
 44
0.0
 45
0.0
 46
0.0
 47
0.0
 48
0.0
 49
0.0
140
0.0
141
0.0
142
1.0
143
1.0
 70
   688
 72
     0
 73
     0
 74
     5
  7

 75
    16
 76
     0
 77
     2
 78
   300
147
1.0
148
0.0
149
0.0
100
AcDbLayout
  1
Layout2
 70
     1
 71
     2
 10
0.0
 20
0.0
 11
0.0
 21
0.0
 12
0.0
 22
0.0
 32
0.0
 14
0.0
 24
0.0
 34
0.0
 15
0.0
 25
0.0
 35
0.0
146
0.0
 13
0.0
 23
0.0
 33
0.0
 16
1.0
 26
0.0
 36
0.0
 17
0.0
 27
1.0
 37
0.0
 76
     0
330
23
  0
LAYOUT
  5
22
102
{ACAD_REACTORS
330
1A
102
}
330
1A
100
AcDbPlotSettings
  1

  2
none_device
  4
Letter_(8.50_x_11.00_Inches)
  6

 40
6.35
 41
6.35
 42
6.35000508
 43
6.35000508
 44
215.9
 45
279.4
 46
0.0
 47
0.0
 48
0.0
 49
0.0
140
0.0
141
0.0
142
1.0
143
1.0
 70
  1712
 72
     0
 73
     0
 74
     0
  7

 75
     0
 76
     0
 77
     2
 78
   300
147
1.0
148
0.0
149
0.0
100
AcDbLayout
  1
Model
 70
     1
 71
     0
 10
0.0
 20
0.0
 11
12.0
 21
9.0
 12
0.0
 22
0.0
 32
0.0
 14
1.000000000000000E+20
 24
1.000000000000000E+20
 34
1.000000000000000E+20
 15
-1.000000000000000E+20
 25
-1.000000000000000E+20
 35
-1.000000000000000E+20
146
0.0
 13
0.0
 23
0.0
 33
0.0
 16
1.0
 26
0.0
 36
0.0
 17
0.0
 27
1.0
 37
0.0
 76
     0
330
1F
331
29
  0
MATERIAL
  5
45
102
{ACAD_REACTORS
330
43
102
}
330
43
100
AcDbMaterial
  1
ByBlock
 72
     1
 94
      127
  0
MATERIAL
  5
44
102
{ACAD_REACTORS
330
43
102
}
330
43
100
AcDbMaterial
  1
ByLayer
 72
     1
 94
      127
  0
MATERIAL
  5
46
102
{ACAD_REACTORS
330
43
102
}
330
43
100
AcDbMaterial
  1
Global
 72
     1
 94
      127
  0
MLEADERSTYLE
  5
6C
102
{ACAD_REACTORS
330
6B
102
}
330
6B
100
AcDbMLeaderStyle
179
     2
170
     2
171
     1
172
     0
 90
        2
 40
0.0
 41
0.0
173
     1
 91
-1056964608
340
14
 92
       -2
290
     1
 42
0.09
291
     1
 43
0.36
  3
Standard
341
0
 44
0.18
300

342
11
174
     1
178
     6
175
     1
176
     0
 93
-1056964608
 45
0.18
292
     0
297
     0
 46
0.18
343
0
 94
-1056964608
 47
1.0
 49
1.0
140
1.0
293
     1
141
0.0
294
     1
177
     0
142
1.0
295
     0
296
     0
143
0.125
271
     0
272
     9
273
     9
298
     0
  0
MLINESTYLE
  5
18
102
{ACAD_REACTORS
330
17
102
}
330
17
100
AcDbMlineStyle
  2
Standard
 70
     0
  3

 62
   256
 51
90.0
 52
90.0
 71
     2
 49
0.5
 62
   256
  6
BYLAYER
 49
-0.5
 62
   256
  6
BYLAYER
  0
ACDBPLACEHOLDER
  5
F
102
{ACAD_REACTORS
330
E
102
}
330
E
  0
SCALE
  5
48
102
{ACAD_REACTORS
330
47
102
}
330
47
100
AcDbScale
 70
     0
300
1:1
140
1.0
141
1.0
290
     1
  0
SCALE
  5
49
102
{ACAD_REACTORS
330
47
102
}
330
47
100
AcDbScale
 70
     0
300
1:2
140
1.0
141
2.0
290
     0
  0
SCALE
  5
4A
102
{ACAD_REACTORS
330
47
102
}
330
47
100
AcDbScale
 70
     0
300
1:4
140
1.0
141
4.0
290
     0
  0
SCALE
  5
4B
102
{ACAD_REACTORS
330
47
102
}
330
47
100
AcDbScale
 70
     0
300
1:5
140
1.0
141
5.0
290
     0
  0
SCALE
  5
4C
102
{ACAD_REACTORS
330
47
102
}
330
47
100
AcDbScale
 70
     0
300
1:8
140
1.0
141
8.0
290
     0
  0
SCALE
  5
4D
102
{ACAD_REACTORS
330
47
102
}
330
47
100
AcDbScale
 70
     0
300
1:10
140
1.0
141
10.0
290
     0
  0
SCALE
  5
4E
102
{ACAD_REACTORS
330
47
102
}
330
47
100
AcDbScale
 70
     0
300
1:16
140
1.0
141
16.0
290
     0
  0
SCALE
  5
4F
102
{ACAD_REACTORS
330
47
102
}
330
47
100
AcDbScale
 70
     0
300
1:20
140
1.0
141
20.0
290
     0
  0
SCALE
  5
50
102
{ACAD_REACTORS
330
47
102
}
330
47
100
AcDbScale
 70
     0
300
1:30
140
1.0
141
30.0
290
     0
  0
SCALE
  5
51
102
{ACAD_REACTORS
330
47
102
}
330
47
100
AcDbScale
 70
     0
300
1:40
140
1.0
141
40.0
290
     0
  0
SCALE
  5
52
102
{ACAD_REACTORS
330
47
102
}
330
47
100
AcDbScale
 70
     0
300
1:50
140
1.0
141
50.0
290
     0
  0
SCALE
  5
53
102
{ACAD_REACTORS
330
47
102
}
330
47
100
AcDbScale
 70
     0
300
1:100
140
1.0
141
100.0
290
     0
  0
SCALE
  5
54
102
{ACAD_REACTORS
330
47
102
}
330
47
100
AcDbScale
 70
     0
300
2:1
140
2.0
141
1.0
290
     0
  0
SCALE
  5
55
102
{ACAD_REACTORS
330
47
102
}
330
47
100
AcDbScale
 70
     0
300
4:1
140
4.0
141
1.0
290
     0
  0
SCALE
  5
56
102
{ACAD_REACTORS
330
47
102
}
330
47
100
AcDbScale
 70
     0
300
8:1
140
8.0
141
1.0
290
     0
  0
SCALE
  5
57
102
{ACAD_REACTORS
330
47
102
}
330
47
100
AcDbScale
 70
     0
300
10:1
140
10.0
141
1.0
290
     0
  0
SCALE
  5
58
102
{ACAD_REACTORS
330
47
102
}
330
47
100
AcDbScale
 70
     0
300
100:1
140
100.0
141
1.0
290
     0
  0
SCALE
  5
59
102
{ACAD_REACTORS
330
47
102
}
330
47
100
AcDbScale
 70
     0
300
1/128" = 1'-0"
140
0.0078125
141
12.0
290
     0
  0
SCALE
  5
5A
102
{ACAD_REACTORS
330
47
102
}
330
47
100
AcDbScale
 70
     0
300
1/64" = 1'-0"
140
0.015625
141
12.0
290
     0
  0
SCALE
  5
5B
102
{ACAD_REACTORS
330
47
102
}
330
47
100
AcDbScale
 70
     0
300
1/32" = 1'-0"
140
0.03125
141
12.0
290
     0
  0
SCALE
  5
5C
102
{ACAD_REACTORS
330
47
102
}
330
47
100
AcDbScale
 70
     0
300
1/16" = 1'-0"
140
0.0625
141
12.0
290
     0
  0
SCALE
  5
5D
102
{ACAD_REACTORS
330
47
102
}
330
47
100
AcDbScale
 70
     0
300
3/32" = 1'-0"
140
0.09375
141
12.0
290
     0
  0
SCALE
  5
5E
102
{ACAD_REACTORS
330
47
102
}
330
47
100
AcDbScale
 70
     0
300
1/8" = 1'-0"
140
0.125
141
12.0
290
     0
  0
SCALE
  5
5F
102
{ACAD_REACTORS
330
47
102
}
330
47
100
AcDbScale
 70
     0
300
3/16" = 1'-0"
140
0.1875
141
12.0
290
     0
  0
SCALE
  5
60
102
{ACAD_REACTORS
330
47
102
}
330
47
100
AcDbScale
 70
     0
300
1/4" = 1'-0"
140
0.25
141
12.0
290
     0
  0
SCALE
  5
61
102
{ACAD_REACTORS
330
47
102
}
330
47
100
AcDbScale
 70
     0
300
3/8" = 1'-0"
140
0.375
141
12.0
290
     0
  0
SCALE
  5
62
102
{ACAD_REACTORS
330
47
102
}
330
47
100
AcDbScale
 70
     0
300
1/2" = 1'-0"
140
0.5
141
12.0
290
     0
  0
SCALE
  5
63
102
{ACAD_REACTORS
330
47
102
}
330
47
100
AcDbScale
 70
     0
300
3/4" = 1'-0"
140
0.75
141
12.0
290
     0
  0
SCALE
  5
64
102
{ACAD_REACTORS
330
47
102
}
330
47
100
AcDbScale
 70
     0
300
1" = 1'-0"
140
1.0
141
12.0
290
     0
  0
SCALE
  5
65
102
{ACAD_REACTORS
330
47
102
}
330
47
100
AcDbScale
 70
     0
300
1-1/2" = 1'-0"
140
1.5
141
12.0
290
     0
  0
SCALE
  5
66
102
{ACAD_REACTORS
330
47
102
}
330
47
100
AcDbScale
 70
     0
300
3" = 1'-0"
140
3.0
141
12.0
290
     0
  0
SCALE
  5
67
102
{ACAD_REACTORS
330
47
102
}
330
47
100
AcDbScale
 70
     0
300
6" = 1'-0"
140
6.0
141
12.0
290
     0
  0
SCALE
  5
68
102
{ACAD_REACTORS
330
47
102
}
330
47
100
AcDbScale
 70
     0
300
1'-0" = 1'-0"
140
12.0
141
12.0
290
     0
  0
TABLESTYLE
  5
6A
102
{ACAD_REACTORS
330
69
102
}
102
{ACAD_XDICTIONARY
360
258
102
}
330
69
100
AcDbTableStyle
  3
Standard
 70
     0
 71
     0
 40
0.06
 41
0.06
280
     0
281
     0
  7
Standard
140
0.18
170
     2
 62
     0
 63
   257
283
     0
 90
        4
 91
        0
  1

274
    -2
284
     1
 64
     0
275
    -2
285
     1
 65
     0
276
    -2
286
     1
 66
     0
277
    -2
287
     1
 67
     0
278
    -2
288
     1
 68
     0
279
    -2
289
     1
 69
     0
  7
Standard
140
0.25
170
     5
 62
     0
 63
   257
283
     0
 90
        4
 91
        0
  1

274
    -2
284
     1
 64
     0
275
    -2
285
     1
 65
     0
276
    -2
286
     1
 66
     0
277
    -2
287
     1
 67
     0
278
    -2
288
     1
 68
     0
279
    -2
289
     1
 69
     0
  7
Standard
140
0.18
170
     5
 62
     0
 63
   257
283
     0
 90
        4
 91
        0
  1

274
    -2
284
     1
 64
     0
275
    -2
285
     1
 65
     0
276
    -2
286
     1
 66
     0
277
    -2
287
     1
 67
     0
278
    -2
288
     1
 68
     0
279
    -2
289
     1
 69
     0
  0
VISUALSTYLE
  5
2F
102
{ACAD_REACTORS
330
2A
102
}
330
2A
100
AcDbVisualStyle
  2
2dWireframe
 70
     4
177
     3
291
     0
 70
    58
 90
        0
176
     1
 90
        2
176
     1
 90
        0
176
     1
 90
        0
176
     1
 40
0.6
176
     1
 40
30.0
176
     1
 62
     7
420
 16777215
176
     1
 90
        1
176
     1
 90
        4
176
     1
 62
     7
176
     1
 62
   257
176
     1
 90
        1
176
     1
 90
        1
176
     1
 40
1.0
176
     1
 90
        0
176
     1
 62
   257
176
     1
 40
1.0
176
     1
 90
        1
176
     1
 90
        6
176
     1
 90
        2
176
     1
 62
     7
176
     1
 90
        5
176
     1
 90
        0
176
     1
 90
        0
176
     1
290
     0
176
     1
 90
        1
176
     1
 40
0.0
176
     1
 90
        0
176
     1
290
     1
176
     1
290
     1
176
     1
290
     0
176
     1
290
     0
176
     1
290
     0
176
     1
290
     0
176
     1
290
     0
176
     1
290
     0
176
     1
290
     0
176
     1
 90
       50
176
     1
 40
0.0
176
     1
 40
1.0
176
     1
 90
        0
176
     1
 62
    18
420
        0
176
     1
 90
       50
176
     1
 90
        3
176
     1
 62
     5
420
      255
176
     1
290
     0
176
     1
 90
       50
176
     1
 90
       50
176
     1
 90
       50
176
     1
290
     0
176
     1
 90
       50
176
     1
 62
   256
176
     0
 40
1.0
176
     0
 90
        2
176
     1
  1
strokes_ogs.tif
176
     1
290
     0
176
     1
 40
1.0
176
     1
 40
1.0
176
     1
  0
VISUALSTYLE
  5
32
102
{ACAD_REACTORS
330
2A
102
}
330
2A
100
AcDbVisualStyle
  2
Basic
 70
     7
177
     3
291
     1
 70
    58
 90
        1
176
     1
 90
        0
176
     1
 90
        1
176
     1
 90
        0
176
     1
 40
0.6
176
     1
 40
30.0
176
     1
 62
     7
420
 16777215
176
     1
 90
        0
176
     1
 90
        4
176
     1
 62
     7
176
     1
 62
   257
176
     1
 90
        1
176
     1
 90
        1
176
     1
 40
1.0
176
     1
 90
        8
176
     1
 62
     7
176
     1
 40
1.0
176
     1
 90
        1
176
     1
 90
        6
176
     1
 90
        2
176
     1
 62
     7
176
     1
 90
        5
176
     1
 90
        0
176
     1
 90
        0
176
     1
290
     0
176
     1
 90
        1
176
     1
 40
0.0
176
     1
 90
        0
176
     1
290
     0
176
     1
290
     1
176
     1
290
     1
176
     1
290
     0
176
     1
290
     0
176
     1
290
     0
176
     1
290
     0
176
     1
290
     0
176
     1
290
     0
176
     1
 90
       50
176
     1
 40
0.0
176
     1
 40
1.0
176
     1
 90
        0
176
     1
 62
    18
420
        0
176
     1
 90
       50
176
     1
 90
        3
176
     1
 62
     5
420
      255
176
     1
290
     0
176
     1
 90
       50
176
     1
 90
       50
176
     1
 90
       50
176
     1
290
     0
176
     1
 90
       50
176
     1
 62
   256
176
     0
 40
1.0
176
     0
 90
        2
176
     1
  1
strokes_ogs.tif
176
     1
290
     0
176
     1
 40
1.0
176
     1
 40
1.0
176
     1
  0
VISUALSTYLE
  5
36
102
{ACAD_REACTORS
330
2A
102
}
330
2A
100
AcDbVisualStyle
  2
Brighten
 70
    12
177
     3
291
     1
 70
    58
 90
        2
176
     1
 90
        2
176
     1
 90
        0
176
     1
 90
        0
176
     1
 40
0.6
176
     1
 40
30.0
176
     1
 62
     7
420
 16777215
176
     1
 90
        1
176
     1
 90
        4
176
     1
 62
     7
176
     1
 62
   257
176
     1
 90
        1
176
     1
 90
        1
176
     1
 40
1.0
176
     1
 90
        8
176
     1
 62
     7
176
     1
 40
1.0
176
     1
 90
        1
176
     1
 90
        6
176
     1
 90
        2
176
     1
 62
     7
176
     1
 90
        5
176
     1
 90
        0
176
     1
 90
        0
176
     1
290
     0
176
     1
 90
        1
176
     1
 40
50.0
176
     1
 90
        0
176
     1
290
     0
176
     1
290
     1
176
     1
290
     1
176
     1
290
     0
176
     1
290
     0
176
     1
290
     0
176
     1
290
     0
176
     1
290
     0
176
     1
290
     0
176
     1
 90
       50
176
     1
 40
0.0
176
     1
 40
1.0
176
     1
 90
        0
176
     1
 62
    18
420
        0
176
     1
 90
       50
176
     1
 90
        3
176
     1
 62
     5
420
      255
176
     1
290
     0
176
     1
 90
       50
176
     1
 90
       50
176
     1
 90
       50
176
     1
290
     0
176
     1
 90
       50
176
     1
 62
   256
176
     0
 40
1.0
176
     0
 90
        2
176
     1
  1
strokes_ogs.tif
176
     1
290
     0
176
     1
 40
1.0
176
     1
 40
1.0
176
     1
  0
VISUALSTYLE
  5
3A
102
{ACAD_REACTORS
330
2A
102
}
330
2A
100
AcDbVisualStyle
  2
ColorChange
 70
    16
177
     3
291
     1
 70
    58
 90
        2
176
     1
 90
        2
176
     1
 90
        3
176
     1
 90
        0
176
     1
 40
0.6
176
     1
 40
30.0
176
     1
 62
     8
420
  8421504
176
     1
 90
        1
176
     1
 90
        4
176
     1
 62
     7
176
     1
 62
   257
176
     1
 90
        1
176
     1
 90
        1
176
     1
 40
1.0
176
     1
 90
        8
176
     1
 62
     8
420
  8421504
176
     1
 40
1.0
176
     1
 90
        1
176
     1
 90
        6
176
     1
 90
        2
176
     1
 62
     7
176
     1
 90
        5
176
     1
 90
        0
176
     1
 90
        0
176
     1
290
     0
176
     1
 90
        1
176
     1
 40
0.0
176
     1
 90
        0
176
     1
290
     0
176
     1
290
     1
176
     1
290
     1
176
     1
290
     0
176
     1
290
     0
176
     1
290
     0
176
     1
290
     0
176
     1
290
     0
176
     1
290
     0
176
     1
 90
       50
176
     1
 40
0.0
176
     1
 40
1.0
176
     1
 90
        0
176
     1
 62
    18
420
        0
176
     1
 90
       50
176
     1
 90
        3
176
     1
 62
     5
420
      255
176
     1
290
     0
176
     1
 90
       50
176
     1
 90
       50
176
     1
 90
       50
176
     1
290
     0
176
     1
 90
       50
176
     1
 62
   256
176
     0
 40
1.0
176
     0
 90
        2
176
     1
  1
strokes_ogs.tif
176
     1
290
     0
176
     1
 40
1.0
176
     1
 40
1.0
176
     1
  0
VISUALSTYLE
  5
34
102
{ACAD_REACTORS
330
2A
102
}
330
2A
100
AcDbVisualStyle
  2
Conceptual
 70
     9
177
     3
291
     0
 70
    58
 90
        3
176
     1
 90
        2
176
     1
 90
        0
176
     1
 90
        0
176
     1
 40
0.6
176
     1
 40
30.0
176
     1
 62
     7
420
 16777215
176
     1
 90
        2
176
     1
 90
        2
176
     1
 62
     7
176
     1
 62
   257
176
     1
 90
        1
176
     1
 90
        1
176
     1
 40
179.0
176
     1
 90
        8
176
     1
 62
     7
176
     1
 40
1.0
176
     1
 90
        1
176
     1
 90
        6
176
     1
 90
        2
176
     1
 62
     7
176
     1
 90
        3
176
     1
 90
        0
176
     1
 90
        0
176
     1
290
     0
176
     1
 90
        1
176
     1
 40
0.0
176
     1
 90
        0
176
     1
290
     0
176
     1
290
     1
176
     1
290
     1
176
     1
290
     0
176
     1
290
     0
176
     1
290
     0
176
     1
290
     0
176
     1
290
     0
176
     1
290
     0
176
     1
 90
       50
176
     1
 40
0.0
176
     1
 40
1.0
176
     1
 90
        0
176
     1
 62
    18
420
        0
176
     1
 90
       50
176
     1
 90
        3
176
     1
 62
     5
420
      255
176
     1
290
     0
176
     1
 90
       50
176
     1
 90
       50
176
     1
 90
       50
176
     1
290
     0
176
     1
 90
       50
176
     1
 62
   256
176
     0
 40
1.0
176
     0
 90
        2
176
     1
  1
strokes_ogs.tif
176
     1
290
     0
176
     1
 40
1.0
176
     1
 40
1.0
176
     1
  0
VISUALSTYLE
  5
35
102
{ACAD_REACTORS
330
2A
102
}
330
2A
100
AcDbVisualStyle
  2
Dim
 70
    11
177
     3
291
     1
 70
    58
 90
        2
176
     1
 90
        2
176
     1
 90
        0
176
     1
 90
        0
176
     1
 40
0.6
176
     1
 40
30.0
176
     1
 62
     7
420
 16777215
176
     1
 90
        1
176
     1
 90
        4
176
     1
 62
     7
176
     1
 62
   257
176
     1
 90
        1
176
     1
 90
        1
176
     1
 40
1.0
176
     1
 90
        8
176
     1
 62
     7
176
     1
 40
1.0
176
     1
 90
        1
176
     1
 90
        6
176
     1
 90
        2
176
     1
 62
     7
176
     1
 90
        5
176
     1
 90
        0
176
     1
 90
        0
176
     1
290
     0
176
     1
 90
        1
176
     1
 40
-50.0
176
     1
 90
        0
176
     1
290
     0
176
     1
290
     1
176
     1
290
     1
176
     1
290
     0
176
     1
290
     0
176
     1
290
     0
176
     1
290
     0
176
     1
290
     0
176
     1
290
     0
176
     1
 90
       50
176
     1
 40
0.0
176
     1
 40
1.0
176
     1
 90
        0
176
     1
 62
    18
420
        0
176
     1
 90
       50
176
     1
 90
        3
176
     1
 62
     5
420
      255
176
     1
290
     0
176
     1
 90
       50
176
     1
 90
       50
176
     1
 90
       50
176
     1
290
     0
176
     1
 90
       50
176
     1
 62
   256
176
     0
 40
1.0
176
     0
 90
        2
176
     1
  1
strokes_ogs.tif
176
     1
290
     0
176
     1
 40
1.0
176
     1
 40
1.0
176
     1
  0
VISUALSTYLE
  5
3D
102
{ACAD_REACTORS
330
2A
102
}
330
2A
100
AcDbVisualStyle
  2
EdgeColorOff
 70
    22
177
     3
291
     1
 70
    58
 90
        2
176
     0
 90
        2
176
     0
 90
        0
176
     0
 90
        0
176
     0
 40
0.6
176
     0
 40
30.0
176
     0
 62
     7
420
 16777215
176
     0
 90
        1
176
     0
 90
        4
176
     0
 62
     7
176
     0
 62
   257
176
     0
 90
        1
176
     0
 90
        1
176
     0
 40
1.0
176
     0
 90
        8
176
     2
 62
     7
176
     0
 40
1.0
176
     0
 90
        1
176
     0
 90
        6
176
     0
 90
        2
176
     0
 62
     7
176
     0
 90
        5
176
     0
 90
        0
176
     0
 90
        0
176
     0
290
     0
176
     0
 90
        1
176
     0
 40
0.0
176
     0
 90
        0
176
     0
290
     0
176
     0
290
     1
176
     0
290
     1
176
     0
290
     0
176
     0
290
     0
176
     0
290
     0
176
     0
290
     0
176
     0
290
     0
176
     0
290
     0
176
     0
 90
       50
176
     0
 40
0.0
176
     0
 40
1.0
176
     0
 90
        0
176
     0
 62
    18
420
        0
176
     0
 90
       50
176
     0
 90
        3
176
     0
 62
     5
420
      255
176
     0
290
     0
176
     0
 90
       50
176
     0
 90
       50
176
     0
 90
       50
176
     0
290
     0
176
     0
 90
       50
176
     0
 62
   256
176
     0
 40
1.0
176
     0
 90
        2
176
     0
  1
strokes_ogs.tif
176
     0
290
     0
176
     0
 40
1.0
176
     0
 40
1.0
176
     0
  0
VISUALSTYLE
  5
39
102
{ACAD_REACTORS
330
2A
102
}
330
2A
100
AcDbVisualStyle
  2
Facepattern
 70
    15
177
     3
291
     1
 70
    58
 90
        2
176
     1
 90
        2
176
     1
 90
        0
176
     1
 90
        0
176
     1
 40
0.6
176
     1
 40
30.0
176
     1
 62
     7
420
 16777215
176
     1
 90
        1
176
     1
 90
        4
176
     1
 62
     7
176
     1
 62
   257
176
     1
 90
        1
176
     1
 90
        1
176
     1
 40
1.0
176
     1
 90
        8
176
     1
 62
     7
176
     1
 40
1.0
176
     1
 90
        1
176
     1
 90
        6
176
     1
 90
        2
176
     1
 62
     7
176
     1
 90
        5
176
     1
 90
        0
176
     1
 90
        0
176
     1
290
     0
176
     1
 90
        1
176
     1
 40
0.0
176
     1
 90
        0
176
     1
290
     0
176
     1
290
     1
176
     1
290
     1
176
     1
290
     0
176
     1
290
     0
176
     1
290
     0
176
     1
290
     0
176
     1
290
     0
176
     1
290
     0
176
     1
 90
       50
176
     1
 40
0.0
176
     1
 40
1.0
176
     1
 90
        0
176
     1
 62
    18
420
        0
176
     1
 90
       50
176
     1
 90
        3
176
     1
 62
     5
420
      255
176
     1
290
     0
176
     1
 90
       50
176
     1
 90
       50
176
     1
 90
       50
176
     1
290
     0
176
     1
 90
       50
176
     1
 62
   256
176
     0
 40
1.0
176
     0
 90
        2
176
     1
  1
strokes_ogs.tif
176
     1
290
     0
176
     1
 40
1.0
176
     1
 40
1.0
176
     1
  0
VISUALSTYLE
  5
2B
102
{ACAD_REACTORS
330
2A
102
}
330
2A
100
AcDbVisualStyle
  2
Flat
 70
     0
177
     3
291
     1
 70
    58
 90
        2
176
     1
 90
        1
176
     1
 90
        1
176
     1
 90
        2
176
     1
 40
0.6
176
     1
 40
30.0
176
     1
 62
     7
420
 16777215
176
     1
 90
        0
176
     1
 90
        0
176
     1
 62
     7
176
     1
 62
   257
176
     1
 90
        1
176
     1
 90
        1
176
     1
 40
1.0
176
     1
 90
        8
176
     1
 62
     7
176
     1
 40
1.0
176
     1
 90
        1
176
     1
 90
        6
176
     1
 90
        2
176
     1
 62
     7
176
     1
 90
        5
176
     1
 90
        0
176
     1
 90
        0
176
     1
290
     0
176
     1
 90
       13
176
     1
 40
0.0
176
     1
 90
        0
176
     1
290
     0
176
     1
290
     1
176
     1
290
     1
176
     1
290
     0
176
     1
290
     0
176
     1
290
     0
176
     1
290
     0
176
     1
290
     0
176
     1
290
     0
176
     1
 90
       50
176
     1
 40
0.0
176
     1
 40
1.0
176
     1
 90
        0
176
     1
 62
    18
420
        0
176
     1
 90
       50
176
     1
 90
        3
176
     1
 62
     5
420
      255
176
     1
290
     0
176
     1
 90
       50
176
     1
 90
       50
176
     1
 90
       50
176
     1
290
     0
176
     1
 90
       50
176
     1
 62
   256
176
     0
 40
1.0
176
     0
 90
        2
176
     1
  1
strokes_ogs.tif
176
     1
290
     0
176
     1
 40
1.0
176
     1
 40
1.0
176
     1
  0
VISUALSTYLE
  5
2C
102
{ACAD_REACTORS
330
2A
102
}
330
2A
100
AcDbVisualStyle
  2
FlatWithEdges
 70
     1
177
     3
291
     1
 70
    58
 90
        2
176
     1
 90
        1
176
     1
 90
        1
176
     1
 90
        2
176
     1
 40
0.6
176
     1
 40
30.0
176
     1
 62
     7
420
 16777215
176
     1
 90
        1
176
     1
 90
        0
176
     1
 62
     7
176
     1
 62
   257
176
     1
 90
        1
176
     1
 90
        1
176
     1
 40
1.0
176
     1
 90
        0
176
     1
 62
   257
176
     1
 40
1.0
176
     1
 90
        1
176
     1
 90
        6
176
     1
 90
        2
176
     1
 62
     7
176
     1
 90
        5
176
     1
 90
        0
176
     1
 90
        0
176
     1
290
     0
176
     1
 90
       13
176
     1
 40
0.0
176
     1
 90
        0
176
     1
290
     0
176
     1
290
     1
176
     1
290
     1
176
     1
290
     0
176
     1
290
     0
176
     1
290
     0
176
     1
290
     0
176
     1
290
     0
176
     1
290
     0
176
     1
 90
       50
176
     1
 40
0.0
176
     1
 40
1.0
176
     1
 90
        0
176
     1
 62
    18
420
        0
176
     1
 90
       50
176
     1
 90
        3
176
     1
 62
     5
420
      255
176
     1
290
     0
176
     1
 90
       50
176
     1
 90
       50
176
     1
 90
       50
176
     1
290
     0
176
     1
 90
       50
176
     1
 62
   256
176
     0
 40
1.0
176
     0
 90
        2
176
     1
  1
strokes_ogs.tif
176
     1
290
     0
176
     1
 40
1.0
176
     1
 40
1.0
176
     1
  0
VISUALSTYLE
  5
2D
102
{ACAD_REACTORS
330
2A
102
}
330
2A
100
AcDbVisualStyle
  2
Gouraud
 70
     2
177
     3
291
     1
 70
    58
 90
        2
176
     1
 90
        2
176
     1
 90
        1
176
     1
 90
        2
176
     1
 40
0.6
176
     1
 40
30.0
176
     1
 62
     7
420
 16777215
176
     1
 90
        0
176
     1
 90
        0
176
     1
 62
     7
176
     1
 62
   257
176
     1
 90
        1
176
     1
 90
        1
176
     1
 40
1.0
176
     1
 90
        0
176
     1
 62
     7
176
     1
 40
1.0
176
     1
 90
        1
176
     1
 90
        6
176
     1
 90
        2
176
     1
 62
     7
176
     1
 90
        5
176
     1
 90
        0
176
     1
 90
        0
176
     1
290
     0
176
     1
 90
       13
176
     1
 40
0.0
176
     1
 90
        0
176
     1
290
     0
176
     1
290
     1
176
     1
290
     1
176
     1
290
     0
176
     1
290
     0
176
     1
290
     0
176
     1
290
     0
176
     1
290
     0
176
     1
290
     0
176
     1
 90
       50
176
     1
 40
0.0
176
     1
 40
1.0
176
     1
 90
        0
176
     1
 62
    18
420
        0
176
     1
 90
       50
176
     1
 90
        3
176
     1
 62
     5
420
      255
176
     1
290
     0
176
     1
 90
       50
176
     1
 90
       50
176
     1
 90
       50
176
     1
290
     0
176
     1
 90
       50
176
     1
 62
   256
176
     0
 40
1.0
176
     0
 90
        2
176
     1
  1
strokes_ogs.tif
176
     1
290
     0
176
     1
 40
1.0
176
     1
 40
1.0
176
     1
  0
VISUALSTYLE
  5
2E
102
{ACAD_REACTORS
330
2A
102
}
330
2A
100
AcDbVisualStyle
  2
GouraudWithEdges
 70
     3
177
     3
291
     1
 70
    58
 90
        2
176
     1
 90
        2
176
     1
 90
        1
176
     1
 90
        2
176
     1
 40
0.6
176
     1
 40
30.0
176
     1
 62
     7
420
 16777215
176
     1
 90
        1
176
     1
 90
        0
176
     1
 62
     7
176
     1
 62
   257
176
     1
 90
        1
176
     1
 90
        1
176
     1
 40
1.0
176
     1
 90
        0
176
     1
 62
   257
176
     1
 40
1.0
176
     1
 90
        1
176
     1
 90
        6
176
     1
 90
        2
176
     1
 62
     7
176
     1
 90
        5
176
     1
 90
        0
176
     1
 90
        0
176
     1
290
     0
176
     1
 90
       13
176
     1
 40
0.0
176
     1
 90
        0
176
     1
290
     0
176
     1
290
     1
176
     1
290
     1
176
     1
290
     0
176
     1
290
     0
176
     1
290
     0
176
     1
290
     0
176
     1
290
     0
176
     1
290
     0
176
     1
 90
       50
176
     1
 40
0.0
176
     1
 40
1.0
176
     1
 90
        0
176
     1
 62
    18
420
        0
176
     1
 90
       50
176
     1
 90
        3
176
     1
 62
     5
420
      255
176
     1
290
     0
176
     1
 90
       50
176
     1
 90
       50
176
     1
 90
       50
176
     1
290
     0
176
     1
 90
       50
176
     1
 62
   256
176
     0
 40
1.0
176
     0
 90
        2
176
     1
  1
strokes_ogs.tif
176
     1
290
     0
176
     1
 40
1.0
176
     1
 40
1.0
176
     1
  0
VISUALSTYLE
  5
31
102
{ACAD_REACTORS
330
2A
102
}
330
2A
100
AcDbVisualStyle
  2
Hidden
 70
     6
177
     3
291
     0
 70
    58
 90
        1
176
     1
 90
        2
176
     1
 90
        2
176
     1
 90
        0
176
     1
 40
0.6
176
     1
 40
30.0
176
     1
 62
     7
420
 16777215
176
     1
 90
        2
176
     1
 90
        2
176
     1
 62
     7
176
     1
 62
   257
176
     1
 90
        2
176
     1
 90
        1
176
     1
 40
40.0
176
     1
 90
        0
176
     1
 62
   257
176
     1
 40
1.0
176
     1
 90
        1
176
     1
 90
        6
176
     1
 90
        2
176
     1
 62
     7
176
     1
 90
        3
176
     1
 90
        0
176
     1
 90
        0
176
     1
290
     0
176
     1
 90
        1
176
     1
 40
0.0
176
     1
 90
        0
176
     1
290
     0
176
     1
290
     1
176
     1
290
     1
176
     1
290
     0
176
     1
290
     0
176
     1
290
     0
176
     1
290
     0
176
     1
290
     0
176
     1
290
     0
176
     1
 90
       50
176
     1
 40
0.0
176
     1
 40
1.0
176
     1
 90
        0
176
     1
 62
    18
420
        0
176
     1
 90
       50
176
     1
 90
        3
176
     1
 62
     5
420
      255
176
     1
290
     0
176
     1
 90
       50
176
     1
 90
       50
176
     1
 90
       50
176
     1
290
     0
176
     1
 90
       50
176
     1
 62
   256
176
     0
 40
1.0
176
     0
 90
        2
176
     1
  1
strokes_ogs.tif
176
     1
290
     0
176
     1
 40
1.0
176
     1
 40
1.0
176
     1
  0
VISUALSTYLE
  5
3B
102
{ACAD_REACTORS
330
2A
102
}
330
2A
100
AcDbVisualStyle
  2
JitterOff
 70
    20
177
     3
291
     1
 70
    58
 90
        2
176
     0
 90
        2
176
     0
 90
        0
176
     0
 90
        0
176
     0
 40
0.6
176
     0
 40
30.0
176
     0
 62
     7
420
 16777215
176
     0
 90
        1
176
     0
 90
        4
176
     0
 62
     7
176
     0
 62
   257
176
     0
 90
        1
176
     0
 90
        1
176
     0
 40
1.0
176
     0
 90
       10
176
     2
 62
     7
176
     0
 40
1.0
176
     0
 90
        1
176
     0
 90
        6
176
     0
 90
        2
176
     0
 62
     7
176
     0
 90
        5
176
     0
 90
        0
176
     0
 90
        0
176
     0
290
     0
176
     0
 90
        1
176
     0
 40
0.0
176
     0
 90
        0
176
     0
290
     0
176
     0
290
     1
176
     0
290
     1
176
     0
290
     0
176
     0
290
     0
176
     0
290
     0
176
     0
290
     0
176
     0
290
     0
176
     0
290
     0
176
     0
 90
       50
176
     0
 40
0.0
176
     0
 40
1.0
176
     0
 90
        0
176
     0
 62
    18
420
        0
176
     0
 90
       50
176
     0
 90
        3
176
     0
 62
     5
420
      255
176
     0
290
     0
176
     0
 90
       50
176
     0
 90
       50
176
     0
 90
       50
176
     0
290
     0
176
     0
 90
       50
176
     0
 62
   256
176
     0
 40
1.0
176
     0
 90
        2
176
     0
  1
strokes_ogs.tif
176
     0
290
     0
176
     0
 40
1.0
176
     0
 40
1.0
176
     0
  0
VISUALSTYLE
  5
38
102
{ACAD_REACTORS
330
2A
102
}
330
2A
100
AcDbVisualStyle
  2
Linepattern
 70
    14
177
     3
291
     1
 70
    58
 90
        2
176
     1
 90
        2
176
     1
 90
        0
176
     1
 90
        0
176
     1
 40
0.6
176
     1
 40
30.0
176
     1
 62
     7
420
 16777215
176
     1
 90
        1
176
     1
 90
        4
176
     1
 62
     7
176
     1
 62
   257
176
     1
 90
        7
176
     1
 90
        7
176
     1
 40
1.0
176
     1
 90
        8
176
     1
 62
     7
176
     1
 40
1.0
176
     1
 90
        1
176
     1
 90
        6
176
     1
 90
        2
176
     1
 62
     7
176
     1
 90
        5
176
     1
 90
        0
176
     1
 90
        0
176
     1
290
     0
176
     1
 90
        1
176
     1
 40
0.0
176
     1
 90
        0
176
     1
290
     0
176
     1
290
     1
176
     1
290
     1
176
     1
290
     0
176
     1
290
     0
176
     1
290
     0
176
     1
290
     0
176
     1
290
     0
176
     1
290
     0
176
     1
 90
       50
176
     1
 40
0.0
176
     1
 40
1.0
176
     1
 90
        0
176
     1
 62
    18
420
        0
176
     1
 90
       50
176
     1
 90
        3
176
     1
 62
     5
420
      255
176
     1
290
     0
176
     1
 90
       50
176
     1
 90
       50
176
     1
 90
       50
176
     1
290
     0
176
     1
 90
       50
176
     1
 62
   256
176
     0
 40
1.0
176
     0
 90
        2
176
     1
  1
strokes_ogs.tif
176
     1
290
     0
176
     1
 40
1.0
176
     1
 40
1.0
176
     1
  0
VISUALSTYLE
  5
3C
102
{ACAD_REACTORS
330
2A
102
}
330
2A
100
AcDbVisualStyle
  2
OverhangOff
 70
    21
177
     3
291
     1
 70
    58
 90
        2
176
     0
 90
        2
176
     0
 90
        0
176
     0
 90
        0
176
     0
 40
0.6
176
     0
 40
30.0
176
     0
 62
     7
420
 16777215
176
     0
 90
        1
176
     0
 90
        4
176
     0
 62
     7
176
     0
 62
   257
176
     0
 90
        1
176
     0
 90
        1
176
     0
 40
1.0
176
     0
 90
        9
176
     2
 62
     7
176
     0
 40
1.0
176
     0
 90
        1
176
     0
 90
        6
176
     0
 90
        2
176
     0
 62
     7
176
     0
 90
        5
176
     0
 90
        0
176
     0
 90
        0
176
     0
290
     0
176
     0
 90
        1
176
     0
 40
0.0
176
     0
 90
        0
176
     0
290
     0
176
     0
290
     1
176
     0
290
     1
176
     0
290
     0
176
     0
290
     0
176
     0
290
     0
176
     0
290
     0
176
     0
290
     0
176
     0
290
     0
176
     0
 90
       50
176
     0
 40
0.0
176
     0
 40
1.0
176
     0
 90
        0
176
     0
 62
    18
420
        0
176
     0
 90
       50
176
     0
 90
        3
176
     0
 62
     5
420
      255
176
     0
290
     0
176
     0
 90
       50
176
     0
 90
       50
176
     0
 90
       50
176
     0
290
     0
176
     0
 90
       50
176
     0
 62
   256
176
     0
 40
1.0
176
     0
 90
        2
176
     0
  1
strokes_ogs.tif
176
     0
290
     0
176
     0
 40
1.0
176
     0
 40
1.0
176
     0
  0
VISUALSTYLE
  5
33
102
{ACAD_REACTORS
330
2A
102
}
330
2A
100
AcDbVisualStyle
  2
Realistic
 70
     8
177
     3
291
     0
 70
    58
 90
        2
176
     1
 90
        3
176
     1
 90
        0
176
     1
 90
        2
176
     1
 40
0.6
176
     1
 40
30.0
176
     1
 62
     7
420
 16777215
176
     1
 90
        0
176
     1
 90
        0
176
     1
 62
     7
176
     1
 62
   257
176
     1
 90
        1
176
     1
 90
        1
176
     1
 40
1.0
176
     1
 90
        8
176
     1
 62
   257
176
     1
 40
1.0
176
     1
 90
        1
176
     1
 90
        6
176
     1
 90
        2
176
     1
 62
     7
176
     1
 90
        3
176
     1
 90
        0
176
     1
 90
        0
176
     1
290
     0
176
     1
 90
       13
176
     1
 40
0.0
176
     1
 90
        0
176
     1
290
     0
176
     1
290
     1
176
     1
290
     1
176
     1
290
     0
176
     1
290
     0
176
     1
290
     0
176
     1
290
     0
176
     1
290
     0
176
     1
290
     0
176
     1
 90
       50
176
     1
 40
0.0
176
     1
 40
1.0
176
     1
 90
        0
176
     1
 62
    18
420
        0
176
     1
 90
       50
176
     1
 90
        3
176
     1
 62
     5
420
      255
176
     1
290
     0
176
     1
 90
       50
176
     1
 90
       50
176
     1
 90
       50
176
     1
290
     0
176
     1
 90
       50
176
     1
 62
   256
176
     0
 40
1.0
176
     0
 90
        2
176
     1
  1
strokes_ogs.tif
176
     1
290
     0
176
     1
 40
1.0
176
     1
 40
1.0
176
     1
  0
VISUALSTYLE
  5
42
102
{ACAD_REACTORS
330
2A
102
}
330
2A
100
AcDbVisualStyle
  2
Shaded
 70
    27
177
     3
291
     0
 70
    58
 90
        2
176
     1
 90
        2
176
     1
 90
        1
176
     1
 90
        2
176
     1
 40
0.6
176
     1
 40
30.0
176
     1
 62
     7
420
 16777215
176
     1
 90
        0
176
     1
 90
        4
176
     1
 62
     7
176
     1
 62
   257
176
     1
 90
        1
176
     1
 90
        1
176
     1
 40
1.0
176
     1
 90
        8
176
     1
 62
   257
176
     1
 40
1.0
176
     1
 90
        1
176
     1
 90
        6
176
     1
 90
        2
176
     1
 62
     8
420
  7895160
176
     1
 90
        3
176
     1
 90
        0
176
     1
 90
        0
176
     1
290
     0
176
     1
 90
        5
176
     1
 40
0.0
176
     1
 90
        0
176
     1
290
     0
176
     1
290
     1
176
     1
290
     1
176
     1
290
     0
176
     1
290
     0
176
     1
290
     0
176
     1
290
     0
176
     1
290
     0
176
     1
290
     0
176
     1
 90
       50
176
     1
 40
0.0
176
     1
 40
1.0
176
     1
 90
        0
176
     1
 62
    18
420
        0
176
     1
 90
       50
176
     1
 90
        3
176
     1
 62
     5
420
      255
176
     1
290
     0
176
     1
 90
       50
176
     1
 90
       50
176
     1
 90
       50
176
     1
290
     0
176
     1
 90
       50
176
     1
 62
   256
176
     0
 40
1.0
176
     0
 90
        2
176
     1
  1
strokes_ogs.tif
176
     1
290
     0
176
     1
 40
1.0
176
     1
 40
1.0
176
     1
  0
VISUALSTYLE
  5
41
102
{ACAD_REACTORS
330
2A
102
}
330
2A
100
AcDbVisualStyle
  2
Shaded with edges
 70
    26
177
     3
291
     0
 70
    58
 90
        2
176
     1
 90
        2
176
     1
 90
        1
176
     1
 90
        2
176
     1
 40
0.6
176
     1
 40
30.0
176
     1
 62
     7
420
 16777215
176
     1
 90
        1
176
     1
 90
       10
176
     1
 62
     7
176
     1
 62
   257
176
     1
 90
        2
176
     1
 90
        1
176
     1
 40
1.0
176
     1
 90
        8
176
     1
 62
   257
176
     1
 40
1.0
176
     1
 90
        1
176
     1
 90
        6
176
     1
 90
        2
176
     1
 62
     7
176
     1
 90
        3
176
     1
 90
        0
176
     1
 90
        0
176
     1
290
     0
176
     1
 90
        5
176
     1
 40
0.0
176
     1
 90
        0
176
     1
290
     0
176
     1
290
     1
176
     1
290
     1
176
     1
290
     0
176
     1
290
     0
176
     1
290
     0
176
     1
290
     0
176
     1
290
     0
176
     1
290
     0
176
     1
 90
       50
176
     1
 40
0.0
176
     1
 40
1.0
176
     1
 90
        0
176
     1
 62
    18
420
        0
176
     1
 90
       50
176
     1
 90
        3
176
     1
 62
     5
420
      255
176
     1
290
     0
176
     1
 90
       50
176
     1
 90
       50
176
     1
 90
       50
176
     1
290
     0
176
     1
 90
       50
176
     1
 62
   256
176
     0
 40
1.0
176
     0
 90
        2
176
     1
  1
strokes_ogs.tif
176
     1
290
     0
176
     1
 40
1.0
176
     1
 40
1.0
176
     1
  0
VISUALSTYLE
  5
3E
102
{ACAD_REACTORS
330
2A
102
}
330
2A
100
AcDbVisualStyle
  2
Shades of Gray
 70
    23
177
     3
291
     0
 70
    58
 90
        2
176
     1
 90
        2
176
     1
 90
        3
176
     1
 90
        0
176
     1
 40
0.6
176
     1
 40
30.0
176
     1
 62
     7
420
 16777215
176
     1
 90
        2
176
     1
 90
        2
176
     1
 62
     7
176
     1
 62
     7
176
     1
 90
        1
176
     1
 90
        1
176
     1
 40
40.0
176
     1
 90
        8
176
     1
 62
     7
176
     1
 40
1.0
176
     1
 90
        1
176
     1
 90
        6
176
     1
 90
        2
176
     1
 62
     7
176
     1
 90
        3
176
     1
 90
        0
176
     1
 90
        0
176
     1
290
     0
176
     1
 90
        1
176
     1
 40
0.0
176
     1
 90
        0
176
     1
290
     0
176
     1
290
     1
176
     1
290
     1
176
     1
290
     0
176
     1
290
     0
176
     1
290
     0
176
     1
290
     0
176
     1
290
     0
176
     1
290
     0
176
     1
 90
       50
176
     1
 40
0.0
176
     1
 40
1.0
176
     1
 90
        0
176
     1
 62
    18
420
        0
176
     1
 90
       50
176
     1
 90
        3
176
     1
 62
     5
420
      255
176
     1
290
     0
176
     1
 90
       50
176
     1
 90
       50
176
     1
 90
       50
176
     1
290
     0
176
     1
 90
       50
176
     1
 62
   256
176
     0
 40
1.0
176
     0
 90
        2
176
     1
  1
strokes_ogs.tif
176
     1
290
     0
176
     1
 40
1.0
176
     1
 40
1.0
176
     1
  0
VISUALSTYLE
  5
3F
102
{ACAD_REACTORS
330
2A
102
}
330
2A
100
AcDbVisualStyle
  2
Sketchy
 70
    24
177
     3
291
     0
 70
    58
 90
        1
176
     1
 90
        2
176
     1
 90
        2
176
     1
 90
        0
176
     1
 40
0.6
176
     1
 40
30.0
176
     1
 62
     7
420
 16777215
176
     1
 90
        2
176
     1
 90
        2
176
     1
 62
     7
176
     1
 62
     7
176
     1
 90
        1
176
     1
 90
        1
176
     1
 40
40.0
176
     1
 90
       11
176
     1
 62
     7
176
     1
 40
1.0
176
     1
 90
        1
176
     1
 90
        6
176
     1
 90
        2
176
     1
 62
     7
176
     1
 90
        6
176
     1
 90
        0
176
     1
 90
        0
176
     1
290
     0
176
     1
 90
        1
176
     1
 40
0.0
176
     1
 90
        0
176
     1
290
     0
176
     1
290
     1
176
     1
290
     1
176
     1
290
     0
176
     1
290
     0
176
     1
290
     0
176
     1
290
     0
176
     1
290
     0
176
     1
290
     0
176
     1
 90
       50
176
     1
 40
0.0
176
     1
 40
1.0
176
     1
 90
        0
176
     1
 62
    18
420
        0
176
     1
 90
       50
176
     1
 90
        3
176
     1
 62
     5
420
      255
176
     1
290
     0
176
     1
 90
       50
176
     1
 90
       50
176
     1
 90
       50
176
     1
290
     0
176
     1
 90
       50
176
     1
 62
   256
176
     0
 40
1.0
176
     0
 90
        2
176
     1
  1
strokes_ogs.tif
176
     1
290
     0
176
     1
 40
1.0
176
     1
 40
1.0
176
     1
  0
VISUALSTYLE
  5
37
102
{ACAD_REACTORS
330
2A
102
}
330
2A
100
AcDbVisualStyle
  2
Thicken
 70
    13
177
     3
291
     1
 70
    58
 90
        2
176
     1
 90
        2
176
     1
 90
        0
176
     1
 90
        0
176
     1
 40
0.6
176
     1
 40
30.0
176
     1
 62
     7
420
 16777215
176
     1
 90
        1
176
     1
 90
        4
176
     1
 62
     7
176
     1
 62
   257
176
     1
 90
        1
176
     1
 90
        1
176
     1
 40
1.0
176
     1
 90
       12
176
     1
 62
     7
176
     1
 40
1.0
176
     1
 90
        1
176
     1
 90
        6
176
     1
 90
        2
176
     1
 62
     7
176
     1
 90
        5
176
     1
 90
        0
176
     1
 90
        0
176
     1
290
     0
176
     1
 90
        1
176
     1
 40
0.0
176
     1
 90
        0
176
     1
290
     0
176
     1
290
     1
176
     1
290
     1
176
     1
290
     0
176
     1
290
     0
176
     1
290
     0
176
     1
290
     0
176
     1
290
     0
176
     1
290
     0
176
     1
 90
       50
176
     1
 40
0.0
176
     1
 40
1.0
176
     1
 90
        0
176
     1
 62
    18
420
        0
176
     1
 90
       50
176
     1
 90
        3
176
     1
 62
     5
420
      255
176
     1
290
     0
176
     1
 90
       50
176
     1
 90
       50
176
     1
 90
       50
176
     1
290
     0
176
     1
 90
       50
176
     1
 62
   256
176
     0
 40
1.0
176
     0
 90
        2
176
     1
  1
strokes_ogs.tif
176
     1
290
     0
176
     1
 40
1.0
176
     1
 40
1.0
176
     1
  0
VISUALSTYLE
  5
30
102
{ACAD_REACTORS
330
2A
102
}
330
2A
100
AcDbVisualStyle
  2
Wireframe
 70
     5
177
     3
291
     0
 70
    58
 90
        0
176
     1
 90
        2
176
     1
 90
        0
176
     1
 90
        0
176
     1
 40
0.6
176
     1
 40
30.0
176
     1
 62
     7
420
 16777215
176
     1
 90
        1
176
     1
 90
        4
176
     1
 62
     7
176
     1
 62
   257
176
     1
 90
        1
176
     1
 90
        1
176
     1
 40
1.0
176
     1
 90
        0
176
     1
 62
   257
176
     1
 40
1.0
176
     1
 90
        1
176
     1
 90
        6
176
     1
 90
        2
176
     1
 62
     7
176
     1
 90
        3
176
     1
 90
        0
176
     1
 90
        0
176
     1
290
     0
176
     1
 90
        1
176
     1
 40
0.0
176
     1
 90
        0
176
     1
290
     0
176
     1
290
     1
176
     1
290
     1
176
     1
290
     0
176
     1
290
     0
176
     1
290
     0
176
     1
290
     0
176
     1
290
     0
176
     1
290
     0
176
     1
 90
       50
176
     1
 40
0.0
176
     1
 40
1.0
176
     1
 90
        0
176
     1
 62
    18
420
        0
176
     1
 90
       50
176
     1
 90
        3
176
     1
 62
     5
420
      255
176
     1
290
     0
176
     1
 90
       50
176
     1
 90
       50
176
     1
 90
       50
176
     1
290
     0
176
     1
 90
       50
176
     1
 62
   256
176
     0
 40
1.0
176
     0
 90
        2
176
     1
  1
strokes_ogs.tif
176
     1
290
     0
176
     1
 40
1.0
176
     1
 40
1.0
176
     1
  0
VISUALSTYLE
  5
40
102
{ACAD_REACTORS
330
2A
102
}
330
2A
100
AcDbVisualStyle
  2
X-Ray
 70
    25
177
     3
291
     0
 70
    58
 90
        2
176
     1
 90
        2
176
     1
 90
        1
176
     1
 90
        1
176
     1
 40
0.5
176
     1
 40
30.0
176
     1
 62
     7
420
 16777215
176
     1
 90
        1
176
     1
 90
        0
176
     1
 62
     7
176
     1
 62
   257
176
     1
 90
        1
176
     1
 90
        1
176
     1
 40
1.0
176
     1
 90
        8
176
     1
 62
     7
176
     1
 40
1.0
176
     1
 90
        1
176
     1
 90
        6
176
     1
 90
        2
176
     1
 62
     7
176
     1
 90
        3
176
     1
 90
        0
176
     1
 90
        0
176
     1
290
     0
176
     1
 90
       13
176
     1
 40
0.0
176
     1
 90
        0
176
     1
290
     0
176
     1
290
     1
176
     1
290
     1
176
     1
290
     0
176
     1
290
     0
176
     1
290
     0
176
     1
290
     0
176
     1
290
     0
176
     1
290
     0
176
     1
 90
       50
176
     1
 40
0.0
176
     1
 40
1.0
176
     1
 90
        0
176
     1
 62
    18
420
        0
176
     1
 90
       50
176
     1
 90
        3
176
     1
 62
     5
420
      255
176
     1
290
     0
176
     1
 90
       50
176
     1
 90
       50
176
     1
 90
       50
176
     1
290
     0
176
     1
 90
       50
176
     1
 62
   256
176
     0
 40
1.0
176
     0
 90
        2
176
     1
  1
strokes_ogs.tif
176
     1
290
     0
176
     1
 40
1.0
176
     1
 40
1.0
176
     1
  0
DICTIONARYVAR
  5
257
102
{ACAD_REACTORS
330
256
102
}
330
256
100
DictionaryVariables
280
     0
  1
1:1
  0
DICTIONARYVAR
  5
25C
102
{ACAD_REACTORS
330
256
102
}
330
256
100
DictionaryVariables
280
     0
  1
Standard
  0
DICTIONARYVAR
  5
25B
102
{ACAD_REACTORS
330
256
102
}
330
256
100
DictionaryVariables
280
     0
  1
Standard
  0
DICTIONARY
  5
258
330
6A
100
AcDbDictionary
280
     1
281
     1
  3
ACAD_ROUNDTRIP_2008_TABLESTYLE_CELLSTYLEMAP
360
259
  0
CELLSTYLEMAP
  5
259
102
{ACAD_REACTORS
330
258
102
}
330
258
100
AcDbCellStyleMap
 90
        3
300
CELLSTYLE
  1
TABLEFORMAT_BEGIN
 90
        5
170
     1
 91
        0
 92
    32768
 62
   257
 93
        1
300
CONTENTFORMAT
  1
CONTENTFORMAT_BEGIN
 90
        0
 91
        0
 92
        4
 93
        0
300

 40
0.0
140
1.0
 94
        5
 62
     0
340
11
144
0.25
309
CONTENTFORMAT_END
171
     1
301
MARGIN
  1
CELLMARGIN_BEGIN
 40
0.06
 40
0.06
 40
0.06
 40
0.06
 40
0.06
 40
0.06
309
CELLMARGIN_END
 94
        6
 95
        1
302
GRIDFORMAT
  1
GRIDFORMAT_BEGIN
 90
        0
 91
        1
 62
     0
 92
       -2
340
14
 93
        0
 40
0.045
309
GRIDFORMAT_END
 95
        2
302
GRIDFORMAT
  1
GRIDFORMAT_BEGIN
 90
        0
 91
        1
 62
     0
 92
       -2
340
14
 93
        0
 40
0.045
309
GRIDFORMAT_END
 95
        4
302
GRIDFORMAT
  1
GRIDFORMAT_BEGIN
 90
        0
 91
        1
 62
     0
 92
       -2
340
14
 93
        0
 40
0.045
309
GRIDFORMAT_END
 95
        8
302
GRIDFORMAT
  1
GRIDFORMAT_BEGIN
 90
        0
 91
        1
 62
     0
 92
       -2
340
14
 93
        0
 40
0.045
309
GRIDFORMAT_END
 95
       16
302
GRIDFORMAT
  1
GRIDFORMAT_BEGIN
 90
        0
 91
        1
 62
     0
 92
       -2
340
14
 93
        0
 40
0.045
309
GRIDFORMAT_END
 95
       32
302
GRIDFORMAT
  1
GRIDFORMAT_BEGIN
 90
        0
 91
        1
 62
     0
 92
       -2
340
14
 93
        0
 40
0.045
309
GRIDFORMAT_END
309
TABLEFORMAT_END
  1
CELLSTYLE_BEGIN
 90
        1
 91
        1
300
_TITLE
309
CELLSTYLE_END
300
CELLSTYLE
  1
TABLEFORMAT_BEGIN
 90
        5
170
     1
 91
        0
 92
        0
 62
   257
 93
        1
300
CONTENTFORMAT
  1
CONTENTFORMAT_BEGIN
 90
        0
 91
        0
 92
        4
 93
        0
300

 40
0.0
140
1.0
 94
        5
 62
     0
340
11
144
0.18
309
CONTENTFORMAT_END
171
     1
301
MARGIN
  1
CELLMARGIN_BEGIN
 40
0.06
 40
0.06
 40
0.06
 40
0.06
 40
0.06
 40
0.06
309
CELLMARGIN_END
 94
        6
 95
        1
302
GRIDFORMAT
  1
GRIDFORMAT_BEGIN
 90
        0
 91
        1
 62
     0
 92
       -2
340
14
 93
        0
 40
0.045
309
GRIDFORMAT_END
 95
        2
302
GRIDFORMAT
  1
GRIDFORMAT_BEGIN
 90
        0
 91
        1
 62
     0
 92
       -2
340
14
 93
        0
 40
0.045
309
GRIDFORMAT_END
 95
        4
302
GRIDFORMAT
  1
GRIDFORMAT_BEGIN
 90
        0
 91
        1
 62
     0
 92
       -2
340
14
 93
        0
 40
0.045
309
GRIDFORMAT_END
 95
        8
302
GRIDFORMAT
  1
GRIDFORMAT_BEGIN
 90
        0
 91
        1
 62
     0
 92
       -2
340
14
 93
        0
 40
0.045
309
GRIDFORMAT_END
 95
       16
302
GRIDFORMAT
  1
GRIDFORMAT_BEGIN
 90
        0
 91
        1
 62
     0
 92
       -2
340
14
 93
        0
 40
0.045
309
GRIDFORMAT_END
 95
       32
302
GRIDFORMAT
  1
GRIDFORMAT_BEGIN
 90
        0
 91
        1
 62
     0
 92
       -2
340
14
 93
        0
 40
0.045
309
GRIDFORMAT_END
309
TABLEFORMAT_END
  1
CELLSTYLE_BEGIN
 90
        2
 91
        1
300
_HEADER
309
CELLSTYLE_END
300
CELLSTYLE
  1
TABLEFORMAT_BEGIN
 90
        5
170
     1
 91
        0
 92
        0
 62
   257
 93
        1
300
CONTENTFORMAT
  1
CONTENTFORMAT_BEGIN
 90
        0
 91
        0
 92
        4
 93
        0
300

 40
0.0
140
1.0
 94
        2
 62
     0
340
11
144
0.18
309
CONTENTFORMAT_END
171
     1
301
MARGIN
  1
CELLMARGIN_BEGIN
 40
0.06
 40
0.06
 40
0.06
 40
0.06
 40
0.06
 40
0.06
309
CELLMARGIN_END
 94
        6
 95
        1
302
GRIDFORMAT
  1
GRIDFORMAT_BEGIN
 90
        0
 91
        1
 62
     0
 92
       -2
340
14
 93
        0
 40
0.045
309
GRIDFORMAT_END
 95
        2
302
GRIDFORMAT
  1
GRIDFORMAT_BEGIN
 90
        0
 91
        1
 62
     0
 92
       -2
340
14
 93
        0
 40
0.045
309
GRIDFORMAT_END
 95
        4
302
GRIDFORMAT
  1
GRIDFORMAT_BEGIN
 90
        0
 91
        1
 62
     0
 92
       -2
340
14
 93
        0
 40
0.045
309
GRIDFORMAT_END
 95
        8
302
GRIDFORMAT
  1
GRIDFORMAT_BEGIN
 90
        0
 91
        1
 62
     0
 92
       -2
340
14
 93
        0
 40
0.045
309
GRIDFORMAT_END
 95
       16
302
GRIDFORMAT
  1
GRIDFORMAT_BEGIN
 90
        0
 91
        1
 62
     0
 92
       -2
340
14
 93
        0
 40
0.045
309
GRIDFORMAT_END
 95
       32
302
GRIDFORMAT
  1
GRIDFORMAT_BEGIN
 90
        0
 91
        1
 62
     0
 92
       -2
340
14
 93
        0
 40
0.045
309
GRIDFORMAT_END
309
TABLEFORMAT_END
  1
CELLSTYLE_BEGIN
 90
        3
 91
        2
300
_DATA
309
CELLSTYLE_END
  0
ENDSEC
  0
EOF