0
SECTION
  2
HEADER
  9
$ACADVER
  1
AC1027
  9
$ACADMAINTVER
 70
     8
  9
$DWGCODEPAGE
  3
ANSI_1252
  9
$REQUIREDVERSIONS
160
                 0
  9
$COMMENTS
  1
File was created by Cadenas
  9
$CUSTOMPROPERTYTAG
  1
NN
  9
$CUSTOMPROPERTY
  1
Grip Tight Narrow Slot Take Up Inch Bore
  9
$CUSTOMPROPERTYTAG
  1
NT
  9
$CUSTOMPROPERTY
  1
GT Normal Duty Narrow Slot Take-Up Bearings
  9
$CUSTOMPROPERTYTAG
  1
NB
  9
$CUSTOMPROPERTY
  1
136125
  9
$CUSTOMPROPERTYTAG
  1
NBSYN
  9
$CUSTOMPROPERTY
  1
$PN.
  9
$CUSTOMPROPERTYTAG
  1
LINA
  9
$CUSTOMPROPERTY
  1
136125
  9
$CUSTOMPROPERTYTAG
  1
SERIES
  9
$CUSTOMPROPERTY
  1
210
  9
$CUSTOMPROPERTYTAG
  1
SS
  9
$CUSTOMPROPERTY
  1
1-15/16
  9
$CUSTOMPROPERTYTAG
  1
PN
  9
$CUSTOMPROPERTY
  1
136125
  9
$CUSTOMPROPERTYTAG
  1
DESCRIPTION
  9
$CUSTOMPROPERTY
  1
NSTU-GT-115
  9
$CUSTOMPROPERTYTAG
  1
PNSL
  9
$CUSTOMPROPERTY
  1
136216
  9
$CUSTOMPROPERTYTAG
  1
DESCRIPTIONSL
  9
$CUSTOMPROPERTY
  1
NSTU-GT-10
  9
$CUSTOMPROPERTYTAG
  1
PNA
  9
$CUSTOMPROPERTY
  1
136534
  9
$CUSTOMPROPERTYTAG
  1
DESCRIPTIONA
  9
$CUSTOMPROPERTY
  1
AN-GT-10-115-D
  9
$CUSTOMPROPERTYTAG
  1
W
  9
$CUSTOMPROPERTY
  1
4.9
  9
$CUSTOMPROPERTYTAG
  1
TUFS
  9
$CUSTOMPROPERTY
  1
NS400
  9
$CUSTOMPROPERTYTAG
  1
A
  9
$CUSTOMPROPERTY
  1
1.86
  9
$CUSTOMPROPERTYTAG
  1
B
  9
$CUSTOMPROPERTY
  1
5.50
  9
$CUSTOMPROPERTYTAG
  1
C
  9
$CUSTOMPROPERTY
  1
0.313
  9
$CUSTOMPROPERTYTAG
  1
D
  9
$CUSTOMPROPERTY
  1
3.00
  9
$CUSTOMPROPERTYTAG
  1
E
  9
$CUSTOMPROPERTY
  1
3.25
  9
$CUSTOMPROPERTYTAG
  1
F
  9
$CUSTOMPROPERTY
  1
7/8
  9
$CUSTOMPROPERTYTAG
  1
G
  9
$CUSTOMPROPERTY
  1
0.59
  9
$CUSTOMPROPERTYTAG
  1
H
  9
$CUSTOMPROPERTY
  1
1.09
  9
$CUSTOMPROPERTYTAG
  1
J
  9
$CUSTOMPROPERTY
  1
1.63
  9
$CUSTOMPROPERTYTAG
  1
L
  9
$CUSTOMPROPERTY
  1
3.13
  9
$CUSTOMPROPERTYTAG
  1
M
  9
$CUSTOMPROPERTY
  1
4.015/3.985
  9
$CUSTOMPROPERTYTAG
  1
N
  9
$CUSTOMPROPERTY
  1
4.75
  9
$CUSTOMPROPERTYTAG
  1
P
  9
$CUSTOMPROPERTY
  1
0.38
  9
$CUSTOMPROPERTYTAG
  1
R
  9
$CUSTOMPROPERTY
  1
0.63
  9
$CUSTOMPROPERTYTAG
  1
S
  9
$CUSTOMPROPERTY
  1
1.23
  9
$CUSTOMPROPERTYTAG
  1
Z
  9
$CUSTOMPROPERTY
  1
1.26
  9
$CUSTOMPROPERTYTAG
  1
CAPS
  9
$CUSTOMPROPERTY
  1
4450
  9
$CUSTOMPROPERTYTAG
  1
CAPD
  9
$CUSTOMPROPERTY
  1
7891
  9
$CUSTOMPROPERTYTAG
  1
COMPANY
  9
$CUSTOMPROPERTY
  1
baldor
  9
$INSBASE
 10
0.0
 20
0.0
 30
0.0
  9
$EXTMIN
 10
1.000000000000000E+20
 20
1.000000000000000E+20
 30
1.000000000000000E+20
  9
$EXTMAX
 10
-1.000000000000000E+20
 20
-1.000000000000000E+20
 30
-1.000000000000000E+20
  9
$LIMMIN
 10
0.0
 20
0.0
  9
$LIMMAX
 10
12.0
 20
9.0
  9
$ORTHOMODE
 70
     0
  9
$REGENMODE
 70
     1
  9
$FILLMODE
 70
     1
  9
$QTEXTMODE
 70
     0
  9
$MIRRTEXT
 70
     1
  9
$LTSCALE
 40
1.0
  9
$ATTMODE
 70
     1
  9
$TEXTSIZE
 40
0.2
  9
$TRACEWID
 40
0.05
  9
$TEXTSTYLE
  7
Standard
  9
$CLAYER
  8
0
  9
$CELTYPE
  6
ByLayer
  9
$CECOLOR
 62
   256
  9
$CELTSCALE
 40
1.0
  9
$DISPSILH
 70
     0
  9
$DIMSCALE
 40
1.0
  9
$DIMASZ
 40
0.18
  9
$DIMEXO
 40
0.0625
  9
$DIMDLI
 40
0.38
  9
$DIMRND
 40
0.0
  9
$DIMDLE
 40
0.0
  9
$DIMEXE
 40
0.18
  9
$DIMTP
 40
0.0
  9
$DIMTM
 40
0.0
  9
$DIMTXT
 40
0.18
  9
$DIMCEN
 40
0.09
  9
$DIMTSZ
 40
0.0
  9
$DIMTOL
 70
     0
  9
$DIMLIM
 70
     0
  9
$DIMTIH
 70
     1
  9
$DIMTOH
 70
     1
  9
$DIMSE1
 70
     0
  9
$DIMSE2
 70
     0
  9
$DIMTAD
 70
     0
  9
$DIMZIN
 70
     0
  9
$DIMBLK
  1

  9
$DIMASO
 70
     1
  9
$DIMSHO
 70
     1
  9
$DIMPOST
  1

  9
$DIMAPOST
  1

  9
$DIMALT
 70
     0
  9
$DIMALTD
 70
     2
  9
$DIMALTF
 40
25.4
  9
$DIMLFAC
 40
1.0
  9
$DIMTOFL
 70
     0
  9
$DIMTVP
 40
0.0
  9
$DIMTIX
 70
     0
  9
$DIMSOXD
 70
     0
  9
$DIMSAH
 70
     0
  9
$DIMBLK1
  1

  9
$DIMBLK2
  1

  9
$DIMSTYLE
  2
Standard
  9
$DIMCLRD
 70
     0
  9
$DIMCLRE
 70
     0
  9
$DIMCLRT
 70
     0
  9
$DIMTFAC
 40
1.0
  9
$DIMGAP
 40
0.09
  9
$DIMJUST
 70
     0
  9
$DIMSD1
 70
     0
  9
$DIMSD2
 70
     0
  9
$DIMTOLJ
 70
     1
  9
$DIMTZIN
 70
     0
  9
$DIMALTZ
 70
     0
  9
$DIMALTTZ
 70
     0
  9
$DIMUPT
 70
     0
  9
$DIMDEC
 70
     4
  9
$DIMTDEC
 70
     4
  9
$DIMALTU
 70
     2
  9
$DIMALTTD
 70
     2
  9
$DIMTXSTY
  7
Standard
  9
$DIMAUNIT
 70
     0
  9
$DIMADEC
 70
     0
  9
$DIMALTRND
 40
0.0
  9
$DIMAZIN
 70
     0
  9
$DIMDSEP
 70
    46
  9
$DIMATFIT
 70
     3
  9
$DIMFRAC
 70
     0
  9
$DIMLDRBLK
  1

  9
$DIMLUNIT
 70
     2
  9
$DIMLWD
 70
    -2
  9
$DIMLWE
 70
    -2
  9
$DIMTMOVE
 70
     0
  9
$DIMFXL
 40
1.0
  9
$DIMFXLON
 70
     0
  9
$DIMJOGANG
 40
0.7853981633974483
  9
$DIMTFILL
 70
     0
  9
$DIMTFILLCLR
 70
     0
  9
$DIMARCSYM
 70
     0
  9
$DIMLTYPE
  6

  9
$DIMLTEX1
  6

  9
$DIMLTEX2
  6

  9
$DIMTXTDIRECTION
 70
     0
  9
$LUNITS
 70
     2
  9
$LUPREC
 70
     4
  9
$SKETCHINC
 40
0.1
  9
$FILLETRAD
 40
0.5
  9
$AUNITS
 70
     0
  9
$AUPREC
 70
     0
  9
$MENU
  1
.
  9
$ELEVATION
 40
0.0
  9
$PELEVATION
 40
0.0
  9
$THICKNESS
 40
0.0
  9
$LIMCHECK
 70
     0
  9
$CHAMFERA
 40
0.0
  9
$CHAMFERB
 40
0.0
  9
$CHAMFERC
 40
0.0
  9
$CHAMFERD
 40
0.0
  9
$SKPOLY
 70
     0
  9
$TDCREATE
 40
2458168.994748241
  9
$TDUCREATE
 40
2458168.953081574
  9
$TDUPDATE
 40
2458168.994748599
  9
$TDUUPDATE
 40
2458168.953081933
  9
$TDINDWG
 40
0.0000000116
  9
$TDUSRTIMER
 40
0.0000000116
  9
$USRTIMER
 70
     1
  9
$ANGBASE
 50
0.0
  9
$ANGDIR
 70
     0
  9
$PDMODE
 70
     0
  9
$PDSIZE
 40
0.0
  9
$PLINEWID
 40
0.0
  9
$SPLFRAME
 70
     0
  9
$SPLINETYPE
 70
     6
  9
$SPLINESEGS
 70
     8
  9
$HANDSEED
  5
236
  9
$SURFTAB1
 70
     6
  9
$SURFTAB2
 70
     6
  9
$SURFTYPE
 70
     6
  9
$SURFU
 70
     6
  9
$SURFV
 70
     6
  9
$UCSBASE
  2

  9
$UCSNAME
  2

  9
$UCSORG
 10
0.0
 20
0.0
 30
0.0
  9
$UCSXDIR
 10
1.0
 20
0.0
 30
0.0
  9
$UCSYDIR
 10
0.0
 20
1.0
 30
0.0
  9
$UCSORTHOREF
  2

  9
$UCSORTHOVIEW
 70
     0
  9
$UCSORGTOP
 10
0.0
 20
0.0
 30
0.0
  9
$UCSORGBOTTOM
 10
0.0
 20
0.0
 30
0.0
  9
$UCSORGLEFT
 10
0.0
 20
0.0
 30
0.0
  9
$UCSORGRIGHT
 10
0.0
 20
0.0
 30
0.0
  9
$UCSORGFRONT
 10
0.0
 20
0.0
 30
0.0
  9
$UCSORGBACK
 10
0.0
 20
0.0
 30
0.0
  9
$PUCSBASE
  2

  9
$PUCSNAME
  2

  9
$PUCSORG
 10
0.0
 20
0.0
 30
0.0
  9
$PUCSXDIR
 10
1.0
 20
0.0
 30
0.0
  9
$PUCSYDIR
 10
0.0
 20
1.0
 30
0.0
  9
$PUCSORTHOREF
  2

  9
$PUCSORTHOVIEW
 70
     0
  9
$PUCSORGTOP
 10
0.0
 20
0.0
 30
0.0
  9
$PUCSORGBOTTOM
 10
0.0
 20
0.0
 30
0.0
  9
$PUCSORGLEFT
 10
0.0
 20
0.0
 30
0.0
  9
$PUCSORGRIGHT
 10
0.0
 20
0.0
 30
0.0
  9
$PUCSORGFRONT
 10
0.0
 20
0.0
 30
0.0
  9
$PUCSORGBACK
 10
0.0
 20
0.0
 30
0.0
  9
$USERI1
 70
     0
  9
$USERI2
 70
     0
  9
$USERI3
 70
     0
  9
$USERI4
 70
     0
  9
$USERI5
 70
     0
  9
$USERR1
 40
0.0
  9
$USERR2
 40
0.0
  9
$USERR3
 40
0.0
  9
$USERR4
 40
0.0
  9
$USERR5
 40
0.0
  9
$WORLDVIEW
 70
     1
  9
$SHADEDGE
 70
     3
  9
$SHADEDIF
 70
    70
  9
$TILEMODE
 70
     1
  9
$MAXACTVP
 70
    64
  9
$PINSBASE
 10
0.0
 20
0.0
 30
0.0
  9
$PLIMCHECK
 70
     0
  9
$PEXTMIN
 10
1.000000000000000E+20
 20
1.000000000000000E+20
 30
1.000000000000000E+20
  9
$PEXTMAX
 10
-1.000000000000000E+20
 20
-1.000000000000000E+20
 30
-1.000000000000000E+20
  9
$PLIMMIN
 10
0.0
 20
0.0
  9
$PLIMMAX
 10
12.0
 20
9.0
  9
$UNITMODE
 70
     0
  9
$VISRETAIN
 70
     1
  9
$PLINEGEN
 70
     0
  9
$PSLTSCALE
 70
     1
  9
$TREEDEPTH
 70
  3020
  9
$CMLSTYLE
  2
Standard
  9
$CMLJUST
 70
     0
  9
$CMLSCALE
 40
1.0
  9
$PROXYGRAPHICS
 70
     1
  9
$MEASUREMENT
 70
     0
  9
$CELWEIGHT
370
    -1
  9
$ENDCAPS
280
     0
  9
$JOINSTYLE
280
     0
  9
$LWDISPLAY
290
     0
  9
$INSUNITS
 70
     1
  9
$HYPERLINKBASE
  1

  9
$STYLESHEET
  1

  9
$XEDIT
290
     1
  9
$CEPSNTYPE
380
     0
  9
$PSTYLEMODE
290
     1
  9
$FINGERPRINTGUID
  2
{12B20D30-C5BF-450E-9EF2-DEC793740298}
  9
$VERSIONGUID
  2
{FAEB1C32-E019-11D5-929B-00C0DF256EC4}
  9
$EXTNAMES
290
     1
  9
$PSVPSCALE
 40
0.0
  9
$OLESTARTUP
290
     0
  9
$SORTENTS
280
   127
  9
$INDEXCTL
280
     0
  9
$HIDETEXT
280
     1
  9
$XCLIPFRAME
280
     2
  9
$HALOGAP
280
     0
  9
$OBSCOLOR
 70
   257
  9
$OBSLTYPE
280
     0
  9
$INTERSECTIONDISPLAY
280
     0
  9
$INTERSECTIONCOLOR
 70
   257
  9
$DIMASSOC
280
     2
  9
$PROJECTNAME
  1

  9
$CAMERADISPLAY
290
     0
  9
$LENSLENGTH
 40
50.0
  9
$CAMERAHEIGHT
 40
0.0
  9
$STEPSPERSEC
 40
2.0
  9
$STEPSIZE
 40
6.0
  9
$3DDWFPREC
 40
2.0
  9
$PSOLWIDTH
 40
0.25
  9
$PSOLHEIGHT
 40
4.0
  9
$LOFTANG1
 40
1.570796326794897
  9
$LOFTANG2
 40
1.570796326794897
  9
$LOFTMAG1
 40
0.0
  9
$LOFTMAG2
 40
0.0
  9
$LOFTPARAM
 70
     7
  9
$LOFTNORMALS
280
     1
  9
$LATITUDE
 40
37.795
  9
$LONGITUDE
 40
-122.394
  9
$NORTHDIRECTION
 40
0.0
  9
$TIMEZONE
 70
 -8000
  9
$LIGHTGLYPHDISPLAY
280
     1
  9
$TILEMODELIGHTSYNCH
280
     1
  9
$CMATERIAL
347
44
  9
$SOLIDHIST
280
     0
  9
$SHOWHIST
280
     1
  9
$DWFFRAME
280
     2
  9
$DGNFRAME
280
     2
  9
$REALWORLDSCALE
290
     1
  9
$INTERFERECOLOR
 62
   256
  9
$CSHADOW
280
     0
  9
$SHADOWPLANELOCATION
 40
0.0
  0
ENDSEC
  0
SECTION
  2
CLASSES
  0
CLASS
  1
ACDBDICTIONARYWDFLT
  2
AcDbDictionaryWithDefault
  3
ObjectDBX Classes
 90
        0
 91
        4
280
     0
281
     0
  0
CLASS
  1
VISUALSTYLE
  2
AcDbVisualStyle
  3
ObjectDBX Classes
 90
     4095
 91
        4
280
     0
281
     0
  0
CLASS
  1
MATERIAL
  2
AcDbMaterial
  3
ObjectDBX Classes
 90
     1153
 91
        4
280
     0
281
     0
  0
CLASS
  1
SCALE
  2
AcDbScale
  3
ObjectDBX Classes
 90
     1153
 91
        4
280
     0
281
     0
  0
CLASS
  1
TABLESTYLE
  2
AcDbTableStyle
  3
ObjectDBX Classes
 90
     4095
 91
        4
280
     0
281
     0
  0
CLASS
  1
MLEADERSTYLE
  2
AcDbMLeaderStyle
  3
ACDB_MLEADERSTYLE_CLASS
 90
     4095
 91
        4
280
     0
281
     0
  0
CLASS
  1
SUN
  2
AcDbSun
  3
SCENEOE
 90
     1153
 91
        4
280
     0
281
     0
  0
CLASS
  1
DICTIONARYVAR
  2
AcDbDictionaryVar
  3
ObjectDBX Classes
 90
        0
 91
        4
280
     0
281
     0
  0
CLASS
  1
CELLSTYLEMAP
  2
AcDbCellStyleMap
  3
ObjectDBX Classes
 90
     1152
 91
        4
280
     0
281
     0
  0
ENDSEC
  0
SECTION
  2
TABLES
  0
TABLE
  2
VPORT
  5
8
330
0
100
AcDbSymbolTable
 70
     1
  0
VPORT
  5
29
330
8
100
AcDbSymbolTableRecord
100
AcDbViewportTableRecord
  2
*Active
 70
     0
 10
0.0
 20
0.0
 11
1.0
 21
1.0
 12
0.4044145165836692
 22
-0.2139999999999995
 13
0.0
 23
0.0
 14
0.5
 24
0.5
 15
0.5
 25
0.5
 16
0.0
 26
0.0
 36
1.0
 17
0.0
 27
0.0
 37
0.0
 40
2.26542
 41
2.624496157961581
 42
50.0
 43
0.0
 44
0.0
 50
0.0
 51
0.0
 71
     0
 72
   100
 73
     1
 74
     3
 75
     0
 76
     0
 77
     0
 78
     0
281
     0
 65
     1
110
0.0
120
0.0
130
0.0
111
1.0
121
0.0
131
0.0
112
0.0
122
1.0
132
0.0
 79
     0
146
0.0
348
2F
 60
     3
 61
     5
292
     1
282
     1
141
0.0
142
0.0
 63
   250
361
6D
  0
ENDTAB
  0
TABLE
  2
LTYPE
  5
5
330
0
100
AcDbSymbolTable
 70
     3
  0
LTYPE
  5
14
330
5
100
AcDbSymbolTableRecord
100
AcDbLinetypeTableRecord
  2
ByBlock
 70
     0
  3

 72
    65
 73
     0
 40
0.0
  0
LTYPE
  5
15
330
5
100
AcDbSymbolTableRecord
100
AcDbLinetypeTableRecord
  2
ByLayer
 70
     0
  3

 72
    65
 73
     0
 40
0.0
  0
LTYPE
  5
16
330
5
100
AcDbSymbolTableRecord
100
AcDbLinetypeTableRecord
  2
Continuous
 70
     0
  3
Solid line
 72
    65
 73
     0
 40
0.0
  0
LTYPE
  5
A6
330
5
100
AcDbSymbolTableRecord
100
AcDbLinetypeTableRecord
  2
Dashed
 70
     0
  3

 72
    65
 73
     2
 40
2.0
 49
1.0
 74
     0
 49
-1.0
 74
     0
  0
LTYPE
  5
197
330
5
100
AcDbSymbolTableRecord
100
AcDbLinetypeTableRecord
  2
Center
 70
     0
  3

 72
    65
 73
     4
 40
1.5
 49
0.45
 74
     0
 49
-0.5
 74
     0
 49
0.05
 74
     0
 49
-0.5
 74
     0
  0
ENDTAB
  0
TABLE
  2
LAYER
  5
2
330
0
100
AcDbSymbolTable
 70
     7
  0
LAYER
  5
10
330
2
100
AcDbSymbolTableRecord
100
AcDbLayerTableRecord
  2
0
 70
     0
 62
     7
  6
Continuous
370
    -3
390
F
347
46
348
0
  0
LAYER
  5
72
330
2
100
AcDbSymbolTableRecord
100
AcDbLayerTableRecord
  2
AM_6
 70
     0
 62
    -2
  6
Continuous
370
    35
390
F
347
46
348
0
  0
LAYER
  5
A7
330
2
100
AcDbSymbolTableRecord
100
AcDbLayerTableRecord
  2
AM_9
 70
     0
 62
     6
  6
Dashed
370
    25
390
F
347
46
348
0
  0
LAYER
  5
FB
330
2
100
AcDbSymbolTableRecord
100
AcDbLayerTableRecord
  2
AM_4
 70
     0
 62
     7
  6
Continuous
370
    50
390
F
347
46
348
0
  0
LAYER
  5
198
330
2
100
AcDbSymbolTableRecord
100
AcDbLayerTableRecord
  2
AM_7
 70
     0
 62
     7
  6
Center
370
    25
390
F
347
46
348
0
  0
LAYER
  5
1BD
330
2
100
AcDbSymbolTableRecord
100
AcDbLayerTableRecord
  2
AM_5
 70
     0
 62
     3
  6
Continuous
370
    25
390
F
347
46
348
0
  0
LAYER
  5
225
330
2
100
AcDbSymbolTableRecord
100
AcDbLayerTableRecord
  2
ConnectionPoints
 70
     0
 62
     7
  6
Continuous
370
    50
390
F
347
46
348
0
  0
ENDTAB
  0
TABLE
  2
STYLE
  5
3
330
0
100
AcDbSymbolTable
 70
     1
  0
STYLE
  5
11
330
3
100
AcDbSymbolTableRecord
100
AcDbTextStyleTableRecord
  2
Standard
 70
     0
 40
0.0
 41
1.0
 50
0.0
 71
     0
 42
0.2
  3
txt
  4

  0
ENDTAB
  0
TABLE
  2
VIEW
  5
6
330
0
100
AcDbSymbolTable
 70
     0
  0
ENDTAB
  0
TABLE
  2
UCS
  5
7
330
0
100
AcDbSymbolTable
 70
     0
  0
ENDTAB
  0
TABLE
  2
APPID
  5
9
330
0
100
AcDbSymbolTable
 70
     1
  0
APPID
  5
12
330
9
100
AcDbSymbolTableRecord
100
AcDbRegAppTableRecord
  2
ACAD
 70
     0
  0
ENDTAB
  0
TABLE
  2
DIMSTYLE
  5
A
330
0
100
AcDbSymbolTable
 70
     1
100
AcDbDimStyleTable
  0
DIMSTYLE
105
27
330
A
100
AcDbSymbolTableRecord
100
AcDbDimStyleTableRecord
  2
Standard
 70
     0
178
     0
340
11
  0
ENDTAB
  0
TABLE
  2
BLOCK_RECORD
  5
1
330
0
100
AcDbSymbolTable
 70
     6
  0
BLOCK_RECORD
  5
1F
330
1
100
AcDbSymbolTableRecord
100
AcDbBlockTableRecord
  2
*Model_Space
340
22
 70
     0
280
     1
281
     0
  0
BLOCK_RECORD
  5
1B
330
1
100
AcDbSymbolTableRecord
100
AcDbBlockTableRecord
  2
*Paper_Space
340
1E
 70
     0
280
     1
281
     0
  0
BLOCK_RECORD
  5
23
330
1
100
AcDbSymbolTableRecord
100
AcDbBlockTableRecord
  2
*Paper_Space0
340
26
 70
     0
280
     1
281
     0
  0
BLOCK_RECORD
  5
6E
330
1
100
AcDbSymbolTableRecord
100
AcDbBlockTableRecord
  2
1_136125_4
340
0
102
{BLKREFS
331
6F
102
}
 70
     0
280
     1
281
     0
  0
BLOCK_RECORD
  5
95
330
1
100
AcDbSymbolTableRecord
100
AcDbBlockTableRecord
  2
2_405016_Inch_0_in_136125_4
340
0
102
{BLKREFS
331
96
102
}
 70
     0
280
     1
281
     0
  0
BLOCK_RECORD
  5
11C
330
1
100
AcDbSymbolTableRecord
100
AcDbBlockTableRecord
  2
3_129523I_0_in_136125_4
340
0
102
{BLKREFS
331
11D
102
}
 70
     0
280
     1
281
     0
  0
BLOCK_RECORD
  5
15F
330
1
100
AcDbSymbolTableRecord
100
AcDbBlockTableRecord
  2
4_136534_0_in_136125_4
340
0
102
{BLKREFS
331
160
102
}
 70
     0
280
     1
281
     0
  0
BLOCK_RECORD
  5
1BF
330
1
100
AcDbSymbolTableRecord
100
AcDbBlockTableRecord
  2
5_136125h_0_in_136125_4
340
0
102
{BLKREFS
331
1C0
102
}
 70
     0
280
     1
281
     0
  0
ENDTAB
  0
ENDSEC
  0
SECTION
  2
BLOCKS
  0
BLOCK
  5
20
330
1F
100
AcDbEntity
  8
0
100
AcDbBlockBegin
  2
*Model_Space
 70
     0
 10
0.0
 20
0.0
 30
0.0
  3
*Model_Space
  1

  0
ENDBLK
  5
21
330
1F
100
AcDbEntity
  8
0
100
AcDbBlockEnd
  0
BLOCK
  5
1C
330
1B
100
AcDbEntity
 67
     1
  8
0
100
AcDbBlockBegin
  2
*Paper_Space
 70
     0
 10
0.0
 20
0.0
 30
0.0
  3
*Paper_Space
  1

  0
ENDBLK
  5
1D
330
1B
100
AcDbEntity
 67
     1
  8
0
100
AcDbBlockEnd
  0
BLOCK
  5
24
330
23
100
AcDbEntity
  8
0
100
AcDbBlockBegin
  2
*Paper_Space0
 70
     0
 10
0.0
 20
0.0
 30
0.0
  3
*Paper_Space0
  1

  0
ENDBLK
  5
25
330
23
100
AcDbEntity
  8
0
100
AcDbBlockEnd
  0
BLOCK
  5
70
330
6E
100
AcDbEntity
  8
0
100
AcDbBlockBegin
  2
1_136125_4
 70
     2
 10
0.0
 20
0.0
 30
0.0
  3
1_136125_4
  1

  0
ATTDEF
  5
73
330
6E
100
AcDbEntity
  8
AM_6
100
AcDbText
 10
8.318917500000005
 20
0.8965
 30
0.0
 40
0.5
  1
Grip Tight Narrow Slot Take Up Inch Bore
100
AcDbAttributeDefinition
  3

  2
NN
 70
     8
280
     0
  0
ATTDEF
  5
74
330
6E
100
AcDbEntity
  8
AM_6
100
AcDbText
 10
8.318917500000005
 20
0.3965
 30
0.0
 40
0.5
  1
GT Normal Duty Narrow Slot Take-Up Bearings
100
AcDbAttributeDefinition
  3

  2
NT
 70
     8
280
     0
  0
ATTDEF
  5
75
330
6E
100
AcDbEntity
  8
AM_6
100
AcDbText
 10
8.318917500000005
 20
-0.1035
 30
0.0
 40
0.5
  1
136125
100
AcDbAttributeDefinition
  3

  2
NB
 70
     8
280
     0
  0
ATTDEF
  5
76
330
6E
100
AcDbEntity
  8
AM_6
100
AcDbText
 10
8.318917500000005
 20
-0.6035
 30
0.0
 40
0.5
  1
$PN.
100
AcDbAttributeDefinition
  3

  2
NBSYN
 70
     8
280
     0
  0
ATTDEF
  5
77
330
6E
100
AcDbEntity
  8
AM_6
100
AcDbText
 10
8.318917500000005
 20
-1.1035
 30
0.0
 40
0.5
  1
136125
100
AcDbAttributeDefinition
  3

  2
LINA
 70
     8
280
     0
  0
ATTDEF
  5
78
330
6E
100
AcDbEntity
  8
AM_6
100
AcDbText
 10
8.318917500000005
 20
-1.6035
 30
0.0
 40
0.5
  1
210
100
AcDbAttributeDefinition
  3

  2
SERIES
 70
     8
280
     0
  0
ATTDEF
  5
79
330
6E
100
AcDbEntity
  8
AM_6
100
AcDbText
 10
8.318917500000005
 20
-2.1035
 30
0.0
 40
0.5
  1
1-15/16
100
AcDbAttributeDefinition
  3

  2
SS
 70
     8
280
     0
  0
ATTDEF
  5
7A
330
6E
100
AcDbEntity
  8
AM_6
100
AcDbText
 10
8.318917500000005
 20
-2.6035
 30
0.0
 40
0.5
  1
136125
100
AcDbAttributeDefinition
  3

  2
PN
 70
     8
280
     0
  0
ATTDEF
  5
7B
330
6E
100
AcDbEntity
  8
AM_6
100
AcDbText
 10
8.318917500000005
 20
-3.1035
 30
0.0
 40
0.5
  1
NSTU-GT-115
100
AcDbAttributeDefinition
  3

  2
DESCRIPTION
 70
     8
280
     0
  0
ATTDEF
  5
7C
330
6E
100
AcDbEntity
  8
AM_6
100
AcDbText
 10
8.318917500000005
 20
-3.6035
 30
0.0
 40
0.5
  1
136216
100
AcDbAttributeDefinition
  3

  2
PNSL
 70
     8
280
     0
  0
ATTDEF
  5
7D
330
6E
100
AcDbEntity
  8
AM_6
100
AcDbText
 10
8.318917500000005
 20
-4.1035
 30
0.0
 40
0.5
  1
NSTU-GT-10
100
AcDbAttributeDefinition
  3

  2
DESCRIPTIONSL
 70
     8
280
     0
  0
ATTDEF
  5
7E
330
6E
100
AcDbEntity
  8
AM_6
100
AcDbText
 10
8.318917500000005
 20
-4.6035
 30
0.0
 40
0.5
  1
136534
100
AcDbAttributeDefinition
  3

  2
PNA
 70
     8
280
     0
  0
ATTDEF
  5
7F
330
6E
100
AcDbEntity
  8
AM_6
100
AcDbText
 10
8.318917500000005
 20
-5.1035
 30
0.0
 40
0.5
  1
AN-GT-10-115-D
100
AcDbAttributeDefinition
  3

  2
DESCRIPTIONA
 70
     8
280
     0
  0
ATTDEF
  5
80
330
6E
100
AcDbEntity
  8
AM_6
100
AcDbText
 10
8.318917500000005
 20
-5.6035
 30
0.0
 40
0.5
  1
4.9
100
AcDbAttributeDefinition
  3

  2
W
 70
     8
280
     0
  0
ATTDEF
  5
81
330
6E
100
AcDbEntity
  8
AM_6
100
AcDbText
 10
8.318917500000005
 20
-6.1035
 30
0.0
 40
0.5
  1
NS400
100
AcDbAttributeDefinition
  3

  2
TUFS
 70
     8
280
     0
  0
ATTDEF
  5
82
330
6E
100
AcDbEntity
  8
AM_6
100
AcDbText
 10
8.318917500000005
 20
-6.6035
 30
0.0
 40
0.5
  1
1.86
100
AcDbAttributeDefinition
  3

  2
A
 70
     8
280
     0
  0
ATTDEF
  5
83
330
6E
100
AcDbEntity
  8
AM_6
100
AcDbText
 10
8.318917500000005
 20
-7.1035
 30
0.0
 40
0.5
  1
5.50
100
AcDbAttributeDefinition
  3

  2
B
 70
     8
280
     0
  0
ATTDEF
  5
84
330
6E
100
AcDbEntity
  8
AM_6
100
AcDbText
 10
8.318917500000005
 20
-7.6035
 30
0.0
 40
0.5
  1
0.313
100
AcDbAttributeDefinition
  3

  2
C
 70
     8
280
     0
  0
ATTDEF
  5
85
330
6E
100
AcDbEntity
  8
AM_6
100
AcDbText
 10
8.318917500000005
 20
-8.1035
 30
0.0
 40
0.5
  1
3.00
100
AcDbAttributeDefinition
  3

  2
D
 70
     8
280
     0
  0
ATTDEF
  5
86
330
6E
100
AcDbEntity
  8
AM_6
100
AcDbText
 10
8.318917500000005
 20
-8.6035
 30
0.0
 40
0.5
  1
3.25
100
AcDbAttributeDefinition
  3

  2
E
 70
     8
280
     0
  0
ATTDEF
  5
87
330
6E
100
AcDbEntity
  8
AM_6
100
AcDbText
 10
8.318917500000005
 20
-9.1035
 30
0.0
 40
0.5
  1
7/8
100
AcDbAttributeDefinition
  3

  2
F
 70
     8
280
     0
  0
ATTDEF
  5
88
330
6E
100
AcDbEntity
  8
AM_6
100
AcDbText
 10
8.318917500000005
 20
-9.6035
 30
0.0
 40
0.5
  1
0.59
100
AcDbAttributeDefinition
  3

  2
G
 70
     8
280
     0
  0
ATTDEF
  5
89
330
6E
100
AcDbEntity
  8
AM_6
100
AcDbText
 10
8.318917500000005
 20
-10.1035
 30
0.0
 40
0.5
  1
1.09
100
AcDbAttributeDefinition
  3

  2
H
 70
     8
280
     0
  0
ATTDEF
  5
8A
330
6E
100
AcDbEntity
  8
AM_6
100
AcDbText
 10
8.318917500000005
 20
-10.6035
 30
0.0
 40
0.5
  1
1.63
100
AcDbAttributeDefinition
  3

  2
J
 70
     8
280
     0
  0
ATTDEF
  5
8B
330
6E
100
AcDbEntity
  8
AM_6
100
AcDbText
 10
8.318917500000005
 20
-11.1035
 30
0.0
 40
0.5
  1
3.13
100
AcDbAttributeDefinition
  3

  2
L
 70
     8
280
     0
  0
ATTDEF
  5
8C
330
6E
100
AcDbEntity
  8
AM_6
100
AcDbText
 10
8.318917500000005
 20
-11.6035
 30
0.0
 40
0.5
  1
4.015/3.985
100
AcDbAttributeDefinition
  3

  2
M
 70
     8
280
     0
  0
ATTDEF
  5
8D
330
6E
100
AcDbEntity
  8
AM_6
100
AcDbText
 10
8.318917500000005
 20
-12.1035
 30
0.0
 40
0.5
  1
4.75
100
AcDbAttributeDefinition
  3

  2
N
 70
     8
280
     0
  0
ATTDEF
  5
8E
330
6E
100
AcDbEntity
  8
AM_6
100
AcDbText
 10
8.318917500000005
 20
-12.6035
 30
0.0
 40
0.5
  1
0.38
100
AcDbAttributeDefinition
  3

  2
P
 70
     8
280
     0
  0
ATTDEF
  5
8F
330
6E
100
AcDbEntity
  8
AM_6
100
AcDbText
 10
8.318917500000005
 20
-13.1035
 30
0.0
 40
0.5
  1
0.63
100
AcDbAttributeDefinition
  3

  2
R
 70
     8
280
     0
  0
ATTDEF
  5
90
330
6E
100
AcDbEntity
  8
AM_6
100
AcDbText
 10
8.318917500000005
 20
-13.6035
 30
0.0
 40
0.5
  1
1.23
100
AcDbAttributeDefinition
  3

  2
S
 70
     8
280
     0
  0
ATTDEF
  5
91
330
6E
100
AcDbEntity
  8
AM_6
100
AcDbText
 10
8.318917500000005
 20
-14.1035
 30
0.0
 40
0.5
  1
1.26
100
AcDbAttributeDefinition
  3

  2
Z
 70
     8
280
     0
  0
ATTDEF
  5
92
330
6E
100
AcDbEntity
  8
AM_6
100
AcDbText
 10
8.318917500000005
 20
-14.6035
 30
0.0
 40
0.5
  1
4450
100
AcDbAttributeDefinition
  3

  2
CAPS
 70
     8
280
     0
  0
ATTDEF
  5
93
330
6E
100
AcDbEntity
  8
AM_6
100
AcDbText
 10
8.318917500000005
 20
-15.1035
 30
0.0
 40
0.5
  1
7891
100
AcDbAttributeDefinition
  3

  2
CAPD
 70
     8
280
     0
  0
ATTDEF
  5
94
330
6E
100
AcDbEntity
  8
AM_6
100
AcDbText
 10
8.318917500000005
 20
-15.6035
 30
0.0
 40
0.5
  1
baldor
100
AcDbAttributeDefinition
  3

  2
COMPANY
 70
     8
280
     0
  0
INSERT
  5
96
330
6E
100
AcDbEntity
  8
0
100
AcDbBlockReference
  2
2_405016_Inch_0_in_136125_4
 10
0.0
 20
0.0
 30
0.0
  0
INSERT
  5
11D
330
6E
100
AcDbEntity
  8
0
100
AcDbBlockReference
  2
3_129523I_0_in_136125_4
 10
0.0
 20
0.0
 30
0.0
  0
INSERT
  5
160
330
6E
100
AcDbEntity
  8
0
100
AcDbBlockReference
  2
4_136534_0_in_136125_4
 10
0.0
 20
0.0
 30
0.0
  0
INSERT
  5
1C0
330
6E
100
AcDbEntity
  8
0
100
AcDbBlockReference
  2
5_136125h_0_in_136125_4
 10
0.0
 20
0.0
 30
0.0
  0
ENDBLK
  5
71
330
6E
100
AcDbEntity
  8
0
100
AcDbBlockEnd
  0
BLOCK
  5
97
330
95
100
AcDbEntity
  8
0
100
AcDbBlockBegin
  2
2_405016_Inch_0_in_136125_4
 70
     2
 10
0.0
 20
0.0
 30
0.0
  3
2_405016_Inch_0_in_136125_4
  1

  0
ATTDEF
  5
99
330
95
100
AcDbEntity
  8
AM_6
100
AcDbText
 10
3.321717761501472
 20
0.2187500000000006
 30
0.0
 40
0.5
  1
405016 -Inch
100
AcDbAttributeDefinition
  3

  2
NN
 70
     8
280
     0
  0
ATTDEF
  5
9A
330
95
100
AcDbEntity
  8
AM_6
100
AcDbText
 10
3.321717761501472
 20
-0.2812499999999994
 30
0.0
 40
0.5
  1
Grease Fitting
100
AcDbAttributeDefinition
  3

  2
NT
 70
     8
280
     0
  0
ATTDEF
  5
9B
330
95
100
AcDbEntity
  8
AM_6
100
AcDbText
 10
3.321717761501472
 20
-0.7812499999999994
 30
0.0
 40
0.5
  1
405016-Inch
100
AcDbAttributeDefinition
  3

  2
NB
 70
     8
280
     0
  0
ATTDEF
  5
9C
330
95
100
AcDbEntity
  8
AM_6
100
AcDbText
 10
3.321717761501472
 20
-1.28125
 30
0.0
 40
0.5
  1
$MN.-Inch
100
AcDbAttributeDefinition
  3

  2
NBSYN
 70
     8
280
     0
  0
ATTDEF
  5
9D
330
95
100
AcDbEntity
  8
AM_6
100
AcDbText
 10
3.321717761501472
 20
-1.78125
 30
0.0
 40
0.5
  1
405016
100
AcDbAttributeDefinition
  3

  2
LINA
 70
     8
280
     0
  0
ATTDEF
  5
9E
330
95
100
AcDbEntity
  8
AM_6
100
AcDbText
 10
3.321717761501472
 20
-2.28125
 30
0.0
 40
0.5
  1
405016
100
AcDbAttributeDefinition
  3

  2
MN
 70
     8
280
     0
  0
ATTDEF
  5
9F
330
95
100
AcDbEntity
  8
AM_6
100
AcDbText
 10
3.321717761501472
 20
-2.78125
 30
0.0
 40
0.5
  1
7/16 HEX
100
AcDbAttributeDefinition
  3

  2
H
 70
     8
280
     0
  0
ATTDEF
  5
A0
330
95
100
AcDbEntity
  8
AM_6
100
AcDbText
 10
3.321717761501472
 20
-3.28125
 30
0.0
 40
0.5
  1
0.383
100
AcDbAttributeDefinition
  3

  2
NDR
 70
     8
280
     0
  0
ATTDEF
  5
A1
330
95
100
AcDbEntity
  8
AM_6
100
AcDbText
 10
3.321717761501472
 20
-3.78125
 30
0.0
 40
0.5
  1
0.337
100
AcDbAttributeDefinition
  3

  2
KDR
 70
     8
280
     0
  0
ATTDEF
  5
A2
330
95
100
AcDbEntity
  8
AM_6
100
AcDbText
 10
3.321717761501472
 20
-4.28125
 30
0.0
 40
0.5
  1
0.1575
100
AcDbAttributeDefinition
  3

  2
BZE
 70
     8
280
     0
  0
ATTDEF
  5
A3
330
95
100
AcDbEntity
  8
AM_6
100
AcDbText
 10
3.321717761501472
 20
-4.78125
 30
0.0
 40
0.5
  1
0.4375
100
AcDbAttributeDefinition
  3

  2
HEX
 70
     8
280
     0
  0
ATTDEF
  5
A4
330
95
100
AcDbEntity
  8
AM_6
100
AcDbText
 10
3.321717761501472
 20
-5.28125
 30
0.0
 40
0.5
  1
0.281250
100
AcDbAttributeDefinition
  3

  2
HEX2
 70
     8
280
     0
  0
ATTDEF
  5
A5
330
95
100
AcDbEntity
  8
AM_6
100
AcDbText
 10
3.321717761501472
 20
-5.78125
 30
0.0
 40
0.5
  1
baldor
100
AcDbAttributeDefinition
  3

  2
COMPANY
 70
     8
280
     0
  0
LINE
  5
A8
330
95
100
AcDbEntity
  8
AM_9
100
AcDbLine
 10
-2.37542505632907
 20
-0.151074129835757
 30
0.0
 11
-2.386746629552947
 21
-0.1791093260592887
 31
0.0
  0
LINE
  5
A9
330
95
100
AcDbEntity
  8
AM_9
100
AcDbLine
 10
-2.224250210290573
 20
-0.2099962668917053
 30
0.0
 11
-2.235937456510118
 21
-0.2389369657326276
 31
0.0
  0
LWPOLYLINE
  5
AA
330
95
100
AcDbEntity
  8
AM_9
100
AcDbPolyline
 90
        3
 70
     0
 43
0.0
 10
-1.968669790490243
 20
-0.0000000000000001
 10
-1.990147461407866
 20
-0.0544416102741497
 10
-2.008096405025167
 20
-0.109375
  0
LWPOLYLINE
  5
AB
330
95
100
AcDbEntity
  8
AM_9
100
AcDbPolyline
 90
        3
 70
     0
 43
0.0
 10
-2.008096405025167
 20
0.1093749999999999
 10
-1.990236755041244
 20
0.0546874999999999
 10
-1.968669790490243
 20
-0.0000000000000001
  0
LWPOLYLINE
  5
AC
330
95
100
AcDbEntity
  8
AM_9
100
AcDbPolyline
 90
        3
 70
     0
 43
0.0
 10
-2.166319361868483
 20
-0.2987675689889718
 10
-2.182206646431579
 20
-0.2912216284034024
 10
-2.197416648129594
 20
-0.2813919000363599
  0
LWPOLYLINE
  5
AD
330
95
100
AcDbEntity
  8
AM_9
100
AcDbPolyline
 90
        3
 70
     0
 43
0.0
 10
-1.921493864646723
 20
-0.1093750000000001
 10
-1.907779671784339
 20
-0.0546875000000001
 10
-1.897772793489032
 20
-0.0000000000000001
  0
LWPOLYLINE
  5
AE
330
95
100
AcDbEntity
  8
AM_9
100
AcDbPolyline
 90
        3
 70
     0
 43
0.0
 10
-1.897772793489032
 20
-0.0000000000000001
 10
-1.907727000918306
 20
0.0544416102741495
 10
-1.921493864646723
 20
0.1093749999999999
  0
LWPOLYLINE
  5
AF
330
95
100
AcDbEntity
  8
AM_9
100
AcDbPolyline
 90
        4
 70
     0
 43
0.0
 10
-2.17911674059106
 20
-0.2360765106845277
 10
-2.169951754014502
 20
-0.2462091938631851
 10
-2.161860483235515
 20
-0.2570505402207574
 10
-2.154263712557504
 20
-0.2689146070947222
  0
LWPOLYLINE
  5
B0
330
95
100
AcDbEntity
  8
AM_9
100
AcDbPolyline
 90
        3
 70
     0
 43
0.0
 10
-2.031817476182859
 20
0.2187499999999999
 10
-2.021863268753584
 20
0.1643083897258503
 10
-2.008096405025167
 20
0.1093749999999999
  0
LINE
  5
B1
330
95
100
AcDbEntity
  8
AM_9
100
AcDbLine
 10
-1.968669790490243
 20
-0.0000000000000001
 30
0.0
 11
-1.897772793489032
 21
-0.0000000000000001
 31
0.0
  0
LWPOLYLINE
  5
B2
330
95
100
AcDbEntity
  8
AM_9
100
AcDbPolyline
 90
        3
 70
     0
 43
0.0
 10
-2.008096405025167
 20
-0.109375
 10
-2.021810597887551
 20
-0.1640625
 10
-2.031817476182859
 20
-0.2187500000000001
  0
LWPOLYLINE
  5
B3
330
95
100
AcDbEntity
  8
AM_9
100
AcDbPolyline
 90
        3
 70
     0
 43
0.0
 10
-2.154263712557504
 20
-0.2689146070947222
 10
-2.167259600407116
 20
-0.2634308483997528
 10
-2.181473500521356
 20
-0.2602304684431305
  0
LWPOLYLINE
  5
B4
330
95
100
AcDbEntity
  8
AM_9
100
AcDbPolyline
 90
        3
 70
     0
 43
0.0
 10
-2.199773408059889
 20
-0.3055458577949631
 10
-2.183391453440912
 20
-0.3030753670497808
 10
-2.166319361868483
 20
-0.2987675689889718
  0
LINE
  5
B5
330
95
100
AcDbEntity
  8
AM_9
100
AcDbLine
 10
-2.154263712557504
 20
-0.2689146070947222
 30
0.0
 11
-2.166319361868483
 21
-0.2987675689889718
 31
0.0
  0
ELLIPSE
  5
B6
330
95
100
AcDbEntity
  8
AM_9
100
AcDbEllipse
 10
-2.408601004717573
 20
-0.4687500000000001
 30
0.0
 11
-0.09595382955731811
 21
0.03874944547499725
 31
0.0
210
0.0
220
0.0
230
1.0
 40
0.2113091308703506
 41
3.04060964969654
 42
6.384168311072843
  0
ELLIPSE
  5
B7
330
95
100
AcDbEntity
  8
AM_9
100
AcDbEllipse
 10
-2.38060734252009
 20
-0.399430321788976
 30
0.0
 11
-0.1290248947933273
 21
0.052104675225336
 31
0.0
210
0.0
220
0.0
230
1.0
 40
0.2113091308703462
 41
3.036860476448996
 42
5.801105639492172
  0
ELLIPSE
  5
B8
330
95
100
AcDbEntity
  8
AM_9
100
AcDbEllipse
 10
-2.369932361042731
 20
-0.3729962569746935
 30
0.0
 11
-0.1235034625626125
 21
0.04987493162726308
 31
0.0
210
0.0
220
0.0
230
1.0
 40
0.2113091308704073
 41
3.391181609741277
 42
6.028309256680789
  0
LWPOLYLINE
  5
B9
330
95
100
AcDbEntity
  8
AM_9
100
AcDbPolyline
 90
        3
 70
     0
 43
0.0
 10
-2.247509243473274
 20
-0.2987675689889718
 10
-2.233975977972884
 20
-0.3030606061861223
 10
-2.220416693347899
 20
-0.305456396233367
  0
ELLIPSE
  5
BA
330
95
100
AcDbEntity
  8
AM_9
100
AcDbEllipse
 10
-2.318931457778767
 20
-0.2467045921760111
 30
0.0
 11
-0.1303939210191851
 21
0.05265753494274179
 31
0.0
210
0.0
220
0.0
230
1.0
 40
0.2113091308703748
 41
-4.072517206051948
 42
-3.764628581859185
  0
LWPOLYLINE
  5
BB
330
95
100
AcDbEntity
  8
AM_9
100
AcDbPolyline
 90
        5
 70
     0
 43
0.0
 10
-2.386746629552947
 20
-0.1791093260592887
 10
-2.408609018051573
 20
-0.1842540823997054
 10
-2.429505104981566
 20
-0.1862220679364951
 10
-2.449422724536475
 20
-0.1844124966919381
 10
-2.467936511157738
 20
-0.1791093260592887
  0
LWPOLYLINE
  5
BC
330
95
100
AcDbEntity
  8
AM_9
100
AcDbPolyline
 90
        5
 70
     0
 43
0.0
 10
-2.235937456510118
 20
-0.2389369657326276
 10
-2.274778745197547
 20
-0.2295338871417796
 10
-2.312913791909466
 20
-0.216687117104632
 10
-2.350532586270649
 20
-0.1996402057054678
 10
-2.386746629552947
 20
-0.1791093260592887
  0
LWPOLYLINE
  5
BD
330
95
100
AcDbEntity
  8
AM_9
100
AcDbPolyline
 90
        3
 70
     0
 43
0.0
 10
-2.2094381783114
 20
-0.2711532636537956
 10
-2.223173356075973
 20
-0.2561815527589921
 10
-2.235937456510118
 20
-0.2389369657326276
  0
ELLIPSE
  5
BE
330
95
100
AcDbEntity
  8
AM_9
100
AcDbEllipse
 10
-2.31893145777877
 20
-0.2467045921760115
 30
0.0
 11
-0.1303939210191642
 21
0.05265753494272318
 31
0.0
210
0.0
220
0.0
230
1.0
 40
0.2113091308703723
 41
3.806340372002461
 42
6.919181903097273
  0
LWPOLYLINE
  5
BF
330
95
100
AcDbEntity
  8
AM_9
100
AcDbPolyline
 90
        4
 70
     0
 43
0.0
 10
-2.201229900474624
 20
-0.2602304684431209
 10
-2.210478535888518
 20
-0.2616913382589203
 10
-2.222776053338152
 20
-0.2647402074337707
 10
-2.235453594162295
 20
-0.2689146070947222
  0
LINE
  5
C0
330
95
100
AcDbEntity
  8
AM_9
100
AcDbLine
 10
-1.953180961174962
 20
0.2000413016192557
 30
0.0
 11
-1.960920479181647
 21
0.2187499999999999
 31
0.0
  0
LWPOLYLINE
  5
C1
330
95
100
AcDbEntity
  8
AM_9
100
AcDbPolyline
 90
        3
 70
     0
 43
0.0
 10
-1.921493864646723
 20
0.1093749999999999
 10
-1.939353514630646
 20
0.1640624999999999
 10
-1.953180961174962
 20
0.2000413016192557
  0
LWPOLYLINE
  5
C2
330
95
100
AcDbEntity
  8
AM_9
100
AcDbPolyline
 90
        3
 70
     0
 43
0.0
 10
-1.953180839092997
 20
-0.2000409996967266
 10
-1.939442808264025
 20
-0.1643083897258505
 10
-1.921493864646723
 20
-0.1093750000000001
  0
LINE
  5
C3
330
95
100
AcDbEntity
  8
AM_9
100
AcDbLine
 10
-1.960920479181647
 20
-0.2187500000000001
 30
0.0
 11
-1.953180839092997
 21
-0.2000409996967266
 31
0.0
  0
LINE
  5
C4
330
95
100
AcDbEntity
  8
AM_9
100
AcDbLine
 10
-2.38655985718096
 20
-0.1204089378707286
 30
0.0
 11
-2.387645302170672
 21
-0.1230967854582225
 31
0.0
  0
LINE
  5
C5
330
95
100
AcDbEntity
  8
AM_9
100
AcDbLine
 10
-2.198634527576339
 20
-0.2425790968238377
 30
0.0
 11
-2.178771149410382
 21
-0.193392142543456
 31
0.0
  0
ELLIPSE
  5
C6
330
95
100
AcDbEntity
  8
AM_9
100
AcDbEllipse
 10
-2.300631550240223
 20
-0.2013892028241914
 30
0.0
 11
-0.1019970226638911
 21
0.041189893999653
 31
0.0
210
0.0
220
0.0
230
1.0
 40
0.211309130870351
 41
2.173303888561077
 42
6.283185307179586
  0
LWPOLYLINE
  5
C7
330
95
100
AcDbEntity
  8
AM_9
100
AcDbPolyline
 90
        4
 70
     0
 43
0.0
 10
-2.38656458683598
 20
-0.1204206514110939
 10
-2.386703752820509
 20
-0.1208367673933812
 10
-2.386126168863382
 20
-0.1245107513506023
 10
-2.384217653693964
 20
-0.1273642748019243
  0
LWPOLYLINE
  5
C8
330
95
100
AcDbEntity
  8
AM_9
100
AcDbPolyline
 90
        5
 70
     0
 43
0.0
 10
-2.178770205208893
 20
-0.1933898041312626
 10
-2.178863541340045
 20
-0.1936098952159724
 10
-2.182079078292683
 20
-0.1971856748420371
 10
-2.188097441535465
 20
-0.1994144431868155
 10
-2.194961412115908
 20
-0.1999999999699529
  0
LWPOLYLINE
  5
C9
330
95
100
AcDbEntity
  8
AM_9
100
AcDbPolyline
 90
        3
 70
     0
 43
0.0
 10
-2.288258543328346
 20
-0.1745741884610188
 10
-2.260869467954916
 20
-0.1876759562813858
 10
-2.224250210290573
 20
-0.2099962668917053
  0
LWPOLYLINE
  5
CA
330
95
100
AcDbEntity
  8
AM_9
100
AcDbPolyline
 90
        3
 70
     0
 43
0.0
 10
-2.37542505632907
 20
-0.151074129835757
 10
-2.346220448829547
 20
-0.1564222384464442
 10
-2.317549949887252
 20
-0.1639312493177431
  0
LWPOLYLINE
  5
CB
330
95
100
AcDbEntity
  8
AM_9
100
AcDbPolyline
 90
        3
 70
     0
 43
0.0
 10
-2.224250210290573
 20
-0.2099962668917053
 10
-2.20727652795705
 20
-0.2163479371246913
 10
-2.191138270772867
 20
-0.2258378743019629
  0
LWPOLYLINE
  5
CC
330
95
100
AcDbEntity
  8
AM_9
100
AcDbPolyline
 90
        4
 70
     0
 43
0.0
 10
-2.412335936673565
 20
-0.141958509815605
 10
-2.408460817227516
 20
-0.1420496512545706
 10
-2.393971902112765
 20
-0.1441228263802214
 10
-2.37542505632907
 20
-0.151074129835757
  0
ELLIPSE
  5
CD
330
95
100
AcDbEntity
  8
AM_9
100
AcDbEllipse
 10
-2.300631550240226
 20
-0.2013892028241901
 30
0.0
 11
-0.1303939210191736
 21
0.05265753494273222
 31
0.0
210
0.0
220
0.0
230
1.0
 40
0.211309130870362
 41
3.814164134970074
 42
4.694572370423031
  0
ELLIPSE
  5
CE
330
95
100
AcDbEntity
  8
AM_9
100
AcDbEllipse
 10
-2.300631550240227
 20
-0.2013892028241872
 30
0.0
 11
-0.1303939210191736
 21
0.05265753494273309
 31
0.0
210
0.0
220
0.0
230
1.0
 40
0.211309130870347
 41
-1.273980242869106
 42
-0.6725714813802774
  0
LINE
  5
CF
330
95
100
AcDbEntity
  8
AM_9
100
AcDbLine
 10
-2.197416648129594
 20
-0.2813919000363599
 30
0.0
 11
-2.2094381783114
 21
-0.2711532636537956
 31
0.0
  0
ELLIPSE
  5
D0
330
95
100
AcDbEntity
  8
AM_9
100
AcDbEllipse
 10
-2.318931457778762
 20
-0.2467045921760199
 30
0.0
 11
-0.1303939210191758
 21
0.05265753494273471
 31
0.0
210
0.0
220
0.0
230
1.0
 40
0.2113091308703505
 41
2.800469246484378
 42
3.607080702195127
  0
LWPOLYLINE
  5
D1
330
95
100
AcDbEntity
  8
AM_9
100
AcDbPolyline
 90
        3
 70
     0
 43
0.0
 10
-2.219529808013159
 20
-0.3055458577949631
 10
-2.210079609126851
 20
-0.3064767622622302
 10
-2.199773408059889
 20
-0.3055458577949631
  0
LWPOLYLINE
  5
D2
330
95
100
AcDbEntity
  8
AM_9
100
AcDbPolyline
 90
       11
 70
     0
 43
0.0
 10
-2.250075726111613
 20
-0.3525024815583699
 10
-2.246098604568159
 20
-0.3437658289656347
 10
-2.240536714237718
 20
-0.3347398236747472
 10
-2.234173162376195
 20
-0.3268922476369844
 10
-2.227326209953847
 20
-0.3203117723105808
 10
-2.220362972612613
 20
-0.3150430500130551
 10
-2.213687549018614
 20
-0.3110652058846152
 10
-2.207678167539589
 20
-0.3082648698697436
 10
-2.202602715399861
 20
-0.3064418468817328
 10
-2.198595863767711
 20
-0.3053599865668485
 10
-2.197942033594037
 20
-0.3052155647816263
  0
LWPOLYLINE
  5
D3
330
95
100
AcDbEntity
  8
AM_9
100
AcDbPolyline
 90
        3
 70
     0
 43
0.0
 10
-2.446471506836311
 20
-0.2050158988776392
 10
-2.446458464614882
 20
-0.2050355124674514
 10
-2.445633358678783
 20
-0.2063195489597658
  0
ELLIPSE
  5
D4
330
95
100
AcDbEntity
  8
AM_9
100
AcDbEllipse
 10
-2.30063155024023
 20
-0.2013892028241829
 30
0.0
 11
-0.1303939210191896
 21
0.05265753494271881
 31
0.0
210
0.0
220
0.0
230
1.0
 40
0.2113091308704359
 41
-4.230003947263625
 42
-3.764628581859261
  0
LINE
  5
D5
330
95
100
AcDbEntity
  8
AM_9
100
AcDbLine
 10
-2.181473500521356
 20
-0.2602304684431305
 30
0.0
 11
-2.201229900474624
 21
-0.2602304684431209
 31
0.0
  0
ELLIPSE
  5
D6
330
95
100
AcDbEntity
  8
AM_9
100
AcDbEllipse
 10
-2.300631550240227
 20
-0.2013892028241873
 30
0.0
 11
-0.1303939210191749
 21
0.05265753494273483
 31
0.0
210
0.0
220
0.0
230
1.0
 40
0.2113091308703496
 41
2.800469246484377
 42
3.607080702195125
  0
LINE
  5
D7
330
95
100
AcDbEntity
  8
AM_9
100
AcDbLine
 10
-2.191138270772867
 20
-0.2258378743019629
 30
0.0
 11
-2.17911674059106
 21
-0.2360765106845277
 31
0.0
  0
LINE
  5
D8
330
95
100
AcDbEntity
  8
AM_9
100
AcDbLine
 10
-2.235453594162295
 20
-0.2689146070947222
 30
0.0
 11
-2.249824175962688
 21
-0.2595011140825906
 31
0.0
  0
LINE
  5
D9
330
95
100
AcDbEntity
  8
AM_9
100
AcDbLine
 10
-2.250014254058384
 20
-0.298253353445323
 30
0.0
 11
-2.247509243473274
 21
-0.2987675689889718
 31
0.0
  0
LINE
  5
DA
330
95
100
AcDbEntity
  8
AM_9
100
AcDbLine
 10
-2.235453594162295
 20
-0.2689146070947222
 30
0.0
 11
-2.247509243473274
 21
-0.2987675689889718
 31
0.0
  0
LWPOLYLINE
  5
DB
330
95
100
AcDbEntity
  8
AM_9
100
AcDbPolyline
 90
       17
 70
     0
 43
0.0
 10
-2.185446314560969
 20
-0.1790373738501779
 10
-2.193413779637162
 20
-0.1733931390117467
 10
-2.204169853071344
 20
-0.1670729780242511
 10
-2.216812904593787
 20
-0.1606047421316795
 10
-2.231703327739628
 20
-0.1538031670974777
 10
-2.247605204546509
 20
-0.1472336073736393
 10
-2.264966174368228
 20
-0.1407130262602576
 10
-2.282321651498473
 20
-0.1347930597680667
 10
-2.300179363082761
 20
-0.1293028157827817
 10
-2.317009124582835
 20
-0.1247141396218192
 10
-2.33332586848354
 20
-0.1208880884981781
 10
-2.347724919343374
 20
-0.1181545989145989
 10
-2.360657272209121
 20
-0.1164278875396128
 10
-2.371017000368822
 20
-0.1158549073091554
 10
-2.379127175185519
 20
-0.1164156227038168
 10
-2.38430381637636
 20
-0.1180609686233502
 10
-2.38656458683598
 20
-0.1204206514110939
  0
ARC
  5
DC
330
95
100
AcDbEntity
  8
AM_9
100
AcDbCircle
 10
-2.230015414744923
 20
-0.0000000000000786
 30
0.0
 40
0.2000000000000785
100
AcDbArc
 50
90.0
 51
95.73473224841666
  0
ELLIPSE
  5
DD
330
95
100
AcDbEntity
  8
AM_9
100
AcDbEllipse
 10
-2.230015414744915
 20
-0.0000000000000012
 30
0.0
 11
1.224646799147360E-17
 21
0.2000000000000012
 31
0.0
210
0.0
220
0.0
230
1.0
 40
0.5000000000000042
 41
0.0
 42
0.2012005972342922
  0
LWPOLYLINE
  5
DE
330
95
100
AcDbEntity
  8
AM_9
100
AcDbPolyline
 90
        4
 70
     0
 43
0.0
 10
-2.185446314560969
 20
-0.1790373738501784
 10
-2.180491654088902
 20
-0.1842628795203941
 10
-2.178383769622159
 20
-0.1891729979031393
 10
-2.178770205208893
 20
-0.1933898041312626
  0
LINE
  5
DF
330
95
100
AcDbEntity
  8
AM_9
100
AcDbLine
 10
-2.10281793356409
 20
0.1999999999999999
 30
0.0
 11
-2.230015414744929
 21
0.1999999999999999
 31
0.0
  0
LINE
  5
E0
330
95
100
AcDbEntity
  8
AM_9
100
AcDbLine
 10
-2.195109196342816
 20
-0.2
 30
0.0
 11
-2.10281793356409
 21
-0.2
 31
0.0
  0
LWPOLYLINE
  5
E1
330
95
100
AcDbEntity
  8
AM_9
100
AcDbPolyline
 90
        7
 70
     0
 43
0.0
 10
-2.194961412115908
 20
-0.1999999999699529
 10
-2.196448529355212
 20
-0.1999786710855128
 10
-2.207322129831961
 20
-0.1988321115509053
 10
-2.219720451545943
 20
-0.1961649429984259
 10
-2.234143881911935
 20
-0.1920694300574958
 10
-2.249656861772753
 20
-0.1870948030566195
 10
-2.249988279386697
 20
-0.1869857886155883
  0
LINE
  5
E2
330
95
100
AcDbEntity
  8
AM_9
100
AcDbLine
 10
-1.948557158514987
 20
0.1999999999999999
 30
0.0
 11
-2.016215393185646
 21
0.1999999999999999
 31
0.0
  0
LINE
  5
E3
330
95
100
AcDbEntity
  8
AM_9
100
AcDbLine
 10
-2.016215393185646
 20
-0.2
 30
0.0
 11
-1.948557158514987
 21
-0.2
 31
0.0
  0
LINE
  5
E4
330
95
100
AcDbEntity
  8
AM_9
100
AcDbLine
 10
-2.15811284756809
 20
0.2187499999999999
 30
0.0
 11
-1.960920479181647
 21
0.2187499999999999
 31
0.0
  0
LWPOLYLINE
  5
E5
330
95
100
AcDbEntity
  8
AM_9
100
AcDbPolyline
 90
        3
 70
     0
 43
0.0
 10
-2.197539462103013
 20
0.1093749999999999
 10
-2.17967981211909
 20
0.1640624999999999
 10
-2.15811284756809
 20
0.2187499999999999
  0
LWPOLYLINE
  5
E6
330
95
100
AcDbEntity
  8
AM_9
100
AcDbPolyline
 90
        3
 70
     0
 43
0.0
 10
-2.221260533260704
 20
-0.0000000000000001
 10
-2.21130632583143
 20
0.0544416102741495
 10
-2.197539462103013
 20
0.1093749999999999
  0
LWPOLYLINE
  5
E7
330
95
100
AcDbEntity
  8
AM_9
100
AcDbPolyline
 90
        3
 70
     0
 43
0.0
 10
-2.087215850566878
 20
0.2187499999999999
 10
-2.097170057996153
 20
0.1643083897258503
 10
-2.110936921724569
 20
0.1093749999999999
  0
LWPOLYLINE
  5
E8
330
95
100
AcDbEntity
  8
AM_9
100
AcDbPolyline
 90
        3
 70
     0
 43
0.0
 10
-2.110936921724569
 20
0.1093749999999999
 10
-2.128796571708492
 20
0.0546874999999999
 10
-2.150363536259493
 20
-0.0000000000000001
  0
LINE
  5
E9
330
95
100
AcDbEntity
  8
AM_9
100
AcDbLine
 10
-2.221260533260704
 20
-0.0000000000000001
 30
0.0
 11
-2.150363536259493
 21
-0.0000000000000001
 31
0.0
  0
LWPOLYLINE
  5
EA
330
95
100
AcDbEntity
  8
AM_9
100
AcDbPolyline
 90
        3
 70
     0
 43
0.0
 10
-2.197539462103013
 20
-0.109375
 10
-2.211253654965397
 20
-0.0546875
 10
-2.221260533260704
 20
-0.0000000000000001
  0
LWPOLYLINE
  5
EB
330
95
100
AcDbEntity
  8
AM_9
100
AcDbPolyline
 90
        3
 70
     0
 43
0.0
 10
-2.15811284756809
 20
-0.2187500000000001
 10
-2.179590518485712
 20
-0.1643083897258504
 10
-2.197539462103013
 20
-0.109375
  0
LINE
  5
EC
330
95
100
AcDbEntity
  8
AM_9
100
AcDbLine
 10
-2.15811284756809
 20
-0.2187500000000001
 30
0.0
 11
-1.960920479181647
 21
-0.2187500000000001
 31
0.0
  0
LWPOLYLINE
  5
ED
330
95
100
AcDbEntity
  8
AM_9
100
AcDbPolyline
 90
        3
 70
     0
 43
0.0
 10
-2.110936921724569
 20
-0.109375
 10
-2.097222728862185
 20
-0.1640625
 10
-2.087215850566878
 20
-0.2187500000000001
  0
LWPOLYLINE
  5
EE
330
95
100
AcDbEntity
  8
AM_9
100
AcDbPolyline
 90
        3
 70
     0
 43
0.0
 10
-2.150363536259493
 20
-0.0000000000000001
 10
-2.128885865341871
 20
-0.0544416102741496
 10
-2.110936921724569
 20
-0.109375
  0
LINE
  5
EF
330
95
100
AcDbEntity
  8
AM_9
100
AcDbLine
 10
-1.778012540892584
 20
0.1853871066562612
 30
0.0
 11
-1.946827133437562
 21
0.1914799748403927
 31
0.0
  0
LINE
  5
F0
330
95
100
AcDbEntity
  8
AM_9
100
AcDbLine
 10
-1.946827133437562
 20
-0.1914799748403929
 30
0.0
 11
-1.778012540892584
 21
-0.1853871066562613
 31
0.0
  0
LINE
  5
F1
330
95
100
AcDbEntity
  8
AM_9
100
AcDbLine
 10
-1.712445803610434
 20
0.1319978794387896
 30
0.0
 11
-1.726159930669502
 21
0.1513925839218323
 31
0.0
  0
LINE
  5
F2
330
95
100
AcDbEntity
  8
AM_9
100
AcDbLine
 10
-1.726159930669502
 20
-0.1513925839218325
 30
0.0
 11
-1.712445803610434
 21
-0.1319978794387897
 31
0.0
  0
ELLIPSE
  5
F3
330
95
100
AcDbEntity
  8
AM_9
100
AcDbEllipse
 10
-2.10281793356409
 20
0.0000000000000005
 30
0.0
 11
1.339457436567414E-17
 21
0.2187499999999995
 31
0.0
210
0.0
220
0.0
230
1.0
 40
0.5000000000000001
 41
0.0
 42
6.283185307179586
  0
ELLIPSE
  5
F4
330
95
100
AcDbEntity
  8
AM_9
100
AcDbEllipse
 10
-2.10281793356409
 20
-0.0000000000000004
 30
0.0
 11
1.224646799147351E-17
 21
0.1999999999999997
 31
0.0
210
0.0
220
0.0
230
1.0
 40
0.5000000000000012
 41
0.0
 42
6.283185307179586
  0
ELLIPSE
  5
F5
330
95
100
AcDbEntity
  8
AM_9
100
AcDbEllipse
 10
-2.016215393185647
 20
0.0000000000000003
 30
0.0
 11
1.339457436567419E-17
 21
0.2187500000000003
 31
0.0
210
0.0
220
0.0
230
1.0
 40
0.4999999999999983
 41
0.0
 42
6.283185307179586
  0
ELLIPSE
  5
F6
330
95
100
AcDbEntity
  8
AM_9
100
AcDbEllipse
 10
-2.016215393185646
 20
0.0000000000000001
 30
0.0
 11
1.224646799147354E-17
 21
0.2000000000000001
 31
0.0
210
0.0
220
0.0
230
1.0
 40
0.5000000000000003
 41
0.0
 42
6.283185307179586
  0
ELLIPSE
  5
F7
330
95
100
AcDbEntity
  8
AM_9
100
AcDbEllipse
 10
-1.948557158514986
 20
0.0000000000000005
 30
0.0
 11
1.224646799147348E-17
 21
0.1999999999999991
 31
0.0
210
0.0
220
0.0
230
1.0
 40
0.4999999999999993
 41
0.0
 42
6.283185307179586
  0
ELLIPSE
  5
F8
330
95
100
AcDbEntity
  8
AM_9
100
AcDbEllipse
 10
-1.948557158516005
 20
-0.000000000000224
 30
0.0
 11
1.172668097678590E-17
 21
0.1915112338504534
 31
0.0
210
0.0
220
0.0
230
1.0
 40
0.5000000000001033
 41
0.0
 42
6.283185307179586
  0
ELLIPSE
  5
F9
330
95
100
AcDbEntity
  8
AM_9
100
AcDbEllipse
 10
-1.779685292025745
 20
0.0000000000000007
 30
0.0
 11
1.135353457964650E-17
 21
0.1854172907249873
 31
0.0
210
0.0
220
0.0
230
1.0
 40
0.5000000000000002
 41
0.0
 42
6.283185307179586
  0
ELLIPSE
  5
FA
330
95
100
AcDbEntity
  8
AM_9
100
AcDbEllipse
 10
-1.759114101437141
 20
-0.0000000000000006
 30
0.0
 11
9.899048221688892E-18
 21
0.1616637258772243
 31
0.0
210
0.0
220
0.0
230
1.0
 40
0.5000000000000019
 41
0.0
 42
6.283185307179586
  0
LINE
  5
FC
330
95
100
AcDbEntity
  8
AM_4
100
AcDbLine
 10
-2.313961462846227
 20
-0.5093460834378319
 30
0.0
 11
-2.253349712578963
 21
-0.4540180898723598
 31
0.0
  0
LINE
  5
FD
330
95
100
AcDbEntity
  8
AM_4
100
AcDbLine
 10
-2.510084879878838
 20
-0.3503396289636352
 30
0.0
 11
-2.504891457588108
 21
-0.4322420068738781
 31
0.0
  0
ELLIPSE
  5
FE
330
95
100
AcDbEntity
  8
AM_4
100
AcDbEllipse
 10
-2.408601004717573
 20
-0.4687500000000002
 30
0.0
 11
-0.09595382955731765
 21
0.03874944547499707
 31
0.0
210
0.0
220
0.0
230
1.0
 40
0.2113091308703491
 41
0.100983003893246
 42
3.040609649696545
  0
LINE
  5
FF
330
95
100
AcDbEntity
  8
AM_4
100
AcDbLine
 10
-2.456614937933861
 20
-0.151074129835757
 30
0.0
 11
-2.467936511157738
 21
-0.1791093260592887
 31
0.0
  0
LWPOLYLINE
  5
100
330
95
100
AcDbEntity
  8
AM_4
100
AcDbPolyline
 90
        9
 70
     0
 43
0.0
 10
-2.48625785158751
 20
-0.317983032784938
 10
-2.487636986678238
 20
-0.3184309339571195
 10
-2.493299366776001
 20
-0.3208855282353662
 10
-2.498400807267773
 20
-0.3242203455067044
 10
-2.502848681932904
 20
-0.3284987998331844
 10
-2.506413621984889
 20
-0.3336592023788361
 10
-2.509009744746316
 20
-0.3400164064202928
 10
-2.510088466832667
 20
-0.3463931705913579
 10
-2.510053382245149
 20
-0.3507867935283694
  0
LWPOLYLINE
  5
101
330
95
100
AcDbEntity
  8
AM_4
100
AcDbPolyline
 90
        9
 70
     0
 43
0.0
 10
-2.253711143154305
 20
-0.4543430214899502
 10
-2.250976895575681
 20
-0.4516076458027939
 10
-2.247327659697364
 20
-0.4465156641680466
 10
-2.244610817879509
 20
-0.4401751788614417
 10
-2.243425181550984
 20
-0.4337865495450496
 10
-2.243547416743143
 20
-0.4276844194275797
 10
-2.244727395202953
 20
-0.421965256440583
 10
-2.246797803126267
 20
-0.4165805211062319
 10
-2.247802686651626
 20
-0.4145971215268434
  0
ELLIPSE
  5
102
330
95
100
AcDbEntity
  8
AM_4
100
AcDbEllipse
 10
-2.38060734252009
 20
-0.3994303217889759
 30
0.0
 11
-0.1290248947933277
 21
0.05210467522533601
 31
0.0
210
0.0
220
0.0
230
1.0
 40
0.2113091308703595
 41
0.1044669970130583
 42
3.036860476448999
  0
ELLIPSE
  5
103
330
95
100
AcDbEntity
  8
AM_4
100
AcDbEllipse
 10
-2.318931457778761
 20
-0.2467045921760192
 30
0.0
 11
-0.1303939210191775
 21
0.05265753494273542
 31
0.0
210
0.0
220
0.0
230
1.0
 40
0.2113091308703543
 41
1.711945269609641
 42
2.210668101127613
  0
LWPOLYLINE
  5
104
330
95
100
AcDbEntity
  8
AM_4
100
AcDbPolyline
 90
        4
 70
     0
 43
0.0
 10
-2.467936511157738
 20
-0.1791093260592887
 10
-2.453059393114662
 20
-0.1988355121406939
 10
-2.436630120871988
 20
-0.2156330920108724
 10
-2.431133102260645
 20
-0.2201680623457971
  0
LWPOLYLINE
  5
105
330
95
100
AcDbEntity
  8
AM_4
100
AcDbPolyline
 90
        3
 70
     0
 43
0.0
 10
-2.431133102260645
 20
-0.2201680623457971
 10
-2.418192580662017
 20
-0.2290462109660021
 10
-2.398317219719701
 20
-0.2389369657326275
  0
LINE
  5
106
330
95
100
AcDbEntity
  8
AM_4
100
AcDbLine
 10
-2.387645302170672
 20
-0.1230967854582225
 30
0.0
 11
-2.402628572904114
 21
-0.1601993088245384
 31
0.0
  0
ELLIPSE
  5
107
330
95
100
AcDbEntity
  8
AM_4
100
AcDbEllipse
 10
-2.300631550240226
 20
-0.2013892028241881
 30
0.0
 11
-0.101997022663888
 21
0.04118989399964975
 31
0.0
210
0.0
220
0.0
230
1.0
 40
0.2113091308703506
 41
0.0
 42
2.173303888561031
  0
LWPOLYLINE
  5
108
330
95
100
AcDbEntity
  8
AM_4
100
AcDbPolyline
 90
        4
 70
     0
 43
0.0
 10
-2.456614937933861
 20
-0.151074129835757
 10
-2.439999095946332
 20
-0.145877822676052
 10
-2.4239444832912
 20
-0.1427138007556462
 10
-2.412335936673565
 20
-0.141958509815605
  0
LWPOLYLINE
  5
109
330
95
100
AcDbEntity
  8
AM_4
100
AcDbPolyline
 90
        7
 70
     0
 43
0.0
 10
-2.386629973500155
 20
-0.2099962668917053
 10
-2.396939109857484
 20
-0.1943573015029059
 10
-2.408282936691695
 20
-0.1805491420332303
 10
-2.420996911268502
 20
-0.1688997677199809
 10
-2.434892837458194
 20
-0.1598729403210871
 10
-2.445566177098837
 20
-0.1549033058439656
 10
-2.456614937933861
 20
-0.151074129835757
  0
LINE
  5
10A
330
95
100
AcDbEntity
  8
AM_4
100
AcDbLine
 10
-2.411006083130736
 20
-0.1419585097669023
 30
0.0
 11
-2.412444559778889
 21
-0.1419585097669023
 31
0.0
  0
ELLIPSE
  5
10B
330
95
100
AcDbEntity
  8
AM_4
100
AcDbEllipse
 10
-2.300631550240207
 20
-0.201389202824214
 30
0.0
 11
-0.130393921019202
 21
0.05265753494275653
 31
0.0
210
0.0
220
0.0
230
1.0
 40
0.2113091308704015
 41
5.610613825799334
 42
7.795870906981289
  0
ELLIPSE
  5
10C
330
95
100
AcDbEntity
  8
AM_4
100
AcDbEllipse
 10
-2.31893145777876
 20
-0.2467045921760216
 30
0.0
 11
-0.1303939210191749
 21
0.0526575349427345
 31
0.0
210
0.0
220
0.0
230
1.0
 40
0.2113091308703425
 41
0.6359965959176881
 42
1.512685599801936
  0
LWPOLYLINE
  5
10D
330
95
100
AcDbEntity
  8
AM_4
100
AcDbPolyline
 90
       10
 70
     0
 43
0.0
 10
-2.247561481256974
 20
-0.4150498249064622
 10
-2.248078716473292
 20
-0.414033619455933
 10
-2.250496198855367
 20
-0.4085511992141283
 10
-2.252758639377671
 20
-0.4017029538919652
 10
-2.254514650869344
 20
-0.393575121005429
 10
-2.255412346655452
 20
-0.3844366176208811
 10
-2.255186648763712
 20
-0.3746672674679417
 10
-2.253694220138909
 20
-0.364651540221323
 10
-2.250572230885818
 20
-0.3538249192133904
 10
-2.250075726111613
 20
-0.3525024815583699
  0
LWPOLYLINE
  5
10E
330
95
100
AcDbEntity
  8
AM_4
100
AcDbPolyline
 90
       18
 70
     0
 43
0.0
 10
-2.445633358678783
 20
-0.2063195489597658
 10
-2.444354536871187
 20
-0.208487207539023
 10
-2.441984479021113
 20
-0.213186381973388
 10
-2.439591711277811
 20
-0.2192297975498647
 10
-2.437492850192376
 20
-0.2266253972974834
 10
-2.4360505076458
 20
-0.2352103891371427
 10
-2.435589623163324
 20
-0.244656513063609
 10
-2.436325518373735
 20
-0.2545715850998553
 10
-2.438653627550211
 20
-0.2656650800325078
 10
-2.442449151553446
 20
-0.276183609347319
 10
-2.447472218426132
 20
-0.285776521469358
 10
-2.453450684164177
 20
-0.2942581934207195
 10
-2.460085588041881
 20
-0.3015144806576646
 10
-2.46703641525341
 20
-0.3074761645775491
 10
-2.473914257471426
 20
-0.31212591243972
 10
-2.480316371660714
 20
-0.3155260538173134
 10
-2.485908240214766
 20
-0.3178350332601522
 10
-2.487033421223753
 20
-0.3182273001657455
  0
ELLIPSE
  5
10F
330
95
100
AcDbEntity
  8
AM_4
100
AcDbEllipse
 10
-2.369932361042745
 20
-0.3729962569746644
 30
0.0
 11
-0.1235034625625953
 21
0.04987493162723576
 31
0.0
210
0.0
220
0.0
230
1.0
 40
0.2113091308703534
 41
6.041608697600644
 42
9.667603694677215
  0
ELLIPSE
  5
110
330
95
100
AcDbEntity
  8
AM_4
100
AcDbEllipse
 10
-2.300631550240225
 20
-0.201389202824187
 30
0.0
 11
-0.1303939210191718
 21
0.05265753494273326
 31
0.0
210
0.0
220
0.0
230
1.0
 40
0.2113091308703657
 41
-4.571240037569959
 42
-4.23000394726361
  0
LWPOLYLINE
  5
111
330
95
100
AcDbEntity
  8
AM_4
100
AcDbPolyline
 90
        3
 70
     0
 43
0.0
 10
-2.249824175962688
 20
-0.2595011140825906
 10
-2.26351589413114
 20
-0.251275593729576
 10
-2.293303998969126
 20
-0.2360765106845275
  0
LINE
  5
112
330
95
100
AcDbEntity
  8
AM_4
100
AcDbLine
 10
-2.293303998969126
 20
-0.2360765106845275
 30
0.0
 11
-2.31931280799511
 21
-0.2258378743019627
 31
0.0
  0
LWPOLYLINE
  5
113
330
95
100
AcDbEntity
  8
AM_4
100
AcDbPolyline
 90
        4
 70
     0
 43
0.0
 10
-2.31931280799511
 20
-0.2258378743019627
 10
-2.34230284268735
 20
-0.2189176876709014
 10
-2.364308712548036
 20
-0.2138633349839127
 10
-2.386629973500155
 20
-0.2099962668917053
  0
LINE
  5
114
330
95
100
AcDbEntity
  8
AM_4
100
AcDbLine
 10
-2.386629973500155
 20
-0.2099962668917053
 30
0.0
 11
-2.3983172197197
 21
-0.2389369657326276
 31
0.0
  0
LWPOLYLINE
  5
115
330
95
100
AcDbEntity
  8
AM_4
100
AcDbPolyline
 90
        3
 70
     0
 43
0.0
 10
-2.3983172197197
 20
-0.2389369657326276
 10
-2.368637398485898
 20
-0.2560939713202353
 10
-2.337612715533643
 20
-0.2711532636537956
  0
LINE
  5
116
330
95
100
AcDbEntity
  8
AM_4
100
AcDbLine
 10
-2.337612715533643
 20
-0.2711532636537956
 30
0.0
 11
-2.311603906507659
 21
-0.2813919000363599
 31
0.0
  0
LWPOLYLINE
  5
117
330
95
100
AcDbEntity
  8
AM_4
100
AcDbPolyline
 90
        3
 70
     0
 43
0.0
 10
-2.311603906507659
 20
-0.2813919000363599
 10
-2.279953355653635
 20
-0.2911775952746243
 10
-2.250014254058384
 20
-0.298253353445323
  0
ARC
  5
118
330
95
100
AcDbEntity
  8
AM_4
100
AcDbCircle
 10
-2.230015414744931
 20
0.0000000000000006
 30
0.0
 40
0.1999999999999992
100
AcDbArc
 50
95.73473224841666
 51
219.6387377382432
  0
LWPOLYLINE
  5
119
330
95
100
AcDbEntity
  8
AM_4
100
AcDbPolyline
 90
       10
 70
     0
 43
0.0
 10
-2.384217653693964
 20
-0.1273642748019243
 10
-2.382554465054258
 20
-0.1291842652280562
 10
-2.376276917786595
 20
-0.1344729790611519
 10
-2.367119318723874
 20
-0.1405186270901959
 10
-2.355823129561863
 20
-0.1468270783017121
 10
-2.342081978421113
 20
-0.1535654953592165
 10
-2.327020488681631
 20
-0.1601799433259583
 10
-2.310227065861971
 20
-0.1668493358980661
 10
-2.292827729707976
 20
-0.1731116383367606
 10
-2.274584514928872
 20
-0.1790373738502115
  0
ELLIPSE
  5
11A
330
95
100
AcDbEntity
  8
AM_4
100
AcDbEllipse
 10
-2.23001541474493
 20
-0.0000000000000002
 30
0.0
 11
1.224646799147353E-17
 21
0.1999999999999999
 31
0.0
210
0.0
220
0.0
230
1.0
 40
0.4999999999999984
 41
0.201200597234152
 42
2.679646633022828
  0
LINE
  5
11B
330
95
100
AcDbEntity
  8
AM_4
100
AcDbLine
 10
-2.249988279386697
 20
-0.1869857886155883
 30
0.0
 11
-2.27458451492889
 21
-0.1790373738501784
 31
0.0
  0
ENDBLK
  5
98
330
95
100
AcDbEntity
  8
0
100
AcDbBlockEnd
  0
BLOCK
  5
11E
330
11C
100
AcDbEntity
  8
0
100
AcDbBlockBegin
  2
3_129523I_0_in_136125_4
 70
     2
 10
0.0
 20
0.0
 30
0.0
  3
3_129523I_0_in_136125_4
  1

  0
ATTDEF
  5
120
330
11C
100
AcDbEntity
  8
AM_6
100
AcDbText
 10
6.771512852384941
 20
0.597
 30
0.0
 40
0.5
  1
INS-GT B
100
AcDbAttributeDefinition
  3

  2
NN
 70
     8
280
     0
  0
ATTDEF
  5
121
330
11C
100
AcDbEntity
  8
AM_6
100
AcDbText
 10
6.771512852384941
 20
0.097
 30
0.0
 40
0.5
  1
GT Normal Duty Bearing Inserts
100
AcDbAttributeDefinition
  3

  2
NT
 70
     8
280
     0
  0
ATTDEF
  5
122
330
11C
100
AcDbEntity
  8
AM_6
100
AcDbText
 10
6.771512852384941
 20
-0.403
 30
0.0
 40
0.5
  1
129523I
100
AcDbAttributeDefinition
  3

  2
NB
 70
     8
280
     0
  0
ATTDEF
  5
123
330
11C
100
AcDbEntity
  8
AM_6
100
AcDbText
 10
6.771512852384941
 20
-0.903
 30
0.0
 40
0.5
  1
$PN.I
100
AcDbAttributeDefinition
  3

  2
NBSYN
 70
     8
280
     0
  0
ATTDEF
  5
124
330
11C
100
AcDbEntity
  8
AM_6
100
AcDbText
 10
6.771512852384941
 20
-1.403
 30
0.0
 40
0.5
  1
129523
100
AcDbAttributeDefinition
  3

  2
LINA
 70
     8
280
     0
  0
ATTDEF
  5
125
330
11C
100
AcDbEntity
  8
AM_6
100
AcDbText
 10
6.771512852384941
 20
-1.903
 30
0.0
 40
0.5
  1
210
100
AcDbAttributeDefinition
  3

  2
SERIES
 70
     8
280
     0
  0
ATTDEF
  5
126
330
11C
100
AcDbEntity
  8
AM_6
100
AcDbText
 10
6.771512852384941
 20
-2.403
 30
0.0
 40
0.5
  1
129523
100
AcDbAttributeDefinition
  3

  2
PN
 70
     8
280
     0
  0
ATTDEF
  5
127
330
11C
100
AcDbEntity
  8
AM_6
100
AcDbText
 10
6.771512852384941
 20
-2.903
 30
0.0
 40
0.5
  1
INS-GT-10
100
AcDbAttributeDefinition
  3

  2
DESCRIPTION
 70
     8
280
     0
  0
ATTDEF
  5
128
330
11C
100
AcDbEntity
  8
AM_6
100
AcDbText
 10
6.771512852384941
 20
-3.403
 30
0.0
 40
0.5
  1
1.86
100
AcDbAttributeDefinition
  3

  2
A
 70
     8
280
     0
  0
ATTDEF
  5
129
330
11C
100
AcDbEntity
  8
AM_6
100
AcDbText
 10
6.771512852384941
 20
-3.903
 30
0.0
 40
0.5
  1
0.87
100
AcDbAttributeDefinition
  3

  2
C
 70
     8
280
     0
  0
ATTDEF
  5
12A
330
11C
100
AcDbEntity
  8
AM_6
100
AcDbText
 10
6.771512852384941
 20
-4.403
 30
0.0
 40
0.5
  1
3.5433
100
AcDbAttributeDefinition
  3

  2
D
 70
     8
280
     0
  0
ATTDEF
  5
12B
330
11C
100
AcDbEntity
  8
AM_6
100
AcDbText
 10
6.771512852384941
 20
-4.903
 30
0.0
 40
0.5
  1
0.25
100
AcDbAttributeDefinition
  3

  2
J
 70
     8
280
     0
  0
ATTDEF
  5
12C
330
11C
100
AcDbEntity
  8
AM_6
100
AcDbText
 10
6.771512852384941
 20
-5.403
 30
0.0
 40
0.5
  1
3.13
100
AcDbAttributeDefinition
  3

  2
L
 70
     8
280
     0
  0
ATTDEF
  5
12D
330
11C
100
AcDbEntity
  8
AM_6
100
AcDbText
 10
6.771512852384941
 20
-5.903
 30
0.0
 40
0.5
  1
#10 - 32 x 1/4
100
AcDbAttributeDefinition
  3

  2
N
 70
     8
280
     0
  0
ATTDEF
  5
12E
330
11C
100
AcDbEntity
  8
AM_6
100
AcDbText
 10
6.771512852384941
 20
-6.403
 30
0.0
 40
0.5
  1
0.63000
100
AcDbAttributeDefinition
  3

  2
W
 70
     8
280
     0
  0
ATTDEF
  5
12F
330
11C
100
AcDbEntity
  8
AM_6
100
AcDbText
 10
6.771512852384941
 20
-6.903
 30
0.0
 40
0.5
  1
1.26
100
AcDbAttributeDefinition
  3

  2
X
 70
     8
280
     0
  0
ATTDEF
  5
130
330
11C
100
AcDbEntity
  8
AM_6
100
AcDbText
 10
6.771512852384941
 20
-7.403
 30
0.0
 40
0.5
  1
1.23
100
AcDbAttributeDefinition
  3

  2
Y
 70
     8
280
     0
  0
ATTDEF
  5
131
330
11C
100
AcDbEntity
  8
AM_6
100
AcDbText
 10
6.771512852384941
 20
-7.903
 30
0.0
 40
0.5
  1
baldor
100
AcDbAttributeDefinition
  3

  2
COMPANY
 70
     8
280
     0
  0
LINE
  5
132
330
11C
100
AcDbEntity
  8
AM_9
100
AcDbLine
 10
1.167539593111111
 20
-0.9149991998983995
 30
0.0
 11
1.167539593111111
 21
-0.4424991998983998
 31
0.0
  0
LINE
  5
133
330
11C
100
AcDbEntity
  8
AM_9
100
AcDbLine
 10
-1.167539593111111
 20
-0.4424991998983998
 30
0.0
 11
-1.167539593111111
 21
-0.9149991998983995
 31
0.0
  0
LINE
  5
134
330
11C
100
AcDbEntity
  8
AM_9
100
AcDbLine
 10
1.167539593111111
 20
-0.4424991998983998
 30
0.0
 11
1.203839705057619
 21
0.5969999999999999
 31
0.0
  0
LINE
  5
135
330
11C
100
AcDbEntity
  8
AM_9
100
AcDbLine
 10
-1.203839705057619
 20
0.5969999999999999
 30
0.0
 11
-1.167539593111111
 21
-0.4424991998983998
 31
0.0
  0
LINE
  5
136
330
11C
100
AcDbEntity
  8
AM_9
100
AcDbLine
 10
-1.167539593111111
 20
-0.4424991998983998
 30
0.0
 11
1.167539593111111
 21
-0.4424991998983998
 31
0.0
  0
LINE
  5
137
330
11C
100
AcDbEntity
  8
AM_9
100
AcDbLine
 10
1.279325352111111
 20
-0.7574991998983996
 30
0.0
 11
1.279325352111111
 21
-0.6
 31
0.0
  0
LINE
  5
138
330
11C
100
AcDbEntity
  8
AM_9
100
AcDbLine
 10
-1.279325352111111
 20
-0.6
 30
0.0
 11
-1.279325352111111
 21
-0.7574991998983996
 31
0.0
  0
LINE
  5
139
330
11C
100
AcDbEntity
  8
AM_9
100
AcDbLine
 10
1.391111111111111
 20
0.465
 30
0.0
 11
1.391111111111111
 21
0.5622
 31
0.0
  0
LINE
  5
13A
330
11C
100
AcDbEntity
  8
AM_9
100
AcDbLine
 10
-1.391111111111111
 20
0.5622
 30
0.0
 11
-1.391111111111111
 21
0.465
 31
0.0
  0
LINE
  5
13B
330
11C
100
AcDbEntity
  8
AM_9
100
AcDbLine
 10
1.356311111111111
 20
-0.9149991998983995
 30
0.0
 11
1.391111111111111
 21
-0.8801991998983997
 31
0.0
  0
LINE
  5
13C
330
11C
100
AcDbEntity
  8
AM_9
100
AcDbLine
 10
-1.391111111111111
 20
-0.8801991998983997
 30
0.0
 11
-1.356311111111111
 21
-0.9149991998983995
 31
0.0
  0
LINE
  5
13D
330
11C
100
AcDbEntity
  8
AM_9
100
AcDbLine
 10
-1.356311111111111
 20
-0.9149991998983995
 30
0.0
 11
1.356311111111111
 21
-0.9149991998983995
 31
0.0
  0
LINE
  5
13E
330
11C
100
AcDbEntity
  8
AM_9
100
AcDbLine
 10
-1.356311111111111
 20
0.597
 30
0.0
 11
-1.391111111111111
 21
0.5622
 31
0.0
  0
LINE
  5
13F
330
11C
100
AcDbEntity
  8
AM_9
100
AcDbLine
 10
1.391111111111111
 20
0.5622
 30
0.0
 11
1.356311111111111
 21
0.597
 31
0.0
  0
LINE
  5
140
330
11C
100
AcDbEntity
  8
AM_9
100
AcDbLine
 10
-1.391111111111111
 20
0.5622
 30
0.0
 11
1.391111111111111
 21
0.5622
 31
0.0
  0
LINE
  5
141
330
11C
100
AcDbEntity
  8
AM_9
100
AcDbLine
 10
-1.356311111111111
 20
0.597
 30
0.0
 11
1.356311111111111
 21
0.597
 31
0.0
  0
LINE
  5
142
330
11C
100
AcDbEntity
  8
AM_9
100
AcDbLine
 10
1.391111111111111
 20
-0.8801991998983997
 30
0.0
 11
1.391111111111111
 21
-0.7574991998983996
 31
0.0
  0
LINE
  5
143
330
11C
100
AcDbEntity
  8
AM_9
100
AcDbLine
 10
-1.391111111111111
 20
-0.7574991998983996
 30
0.0
 11
-1.391111111111111
 21
-0.8801991998983997
 31
0.0
  0
LINE
  5
144
330
11C
100
AcDbEntity
  8
AM_9
100
AcDbLine
 10
-1.391111111111111
 20
-0.8801991998983997
 30
0.0
 11
1.391111111111111
 21
-0.8801991998983997
 31
0.0
  0
LINE
  5
145
330
11C
100
AcDbEntity
  8
AM_9
100
AcDbLine
 10
-1.391111111111111
 20
-0.7574991998983996
 30
0.0
 11
1.391111111111111
 21
-0.7574991998983996
 31
0.0
  0
LINE
  5
146
330
11C
100
AcDbEntity
  8
AM_9
100
AcDbLine
 10
1.391111111111111
 20
-0.5999991998983996
 30
0.0
 11
1.391111111111111
 21
-0.4049999999999999
 31
0.0
  0
LINE
  5
147
330
11C
100
AcDbEntity
  8
AM_9
100
AcDbLine
 10
-1.391111111111111
 20
-0.4049999999999999
 30
0.0
 11
-1.391111111111111
 21
-0.5999991998983996
 31
0.0
  0
LINE
  5
148
330
11C
100
AcDbEntity
  8
AM_9
100
AcDbLine
 10
-1.391111111111111
 20
-0.5999991998983996
 30
0.0
 11
1.391111111111111
 21
-0.5999991998983996
 31
0.0
  0
LINE
  5
149
330
11C
100
AcDbEntity
  8
AM_9
100
AcDbLine
 10
1.68465
 20
-0.2700000000000001
 30
0.0
 11
1.68465
 21
-0.17
 31
0.0
  0
LINE
  5
14A
330
11C
100
AcDbEntity
  8
AM_9
100
AcDbLine
 10
-1.68465
 20
-0.17
 30
0.0
 11
-1.68465
 21
-0.2700000000000001
 31
0.0
  0
LINE
  5
14B
330
11C
100
AcDbEntity
  8
AM_9
100
AcDbLine
 10
-1.661186329582933
 20
0.465
 30
0.0
 11
1.661186329583616
 21
0.465
 31
0.0
  0
ARC
  5
14C
330
11C
100
AcDbEntity
  8
AM_9
100
AcDbCircle
 10
1.661186329583616
 20
0.4301999999999999
 30
0.0
 40
0.0348000000000003
100
AcDbArc
 50
21.41246958967037
 51
90.0
  0
ARC
  5
14D
330
11C
100
AcDbEntity
  8
AM_9
100
AcDbCircle
 10
-1.661186329583616
 20
0.4301999999999999
 30
0.0
 40
0.0348000000000001
100
AcDbArc
 50
90.0
 51
158.5875304103296
  0
LINE
  5
14E
330
11C
100
AcDbEntity
  8
AM_9
100
AcDbLine
 10
-1.661186329582933
 20
-0.4049999999999996
 30
0.0
 11
1.661186329583617
 21
-0.4049999999999996
 31
0.0
  0
ARC
  5
14F
330
11C
100
AcDbEntity
  8
AM_9
100
AcDbCircle
 10
1.661186329583616
 20
-0.3701999999999995
 30
0.0
 40
0.0348000000000002
100
AcDbArc
 50
270.0
 51
338.587532953115
  0
ARC
  5
150
330
11C
100
AcDbEntity
  8
AM_9
100
AcDbCircle
 10
-1.661186329583616
 20
-0.3701999999999994
 30
0.0
 40
0.0348000000000004
100
AcDbArc
 50
201.412467046885
 51
270.0
  0
ARC
  5
151
330
11C
100
AcDbEntity
  8
AM_9
100
AcDbCircle
 10
0.6406500000000328
 20
0.029999999999986
 30
0.0
 40
1.130999999999964
100
AcDbArc
 50
338.587532953116
 51
344.0344017040175
  0
ARC
  5
152
330
11C
100
AcDbEntity
  8
AM_9
100
AcDbCircle
 10
-0.6406500000001172
 20
0.0299999999999567
 30
0.0
 40
1.130999999999875
100
AcDbArc
 50
195.9655982959822
 51
201.4124670468842
  0
LINE
  5
153
330
11C
100
AcDbEntity
  8
AM_9
100
AcDbLine
 10
-1.693584308300557
 20
-0.382904761904762
 30
0.0
 11
1.693584308300557
 21
-0.382904761904762
 31
0.0
  0
LINE
  5
154
330
11C
100
AcDbEntity
  8
AM_9
100
AcDbLine
 10
-1.719659545832444
 20
-0.2700000000000001
 30
0.0
 11
1.719659545833585
 21
-0.2700000000000001
 31
0.0
  0
ARC
  5
155
330
11C
100
AcDbEntity
  8
AM_9
100
AcDbCircle
 10
1.719659545833585
 20
-0.2787000000000002
 30
0.0
 40
0.0087000000000001
100
AcDbArc
 50
344.0344156493716
 51
90.0
  0
ARC
  5
156
330
11C
100
AcDbEntity
  8
AM_9
100
AcDbCircle
 10
-1.719659545833585
 20
-0.2787000000000002
 30
0.0
 40
0.0087
100
AcDbArc
 50
90.0
 51
195.9655843506284
  0
LINE
  5
157
330
11C
100
AcDbEntity
  8
AM_9
100
AcDbLine
 10
-1.728023961504525
 20
-0.2810930212041978
 30
0.0
 11
1.728023961504525
 21
-0.2810930212041978
 31
0.0
  0
LINE
  5
158
330
11C
100
AcDbEntity
  8
AM_9
100
AcDbLine
 10
-1.746525942537158
 20
-0.17
 30
0.0
 11
1.746525942539095
 21
-0.17
 31
0.0
  0
ARC
  5
159
330
11C
100
AcDbEntity
  8
AM_9
100
AcDbCircle
 10
1.746525942409454
 20
-0.161299999999999
 30
0.0
 40
0.008700000000001
100
AcDbArc
 50
270.0
 51
350.1858105424222
  0
ARC
  5
15A
330
11C
100
AcDbEntity
  8
AM_9
100
AcDbCircle
 10
-1.746525942409454
 20
-0.161299999999999
 30
0.0
 40
0.0087000000000009
100
AcDbArc
 50
189.8141894575779
 51
270.0
  0
ARC
  5
15B
330
11C
100
AcDbEntity
  8
AM_9
100
AcDbCircle
 10
0.6406499999999942
 20
0.0299999999999989
 30
0.0
 40
1.131000000000006
100
AcDbArc
 50
350.1858105424294
 51
21.41246712512359
  0
ARC
  5
15C
330
11C
100
AcDbEntity
  8
AM_9
100
AcDbCircle
 10
-0.6406499999999908
 20
0.0299999999999987
 30
0.0
 40
1.131000000000009
100
AcDbArc
 50
158.5875328748765
 51
189.8141894575705
  0
LINE
  5
15D
330
11C
100
AcDbEntity
  8
AM_9
100
AcDbLine
 10
-1.755098624133559
 20
-0.1627829457364343
 30
0.0
 11
1.755098624133559
 21
-0.1627829457364343
 31
0.0
  0
LINE
  5
15E
330
11C
100
AcDbEntity
  8
AM_9
100
AcDbLine
 10
-1.693584307736719
 20
0.442904763342584
 30
0.0
 11
1.693584307736719
 21
0.442904763342584
 31
0.0
  0
ENDBLK
  5
11F
330
11C
100
AcDbEntity
  8
0
100
AcDbBlockEnd
  0
BLOCK
  5
161
330
15F
100
AcDbEntity
  8
0
100
AcDbBlockBegin
  2
4_136534_0_in_136125_4
 70
     2
 10
0.0
 20
0.0
 30
0.0
  3
4_136534_0_in_136125_4
  1

  0
ATTDEF
  5
163
330
15F
100
AcDbEntity
  8
AM_6
100
AcDbText
 10
6.565000000000001
 20
0.7545
 30
0.0
 40
0.5
  1
Grip Tight Normal Duty Adapter and Nut Inch Bore D
100
AcDbAttributeDefinition
  3

  2
NN
 70
     8
280
     0
  0
ATTDEF
  5
164
330
15F
100
AcDbEntity
  8
AM_6
100
AcDbText
 10
6.565000000000001
 20
0.2544999999999999
 30
0.0
 40
0.5
  1
GT and GTM Adapter & Lock Nut Assemblies
100
AcDbAttributeDefinition
  3

  2
NT
 70
     8
280
     0
  0
ATTDEF
  5
165
330
15F
100
AcDbEntity
  8
AM_6
100
AcDbText
 10
6.565000000000001
 20
-0.2455000000000001
 30
0.0
 40
0.5
  1
136534
100
AcDbAttributeDefinition
  3

  2
NB
 70
     8
280
     0
  0
ATTDEF
  5
166
330
15F
100
AcDbEntity
  8
AM_6
100
AcDbText
 10
6.565000000000001
 20
-0.7455
 30
0.0
 40
0.5
  1
$PN.
100
AcDbAttributeDefinition
  3

  2
NBSYN
 70
     8
280
     0
  0
ATTDEF
  5
167
330
15F
100
AcDbEntity
  8
AM_6
100
AcDbText
 10
6.565000000000001
 20
-1.2455
 30
0.0
 40
0.5
  1
136534
100
AcDbAttributeDefinition
  3

  2
LINA
 70
     8
280
     0
  0
ATTDEF
  5
168
330
15F
100
AcDbEntity
  8
AM_6
100
AcDbText
 10
6.565000000000001
 20
-1.7455
 30
0.0
 40
0.5
  1
210
100
AcDbAttributeDefinition
  3

  2
SERIES
 70
     8
280
     0
  0
ATTDEF
  5
169
330
15F
100
AcDbEntity
  8
AM_6
100
AcDbText
 10
6.565000000000001
 20
-2.2455
 30
0.0
 40
0.5
  1
1-15/16
100
AcDbAttributeDefinition
  3

  2
SS
 70
     8
280
     0
  0
ATTDEF
  5
16A
330
15F
100
AcDbEntity
  8
AM_6
100
AcDbText
 10
6.565000000000001
 20
-2.7455
 30
0.0
 40
0.5
  1
136534
100
AcDbAttributeDefinition
  3

  2
PN
 70
     8
280
     0
  0
ATTDEF
  5
16B
330
15F
100
AcDbEntity
  8
AM_6
100
AcDbText
 10
6.565000000000001
 20
-3.2455
 30
0.0
 40
0.5
  1
AN-GT-10-115-D
100
AcDbAttributeDefinition
  3

  2
DESCRIPTION
 70
     8
280
     0
  0
ATTDEF
  5
16C
330
15F
100
AcDbEntity
  8
AM_6
100
AcDbText
 10
6.565000000000001
 20
-3.7455
 30
0.0
 40
0.5
  1
1.86
100
AcDbAttributeDefinition
  3

  2
A
 70
     8
280
     0
  0
ATTDEF
  5
16D
330
15F
100
AcDbEntity
  8
AM_6
100
AcDbText
 10
6.565000000000001
 20
-4.2455
 30
0.0
 40
0.5
  1
0.87
100
AcDbAttributeDefinition
  3

  2
C
 70
     8
280
     0
  0
ATTDEF
  5
16E
330
15F
100
AcDbEntity
  8
AM_6
100
AcDbText
 10
6.565000000000001
 20
-4.7455
 30
0.0
 40
0.5
  1
3.5433
100
AcDbAttributeDefinition
  3

  2
D
 70
     8
280
     0
  0
ATTDEF
  5
16F
330
15F
100
AcDbEntity
  8
AM_6
100
AcDbText
 10
6.565000000000001
 20
-5.2455
 30
0.0
 40
0.5
  1
0.25
100
AcDbAttributeDefinition
  3

  2
J
 70
     8
280
     0
  0
ATTDEF
  5
170
330
15F
100
AcDbEntity
  8
AM_6
100
AcDbText
 10
6.565000000000001
 20
-5.7455
 30
0.0
 40
0.5
  1
3.13
100
AcDbAttributeDefinition
  3

  2
L
 70
     8
280
     0
  0
ATTDEF
  5
171
330
15F
100
AcDbEntity
  8
AM_6
100
AcDbText
 10
6.565000000000001
 20
-6.2455
 30
0.0
 40
0.5
  1
10 - 32 x 1/4
100
AcDbAttributeDefinition
  3

  2
N
 70
     8
280
     0
  0
ATTDEF
  5
172
330
15F
100
AcDbEntity
  8
AM_6
100
AcDbText
 10
6.565000000000001
 20
-6.7455
 30
0.0
 40
0.5
  1
0.63
100
AcDbAttributeDefinition
  3

  2
W
 70
     8
280
     0
  0
ATTDEF
  5
173
330
15F
100
AcDbEntity
  8
AM_6
100
AcDbText
 10
6.565000000000001
 20
-7.2455
 30
0.0
 40
0.5
  1
1.26
100
AcDbAttributeDefinition
  3

  2
X
 70
     8
280
     0
  0
ATTDEF
  5
174
330
15F
100
AcDbEntity
  8
AM_6
100
AcDbText
 10
6.565000000000001
 20
-7.7455
 30
0.0
 40
0.5
  1
1.23
100
AcDbAttributeDefinition
  3

  2
Y
 70
     8
280
     0
  0
ATTDEF
  5
175
330
15F
100
AcDbEntity
  8
AM_6
100
AcDbText
 10
6.565000000000001
 20
-8.2455
 30
0.0
 40
0.5
  1
baldor
100
AcDbAttributeDefinition
  3

  2
COMPANY
 70
     8
280
     0
  0
LINE
  5
176
330
15F
100
AcDbEntity
  8
AM_9
100
AcDbLine
 10
0.125
 20
-0.6000000000000001
 30
0.0
 11
0.125
 21
-1.23
 31
0.0
  0
LINE
  5
177
330
15F
100
AcDbEntity
  8
AM_9
100
AcDbLine
 10
-0.125
 20
-0.6000000000000001
 30
0.0
 11
-0.125
 21
-1.23
 31
0.0
  0
LINE
  5
178
330
15F
100
AcDbEntity
  8
AM_9
100
AcDbLine
 10
1.167539682539682
 20
-1.2
 30
0.0
 11
-1.167539682539682
 21
-1.2
 31
0.0
  0
LINE
  5
179
330
15F
100
AcDbEntity
  8
AM_9
100
AcDbLine
 10
1.167539682539682
 20
-0.9149999999999999
 30
0.0
 11
1.167539682539682
 21
-1.23
 31
0.0
  0
LINE
  5
17A
330
15F
100
AcDbEntity
  8
AM_9
100
AcDbLine
 10
-1.383263143035117
 20
-0.6000000000000001
 30
0.0
 11
-1.405853830784688
 21
-0.6259997578219805
 31
0.0
  0
LINE
  5
17B
330
15F
100
AcDbEntity
  8
AM_9
100
AcDbLine
 10
-1.530200000000001
 20
-0.6
 30
0.0
 11
-1.556200000000001
 21
-0.626
 31
0.0
  0
LINE
  5
17C
330
15F
100
AcDbEntity
  8
AM_9
100
AcDbLine
 10
-1.288499629903725
 20
-0.6348
 30
0.0
 11
-1.413499629903725
 21
-0.6348
 31
0.0
  0
LINE
  5
17D
330
15F
100
AcDbEntity
  8
AM_9
100
AcDbLine
 10
-1.288499629903725
 20
-1.1952
 30
0.0
 11
-1.413499629903725
 21
-1.1952
 31
0.0
  0
LINE
  5
17E
330
15F
100
AcDbEntity
  8
AM_9
100
AcDbLine
 10
1.556200000000001
 20
-0.626
 30
0.0
 11
1.530200000000001
 21
-0.6
 31
0.0
  0
LINE
  5
17F
330
15F
100
AcDbEntity
  8
AM_9
100
AcDbLine
 10
1.413499629903724
 20
-0.6348
 30
0.0
 11
1.288499629903725
 21
-0.6348
 31
0.0
  0
LINE
  5
180
330
15F
100
AcDbEntity
  8
AM_9
100
AcDbLine
 10
1.413499629903724
 20
-1.1952
 30
0.0
 11
1.288499629903724
 21
-1.1952
 31
0.0
  0
LINE
  5
181
330
15F
100
AcDbEntity
  8
AM_9
100
AcDbLine
 10
1.405853830784687
 20
-0.6259997578219803
 30
0.0
 11
1.383263143035117
 21
-0.6
 31
0.0
  0
LINE
  5
182
330
15F
100
AcDbEntity
  8
AM_9
100
AcDbLine
 10
-1.202474210291506
 20
-0.6
 30
0.0
 11
-1.202474210291506
 21
-1.23
 31
0.0
  0
LINE
  5
183
330
15F
100
AcDbEntity
  8
AM_9
100
AcDbLine
 10
-1.327474210291505
 20
-0.6
 30
0.0
 11
-1.327474210291505
 21
-0.6259999999999998
 31
0.0
  0
LINE
  5
184
330
15F
100
AcDbEntity
  8
AM_9
100
AcDbLine
 10
1.530200000000001
 20
-0.6
 30
0.0
 11
-1.530200000000001
 21
-0.6
 31
0.0
  0
LINE
  5
185
330
15F
100
AcDbEntity
  8
AM_9
100
AcDbLine
 10
1.202474210291505
 20
-0.6
 30
0.0
 11
1.202474210291505
 21
-1.23
 31
0.0
  0
LINE
  5
186
330
15F
100
AcDbEntity
  8
AM_9
100
AcDbLine
 10
1.327474210291505
 20
-0.6
 30
0.0
 11
1.327474210291505
 21
-0.6259999999999998
 31
0.0
  0
LINE
  5
187
330
15F
100
AcDbEntity
  8
AM_9
100
AcDbLine
 10
0.9674588169529492
 20
0.66
 30
0.0
 11
0.9674588169529492
 21
-1.2
 31
0.0
  0
LINE
  5
188
330
15F
100
AcDbEntity
  8
AM_9
100
AcDbLine
 10
-0.96875
 20
0.6599999999999999
 30
0.0
 11
-0.96875
 21
-1.2
 31
0.0
  0
LINE
  5
189
330
15F
100
AcDbEntity
  8
AM_9
100
AcDbLine
 10
1.166468563787667
 20
-0.9149991998983997
 30
0.0
 11
1.166468563787667
 21
-0.4425000000000003
 31
0.0
  0
LINE
  5
18A
330
15F
100
AcDbEntity
  8
AM_9
100
AcDbLine
 10
-1.167539682539682
 20
-0.4425000000000002
 30
0.0
 11
-1.167539682539682
 21
-0.9149991998983997
 31
0.0
  0
LINE
  5
18B
330
15F
100
AcDbEntity
  8
AM_9
100
AcDbLine
 10
-1.167539682539682
 20
-1.2
 30
0.0
 11
-1.167539682539682
 21
-1.23
 31
0.0
  0
LINE
  5
18C
330
15F
100
AcDbEntity
  8
AM_9
100
AcDbLine
 10
1.166468563787667
 20
-0.4425000000000003
 30
0.0
 11
1.203814606279754
 21
0.6259999990045579
 31
0.0
  0
LINE
  5
18D
330
15F
100
AcDbEntity
  8
AM_9
100
AcDbLine
 10
-1.204852524741615
 20
0.6260000000000001
 30
0.0
 11
-1.167539682539682
 21
-0.4425000000000002
 31
0.0
  0
LINE
  5
18E
330
15F
100
AcDbEntity
  8
AM_9
100
AcDbLine
 10
-1.167539682539682
 20
-0.4425000000000002
 30
0.0
 11
1.166468563787667
 21
-0.4425000000000003
 31
0.0
  0
LINE
  5
18F
330
15F
100
AcDbEntity
  8
AM_9
100
AcDbLine
 10
1.279325396825396
 20
-0.7574999999999997
 30
0.0
 11
1.279325396825396
 21
-0.6
 31
0.0
  0
LINE
  5
190
330
15F
100
AcDbEntity
  8
AM_9
100
AcDbLine
 10
-1.279325396825396
 20
-0.6
 30
0.0
 11
-1.279325396825396
 21
-0.7574999999999997
 31
0.0
  0
LINE
  5
191
330
15F
100
AcDbEntity
  8
AM_9
100
AcDbLine
 10
1.391111111111111
 20
-0.9149999999999999
 30
0.0
 11
1.391111111111111
 21
-0.7574999999999997
 31
0.0
  0
LINE
  5
192
330
15F
100
AcDbEntity
  8
AM_9
100
AcDbLine
 10
-1.391111111111111
 20
-0.7574999999999997
 30
0.0
 11
-1.391111111111111
 21
-0.9149999999999999
 31
0.0
  0
LINE
  5
193
330
15F
100
AcDbEntity
  8
AM_9
100
AcDbLine
 10
-1.391111111111111
 20
-0.7574999999999997
 30
0.0
 11
1.391111111111111
 21
-0.7574999999999997
 31
0.0
  0
LINE
  5
194
330
15F
100
AcDbEntity
  8
AM_9
100
AcDbLine
 10
-1.391111111111111
 20
-0.9149999999999999
 30
0.0
 11
1.391111111111111
 21
-0.9149999999999999
 31
0.0
  0
LINE
  5
195
330
15F
100
AcDbEntity
  8
AM_9
100
AcDbLine
 10
-1.280853830784688
 20
-0.62599975782198
 30
0.0
 11
-1.258263143035117
 21
-0.6
 31
0.0
  0
LINE
  5
196
330
15F
100
AcDbEntity
  8
AM_9
100
AcDbLine
 10
1.258263143035117
 20
-0.5999999999999999
 30
0.0
 11
1.280853830784688
 21
-0.6259997578219806
 31
0.0
  0
LINE
  5
199
330
15F
100
AcDbEntity
  8
AM_7
100
AcDbLine
 10
-0.0760724999999999
 20
-1.103750184150368
 30
0.0
 11
0.0760724999999999
 21
-1.103750184150368
 31
0.0
  0
LINE
  5
19A
330
15F
100
AcDbEntity
  8
AM_7
100
AcDbLine
 10
0.0
 20
-1.3245
 30
0.0
 11
0.0
 21
0.7545
 31
0.0
  0
LINE
  5
19B
330
15F
100
AcDbEntity
  8
AM_4
100
AcDbLine
 10
-1.565
 20
-1.1952
 30
0.0
 11
-1.5302
 21
-1.23
 31
0.0
  0
LINE
  5
19C
330
15F
100
AcDbEntity
  8
AM_4
100
AcDbLine
 10
-1.413499629903725
 20
-1.1952
 30
0.0
 11
-1.383263143035117
 21
-1.23
 31
0.0
  0
LINE
  5
19D
330
15F
100
AcDbEntity
  8
AM_4
100
AcDbLine
 10
-1.405853830784688
 20
-0.6259997578219805
 30
0.0
 11
-1.413499629903725
 21
-0.6348
 31
0.0
  0
LINE
  5
19E
330
15F
100
AcDbEntity
  8
AM_4
100
AcDbLine
 10
-1.556200000000001
 20
-0.626
 30
0.0
 11
-1.565000000000001
 21
-0.6348
 31
0.0
  0
LINE
  5
19F
330
15F
100
AcDbEntity
  8
AM_4
100
AcDbLine
 10
-1.413499629903725
 20
-0.6348
 30
0.0
 11
-1.413499629903725
 21
-1.1952
 31
0.0
  0
LINE
  5
1A0
330
15F
100
AcDbEntity
  8
AM_4
100
AcDbLine
 10
-1.565
 20
-0.6348
 30
0.0
 11
-1.565
 21
-1.1952
 31
0.0
  0
LINE
  5
1A1
330
15F
100
AcDbEntity
  8
AM_4
100
AcDbLine
 10
-1.565
 20
-0.6348
 30
0.0
 11
-1.413499629903725
 21
-0.6348
 31
0.0
  0
LINE
  5
1A2
330
15F
100
AcDbEntity
  8
AM_4
100
AcDbLine
 10
-1.565
 20
-1.1952
 30
0.0
 11
-1.413499629903725
 21
-1.1952
 31
0.0
  0
LINE
  5
1A3
330
15F
100
AcDbEntity
  8
AM_4
100
AcDbLine
 10
1.565000000000001
 20
-0.6348
 30
0.0
 11
1.556200000000001
 21
-0.626
 31
0.0
  0
LINE
  5
1A4
330
15F
100
AcDbEntity
  8
AM_4
100
AcDbLine
 10
1.5302
 20
-1.23
 30
0.0
 11
1.565
 21
-1.1952
 31
0.0
  0
LINE
  5
1A5
330
15F
100
AcDbEntity
  8
AM_4
100
AcDbLine
 10
1.413499629903724
 20
-0.6348
 30
0.0
 11
1.565
 21
-0.6348
 31
0.0
  0
LINE
  5
1A6
330
15F
100
AcDbEntity
  8
AM_4
100
AcDbLine
 10
1.413499629903724
 20
-1.1952
 30
0.0
 11
1.565
 21
-1.1952
 31
0.0
  0
LINE
  5
1A7
330
15F
100
AcDbEntity
  8
AM_4
100
AcDbLine
 10
1.565
 20
-1.1952
 30
0.0
 11
1.565
 21
-0.6348
 31
0.0
  0
LINE
  5
1A8
330
15F
100
AcDbEntity
  8
AM_4
100
AcDbLine
 10
1.383263143035117
 20
-1.23
 30
0.0
 11
1.413499629903724
 21
-1.1952
 31
0.0
  0
LINE
  5
1A9
330
15F
100
AcDbEntity
  8
AM_4
100
AcDbLine
 10
1.413499629903724
 20
-1.1952
 30
0.0
 11
1.413499629903724
 21
-0.6348
 31
0.0
  0
LINE
  5
1AA
330
15F
100
AcDbEntity
  8
AM_4
100
AcDbLine
 10
1.413499629903724
 20
-0.6348
 30
0.0
 11
1.405853830784687
 21
-0.6259997578219803
 31
0.0
  0
LINE
  5
1AB
330
15F
100
AcDbEntity
  8
AM_4
100
AcDbLine
 10
-1.327474210291505
 20
-0.6259999999999998
 30
0.0
 11
-1.327474210291505
 21
-1.23
 31
0.0
  0
LINE
  5
1AC
330
15F
100
AcDbEntity
  8
AM_4
100
AcDbLine
 10
-1.5302
 20
-1.23
 30
0.0
 11
1.5302
 21
-1.23
 31
0.0
  0
LINE
  5
1AD
330
15F
100
AcDbEntity
  8
AM_4
100
AcDbLine
 10
1.327474210291505
 20
-0.6259999999999998
 30
0.0
 11
1.327474210291505
 21
-1.23
 31
0.0
  0
LINE
  5
1AE
330
15F
100
AcDbEntity
  8
AM_4
100
AcDbLine
 10
1.203814606279754
 20
0.6259999990045579
 30
0.0
 11
1.20500293515317
 21
0.66
 31
0.0
  0
LINE
  5
1AF
330
15F
100
AcDbEntity
  8
AM_4
100
AcDbLine
 10
-1.206039830904334
 20
0.66
 30
0.0
 11
-1.204852524741615
 21
0.6260000000000001
 31
0.0
  0
LINE
  5
1B0
330
15F
100
AcDbEntity
  8
AM_4
100
AcDbLine
 10
-1.206039830904334
 20
0.66
 30
0.0
 11
1.20500293515317
 21
0.66
 31
0.0
  0
LINE
  5
1B1
330
15F
100
AcDbEntity
  8
AM_4
100
AcDbLine
 10
-1.258263143035117
 20
-1.23
 30
0.0
 11
-1.288499629903725
 21
-1.1952
 31
0.0
  0
LINE
  5
1B2
330
15F
100
AcDbEntity
  8
AM_4
100
AcDbLine
 10
1.288499629903724
 20
-1.1952
 30
0.0
 11
1.258263143035116
 21
-1.23
 31
0.0
  0
LINE
  5
1B3
330
15F
100
AcDbEntity
  8
AM_4
100
AcDbLine
 10
-1.288499629903725
 20
-0.6348
 30
0.0
 11
-1.280853830784688
 21
-0.62599975782198
 31
0.0
  0
LINE
  5
1B4
330
15F
100
AcDbEntity
  8
AM_4
100
AcDbLine
 10
1.280853830784688
 20
-0.6259997578219806
 30
0.0
 11
1.288499629903725
 21
-0.6348
 31
0.0
  0
LINE
  5
1B5
330
15F
100
AcDbEntity
  8
AM_4
100
AcDbLine
 10
-1.288499629903725
 20
-1.1952
 30
0.0
 11
-0.0249816890360846
 21
-1.1952
 31
0.0
  0
LINE
  5
1B6
330
15F
100
AcDbEntity
  8
AM_4
100
AcDbLine
 10
0.0249816890360747
 20
-1.1952
 30
0.0
 11
1.288499629903724
 21
-1.1952
 31
0.0
  0
LINE
  5
1B7
330
15F
100
AcDbEntity
  8
AM_4
100
AcDbLine
 10
1.288499629903725
 20
-0.6348
 30
0.0
 11
1.288499629903724
 21
-1.1952
 31
0.0
  0
LINE
  5
1B8
330
15F
100
AcDbEntity
  8
AM_4
100
AcDbLine
 10
-1.288499629903725
 20
-0.6348
 30
0.0
 11
1.288499629903725
 21
-0.6348
 31
0.0
  0
LINE
  5
1B9
330
15F
100
AcDbEntity
  8
AM_4
100
AcDbLine
 10
-1.288499629903725
 20
-1.1952
 30
0.0
 11
-1.288499629903725
 21
-0.6348
 31
0.0
  0
CIRCLE
  5
1BA
330
15F
100
AcDbEntity
  8
AM_4
100
AcDbCircle
 10
0.0
 20
-1.103750184150368
 30
0.0
 40
0.0724499999999999
  0
LWPOLYLINE
  5
1BB
330
15F
100
AcDbEntity
  8
AM_4
100
AcDbPolyline
 90
       35
 70
     0
 43
0.0
 10
-0.0249816890360846
 20
-1.1952
 10
-0.04181024746317
 20
-1.188432424288346
 10
-0.0544809844489337
 20
-1.180414977962908
 10
-0.0659765688149368
 20
-1.170155580257035
 10
-0.0756149786040351
 20
-1.158187641236281
 10
-0.0833792839548079
 20
-1.144438299560578
 10
-0.088793862654862
 20
-1.129596206024893
 10
-0.0917763336149853
 20
-1.11363068751317
 10
-0.0920787263124152
 20
-1.097525765989803
 10
-0.0896234795784978
 20
-1.081139564663912
 10
-0.0845737247262896
 20
-1.065763250963482
 10
-0.0767649930175798
 20
-1.051045768119731
 10
-0.0669616544213029
 20
-1.038398192397315
 10
-0.0547663896226357
 20
-1.027301273112317
 10
-0.0415787607247122
 20
-1.018947173703202
 10
-0.0266995800237371
 20
-1.012816647735366
 10
-0.0118905258277576
 20
-1.009542780725214
 10
0.0037176518657724
 20
-1.008827372811891
 10
0.0184913578433216
 20
-1.010678573322046
 10
0.0331579808894473
 20
-1.01509960972742
 10
0.0465293350740274
 20
-1.021719396560008
 10
0.0589670543676914
 20
-1.030688732492845
 10
0.0696962175581263
 20
-1.041502021258359
 10
0.0787598755159443
 20
-1.054262520959122
 10
0.085625243063432
 20
-1.068346441218384
 10
0.0902144423797889
 20
-1.083783300944041
 10
0.0921928968805165
 20
-1.099692816775016
 10
0.0914851428570949
 20
-1.116165562037167
 10
0.0881010231813572
 20
-1.131996104954024
 10
0.0819194054634683
 20
-1.14746712063568
 10
0.0755644315393372
 20
-1.158261961720356
 10
0.0676972412686276
 20
-1.168293990295593
 10
0.0577918832023195
 20
-1.177800348413466
 10
0.0463256202078718
 20
-1.185903129778829
 10
0.0249816890360747
 20
-1.1952
  0
LWPOLYLINE
  5
1BC
330
15F
100
AcDbEntity
  8
AM_4
100
AcDbPolyline
 90
        4
 70
     0
 43
0.0
 10
0.0249816890360747
 20
-1.1952
 10
0.0029626606214342
 20
-1.196950149891368
 10
-0.0197780817282178
 20
-1.195862869389351
 10
-0.0249816890360846
 20
-1.1952
  0
ARC
  5
1BE
330
15F
100
AcDbEntity
  8
AM_5
100
AcDbCircle
 10
-0.0000000000000002
 20
-1.103750184150368
 30
0.0
 40
0.0949999999999999
100
AcDbArc
 50
74.99999999999986
 51
14.99999999999992
  0
ENDBLK
  5
162
330
15F
100
AcDbEntity
  8
0
100
AcDbBlockEnd
  0
BLOCK
  5
1C1
330
1BF
100
AcDbEntity
  8
0
100
AcDbBlockBegin
  2
5_136125h_0_in_136125_4
 70
     2
 10
0.0
 20
0.0
 30
0.0
  3
5_136125h_0_in_136125_4
  1

  0
ATTDEF
  5
1C3
330
1BF
100
AcDbEntity
  8
AM_6
100
AcDbText
 10
8.318917500000005
 20
0.8965
 30
0.0
 40
0.5
  1
NSTU-GT - Inch - Housing
100
AcDbAttributeDefinition
  3

  2
NN
 70
     8
280
     0
  0
ATTDEF
  5
1C4
330
1BF
100
AcDbEntity
  8
AM_6
100
AcDbText
 10
8.318917500000005
 20
0.3965
 30
0.0
 40
0.5
  1
GT Normal Duty Narrow Slot Take-Up Bearings
100
AcDbAttributeDefinition
  3

  2
NT
 70
     8
280
     0
  0
ATTDEF
  5
1C5
330
1BF
100
AcDbEntity
  8
AM_6
100
AcDbText
 10
8.318917500000005
 20
-0.1035
 30
0.0
 40
0.5
  1
136125h
100
AcDbAttributeDefinition
  3

  2
NB
 70
     8
280
     0
  0
ATTDEF
  5
1C6
330
1BF
100
AcDbEntity
  8
AM_6
100
AcDbText
 10
8.318917500000005
 20
-0.6035
 30
0.0
 40
0.5
  1
$PN.h
100
AcDbAttributeDefinition
  3

  2
NBSYN
 70
     8
280
     0
  0
ATTDEF
  5
1C7
330
1BF
100
AcDbEntity
  8
AM_6
100
AcDbText
 10
8.318917500000005
 20
-1.1035
 30
0.0
 40
0.5
  1
136125I
100
AcDbAttributeDefinition
  3

  2
LINA
 70
     8
280
     0
  0
ATTDEF
  5
1C8
330
1BF
100
AcDbEntity
  8
AM_6
100
AcDbText
 10
8.318917500000005
 20
-1.6035
 30
0.0
 40
0.5
  1
210
100
AcDbAttributeDefinition
  3

  2
SERIES
 70
     8
280
     0
  0
ATTDEF
  5
1C9
330
1BF
100
AcDbEntity
  8
AM_6
100
AcDbText
 10
8.318917500000005
 20
-2.1035
 30
0.0
 40
0.5
  1
1-15/16
100
AcDbAttributeDefinition
  3

  2
SS
 70
     8
280
     0
  0
ATTDEF
  5
1CA
330
1BF
100
AcDbEntity
  8
AM_6
100
AcDbText
 10
8.318917500000005
 20
-2.6035
 30
0.0
 40
0.5
  1
136125
100
AcDbAttributeDefinition
  3

  2
PN
 70
     8
280
     0
  0
ATTDEF
  5
1CB
330
1BF
100
AcDbEntity
  8
AM_6
100
AcDbText
 10
8.318917500000005
 20
-3.1035
 30
0.0
 40
0.5
  1
NSTU-GT-115
100
AcDbAttributeDefinition
  3

  2
DESCRIPTION
 70
     8
280
     0
  0
ATTDEF
  5
1CC
330
1BF
100
AcDbEntity
  8
AM_6
100
AcDbText
 10
8.318917500000005
 20
-3.6035
 30
0.0
 40
0.5
  1
136216
100
AcDbAttributeDefinition
  3

  2
PNSL
 70
     8
280
     0
  0
ATTDEF
  5
1CD
330
1BF
100
AcDbEntity
  8
AM_6
100
AcDbText
 10
8.318917500000005
 20
-4.1035
 30
0.0
 40
0.5
  1
NSTU-GT-10
100
AcDbAttributeDefinition
  3

  2
DESCRIPTIONSL
 70
     8
280
     0
  0
ATTDEF
  5
1CE
330
1BF
100
AcDbEntity
  8
AM_6
100
AcDbText
 10
8.318917500000005
 20
-4.6035
 30
0.0
 40
0.5
  1
136534
100
AcDbAttributeDefinition
  3

  2
PNA
 70
     8
280
     0
  0
ATTDEF
  5
1CF
330
1BF
100
AcDbEntity
  8
AM_6
100
AcDbText
 10
8.318917500000005
 20
-5.1035
 30
0.0
 40
0.5
  1
AN-GT-10-115-D
100
AcDbAttributeDefinition
  3

  2
DESCRIPTIONA
 70
     8
280
     0
  0
ATTDEF
  5
1D0
330
1BF
100
AcDbEntity
  8
AM_6
100
AcDbText
 10
8.318917500000005
 20
-5.6035
 30
0.0
 40
0.5
  1
4.9
100
AcDbAttributeDefinition
  3

  2
W
 70
     8
280
     0
  0
ATTDEF
  5
1D1
330
1BF
100
AcDbEntity
  8
AM_6
100
AcDbText
 10
8.318917500000005
 20
-6.1035
 30
0.0
 40
0.5
  1
NS400
100
AcDbAttributeDefinition
  3

  2
TUFS
 70
     8
280
     0
  0
ATTDEF
  5
1D2
330
1BF
100
AcDbEntity
  8
AM_6
100
AcDbText
 10
8.318917500000005
 20
-6.6035
 30
0.0
 40
0.5
  1
1.86
100
AcDbAttributeDefinition
  3

  2
A
 70
     8
280
     0
  0
ATTDEF
  5
1D3
330
1BF
100
AcDbEntity
  8
AM_6
100
AcDbText
 10
8.318917500000005
 20
-7.1035
 30
0.0
 40
0.5
  1
5.50
100
AcDbAttributeDefinition
  3

  2
B
 70
     8
280
     0
  0
ATTDEF
  5
1D4
330
1BF
100
AcDbEntity
  8
AM_6
100
AcDbText
 10
8.318917500000005
 20
-7.6035
 30
0.0
 40
0.5
  1
0.313
100
AcDbAttributeDefinition
  3

  2
C
 70
     8
280
     0
  0
ATTDEF
  5
1D5
330
1BF
100
AcDbEntity
  8
AM_6
100
AcDbText
 10
8.318917500000005
 20
-8.1035
 30
0.0
 40
0.5
  1
3.00
100
AcDbAttributeDefinition
  3

  2
D
 70
     8
280
     0
  0
ATTDEF
  5
1D6
330
1BF
100
AcDbEntity
  8
AM_6
100
AcDbText
 10
8.318917500000005
 20
-8.6035
 30
0.0
 40
0.5
  1
3.25
100
AcDbAttributeDefinition
  3

  2
E
 70
     8
280
     0
  0
ATTDEF
  5
1D7
330
1BF
100
AcDbEntity
  8
AM_6
100
AcDbText
 10
8.318917500000005
 20
-9.1035
 30
0.0
 40
0.5
  1
7/8
100
AcDbAttributeDefinition
  3

  2
F
 70
     8
280
     0
  0
ATTDEF
  5
1D8
330
1BF
100
AcDbEntity
  8
AM_6
100
AcDbText
 10
8.318917500000005
 20
-9.6035
 30
0.0
 40
0.5
  1
0.59
100
AcDbAttributeDefinition
  3

  2
G
 70
     8
280
     0
  0
ATTDEF
  5
1D9
330
1BF
100
AcDbEntity
  8
AM_6
100
AcDbText
 10
8.318917500000005
 20
-10.1035
 30
0.0
 40
0.5
  1
1.09
100
AcDbAttributeDefinition
  3

  2
H
 70
     8
280
     0
  0
ATTDEF
  5
1DA
330
1BF
100
AcDbEntity
  8
AM_6
100
AcDbText
 10
8.318917500000005
 20
-10.6035
 30
0.0
 40
0.5
  1
1.63
100
AcDbAttributeDefinition
  3

  2
J
 70
     8
280
     0
  0
ATTDEF
  5
1DB
330
1BF
100
AcDbEntity
  8
AM_6
100
AcDbText
 10
8.318917500000005
 20
-11.1035
 30
0.0
 40
0.5
  1
3.13
100
AcDbAttributeDefinition
  3

  2
L
 70
     8
280
     0
  0
ATTDEF
  5
1DC
330
1BF
100
AcDbEntity
  8
AM_6
100
AcDbText
 10
8.318917500000005
 20
-11.6035
 30
0.0
 40
0.5
  1
4.015/3.985
100
AcDbAttributeDefinition
  3

  2
M
 70
     8
280
     0
  0
ATTDEF
  5
1DD
330
1BF
100
AcDbEntity
  8
AM_6
100
AcDbText
 10
8.318917500000005
 20
-12.1035
 30
0.0
 40
0.5
  1
4.75
100
AcDbAttributeDefinition
  3

  2
N
 70
     8
280
     0
  0
ATTDEF
  5
1DE
330
1BF
100
AcDbEntity
  8
AM_6
100
AcDbText
 10
8.318917500000005
 20
-12.6035
 30
0.0
 40
0.5
  1
0.38
100
AcDbAttributeDefinition
  3

  2
P
 70
     8
280
     0
  0
ATTDEF
  5
1DF
330
1BF
100
AcDbEntity
  8
AM_6
100
AcDbText
 10
8.318917500000005
 20
-13.1035
 30
0.0
 40
0.5
  1
0.63
100
AcDbAttributeDefinition
  3

  2
R
 70
     8
280
     0
  0
ATTDEF
  5
1E0
330
1BF
100
AcDbEntity
  8
AM_6
100
AcDbText
 10
8.318917500000005
 20
-13.6035
 30
0.0
 40
0.5
  1
1.23
100
AcDbAttributeDefinition
  3

  2
S
 70
     8
280
     0
  0
ATTDEF
  5
1E1
330
1BF
100
AcDbEntity
  8
AM_6
100
AcDbText
 10
8.318917500000005
 20
-14.1035
 30
0.0
 40
0.5
  1
1.26
100
AcDbAttributeDefinition
  3

  2
Z
 70
     8
280
     0
  0
ATTDEF
  5
1E2
330
1BF
100
AcDbEntity
  8
AM_6
100
AcDbText
 10
8.318917500000005
 20
-14.6035
 30
0.0
 40
0.5
  1
4450
100
AcDbAttributeDefinition
  3

  2
CAPS
 70
     8
280
     0
  0
ATTDEF
  5
1E3
330
1BF
100
AcDbEntity
  8
AM_6
100
AcDbText
 10
8.318917500000005
 20
-15.1035
 30
0.0
 40
0.5
  1
7891
100
AcDbAttributeDefinition
  3

  2
CAPD
 70
     8
280
     0
  0
ATTDEF
  5
1E4
330
1BF
100
AcDbEntity
  8
AM_6
100
AcDbText
 10
8.318917500000005
 20
-15.6035
 30
0.0
 40
0.5
  1
baldor
100
AcDbAttributeDefinition
  3

  2
COMPANY
 70
     8
280
     0
  0
LINE
  5
1E5
330
1BF
100
AcDbEntity
  8
AM_9
100
AcDbLine
 10
2.849999999999999
 20
0.4374999999999999
 30
0.0
 11
2.85
 21
0.8149999999999964
 31
0.0
  0
LINE
  5
1E6
330
1BF
100
AcDbEntity
  8
AM_9
100
AcDbLine
 10
2.47
 20
0.8149999999999964
 30
0.0
 11
2.47
 21
0.4374999999999999
 31
0.0
  0
LINE
  5
1E7
330
1BF
100
AcDbEntity
  8
AM_9
100
AcDbLine
 10
2.85
 20
-0.8149999999999964
 30
0.0
 11
2.85
 21
-0.4374999999999999
 31
0.0
  0
LINE
  5
1E8
330
1BF
100
AcDbEntity
  8
AM_9
100
AcDbLine
 10
2.47
 20
-0.4375
 30
0.0
 11
2.47
 21
-0.8149999999999964
 31
0.0
  0
LINE
  5
1E9
330
1BF
100
AcDbEntity
  8
AM_9
100
AcDbLine
 10
2.848394308103998
 20
-0.43680506559103
 30
0.0
 11
2.849999999957922
 21
-0.4374999999817263
 31
0.0
  0
LINE
  5
1EA
330
1BF
100
AcDbEntity
  8
AM_9
100
AcDbLine
 10
2.16
 20
0.4375
 30
0.0
 11
2.16
 21
-0.4375
 31
0.0
  0
LWPOLYLINE
  5
1EB
330
1BF
100
AcDbEntity
  8
AM_9
100
AcDbPolyline
 90
       23
 70
     0
 43
0.0
 10
2.47
 20
0.4375
 10
2.472363644030206
 20
0.4364786960226391
 10
2.479640336198767
 20
0.4334003441697912
 10
2.491115504538842
 20
0.428751936213902
 10
2.507028090717783
 20
0.422737099187482
 10
2.52717276618975
 20
0.4158717639389368
 10
2.551431848440419
 20
0.4087704655831487
 10
2.579521755550933
 20
0.40222257250135
 10
2.595087696503875
 20
0.3994004740715735
 10
2.611237527318412
 20
0.3970944833940944
 10
2.641968178644008
 20
0.3945014532057067
 10
2.674377892488519
 20
0.3943513329410862
 10
2.702740799421123
 20
0.3964000831674442
 10
2.730695774855737
 20
0.4003799977302226
 10
2.756678303524212
 20
0.4057744994110887
 10
2.780822114978088
 20
0.4121944122228954
 10
2.803288687710616
 20
0.4193302970521335
 10
2.822354507186296
 20
0.4262220501143798
 10
2.836771567915388
 20
0.4319194800229144
 10
2.84225244760587
 20
0.4341910322055229
 10
2.846311988137637
 20
0.4359110080323724
 10
2.849878029181399
 20
0.4374470436130667
 10
2.849999999957922
 20
0.4374999999817263
  0
LINE
  5
1EC
330
1BF
100
AcDbEntity
  8
AM_9
100
AcDbLine
 10
2.16
 20
-0.4375
 30
0.0
 11
2.47
 21
-0.4375
 31
0.0
  0
LINE
  5
1ED
330
1BF
100
AcDbEntity
  8
AM_9
100
AcDbLine
 10
2.85
 20
-0.4375
 30
0.0
 11
3.25
 21
-0.4375
 31
0.0
  0
LINE
  5
1EE
330
1BF
100
AcDbEntity
  8
AM_9
100
AcDbLine
 10
3.25
 20
0.4375
 30
0.0
 11
2.85
 21
0.4375
 31
0.0
  0
LINE
  5
1EF
330
1BF
100
AcDbEntity
  8
AM_9
100
AcDbLine
 10
2.47
 20
0.4375
 30
0.0
 11
2.16
 21
0.4375
 31
0.0
  0
LWPOLYLINE
  5
1F0
330
1BF
100
AcDbEntity
  8
AM_9
100
AcDbPolyline
 90
       22
 70
     0
 43
0.0
 10
2.849999999957922
 20
-0.4374999999817263
 10
2.848369014107484
 20
-0.4367941568700586
 10
2.842403499781197
 20
-0.4342548637982415
 10
2.831943517491277
 20
-0.4299660721583426
 10
2.817357724482931
 20
-0.4243438504967948
 10
2.7985889783805
 20
-0.4177477168442105
 10
2.775198664254667
 20
-0.4105812736183415
 10
2.747759086386524
 20
-0.4037423773192473
 10
2.717855620647321
 20
-0.3983133475550207
 10
2.701562066797564
 20
-0.3962762658627121
 10
2.684878391460193
 20
-0.3948736308765712
 10
2.65476893096015
 20
-0.3941238562727454
 10
2.623854906724467
 20
-0.3957432472802246
 10
2.596462015841218
 20
-0.3991783128264381
 10
2.570038058716592
 20
-0.4042269175592829
 10
2.545007062355172
 20
-0.4105235994534144
 10
2.522356472686627
 20
-0.417435013638371
 10
2.502280586365519
 20
-0.4244781071353439
 10
2.486227789613639
 20
-0.4307006281659706
 10
2.475796833327489
 20
-0.4350138579541817
 10
2.470493517647828
 20
-0.4372858983016651
 10
2.47
 20
-0.4375
  0
LINE
  5
1F1
330
1BF
100
AcDbEntity
  8
AM_9
100
AcDbLine
 10
2.849999999957922
 20
0.4374999999817263
 30
0.0
 11
2.847987246330697
 21
0.4366296540353141
 31
0.0
  0
LINE
  5
1F2
330
1BF
100
AcDbEntity
  8
AM_9
100
AcDbLine
 10
0.646
 20
-0.1878
 30
0.0
 11
0.646
 21
0.6260000000000001
 31
0.0
  0
LINE
  5
1F3
330
1BF
100
AcDbEntity
  8
AM_9
100
AcDbLine
 10
-0.646
 20
-0.1878
 30
0.0
 11
-0.646
 21
0.6260000000000001
 31
0.0
  0
LINE
  5
1F4
330
1BF
100
AcDbEntity
  8
AM_9
100
AcDbLine
 10
1.77165
 20
-0.626
 30
0.0
 11
1.77165
 21
0.626
 31
0.0
  0
LINE
  5
1F5
330
1BF
100
AcDbEntity
  8
AM_9
100
AcDbLine
 10
-1.77165
 20
0.626
 30
0.0
 11
-1.77165
 21
-0.626
 31
0.0
  0
LINE
  5
1F6
330
1BF
100
AcDbEntity
  8
AM_9
100
AcDbLine
 10
0.646
 20
-0.1878
 30
0.0
 11
-0.646
 21
-0.1878
 31
0.0
  0
LINE
  5
1F7
330
1BF
100
AcDbEntity
  8
AM_7
100
AcDbLine
 10
1.8027325
 20
0.0
 30
0.0
 11
3.318917500000004
 21
0.0
 31
0.0
  0
LINE
  5
1F8
330
1BF
100
AcDbEntity
  8
AM_7
100
AcDbLine
 10
2.66
 20
0.8965
 30
0.0
 11
2.66
 21
-0.8965
 31
0.0
  0
LINE
  5
1F9
330
1BF
100
AcDbEntity
  8
AM_4
100
AcDbLine
 10
1.871650000000002
 20
-0.626
 30
0.0
 11
1.871650000000004
 21
-0.7106666666666664
 31
0.0
  0
ARC
  5
1FA
330
1BF
100
AcDbEntity
  8
AM_4
100
AcDbCircle
 10
1.975983333333337
 20
-0.7106666666666661
 30
0.0
 40
0.1043333333333332
100
AcDbArc
 50
180.0
 51
270.0
  0
LINE
  5
1FB
330
1BF
100
AcDbEntity
  8
AM_4
100
AcDbLine
 10
1.871650000000004
 20
0.7106666666666664
 30
0.0
 11
1.871650000000002
 21
0.626
 31
0.0
  0
ARC
  5
1FC
330
1BF
100
AcDbEntity
  8
AM_4
100
AcDbCircle
 10
1.975983333333337
 20
0.7106666666666661
 30
0.0
 40
0.1043333333333333
100
AcDbArc
 50
90.0
 51
180.0
  0
LINE
  5
1FD
330
1BF
100
AcDbEntity
  8
AM_4
100
AcDbLine
 10
3.250000000000003
 20
0.7106666666666595
 30
0.0
 11
3.250000000000003
 21
-0.7106666666666595
 31
0.0
  0
ARC
  5
1FE
330
1BF
100
AcDbEntity
  8
AM_4
100
AcDbCircle
 10
3.14566666666667
 20
-0.7106666666666592
 30
0.0
 40
0.1043333333333342
100
AcDbArc
 50
270.0
 51
0.0
  0
ARC
  5
1FF
330
1BF
100
AcDbEntity
  8
AM_4
100
AcDbCircle
 10
3.14566666666667
 20
0.7106666666666592
 30
0.0
 40
0.1043333333333343
100
AcDbArc
 50
0.0
 51
90.0
  0
LINE
  5
200
330
1BF
100
AcDbEntity
  8
AM_4
100
AcDbLine
 10
3.145666666666671
 20
0.8149999999999964
 30
0.0
 11
3.145666666666671
 21
-0.8149999999999964
 31
0.0
  0
LINE
  5
201
330
1BF
100
AcDbEntity
  8
AM_4
100
AcDbLine
 10
1.975983333333335
 20
-0.626
 30
0.0
 11
1.975983333333337
 21
-0.8149999999999964
 31
0.0
  0
LWPOLYLINE
  5
202
330
1BF
100
AcDbEntity
  8
AM_4
100
AcDbPolyline
 90
       20
 70
     0
 43
0.0
 10
2.47
 20
0.8149999999999964
 10
2.472541257477883
 20
0.8144113089514216
 10
2.480380623005495
 20
0.8126426770677804
 10
2.492826419992775
 20
0.8099827194776608
 10
2.510208047790989
 20
0.8065746270163607
 10
2.531479236737306
 20
0.8028963735063327
 10
2.557008129442162
 20
0.799207310652873
 10
2.585080368949053
 20
0.7960765987747697
 10
2.616256144214706
 20
0.7937496613662018
 10
2.6472707410929
 20
0.7926455916942449
 10
2.679599285164011
 20
0.7927856784648268
 10
2.709805216860345
 20
0.7941067684049178
 10
2.739451679705902
 20
0.7965158940084528
 10
2.766366489065991
 20
0.7996491918311561
 10
2.791057289126577
 20
0.8033063008798091
 10
2.812033925430228
 20
0.8069939990369936
 10
2.829245802352115
 20
0.810412945117368
 10
2.841261454518657
 20
0.8130072047000652
 10
2.848354241256741
 20
0.8146178982807811
 10
2.849999999996879
 20
0.8149999999992688
  0
LINE
  5
203
330
1BF
100
AcDbEntity
  8
AM_4
100
AcDbLine
 10
1.975983333333337
 20
-0.8149999999999964
 30
0.0
 11
2.470000000000001
 21
-0.8149999999999964
 31
0.0
  0
LINE
  5
204
330
1BF
100
AcDbEntity
  8
AM_4
100
AcDbLine
 10
2.85
 20
-0.8149999999999964
 30
0.0
 11
3.145666666666671
 21
-0.8149999999999964
 31
0.0
  0
LINE
  5
205
330
1BF
100
AcDbEntity
  8
AM_4
100
AcDbLine
 10
3.145666666666671
 20
0.8149999999999964
 30
0.0
 11
2.85
 21
0.8149999999999964
 31
0.0
  0
LINE
  5
206
330
1BF
100
AcDbEntity
  8
AM_4
100
AcDbLine
 10
2.470000000000001
 20
0.8149999999999964
 30
0.0
 11
1.975983333333337
 21
0.8149999999999964
 31
0.0
  0
LINE
  5
207
330
1BF
100
AcDbEntity
  8
AM_4
100
AcDbLine
 10
1.975983333333337
 20
0.8149999999999964
 30
0.0
 11
1.975983333333333
 21
0.626
 31
0.0
  0
LWPOLYLINE
  5
208
330
1BF
100
AcDbEntity
  8
AM_4
100
AcDbPolyline
 90
       21
 70
     0
 43
0.0
 10
2.849999999996879
 20
-0.8149999999992688
 10
2.849900381845982
 20
-0.8149767818933518
 10
2.846162302836151
 20
-0.814113875939511
 10
2.837606990381754
 20
-0.8122002481115475
 10
2.824007786407545
 20
-0.8093352543923302
 10
2.806171217371024
 20
-0.8059100599866729
 10
2.78378546014332
 20
-0.8021520056341498
 10
2.758085560587035
 20
-0.7985898679520474
 10
2.72872751780145
 20
-0.795517738144879
 10
2.698383866247936
 20
-0.7934723191064291
 10
2.665953731630072
 20
-0.7925657366555272
 10
2.635067306475174
 20
-0.7929354571504534
 10
2.604007324737187
 20
-0.7945188353230415
 10
2.575487958517132
 20
-0.7970365645035348
 10
2.548537401954434
 20
-0.8003429956981335
 10
2.524784226127884
 20
-0.8039952148513261
 10
2.504191835697082
 20
-0.8077135532250527
 10
2.488240158816296
 20
-0.8109417013839193
 10
2.476823582032559
 20
-0.8134362913586884
 10
2.4717478820875
 20
-0.814594291594617
 10
2.47
 20
-0.8149999999999964
  0
LINE
  5
209
330
1BF
100
AcDbEntity
  8
AM_4
100
AcDbLine
 10
-2.25
 20
0.3923736194461882
 30
0.0
 11
-2.25
 21
-0.3923736194461882
 31
0.0
  0
LWPOLYLINE
  5
20A
330
1BF
100
AcDbEntity
  8
AM_4
100
AcDbPolyline
 90
       15
 70
     0
 43
0.0
 10
2.133596038906453
 20
0.3923736194461883
 10
2.124230678661391
 20
0.3377587543887342
 10
2.115916052516573
 20
0.2807592229959888
 10
2.10809261135054
 20
0.2139203108265851
 10
2.102234828734523
 20
0.145314401022288
 10
2.099463542702163
 20
0.097222082180904
 10
2.097776303058049
 20
0.0486857374954838
 10
2.097206475290405
 20
0.0
 10
2.098221248225872
 20
-0.065124517126432
 10
2.101217810126742
 20
-0.1297739788779593
 10
2.106292898942263
 20
-0.1953963543436926
 10
2.113206128700007
 20
-0.2595479577559187
 10
2.119275238522745
 20
-0.3050265081944663
 10
2.126111602168313
 20
-0.3493771922961749
 10
2.133596038906453
 20
-0.3923736194461881
  0
LWPOLYLINE
  5
20B
330
1BF
100
AcDbEntity
  8
AM_4
100
AcDbPolyline
 90
        9
 70
     0
 43
0.0
 10
2.133596038906453
 20
-0.3923736194461881
 10
2.130687193726916
 20
-0.4244590378664487
 10
2.128348724633354
 20
-0.4556999353790696
 10
2.126533396167529
 20
-0.4862955730209815
 10
2.125225174700978
 20
-0.5158790367783171
 10
2.124364244048994
 20
-0.5451842456066457
 10
2.123945196694081
 20
-0.573271807186563
 10
2.123918170992531
 20
-0.6003229086782457
 10
2.12423392308851
 20
-0.626
  0
LINE
  5
20C
330
1BF
100
AcDbEntity
  8
AM_4
100
AcDbLine
 10
1.5
 20
-0.3923736194461881
 30
0.0
 11
2.133596038906453
 21
-0.3923736194461881
 31
0.0
  0
LINE
  5
20D
330
1BF
100
AcDbEntity
  8
AM_4
100
AcDbLine
 10
-2.25
 20
-0.3923736194461882
 30
0.0
 11
-2.187399999999999
 21
-0.626
 31
0.0
  0
LINE
  5
20E
330
1BF
100
AcDbEntity
  8
AM_4
100
AcDbLine
 10
-2.25
 20
-0.3923736194461882
 30
0.0
 11
-1.5
 21
-0.3923736194461881
 31
0.0
  0
LINE
  5
20F
330
1BF
100
AcDbEntity
  8
AM_4
100
AcDbLine
 10
-2.187399999999999
 20
-0.626
 30
0.0
 11
2.12423392308851
 21
-0.626
 31
0.0
  0
LWPOLYLINE
  5
210
330
1BF
100
AcDbEntity
  8
AM_4
100
AcDbPolyline
 90
        9
 70
     0
 43
0.0
 10
2.12423392308851
 20
0.626
 10
2.12392552699948
 20
0.6015264556754132
 10
2.123927026252716
 20
0.5757988884943245
 10
2.124291440400563
 20
0.5486289016795155
 10
2.125067525505164
 20
0.5203006877604759
 10
2.126344228893549
 20
0.4900258201176804
 10
2.12815182312068
 20
0.4586709723420225
 10
2.130561421220513
 20
0.4259883603404201
 10
2.133596038906453
 20
0.3923736194461883
  0
LINE
  5
211
330
1BF
100
AcDbEntity
  8
AM_4
100
AcDbLine
 10
1.5
 20
0.3923736194461883
 30
0.0
 11
2.133596038906453
 21
0.3923736194461883
 31
0.0
  0
LINE
  5
212
330
1BF
100
AcDbEntity
  8
AM_4
100
AcDbLine
 10
-2.1874
 20
0.626
 30
0.0
 11
-2.25
 21
0.3923736194461882
 31
0.0
  0
LINE
  5
213
330
1BF
100
AcDbEntity
  8
AM_4
100
AcDbLine
 10
-2.1874
 20
0.626
 30
0.0
 11
2.12423392308851
 21
0.626
 31
0.0
  0
LINE
  5
214
330
1BF
100
AcDbEntity
  8
AM_4
100
AcDbLine
 10
-2.25
 20
0.3923736194461882
 30
0.0
 11
-1.5
 21
0.3923736194461883
 31
0.0
  0
LINE
  5
215
330
1BF
100
AcDbEntity
  8
AM_4
100
AcDbLine
 10
1.5
 20
0.4695000000000001
 30
0.0
 11
-1.5
 21
0.4695000000000001
 31
0.0
  0
LINE
  5
216
330
1BF
100
AcDbEntity
  8
AM_4
100
AcDbLine
 10
1.5
 20
0.4695000000000001
 30
0.0
 11
1.5
 21
-0.4694999999999999
 31
0.0
  0
LINE
  5
217
330
1BF
100
AcDbEntity
  8
AM_4
100
AcDbLine
 10
1.4374
 20
-0.4068999999999998
 30
0.0
 11
1.4374
 21
-0.1564999999999998
 31
0.0
  0
LINE
  5
218
330
1BF
100
AcDbEntity
  8
AM_4
100
AcDbLine
 10
1.4374
 20
-0.4068999999999998
 30
0.0
 11
-1.437400000000001
 21
-0.4068999999999998
 31
0.0
  0
LINE
  5
219
330
1BF
100
AcDbEntity
  8
AM_4
100
AcDbLine
 10
1.5
 20
-0.4694999999999999
 30
0.0
 11
-1.5
 21
-0.4694999999999999
 31
0.0
  0
LINE
  5
21A
330
1BF
100
AcDbEntity
  8
AM_4
100
AcDbLine
 10
1.5
 20
-0.4694999999999996
 30
0.0
 11
1.4374
 21
-0.4068999999999995
 31
0.0
  0
LINE
  5
21B
330
1BF
100
AcDbEntity
  8
AM_4
100
AcDbLine
 10
1.4374
 20
0.4069000000000005
 30
0.0
 11
-1.437400000000001
 21
0.4069000000000005
 31
0.0
  0
LINE
  5
21C
330
1BF
100
AcDbEntity
  8
AM_4
100
AcDbLine
 10
1.5
 20
0.1565000000000001
 30
0.0
 11
-1.5
 21
0.1565000000000001
 31
0.0
  0
LINE
  5
21D
330
1BF
100
AcDbEntity
  8
AM_4
100
AcDbLine
 10
-1.437399999999999
 20
0.1565000000000001
 30
0.0
 11
-1.437400000000001
 21
0.4069000000000005
 31
0.0
  0
LINE
  5
21E
330
1BF
100
AcDbEntity
  8
AM_4
100
AcDbLine
 10
-1.499999999999999
 20
0.4695000000000004
 30
0.0
 11
-1.4374
 21
0.4069000000000012
 31
0.0
  0
LINE
  5
21F
330
1BF
100
AcDbEntity
  8
AM_4
100
AcDbLine
 10
-1.5
 20
-0.1564999999999998
 30
0.0
 11
1.5
 21
-0.1564999999999999
 31
0.0
  0
LINE
  5
220
330
1BF
100
AcDbEntity
  8
AM_4
100
AcDbLine
 10
-1.5
 20
0.4695000000000001
 30
0.0
 11
-1.5
 21
-0.4694999999999999
 31
0.0
  0
LINE
  5
221
330
1BF
100
AcDbEntity
  8
AM_4
100
AcDbLine
 10
-1.4374
 20
-0.4069000000000002
 30
0.0
 11
-1.5
 21
-0.4694999999999996
 31
0.0
  0
LINE
  5
222
330
1BF
100
AcDbEntity
  8
AM_4
100
AcDbLine
 10
-1.437400000000001
 20
-0.4068999999999998
 30
0.0
 11
-1.437399999999999
 21
-0.1564999999999999
 31
0.0
  0
LINE
  5
223
330
1BF
100
AcDbEntity
  8
AM_4
100
AcDbLine
 10
1.4374
 20
0.4069000000000005
 30
0.0
 11
1.5
 21
0.4695000000000004
 31
0.0
  0
LINE
  5
224
330
1BF
100
AcDbEntity
  8
AM_4
100
AcDbLine
 10
1.4374
 20
0.1565000000000001
 30
0.0
 11
1.4374
 21
0.4069000000000005
 31
0.0
  0
ENDBLK
  5
1C2
330
1BF
100
AcDbEntity
  8
0
100
AcDbBlockEnd
  0
ENDSEC
  0
SECTION
  2
ENTITIES
  0
INSERT
  5
6F
330
1F
100
AcDbEntity
  8
0
100
AcDbBlockReference
  2
1_136125_4
 10
0.0
 20
0.0
 30
0.0
  0
POINT
  5
226
330
1F
100
AcDbEntity
  8
ConnectionPoints
100
AcDbPoint
 10
0.0
 20
0.03
 30
0.0000000000000002
  0
POINT
  5
227
330
1F
100
AcDbEntity
  8
ConnectionPoints
100
AcDbPoint
 10
0.0
 20
0.03
 30
0.0000000000000002
  0
POINT
  5
228
330
1F
100
AcDbEntity
  8
ConnectionPoints
100
AcDbPoint
 10
0.0
 20
-1.23
 30
0.0000000000000002
  0
POINT
  5
229
330
1F
100
AcDbEntity
  8
ConnectionPoints
100
AcDbPoint
 10
0.0
 20
0.0
 30
0.0
  0
POINT
  5
22A
330
1F
100
AcDbEntity
  8
ConnectionPoints
100
AcDbPoint
 10
0.0
 20
0.0
 30
0.0
  0
POINT
  5
22B
330
1F
100
AcDbEntity
  8
ConnectionPoints
100
AcDbPoint
 10
-1.948557158514987
 20
-0.0000000000000001
 30
-1.125
  0
POINT
  5
22C
330
1F
100
AcDbEntity
  8
ConnectionPoints
100
AcDbPoint
 10
0.0
 20
-1.23
 30
0.0000000000000001
  0
ENDSEC
  0
SECTION
  2
OBJECTS
  0
DICTIONARY
  5
C
330
0
100
AcDbDictionary
281
     1
  3
ACAD_DETAILVIEWSTYLE
350
234
  3
ACAD_GROUP
350
D
  3
ACAD_LAYOUT
350
1A
  3
ACAD_MATERIAL
350
43
  3
ACAD_MLEADERSTYLE
350
6B
  3
ACAD_MLINESTYLE
350
17
  3
ACAD_PLOTSETTINGS
350
19
  3
ACAD_PLOTSTYLENAME
350
E
  3
ACAD_SCALELIST
350
47
  3
ACAD_SECTIONVIEWSTYLE
350
235
  3
ACAD_TABLESTYLE
350
69
  3
ACAD_VISUALSTYLE
350
2A
  3
ACDB_RECOMPOSE_DATA
350
231
  3
AcDbVariableDictionary
350
22D
  0
SUN
  5
6D
330
29
100
AcDbSun
 90
        1
290
     0
 63
     7
421
 16777215
 40
1.0
291
     1
 91
  2455826
 92
 54000000
292
     0
 70
     2
 71
   256
280
     1
  0
DICTIONARY
  5
234
102
{ACAD_REACTORS
330
C
102
}
330
C
100
AcDbDictionary
281
     1
  0
DICTIONARY
  5
D
102
{ACAD_REACTORS
330
C
102
}
330
C
100
AcDbDictionary
281
     1
  0
DICTIONARY
  5
1A
102
{ACAD_REACTORS
330
C
102
}
330
C
100
AcDbDictionary
281
     1
  3
Layout1
350
1E
  3
Layout2
350
26
  3
Model
350
22
  0
DICTIONARY
  5
43
102
{ACAD_REACTORS
330
C
102
}
330
C
100
AcDbDictionary
281
     1
  3
ByBlock
350
45
  3
ByLayer
350
44
  3
Global
350
46
  0
DICTIONARY
  5
6B
102
{ACAD_REACTORS
330
C
102
}
330
C
100
AcDbDictionary
281
     1
  3
Standard
350
6C
  0
DICTIONARY
  5
17
102
{ACAD_REACTORS
330
C
102
}
330
C
100
AcDbDictionary
281
     1
  3
Standard
350
18
  0
DICTIONARY
  5
19
102
{ACAD_REACTORS
330
C
102
}
330
C
100
AcDbDictionary
281
     1
  0
ACDBDICTIONARYWDFLT
  5
E
102
{ACAD_REACTORS
330
C
102
}
330
C
100
AcDbDictionary
281
     1
  3
Normal
350
F
100
AcDbDictionaryWithDefault
340
F
  0
DICTIONARY
  5
47
102
{ACAD_REACTORS
330
C
102
}
330
C
100
AcDbDictionary
281
     1
  3
A0
350
48
  3
A1
350
49
  3
A2
350
4A
  3
A3
350
4B
  3
A4
350
4C
  3
A5
350
4D
  3
A6
350
4E
  3
A7
350
4F
  3
A8
350
50
  3
A9
350
51
  3
B0
350
52
  3
B1
350
53
  3
B2
350
54
  3
B3
350
55
  3
B4
350
56
  3
B5
350
57
  3
B6
350
58
  3
B7
350
59
  3
B8
350
5A
  3
B9
350
5B
  3
C0
350
5C
  3
C1
350
5D
  3
C2
350
5E
  3
C3
350
5F
  3
C4
350
60
  3
C5
350
61
  3
C6
350
62
  3
C7
350
63
  3
C8
350
64
  3
C9
350
65
  3
D0
350
66
  3
D1
350
67
  3
D2
350
68
  0
DICTIONARY
  5
235
102
{ACAD_REACTORS
330
C
102
}
330
C
100
AcDbDictionary
281
     1
  0
DICTIONARY
  5
69
102
{ACAD_REACTORS
330
C
102
}
330
C
100
AcDbDictionary
281
     1
  3
Standard
350
6A
  0
DICTIONARY
  5
2A
102
{ACAD_REACTORS
330
C
102
}
330
C
100
AcDbDictionary
281
     1
  3
2dWireframe
350
2F
  3
Basic
350
32
  3
Brighten
350
36
  3
ColorChange
350
3A
  3
Conceptual
350
34
  3
Dim
350
35
  3
EdgeColorOff
350
3D
  3
Facepattern
350
39
  3
Flat
350
2B
  3
FlatWithEdges
350
2C
  3
Gouraud
350
2D
  3
GouraudWithEdges
350
2E
  3
Hidden
350
31
  3
JitterOff
350
3B
  3
Linepattern
350
38
  3
OverhangOff
350
3C
  3
Realistic
350
33
  3
Shaded
350
42
  3
Shaded with edges
350
41
  3
Shades of Gray
350
3E
  3
Sketchy
350
3F
  3
Thicken
350
37
  3
Wireframe
350
30
  3
X-Ray
350
40
  0
XRECORD
  5
231
102
{ACAD_REACTORS
330
C
102
}
330
C
100
AcDbXrecord
280
     1
 90
        1
330
6A
  0
DICTIONARY
  5
22D
102
{ACAD_REACTORS
330
C
102
}
330
C
100
AcDbDictionary
281
     1
  3
CANNOSCALE
350
22E
  3
CMLEADERSTYLE
350
233
  3
CTABLESTYLE
350
232
  0
LAYOUT
  5
1E
102
{ACAD_REACTORS
330
1A
102
}
330
1A
100
AcDbPlotSettings
  1

  2
none_device
  4

  6

 40
0.0
 41
0.0
 42
0.0
 43
0.0
 44
0.0
 45
0.0
 46
0.0
 47
0.0
 48
0.0
 49
0.0
140
0.0
141
0.0
142
1.0
143
1.0
 70
   688
 72
     0
 73
     0
 74
     5
  7

 75
    16
 76
     0
 77
     2
 78
   300
147
1.0
148
0.0
149
0.0
100
AcDbLayout
  1
Layout1
 70
     1
 71
     1
 10
0.0
 20
0.0
 11
12.0
 21
9.0
 12
0.0
 22
0.0
 32
0.0
 14
1.000000000000000E+20
 24
1.000000000000000E+20
 34
1.000000000000000E+20
 15
-1.000000000000000E+20
 25
-1.000000000000000E+20
 35
-1.000000000000000E+20
146
0.0
 13
0.0
 23
0.0
 33
0.0
 16
1.0
 26
0.0
 36
0.0
 17
0.0
 27
1.0
 37
0.0
 76
     0
330
1B
  0
LAYOUT
  5
26
102
{ACAD_REACTORS
330
1A
102
}
330
1A
100
AcDbPlotSettings
  1

  2
none_device
  4

  6

 40
0.0
 41
0.0
 42
0.0
 43
0.0
 44
0.0
 45
0.0
 46
0.0
 47
0.0
 48
0.0
 49
0.0
140
0.0
141
0.0
142
1.0
143
1.0
 70
   688
 72
     0
 73
     0
 74
     5
  7

 75
    16
 76
     0
 77
     2
 78
   300
147
1.0
148
0.0
149
0.0
100
AcDbLayout
  1
Layout2
 70
     1
 71
     2
 10
0.0
 20
0.0
 11
0.0
 21
0.0
 12
0.0
 22
0.0
 32
0.0
 14
0.0
 24
0.0
 34
0.0
 15
0.0
 25
0.0
 35
0.0
146
0.0
 13
0.0
 23
0.0
 33
0.0
 16
1.0
 26
0.0
 36
0.0
 17
0.0
 27
1.0
 37
0.0
 76
     0
330
23
  0
LAYOUT
  5
22
102
{ACAD_REACTORS
330
1A
102
}
330
1A
100
AcDbPlotSettings
  1

  2
none_device
  4
Letter_(8.50_x_11.00_Inches)
  6

 40
6.35
 41
6.35
 42
6.35000508
 43
6.35000508
 44
215.9
 45
279.4
 46
0.0
 47
0.0
 48
0.0
 49
0.0
140
0.0
141
0.0
142
1.0
143
1.0
 70
  1712
 72
     0
 73
     0
 74
     0
  7

 75
     0
 76
     0
 77
     2
 78
   300
147
1.0
148
0.0
149
0.0
100
AcDbLayout
  1
Model
 70
     1
 71
     0
 10
0.0
 20
0.0
 11
12.0
 21
9.0
 12
0.0
 22
0.0
 32
0.0
 14
1.000000000000000E+20
 24
1.000000000000000E+20
 34
1.000000000000000E+20
 15
-1.000000000000000E+20
 25
-1.000000000000000E+20
 35
-1.000000000000000E+20
146
0.0
 13
0.0
 23
0.0
 33
0.0
 16
1.0
 26
0.0
 36
0.0
 17
0.0
 27
1.0
 37
0.0
 76
     0
330
1F
331
29
  0
MATERIAL
  5
45
102
{ACAD_REACTORS
330
43
102
}
330
43
100
AcDbMaterial
  1
ByBlock
 72
     1
 94
      127
  0
MATERIAL
  5
44
102
{ACAD_REACTORS
330
43
102
}
330
43
100
AcDbMaterial
  1
ByLayer
 72
     1
 94
      127
  0
MATERIAL
  5
46
102
{ACAD_REACTORS
330
43
102
}
330
43
100
AcDbMaterial
  1
Global
 72
     1
 94
      127
  0
MLEADERSTYLE
  5
6C
102
{ACAD_REACTORS
330
6B
102
}
330
6B
100
AcDbMLeaderStyle
179
     2
170
     2
171
     1
172
     0
 90
        2
 40
0.0
 41
0.0
173
     1
 91
-1056964608
340
14
 92
       -2
290
     1
 42
0.09
291
     1
 43
0.36
  3
Standard
341
0
 44
0.18
300

342
11
174
     1
178
     6
175
     1
176
     0
 93
-1056964608
 45
0.18
292
     0
297
     0
 46
0.18
343
0
 94
-1056964608
 47
1.0
 49
1.0
140
1.0
293
     1
141
0.0
294
     1
177
     0
142
1.0
295
     0
296
     0
143
0.125
271
     0
272
     9
273
     9
298
     0
  0
MLINESTYLE
  5
18
102
{ACAD_REACTORS
330
17
102
}
330
17
100
AcDbMlineStyle
  2
Standard
 70
     0
  3

 62
   256
 51
90.0
 52
90.0
 71
     2
 49
0.5
 62
   256
  6
BYLAYER
 49
-0.5
 62
   256
  6
BYLAYER
  0
ACDBPLACEHOLDER
  5
F
102
{ACAD_REACTORS
330
E
102
}
330
E
  0
SCALE
  5
48
102
{ACAD_REACTORS
330
47
102
}
330
47
100
AcDbScale
 70
     0
300
1:1
140
1.0
141
1.0
290
     1
  0
SCALE
  5
49
102
{ACAD_REACTORS
330
47
102
}
330
47
100
AcDbScale
 70
     0
300
1:2
140
1.0
141
2.0
290
     0
  0
SCALE
  5
4A
102
{ACAD_REACTORS
330
47
102
}
330
47
100
AcDbScale
 70
     0
300
1:4
140
1.0
141
4.0
290
     0
  0
SCALE
  5
4B
102
{ACAD_REACTORS
330
47
102
}
330
47
100
AcDbScale
 70
     0
300
1:5
140
1.0
141
5.0
290
     0
  0
SCALE
  5
4C
102
{ACAD_REACTORS
330
47
102
}
330
47
100
AcDbScale
 70
     0
300
1:8
140
1.0
141
8.0
290
     0
  0
SCALE
  5
4D
102
{ACAD_REACTORS
330
47
102
}
330
47
100
AcDbScale
 70
     0
300
1:10
140
1.0
141
10.0
290
     0
  0
SCALE
  5
4E
102
{ACAD_REACTORS
330
47
102
}
330
47
100
AcDbScale
 70
     0
300
1:16
140
1.0
141
16.0
290
     0
  0
SCALE
  5
4F
102
{ACAD_REACTORS
330
47
102
}
330
47
100
AcDbScale
 70
     0
300
1:20
140
1.0
141
20.0
290
     0
  0
SCALE
  5
50
102
{ACAD_REACTORS
330
47
102
}
330
47
100
AcDbScale
 70
     0
300
1:30
140
1.0
141
30.0
290
     0
  0
SCALE
  5
51
102
{ACAD_REACTORS
330
47
102
}
330
47
100
AcDbScale
 70
     0
300
1:40
140
1.0
141
40.0
290
     0
  0
SCALE
  5
52
102
{ACAD_REACTORS
330
47
102
}
330
47
100
AcDbScale
 70
     0
300
1:50
140
1.0
141
50.0
290
     0
  0
SCALE
  5
53
102
{ACAD_REACTORS
330
47
102
}
330
47
100
AcDbScale
 70
     0
300
1:100
140
1.0
141
100.0
290
     0
  0
SCALE
  5
54
102
{ACAD_REACTORS
330
47
102
}
330
47
100
AcDbScale
 70
     0
300
2:1
140
2.0
141
1.0
290
     0
  0
SCALE
  5
55
102
{ACAD_REACTORS
330
47
102
}
330
47
100
AcDbScale
 70
     0
300
4:1
140
4.0
141
1.0
290
     0
  0
SCALE
  5
56
102
{ACAD_REACTORS
330
47
102
}
330
47
100
AcDbScale
 70
     0
300
8:1
140
8.0
141
1.0
290
     0
  0
SCALE
  5
57
102
{ACAD_REACTORS
330
47
102
}
330
47
100
AcDbScale
 70
     0
300
10:1
140
10.0
141
1.0
290
     0
  0
SCALE
  5
58
102
{ACAD_REACTORS
330
47
102
}
330
47
100
AcDbScale
 70
     0
300
100:1
140
100.0
141
1.0
290
     0
  0
SCALE
  5
59
102
{ACAD_REACTORS
330
47
102
}
330
47
100
AcDbScale
 70
     0
300
1/128" = 1'-0"
140
0.0078125
141
12.0
290
     0
  0
SCALE
  5
5A
102
{ACAD_REACTORS
330
47
102
}
330
47
100
AcDbScale
 70
     0
300
1/64" = 1'-0"
140
0.015625
141
12.0
290
     0
  0
SCALE
  5
5B
102
{ACAD_REACTORS
330
47
102
}
330
47
100
AcDbScale
 70
     0
300
1/32" = 1'-0"
140
0.03125
141
12.0
290
     0
  0
SCALE
  5
5C
102
{ACAD_REACTORS
330
47
102
}
330
47
100
AcDbScale
 70
     0
300
1/16" = 1'-0"
140
0.0625
141
12.0
290
     0
  0
SCALE
  5
5D
102
{ACAD_REACTORS
330
47
102
}
330
47
100
AcDbScale
 70
     0
300
3/32" = 1'-0"
140
0.09375
141
12.0
290
     0
  0
SCALE
  5
5E
102
{ACAD_REACTORS
330
47
102
}
330
47
100
AcDbScale
 70
     0
300
1/8" = 1'-0"
140
0.125
141
12.0
290
     0
  0
SCALE
  5
5F
102
{ACAD_REACTORS
330
47
102
}
330
47
100
AcDbScale
 70
     0
300
3/16" = 1'-0"
140
0.1875
141
12.0
290
     0
  0
SCALE
  5
60
102
{ACAD_REACTORS
330
47
102
}
330
47
100
AcDbScale
 70
     0
300
1/4" = 1'-0"
140
0.25
141
12.0
290
     0
  0
SCALE
  5
61
102
{ACAD_REACTORS
330
47
102
}
330
47
100
AcDbScale
 70
     0
300
3/8" = 1'-0"
140
0.375
141
12.0
290
     0
  0
SCALE
  5
62
102
{ACAD_REACTORS
330
47
102
}
330
47
100
AcDbScale
 70
     0
300
1/2" = 1'-0"
140
0.5
141
12.0
290
     0
  0
SCALE
  5
63
102
{ACAD_REACTORS
330
47
102
}
330
47
100
AcDbScale
 70
     0
300
3/4" = 1'-0"
140
0.75
141
12.0
290
     0
  0
SCALE
  5
64
102
{ACAD_REACTORS
330
47
102
}
330
47
100
AcDbScale
 70
     0
300
1" = 1'-0"
140
1.0
141
12.0
290
     0
  0
SCALE
  5
65
102
{ACAD_REACTORS
330
47
102
}
330
47
100
AcDbScale
 70
     0
300
1-1/2" = 1'-0"
140
1.5
141
12.0
290
     0
  0
SCALE
  5
66
102
{ACAD_REACTORS
330
47
102
}
330
47
100
AcDbScale
 70
     0
300
3" = 1'-0"
140
3.0
141
12.0
290
     0
  0
SCALE
  5
67
102
{ACAD_REACTORS
330
47
102
}
330
47
100
AcDbScale
 70
     0
300
6" = 1'-0"
140
6.0
141
12.0
290
     0
  0
SCALE
  5
68
102
{ACAD_REACTORS
330
47
102
}
330
47
100
AcDbScale
 70
     0
300
1'-0" = 1'-0"
140
12.0
141
12.0
290
     0
  0
TABLESTYLE
  5
6A
102
{ACAD_REACTORS
330
69
102
}
102
{ACAD_XDICTIONARY
360
22F
102
}
330
69
100
AcDbTableStyle
  3
Standard
 70
     0
 71
     0
 40
0.06
 41
0.06
280
     0
281
     0
  7
Standard
140
0.18
170
     2
 62
     0
 63
   257
283
     0
 90
        4
 91
        0
  1

274
    -2
284
     1
 64
     0
275
    -2
285
     1
 65
     0
276
    -2
286
     1
 66
     0
277
    -2
287
     1
 67
     0
278
    -2
288
     1
 68
     0
279
    -2
289
     1
 69
     0
  7
Standard
140
0.25
170
     5
 62
     0
 63
   257
283
     0
 90
        4
 91
        0
  1

274
    -2
284
     1
 64
     0
275
    -2
285
     1
 65
     0
276
    -2
286
     1
 66
     0
277
    -2
287
     1
 67
     0
278
    -2
288
     1
 68
     0
279
    -2
289
     1
 69
     0
  7
Standard
140
0.18
170
     5
 62
     0
 63
   257
283
     0
 90
        4
 91
        0
  1

274
    -2
284
     1
 64
     0
275
    -2
285
     1
 65
     0
276
    -2
286
     1
 66
     0
277
    -2
287
     1
 67
     0
278
    -2
288
     1
 68
     0
279
    -2
289
     1
 69
     0
  0
VISUALSTYLE
  5
2F
102
{ACAD_REACTORS
330
2A
102
}
330
2A
100
AcDbVisualStyle
  2
2dWireframe
 70
     4
177
     3
291
     0
 70
    58
 90
        0
176
     1
 90
        2
176
     1
 90
        0
176
     1
 90
        0
176
     1
 40
0.6
176
     1
 40
30.0
176
     1
 62
     7
420
 16777215
176
     1
 90
        1
176
     1
 90
        4
176
     1
 62
     7
176
     1
 62
   257
176
     1
 90
        1
176
     1
 90
        1
176
     1
 40
1.0
176
     1
 90
        0
176
     1
 62
   257
176
     1
 40
1.0
176
     1
 90
        1
176
     1
 90
        6
176
     1
 90
        2
176
     1
 62
     7
176
     1
 90
        5
176
     1
 90
        0
176
     1
 90
        0
176
     1
290
     0
176
     1
 90
        1
176
     1
 40
0.0
176
     1
 90
        0
176
     1
290
     1
176
     1
290
     1
176
     1
290
     0
176
     1
290
     0
176
     1
290
     0
176
     1
290
     0
176
     1
290
     0
176
     1
290
     0
176
     1
290
     0
176
     1
 90
       50
176
     1
 40
0.0
176
     1
 40
1.0
176
     1
 90
        0
176
     1
 62
    18
420
        0
176
     1
 90
       50
176
     1
 90
        3
176
     1
 62
     5
420
      255
176
     1
290
     0
176
     1
 90
       50
176
     1
 90
       50
176
     1
 90
       50
176
     1
290
     0
176
     1
 90
       50
176
     1
 62
   256
176
     0
 40
1.0
176
     0
 90
        2
176
     1
  1
strokes_ogs.tif
176
     1
290
     0
176
     1
 40
1.0
176
     1
 40
1.0
176
     1
  0
VISUALSTYLE
  5
32
102
{ACAD_REACTORS
330
2A
102
}
330
2A
100
AcDbVisualStyle
  2
Basic
 70
     7
177
     3
291
     1
 70
    58
 90
        1
176
     1
 90
        0
176
     1
 90
        1
176
     1
 90
        0
176
     1
 40
0.6
176
     1
 40
30.0
176
     1
 62
     7
420
 16777215
176
     1
 90
        0
176
     1
 90
        4
176
     1
 62
     7
176
     1
 62
   257
176
     1
 90
        1
176
     1
 90
        1
176
     1
 40
1.0
176
     1
 90
        8
176
     1
 62
     7
176
     1
 40
1.0
176
     1
 90
        1
176
     1
 90
        6
176
     1
 90
        2
176
     1
 62
     7
176
     1
 90
        5
176
     1
 90
        0
176
     1
 90
        0
176
     1
290
     0
176
     1
 90
        1
176
     1
 40
0.0
176
     1
 90
        0
176
     1
290
     0
176
     1
290
     1
176
     1
290
     1
176
     1
290
     0
176
     1
290
     0
176
     1
290
     0
176
     1
290
     0
176
     1
290
     0
176
     1
290
     0
176
     1
 90
       50
176
     1
 40
0.0
176
     1
 40
1.0
176
     1
 90
        0
176
     1
 62
    18
420
        0
176
     1
 90
       50
176
     1
 90
        3
176
     1
 62
     5
420
      255
176
     1
290
     0
176
     1
 90
       50
176
     1
 90
       50
176
     1
 90
       50
176
     1
290
     0
176
     1
 90
       50
176
     1
 62
   256
176
     0
 40
1.0
176
     0
 90
        2
176
     1
  1
strokes_ogs.tif
176
     1
290
     0
176
     1
 40
1.0
176
     1
 40
1.0
176
     1
  0
VISUALSTYLE
  5
36
102
{ACAD_REACTORS
330
2A
102
}
330
2A
100
AcDbVisualStyle
  2
Brighten
 70
    12
177
     3
291
     1
 70
    58
 90
        2
176
     1
 90
        2
176
     1
 90
        0
176
     1
 90
        0
176
     1
 40
0.6
176
     1
 40
30.0
176
     1
 62
     7
420
 16777215
176
     1
 90
        1
176
     1
 90
        4
176
     1
 62
     7
176
     1
 62
   257
176
     1
 90
        1
176
     1
 90
        1
176
     1
 40
1.0
176
     1
 90
        8
176
     1
 62
     7
176
     1
 40
1.0
176
     1
 90
        1
176
     1
 90
        6
176
     1
 90
        2
176
     1
 62
     7
176
     1
 90
        5
176
     1
 90
        0
176
     1
 90
        0
176
     1
290
     0
176
     1
 90
        1
176
     1
 40
50.0
176
     1
 90
        0
176
     1
290
     0
176
     1
290
     1
176
     1
290
     1
176
     1
290
     0
176
     1
290
     0
176
     1
290
     0
176
     1
290
     0
176
     1
290
     0
176
     1
290
     0
176
     1
 90
       50
176
     1
 40
0.0
176
     1
 40
1.0
176
     1
 90
        0
176
     1
 62
    18
420
        0
176
     1
 90
       50
176
     1
 90
        3
176
     1
 62
     5
420
      255
176
     1
290
     0
176
     1
 90
       50
176
     1
 90
       50
176
     1
 90
       50
176
     1
290
     0
176
     1
 90
       50
176
     1
 62
   256
176
     0
 40
1.0
176
     0
 90
        2
176
     1
  1
strokes_ogs.tif
176
     1
290
     0
176
     1
 40
1.0
176
     1
 40
1.0
176
     1
  0
VISUALSTYLE
  5
3A
102
{ACAD_REACTORS
330
2A
102
}
330
2A
100
AcDbVisualStyle
  2
ColorChange
 70
    16
177
     3
291
     1
 70
    58
 90
        2
176
     1
 90
        2
176
     1
 90
        3
176
     1
 90
        0
176
     1
 40
0.6
176
     1
 40
30.0
176
     1
 62
     8
420
  8421504
176
     1
 90
        1
176
     1
 90
        4
176
     1
 62
     7
176
     1
 62
   257
176
     1
 90
        1
176
     1
 90
        1
176
     1
 40
1.0
176
     1
 90
        8
176
     1
 62
     8
420
  8421504
176
     1
 40
1.0
176
     1
 90
        1
176
     1
 90
        6
176
     1
 90
        2
176
     1
 62
     7
176
     1
 90
        5
176
     1
 90
        0
176
     1
 90
        0
176
     1
290
     0
176
     1
 90
        1
176
     1
 40
0.0
176
     1
 90
        0
176
     1
290
     0
176
     1
290
     1
176
     1
290
     1
176
     1
290
     0
176
     1
290
     0
176
     1
290
     0
176
     1
290
     0
176
     1
290
     0
176
     1
290
     0
176
     1
 90
       50
176
     1
 40
0.0
176
     1
 40
1.0
176
     1
 90
        0
176
     1
 62
    18
420
        0
176
     1
 90
       50
176
     1
 90
        3
176
     1
 62
     5
420
      255
176
     1
290
     0
176
     1
 90
       50
176
     1
 90
       50
176
     1
 90
       50
176
     1
290
     0
176
     1
 90
       50
176
     1
 62
   256
176
     0
 40
1.0
176
     0
 90
        2
176
     1
  1
strokes_ogs.tif
176
     1
290
     0
176
     1
 40
1.0
176
     1
 40
1.0
176
     1
  0
VISUALSTYLE
  5
34
102
{ACAD_REACTORS
330
2A
102
}
330
2A
100
AcDbVisualStyle
  2
Conceptual
 70
     9
177
     3
291
     0
 70
    58
 90
        3
176
     1
 90
        2
176
     1
 90
        0
176
     1
 90
        0
176
     1
 40
0.6
176
     1
 40
30.0
176
     1
 62
     7
420
 16777215
176
     1
 90
        2
176
     1
 90
        2
176
     1
 62
     7
176
     1
 62
   257
176
     1
 90
        1
176
     1
 90
        1
176
     1
 40
179.0
176
     1
 90
        8
176
     1
 62
     7
176
     1
 40
1.0
176
     1
 90
        1
176
     1
 90
        6
176
     1
 90
        2
176
     1
 62
     7
176
     1
 90
        3
176
     1
 90
        0
176
     1
 90
        0
176
     1
290
     0
176
     1
 90
        1
176
     1
 40
0.0
176
     1
 90
        0
176
     1
290
     0
176
     1
290
     1
176
     1
290
     1
176
     1
290
     0
176
     1
290
     0
176
     1
290
     0
176
     1
290
     0
176
     1
290
     0
176
     1
290
     0
176
     1
 90
       50
176
     1
 40
0.0
176
     1
 40
1.0
176
     1
 90
        0
176
     1
 62
    18
420
        0
176
     1
 90
       50
176
     1
 90
        3
176
     1
 62
     5
420
      255
176
     1
290
     0
176
     1
 90
       50
176
     1
 90
       50
176
     1
 90
       50
176
     1
290
     0
176
     1
 90
       50
176
     1
 62
   256
176
     0
 40
1.0
176
     0
 90
        2
176
     1
  1
strokes_ogs.tif
176
     1
290
     0
176
     1
 40
1.0
176
     1
 40
1.0
176
     1
  0
VISUALSTYLE
  5
35
102
{ACAD_REACTORS
330
2A
102
}
330
2A
100
AcDbVisualStyle
  2
Dim
 70
    11
177
     3
291
     1
 70
    58
 90
        2
176
     1
 90
        2
176
     1
 90
        0
176
     1
 90
        0
176
     1
 40
0.6
176
     1
 40
30.0
176
     1
 62
     7
420
 16777215
176
     1
 90
        1
176
     1
 90
        4
176
     1
 62
     7
176
     1
 62
   257
176
     1
 90
        1
176
     1
 90
        1
176
     1
 40
1.0
176
     1
 90
        8
176
     1
 62
     7
176
     1
 40
1.0
176
     1
 90
        1
176
     1
 90
        6
176
     1
 90
        2
176
     1
 62
     7
176
     1
 90
        5
176
     1
 90
        0
176
     1
 90
        0
176
     1
290
     0
176
     1
 90
        1
176
     1
 40
-50.0
176
     1
 90
        0
176
     1
290
     0
176
     1
290
     1
176
     1
290
     1
176
     1
290
     0
176
     1
290
     0
176
     1
290
     0
176
     1
290
     0
176
     1
290
     0
176
     1
290
     0
176
     1
 90
       50
176
     1
 40
0.0
176
     1
 40
1.0
176
     1
 90
        0
176
     1
 62
    18
420
        0
176
     1
 90
       50
176
     1
 90
        3
176
     1
 62
     5
420
      255
176
     1
290
     0
176
     1
 90
       50
176
     1
 90
       50
176
     1
 90
       50
176
     1
290
     0
176
     1
 90
       50
176
     1
 62
   256
176
     0
 40
1.0
176
     0
 90
        2
176
     1
  1
strokes_ogs.tif
176
     1
290
     0
176
     1
 40
1.0
176
     1
 40
1.0
176
     1
  0
VISUALSTYLE
  5
3D
102
{ACAD_REACTORS
330
2A
102
}
330
2A
100
AcDbVisualStyle
  2
EdgeColorOff
 70
    22
177
     3
291
     1
 70
    58
 90
        2
176
     0
 90
        2
176
     0
 90
        0
176
     0
 90
        0
176
     0
 40
0.6
176
     0
 40
30.0
176
     0
 62
     7
420
 16777215
176
     0
 90
        1
176
     0
 90
        4
176
     0
 62
     7
176
     0
 62
   257
176
     0
 90
        1
176
     0
 90
        1
176
     0
 40
1.0
176
     0
 90
        8
176
     2
 62
     7
176
     0
 40
1.0
176
     0
 90
        1
176
     0
 90
        6
176
     0
 90
        2
176
     0
 62
     7
176
     0
 90
        5
176
     0
 90
        0
176
     0
 90
        0
176
     0
290
     0
176
     0
 90
        1
176
     0
 40
0.0
176
     0
 90
        0
176
     0
290
     0
176
     0
290
     1
176
     0
290
     1
176
     0
290
     0
176
     0
290
     0
176
     0
290
     0
176
     0
290
     0
176
     0
290
     0
176
     0
290
     0
176
     0
 90
       50
176
     0
 40
0.0
176
     0
 40
1.0
176
     0
 90
        0
176
     0
 62
    18
420
        0
176
     0
 90
       50
176
     0
 90
        3
176
     0
 62
     5
420
      255
176
     0
290
     0
176
     0
 90
       50
176
     0
 90
       50
176
     0
 90
       50
176
     0
290
     0
176
     0
 90
       50
176
     0
 62
   256
176
     0
 40
1.0
176
     0
 90
        2
176
     0
  1
strokes_ogs.tif
176
     0
290
     0
176
     0
 40
1.0
176
     0
 40
1.0
176
     0
  0
VISUALSTYLE
  5
39
102
{ACAD_REACTORS
330
2A
102
}
330
2A
100
AcDbVisualStyle
  2
Facepattern
 70
    15
177
     3
291
     1
 70
    58
 90
        2
176
     1
 90
        2
176
     1
 90
        0
176
     1
 90
        0
176
     1
 40
0.6
176
     1
 40
30.0
176
     1
 62
     7
420
 16777215
176
     1
 90
        1
176
     1
 90
        4
176
     1
 62
     7
176
     1
 62
   257
176
     1
 90
        1
176
     1
 90
        1
176
     1
 40
1.0
176
     1
 90
        8
176
     1
 62
     7
176
     1
 40
1.0
176
     1
 90
        1
176
     1
 90
        6
176
     1
 90
        2
176
     1
 62
     7
176
     1
 90
        5
176
     1
 90
        0
176
     1
 90
        0
176
     1
290
     0
176
     1
 90
        1
176
     1
 40
0.0
176
     1
 90
        0
176
     1
290
     0
176
     1
290
     1
176
     1
290
     1
176
     1
290
     0
176
     1
290
     0
176
     1
290
     0
176
     1
290
     0
176
     1
290
     0
176
     1
290
     0
176
     1
 90
       50
176
     1
 40
0.0
176
     1
 40
1.0
176
     1
 90
        0
176
     1
 62
    18
420
        0
176
     1
 90
       50
176
     1
 90
        3
176
     1
 62
     5
420
      255
176
     1
290
     0
176
     1
 90
       50
176
     1
 90
       50
176
     1
 90
       50
176
     1
290
     0
176
     1
 90
       50
176
     1
 62
   256
176
     0
 40
1.0
176
     0
 90
        2
176
     1
  1
strokes_ogs.tif
176
     1
290
     0
176
     1
 40
1.0
176
     1
 40
1.0
176
     1
  0
VISUALSTYLE
  5
2B
102
{ACAD_REACTORS
330
2A
102
}
330
2A
100
AcDbVisualStyle
  2
Flat
 70
     0
177
     3
291
     1
 70
    58
 90
        2
176
     1
 90
        1
176
     1
 90
        1
176
     1
 90
        2
176
     1
 40
0.6
176
     1
 40
30.0
176
     1
 62
     7
420
 16777215
176
     1
 90
        0
176
     1
 90
        0
176
     1
 62
     7
176
     1
 62
   257
176
     1
 90
        1
176
     1
 90
        1
176
     1
 40
1.0
176
     1
 90
        8
176
     1
 62
     7
176
     1
 40
1.0
176
     1
 90
        1
176
     1
 90
        6
176
     1
 90
        2
176
     1
 62
     7
176
     1
 90
        5
176
     1
 90
        0
176
     1
 90
        0
176
     1
290
     0
176
     1
 90
       13
176
     1
 40
0.0
176
     1
 90
        0
176
     1
290
     0
176
     1
290
     1
176
     1
290
     1
176
     1
290
     0
176
     1
290
     0
176
     1
290
     0
176
     1
290
     0
176
     1
290
     0
176
     1
290
     0
176
     1
 90
       50
176
     1
 40
0.0
176
     1
 40
1.0
176
     1
 90
        0
176
     1
 62
    18
420
        0
176
     1
 90
       50
176
     1
 90
        3
176
     1
 62
     5
420
      255
176
     1
290
     0
176
     1
 90
       50
176
     1
 90
       50
176
     1
 90
       50
176
     1
290
     0
176
     1
 90
       50
176
     1
 62
   256
176
     0
 40
1.0
176
     0
 90
        2
176
     1
  1
strokes_ogs.tif
176
     1
290
     0
176
     1
 40
1.0
176
     1
 40
1.0
176
     1
  0
VISUALSTYLE
  5
2C
102
{ACAD_REACTORS
330
2A
102
}
330
2A
100
AcDbVisualStyle
  2
FlatWithEdges
 70
     1
177
     3
291
     1
 70
    58
 90
        2
176
     1
 90
        1
176
     1
 90
        1
176
     1
 90
        2
176
     1
 40
0.6
176
     1
 40
30.0
176
     1
 62
     7
420
 16777215
176
     1
 90
        1
176
     1
 90
        0
176
     1
 62
     7
176
     1
 62
   257
176
     1
 90
        1
176
     1
 90
        1
176
     1
 40
1.0
176
     1
 90
        0
176
     1
 62
   257
176
     1
 40
1.0
176
     1
 90
        1
176
     1
 90
        6
176
     1
 90
        2
176
     1
 62
     7
176
     1
 90
        5
176
     1
 90
        0
176
     1
 90
        0
176
     1
290
     0
176
     1
 90
       13
176
     1
 40
0.0
176
     1
 90
        0
176
     1
290
     0
176
     1
290
     1
176
     1
290
     1
176
     1
290
     0
176
     1
290
     0
176
     1
290
     0
176
     1
290
     0
176
     1
290
     0
176
     1
290
     0
176
     1
 90
       50
176
     1
 40
0.0
176
     1
 40
1.0
176
     1
 90
        0
176
     1
 62
    18
420
        0
176
     1
 90
       50
176
     1
 90
        3
176
     1
 62
     5
420
      255
176
     1
290
     0
176
     1
 90
       50
176
     1
 90
       50
176
     1
 90
       50
176
     1
290
     0
176
     1
 90
       50
176
     1
 62
   256
176
     0
 40
1.0
176
     0
 90
        2
176
     1
  1
strokes_ogs.tif
176
     1
290
     0
176
     1
 40
1.0
176
     1
 40
1.0
176
     1
  0
VISUALSTYLE
  5
2D
102
{ACAD_REACTORS
330
2A
102
}
330
2A
100
AcDbVisualStyle
  2
Gouraud
 70
     2
177
     3
291
     1
 70
    58
 90
        2
176
     1
 90
        2
176
     1
 90
        1
176
     1
 90
        2
176
     1
 40
0.6
176
     1
 40
30.0
176
     1
 62
     7
420
 16777215
176
     1
 90
        0
176
     1
 90
        0
176
     1
 62
     7
176
     1
 62
   257
176
     1
 90
        1
176
     1
 90
        1
176
     1
 40
1.0
176
     1
 90
        0
176
     1
 62
     7
176
     1
 40
1.0
176
     1
 90
        1
176
     1
 90
        6
176
     1
 90
        2
176
     1
 62
     7
176
     1
 90
        5
176
     1
 90
        0
176
     1
 90
        0
176
     1
290
     0
176
     1
 90
       13
176
     1
 40
0.0
176
     1
 90
        0
176
     1
290
     0
176
     1
290
     1
176
     1
290
     1
176
     1
290
     0
176
     1
290
     0
176
     1
290
     0
176
     1
290
     0
176
     1
290
     0
176
     1
290
     0
176
     1
 90
       50
176
     1
 40
0.0
176
     1
 40
1.0
176
     1
 90
        0
176
     1
 62
    18
420
        0
176
     1
 90
       50
176
     1
 90
        3
176
     1
 62
     5
420
      255
176
     1
290
     0
176
     1
 90
       50
176
     1
 90
       50
176
     1
 90
       50
176
     1
290
     0
176
     1
 90
       50
176
     1
 62
   256
176
     0
 40
1.0
176
     0
 90
        2
176
     1
  1
strokes_ogs.tif
176
     1
290
     0
176
     1
 40
1.0
176
     1
 40
1.0
176
     1
  0
VISUALSTYLE
  5
2E
102
{ACAD_REACTORS
330
2A
102
}
330
2A
100
AcDbVisualStyle
  2
GouraudWithEdges
 70
     3
177
     3
291
     1
 70
    58
 90
        2
176
     1
 90
        2
176
     1
 90
        1
176
     1
 90
        2
176
     1
 40
0.6
176
     1
 40
30.0
176
     1
 62
     7
420
 16777215
176
     1
 90
        1
176
     1
 90
        0
176
     1
 62
     7
176
     1
 62
   257
176
     1
 90
        1
176
     1
 90
        1
176
     1
 40
1.0
176
     1
 90
        0
176
     1
 62
   257
176
     1
 40
1.0
176
     1
 90
        1
176
     1
 90
        6
176
     1
 90
        2
176
     1
 62
     7
176
     1
 90
        5
176
     1
 90
        0
176
     1
 90
        0
176
     1
290
     0
176
     1
 90
       13
176
     1
 40
0.0
176
     1
 90
        0
176
     1
290
     0
176
     1
290
     1
176
     1
290
     1
176
     1
290
     0
176
     1
290
     0
176
     1
290
     0
176
     1
290
     0
176
     1
290
     0
176
     1
290
     0
176
     1
 90
       50
176
     1
 40
0.0
176
     1
 40
1.0
176
     1
 90
        0
176
     1
 62
    18
420
        0
176
     1
 90
       50
176
     1
 90
        3
176
     1
 62
     5
420
      255
176
     1
290
     0
176
     1
 90
       50
176
     1
 90
       50
176
     1
 90
       50
176
     1
290
     0
176
     1
 90
       50
176
     1
 62
   256
176
     0
 40
1.0
176
     0
 90
        2
176
     1
  1
strokes_ogs.tif
176
     1
290
     0
176
     1
 40
1.0
176
     1
 40
1.0
176
     1
  0
VISUALSTYLE
  5
31
102
{ACAD_REACTORS
330
2A
102
}
330
2A
100
AcDbVisualStyle
  2
Hidden
 70
     6
177
     3
291
     0
 70
    58
 90
        1
176
     1
 90
        2
176
     1
 90
        2
176
     1
 90
        0
176
     1
 40
0.6
176
     1
 40
30.0
176
     1
 62
     7
420
 16777215
176
     1
 90
        2
176
     1
 90
        2
176
     1
 62
     7
176
     1
 62
   257
176
     1
 90
        2
176
     1
 90
        1
176
     1
 40
40.0
176
     1
 90
        0
176
     1
 62
   257
176
     1
 40
1.0
176
     1
 90
        1
176
     1
 90
        6
176
     1
 90
        2
176
     1
 62
     7
176
     1
 90
        3
176
     1
 90
        0
176
     1
 90
        0
176
     1
290
     0
176
     1
 90
        1
176
     1
 40
0.0
176
     1
 90
        0
176
     1
290
     0
176
     1
290
     1
176
     1
290
     1
176
     1
290
     0
176
     1
290
     0
176
     1
290
     0
176
     1
290
     0
176
     1
290
     0
176
     1
290
     0
176
     1
 90
       50
176
     1
 40
0.0
176
     1
 40
1.0
176
     1
 90
        0
176
     1
 62
    18
420
        0
176
     1
 90
       50
176
     1
 90
        3
176
     1
 62
     5
420
      255
176
     1
290
     0
176
     1
 90
       50
176
     1
 90
       50
176
     1
 90
       50
176
     1
290
     0
176
     1
 90
       50
176
     1
 62
   256
176
     0
 40
1.0
176
     0
 90
        2
176
     1
  1
strokes_ogs.tif
176
     1
290
     0
176
     1
 40
1.0
176
     1
 40
1.0
176
     1
  0
VISUALSTYLE
  5
3B
102
{ACAD_REACTORS
330
2A
102
}
330
2A
100
AcDbVisualStyle
  2
JitterOff
 70
    20
177
     3
291
     1
 70
    58
 90
        2
176
     0
 90
        2
176
     0
 90
        0
176
     0
 90
        0
176
     0
 40
0.6
176
     0
 40
30.0
176
     0
 62
     7
420
 16777215
176
     0
 90
        1
176
     0
 90
        4
176
     0
 62
     7
176
     0
 62
   257
176
     0
 90
        1
176
     0
 90
        1
176
     0
 40
1.0
176
     0
 90
       10
176
     2
 62
     7
176
     0
 40
1.0
176
     0
 90
        1
176
     0
 90
        6
176
     0
 90
        2
176
     0
 62
     7
176
     0
 90
        5
176
     0
 90
        0
176
     0
 90
        0
176
     0
290
     0
176
     0
 90
        1
176
     0
 40
0.0
176
     0
 90
        0
176
     0
290
     0
176
     0
290
     1
176
     0
290
     1
176
     0
290
     0
176
     0
290
     0
176
     0
290
     0
176
     0
290
     0
176
     0
290
     0
176
     0
290
     0
176
     0
 90
       50
176
     0
 40
0.0
176
     0
 40
1.0
176
     0
 90
        0
176
     0
 62
    18
420
        0
176
     0
 90
       50
176
     0
 90
        3
176
     0
 62
     5
420
      255
176
     0
290
     0
176
     0
 90
       50
176
     0
 90
       50
176
     0
 90
       50
176
     0
290
     0
176
     0
 90
       50
176
     0
 62
   256
176
     0
 40
1.0
176
     0
 90
        2
176
     0
  1
strokes_ogs.tif
176
     0
290
     0
176
     0
 40
1.0
176
     0
 40
1.0
176
     0
  0
VISUALSTYLE
  5
38
102
{ACAD_REACTORS
330
2A
102
}
330
2A
100
AcDbVisualStyle
  2
Linepattern
 70
    14
177
     3
291
     1
 70
    58
 90
        2
176
     1
 90
        2
176
     1
 90
        0
176
     1
 90
        0
176
     1
 40
0.6
176
     1
 40
30.0
176
     1
 62
     7
420
 16777215
176
     1
 90
        1
176
     1
 90
        4
176
     1
 62
     7
176
     1
 62
   257
176
     1
 90
        7
176
     1
 90
        7
176
     1
 40
1.0
176
     1
 90
        8
176
     1
 62
     7
176
     1
 40
1.0
176
     1
 90
        1
176
     1
 90
        6
176
     1
 90
        2
176
     1
 62
     7
176
     1
 90
        5
176
     1
 90
        0
176
     1
 90
        0
176
     1
290
     0
176
     1
 90
        1
176
     1
 40
0.0
176
     1
 90
        0
176
     1
290
     0
176
     1
290
     1
176
     1
290
     1
176
     1
290
     0
176
     1
290
     0
176
     1
290
     0
176
     1
290
     0
176
     1
290
     0
176
     1
290
     0
176
     1
 90
       50
176
     1
 40
0.0
176
     1
 40
1.0
176
     1
 90
        0
176
     1
 62
    18
420
        0
176
     1
 90
       50
176
     1
 90
        3
176
     1
 62
     5
420
      255
176
     1
290
     0
176
     1
 90
       50
176
     1
 90
       50
176
     1
 90
       50
176
     1
290
     0
176
     1
 90
       50
176
     1
 62
   256
176
     0
 40
1.0
176
     0
 90
        2
176
     1
  1
strokes_ogs.tif
176
     1
290
     0
176
     1
 40
1.0
176
     1
 40
1.0
176
     1
  0
VISUALSTYLE
  5
3C
102
{ACAD_REACTORS
330
2A
102
}
330
2A
100
AcDbVisualStyle
  2
OverhangOff
 70
    21
177
     3
291
     1
 70
    58
 90
        2
176
     0
 90
        2
176
     0
 90
        0
176
     0
 90
        0
176
     0
 40
0.6
176
     0
 40
30.0
176
     0
 62
     7
420
 16777215
176
     0
 90
        1
176
     0
 90
        4
176
     0
 62
     7
176
     0
 62
   257
176
     0
 90
        1
176
     0
 90
        1
176
     0
 40
1.0
176
     0
 90
        9
176
     2
 62
     7
176
     0
 40
1.0
176
     0
 90
        1
176
     0
 90
        6
176
     0
 90
        2
176
     0
 62
     7
176
     0
 90
        5
176
     0
 90
        0
176
     0
 90
        0
176
     0
290
     0
176
     0
 90
        1
176
     0
 40
0.0
176
     0
 90
        0
176
     0
290
     0
176
     0
290
     1
176
     0
290
     1
176
     0
290
     0
176
     0
290
     0
176
     0
290
     0
176
     0
290
     0
176
     0
290
     0
176
     0
290
     0
176
     0
 90
       50
176
     0
 40
0.0
176
     0
 40
1.0
176
     0
 90
        0
176
     0
 62
    18
420
        0
176
     0
 90
       50
176
     0
 90
        3
176
     0
 62
     5
420
      255
176
     0
290
     0
176
     0
 90
       50
176
     0
 90
       50
176
     0
 90
       50
176
     0
290
     0
176
     0
 90
       50
176
     0
 62
   256
176
     0
 40
1.0
176
     0
 90
        2
176
     0
  1
strokes_ogs.tif
176
     0
290
     0
176
     0
 40
1.0
176
     0
 40
1.0
176
     0
  0
VISUALSTYLE
  5
33
102
{ACAD_REACTORS
330
2A
102
}
330
2A
100
AcDbVisualStyle
  2
Realistic
 70
     8
177
     3
291
     0
 70
    58
 90
        2
176
     1
 90
        3
176
     1
 90
        0
176
     1
 90
        2
176
     1
 40
0.6
176
     1
 40
30.0
176
     1
 62
     7
420
 16777215
176
     1
 90
        0
176
     1
 90
        0
176
     1
 62
     7
176
     1
 62
   257
176
     1
 90
        1
176
     1
 90
        1
176
     1
 40
1.0
176
     1
 90
        8
176
     1
 62
   257
176
     1
 40
1.0
176
     1
 90
        1
176
     1
 90
        6
176
     1
 90
        2
176
     1
 62
     7
176
     1
 90
        3
176
     1
 90
        0
176
     1
 90
        0
176
     1
290
     0
176
     1
 90
       13
176
     1
 40
0.0
176
     1
 90
        0
176
     1
290
     0
176
     1
290
     1
176
     1
290
     1
176
     1
290
     0
176
     1
290
     0
176
     1
290
     0
176
     1
290
     0
176
     1
290
     0
176
     1
290
     0
176
     1
 90
       50
176
     1
 40
0.0
176
     1
 40
1.0
176
     1
 90
        0
176
     1
 62
    18
420
        0
176
     1
 90
       50
176
     1
 90
        3
176
     1
 62
     5
420
      255
176
     1
290
     0
176
     1
 90
       50
176
     1
 90
       50
176
     1
 90
       50
176
     1
290
     0
176
     1
 90
       50
176
     1
 62
   256
176
     0
 40
1.0
176
     0
 90
        2
176
     1
  1
strokes_ogs.tif
176
     1
290
     0
176
     1
 40
1.0
176
     1
 40
1.0
176
     1
  0
VISUALSTYLE
  5
42
102
{ACAD_REACTORS
330
2A
102
}
330
2A
100
AcDbVisualStyle
  2
Shaded
 70
    27
177
     3
291
     0
 70
    58
 90
        2
176
     1
 90
        2
176
     1
 90
        1
176
     1
 90
        2
176
     1
 40
0.6
176
     1
 40
30.0
176
     1
 62
     7
420
 16777215
176
     1
 90
        0
176
     1
 90
        4
176
     1
 62
     7
176
     1
 62
   257
176
     1
 90
        1
176
     1
 90
        1
176
     1
 40
1.0
176
     1
 90
        8
176
     1
 62
   257
176
     1
 40
1.0
176
     1
 90
        1
176
     1
 90
        6
176
     1
 90
        2
176
     1
 62
     8
420
  7895160
176
     1
 90
        3
176
     1
 90
        0
176
     1
 90
        0
176
     1
290
     0
176
     1
 90
        5
176
     1
 40
0.0
176
     1
 90
        0
176
     1
290
     0
176
     1
290
     1
176
     1
290
     1
176
     1
290
     0
176
     1
290
     0
176
     1
290
     0
176
     1
290
     0
176
     1
290
     0
176
     1
290
     0
176
     1
 90
       50
176
     1
 40
0.0
176
     1
 40
1.0
176
     1
 90
        0
176
     1
 62
    18
420
        0
176
     1
 90
       50
176
     1
 90
        3
176
     1
 62
     5
420
      255
176
     1
290
     0
176
     1
 90
       50
176
     1
 90
       50
176
     1
 90
       50
176
     1
290
     0
176
     1
 90
       50
176
     1
 62
   256
176
     0
 40
1.0
176
     0
 90
        2
176
     1
  1
strokes_ogs.tif
176
     1
290
     0
176
     1
 40
1.0
176
     1
 40
1.0
176
     1
  0
VISUALSTYLE
  5
41
102
{ACAD_REACTORS
330
2A
102
}
330
2A
100
AcDbVisualStyle
  2
Shaded with edges
 70
    26
177
     3
291
     0
 70
    58
 90
        2
176
     1
 90
        2
176
     1
 90
        1
176
     1
 90
        2
176
     1
 40
0.6
176
     1
 40
30.0
176
     1
 62
     7
420
 16777215
176
     1
 90
        1
176
     1
 90
       10
176
     1
 62
     7
176
     1
 62
   257
176
     1
 90
        2
176
     1
 90
        1
176
     1
 40
1.0
176
     1
 90
        8
176
     1
 62
   257
176
     1
 40
1.0
176
     1
 90
        1
176
     1
 90
        6
176
     1
 90
        2
176
     1
 62
     7
176
     1
 90
        3
176
     1
 90
        0
176
     1
 90
        0
176
     1
290
     0
176
     1
 90
        5
176
     1
 40
0.0
176
     1
 90
        0
176
     1
290
     0
176
     1
290
     1
176
     1
290
     1
176
     1
290
     0
176
     1
290
     0
176
     1
290
     0
176
     1
290
     0
176
     1
290
     0
176
     1
290
     0
176
     1
 90
       50
176
     1
 40
0.0
176
     1
 40
1.0
176
     1
 90
        0
176
     1
 62
    18
420
        0
176
     1
 90
       50
176
     1
 90
        3
176
     1
 62
     5
420
      255
176
     1
290
     0
176
     1
 90
       50
176
     1
 90
       50
176
     1
 90
       50
176
     1
290
     0
176
     1
 90
       50
176
     1
 62
   256
176
     0
 40
1.0
176
     0
 90
        2
176
     1
  1
strokes_ogs.tif
176
     1
290
     0
176
     1
 40
1.0
176
     1
 40
1.0
176
     1
  0
VISUALSTYLE
  5
3E
102
{ACAD_REACTORS
330
2A
102
}
330
2A
100
AcDbVisualStyle
  2
Shades of Gray
 70
    23
177
     3
291
     0
 70
    58
 90
        2
176
     1
 90
        2
176
     1
 90
        3
176
     1
 90
        0
176
     1
 40
0.6
176
     1
 40
30.0
176
     1
 62
     7
420
 16777215
176
     1
 90
        2
176
     1
 90
        2
176
     1
 62
     7
176
     1
 62
     7
176
     1
 90
        1
176
     1
 90
        1
176
     1
 40
40.0
176
     1
 90
        8
176
     1
 62
     7
176
     1
 40
1.0
176
     1
 90
        1
176
     1
 90
        6
176
     1
 90
        2
176
     1
 62
     7
176
     1
 90
        3
176
     1
 90
        0
176
     1
 90
        0
176
     1
290
     0
176
     1
 90
        1
176
     1
 40
0.0
176
     1
 90
        0
176
     1
290
     0
176
     1
290
     1
176
     1
290
     1
176
     1
290
     0
176
     1
290
     0
176
     1
290
     0
176
     1
290
     0
176
     1
290
     0
176
     1
290
     0
176
     1
 90
       50
176
     1
 40
0.0
176
     1
 40
1.0
176
     1
 90
        0
176
     1
 62
    18
420
        0
176
     1
 90
       50
176
     1
 90
        3
176
     1
 62
     5
420
      255
176
     1
290
     0
176
     1
 90
       50
176
     1
 90
       50
176
     1
 90
       50
176
     1
290
     0
176
     1
 90
       50
176
     1
 62
   256
176
     0
 40
1.0
176
     0
 90
        2
176
     1
  1
strokes_ogs.tif
176
     1
290
     0
176
     1
 40
1.0
176
     1
 40
1.0
176
     1
  0
VISUALSTYLE
  5
3F
102
{ACAD_REACTORS
330
2A
102
}
330
2A
100
AcDbVisualStyle
  2
Sketchy
 70
    24
177
     3
291
     0
 70
    58
 90
        1
176
     1
 90
        2
176
     1
 90
        2
176
     1
 90
        0
176
     1
 40
0.6
176
     1
 40
30.0
176
     1
 62
     7
420
 16777215
176
     1
 90
        2
176
     1
 90
        2
176
     1
 62
     7
176
     1
 62
     7
176
     1
 90
        1
176
     1
 90
        1
176
     1
 40
40.0
176
     1
 90
       11
176
     1
 62
     7
176
     1
 40
1.0
176
     1
 90
        1
176
     1
 90
        6
176
     1
 90
        2
176
     1
 62
     7
176
     1
 90
        6
176
     1
 90
        0
176
     1
 90
        0
176
     1
290
     0
176
     1
 90
        1
176
     1
 40
0.0
176
     1
 90
        0
176
     1
290
     0
176
     1
290
     1
176
     1
290
     1
176
     1
290
     0
176
     1
290
     0
176
     1
290
     0
176
     1
290
     0
176
     1
290
     0
176
     1
290
     0
176
     1
 90
       50
176
     1
 40
0.0
176
     1
 40
1.0
176
     1
 90
        0
176
     1
 62
    18
420
        0
176
     1
 90
       50
176
     1
 90
        3
176
     1
 62
     5
420
      255
176
     1
290
     0
176
     1
 90
       50
176
     1
 90
       50
176
     1
 90
       50
176
     1
290
     0
176
     1
 90
       50
176
     1
 62
   256
176
     0
 40
1.0
176
     0
 90
        2
176
     1
  1
strokes_ogs.tif
176
     1
290
     0
176
     1
 40
1.0
176
     1
 40
1.0
176
     1
  0
VISUALSTYLE
  5
37
102
{ACAD_REACTORS
330
2A
102
}
330
2A
100
AcDbVisualStyle
  2
Thicken
 70
    13
177
     3
291
     1
 70
    58
 90
        2
176
     1
 90
        2
176
     1
 90
        0
176
     1
 90
        0
176
     1
 40
0.6
176
     1
 40
30.0
176
     1
 62
     7
420
 16777215
176
     1
 90
        1
176
     1
 90
        4
176
     1
 62
     7
176
     1
 62
   257
176
     1
 90
        1
176
     1
 90
        1
176
     1
 40
1.0
176
     1
 90
       12
176
     1
 62
     7
176
     1
 40
1.0
176
     1
 90
        1
176
     1
 90
        6
176
     1
 90
        2
176
     1
 62
     7
176
     1
 90
        5
176
     1
 90
        0
176
     1
 90
        0
176
     1
290
     0
176
     1
 90
        1
176
     1
 40
0.0
176
     1
 90
        0
176
     1
290
     0
176
     1
290
     1
176
     1
290
     1
176
     1
290
     0
176
     1
290
     0
176
     1
290
     0
176
     1
290
     0
176
     1
290
     0
176
     1
290
     0
176
     1
 90
       50
176
     1
 40
0.0
176
     1
 40
1.0
176
     1
 90
        0
176
     1
 62
    18
420
        0
176
     1
 90
       50
176
     1
 90
        3
176
     1
 62
     5
420
      255
176
     1
290
     0
176
     1
 90
       50
176
     1
 90
       50
176
     1
 90
       50
176
     1
290
     0
176
     1
 90
       50
176
     1
 62
   256
176
     0
 40
1.0
176
     0
 90
        2
176
     1
  1
strokes_ogs.tif
176
     1
290
     0
176
     1
 40
1.0
176
     1
 40
1.0
176
     1
  0
VISUALSTYLE
  5
30
102
{ACAD_REACTORS
330
2A
102
}
330
2A
100
AcDbVisualStyle
  2
Wireframe
 70
     5
177
     3
291
     0
 70
    58
 90
        0
176
     1
 90
        2
176
     1
 90
        0
176
     1
 90
        0
176
     1
 40
0.6
176
     1
 40
30.0
176
     1
 62
     7
420
 16777215
176
     1
 90
        1
176
     1
 90
        4
176
     1
 62
     7
176
     1
 62
   257
176
     1
 90
        1
176
     1
 90
        1
176
     1
 40
1.0
176
     1
 90
        0
176
     1
 62
   257
176
     1
 40
1.0
176
     1
 90
        1
176
     1
 90
        6
176
     1
 90
        2
176
     1
 62
     7
176
     1
 90
        3
176
     1
 90
        0
176
     1
 90
        0
176
     1
290
     0
176
     1
 90
        1
176
     1
 40
0.0
176
     1
 90
        0
176
     1
290
     0
176
     1
290
     1
176
     1
290
     1
176
     1
290
     0
176
     1
290
     0
176
     1
290
     0
176
     1
290
     0
176
     1
290
     0
176
     1
290
     0
176
     1
 90
       50
176
     1
 40
0.0
176
     1
 40
1.0
176
     1
 90
        0
176
     1
 62
    18
420
        0
176
     1
 90
       50
176
     1
 90
        3
176
     1
 62
     5
420
      255
176
     1
290
     0
176
     1
 90
       50
176
     1
 90
       50
176
     1
 90
       50
176
     1
290
     0
176
     1
 90
       50
176
     1
 62
   256
176
     0
 40
1.0
176
     0
 90
        2
176
     1
  1
strokes_ogs.tif
176
     1
290
     0
176
     1
 40
1.0
176
     1
 40
1.0
176
     1
  0
VISUALSTYLE
  5
40
102
{ACAD_REACTORS
330
2A
102
}
330
2A
100
AcDbVisualStyle
  2
X-Ray
 70
    25
177
     3
291
     0
 70
    58
 90
        2
176
     1
 90
        2
176
     1
 90
        1
176
     1
 90
        1
176
     1
 40
0.5
176
     1
 40
30.0
176
     1
 62
     7
420
 16777215
176
     1
 90
        1
176
     1
 90
        0
176
     1
 62
     7
176
     1
 62
   257
176
     1
 90
        1
176
     1
 90
        1
176
     1
 40
1.0
176
     1
 90
        8
176
     1
 62
     7
176
     1
 40
1.0
176
     1
 90
        1
176
     1
 90
        6
176
     1
 90
        2
176
     1
 62
     7
176
     1
 90
        3
176
     1
 90
        0
176
     1
 90
        0
176
     1
290
     0
176
     1
 90
       13
176
     1
 40
0.0
176
     1
 90
        0
176
     1
290
     0
176
     1
290
     1
176
     1
290
     1
176
     1
290
     0
176
     1
290
     0
176
     1
290
     0
176
     1
290
     0
176
     1
290
     0
176
     1
290
     0
176
     1
 90
       50
176
     1
 40
0.0
176
     1
 40
1.0
176
     1
 90
        0
176
     1
 62
    18
420
        0
176
     1
 90
       50
176
     1
 90
        3
176
     1
 62
     5
420
      255
176
     1
290
     0
176
     1
 90
       50
176
     1
 90
       50
176
     1
 90
       50
176
     1
290
     0
176
     1
 90
       50
176
     1
 62
   256
176
     0
 40
1.0
176
     0
 90
        2
176
     1
  1
strokes_ogs.tif
176
     1
290
     0
176
     1
 40
1.0
176
     1
 40
1.0
176
     1
  0
DICTIONARYVAR
  5
22E
102
{ACAD_REACTORS
330
22D
102
}
330
22D
100
DictionaryVariables
280
     0
  1
1:1
  0
DICTIONARYVAR
  5
233
102
{ACAD_REACTORS
330
22D
102
}
330
22D
100
DictionaryVariables
280
     0
  1
Standard
  0
DICTIONARYVAR
  5
232
102
{ACAD_REACTORS
330
22D
102
}
330
22D
100
DictionaryVariables
280
     0
  1
Standard
  0
DICTIONARY
  5
22F
330
6A
100
AcDbDictionary
280
     1
281
     1
  3
ACAD_ROUNDTRIP_2008_TABLESTYLE_CELLSTYLEMAP
360
230
  0
CELLSTYLEMAP
  5
230
102
{ACAD_REACTORS
330
22F
102
}
330
22F
100
AcDbCellStyleMap
 90
        3
300
CELLSTYLE
  1
TABLEFORMAT_BEGIN
 90
        5
170
     1
 91
        0
 92
    32768
 62
   257
 93
        1
300
CONTENTFORMAT
  1
CONTENTFORMAT_BEGIN
 90
        0
 91
        0
 92
        4
 93
        0
300

 40
0.0
140
1.0
 94
        5
 62
     0
340
11
144
0.25
309
CONTENTFORMAT_END
171
     1
301
MARGIN
  1
CELLMARGIN_BEGIN
 40
0.06
 40
0.06
 40
0.06
 40
0.06
 40
0.06
 40
0.06
309
CELLMARGIN_END
 94
        6
 95
        1
302
GRIDFORMAT
  1
GRIDFORMAT_BEGIN
 90
        0
 91
        1
 62
     0
 92
       -2
340
14
 93
        0
 40
0.045
309
GRIDFORMAT_END
 95
        2
302
GRIDFORMAT
  1
GRIDFORMAT_BEGIN
 90
        0
 91
        1
 62
     0
 92
       -2
340
14
 93
        0
 40
0.045
309
GRIDFORMAT_END
 95
        4
302
GRIDFORMAT
  1
GRIDFORMAT_BEGIN
 90
        0
 91
        1
 62
     0
 92
       -2
340
14
 93
        0
 40
0.045
309
GRIDFORMAT_END
 95
        8
302
GRIDFORMAT
  1
GRIDFORMAT_BEGIN
 90
        0
 91
        1
 62
     0
 92
       -2
340
14
 93
        0
 40
0.045
309
GRIDFORMAT_END
 95
       16
302
GRIDFORMAT
  1
GRIDFORMAT_BEGIN
 90
        0
 91
        1
 62
     0
 92
       -2
340
14
 93
        0
 40
0.045
309
GRIDFORMAT_END
 95
       32
302
GRIDFORMAT
  1
GRIDFORMAT_BEGIN
 90
        0
 91
        1
 62
     0
 92
       -2
340
14
 93
        0
 40
0.045
309
GRIDFORMAT_END
309
TABLEFORMAT_END
  1
CELLSTYLE_BEGIN
 90
        1
 91
        1
300
_TITLE
309
CELLSTYLE_END
300
CELLSTYLE
  1
TABLEFORMAT_BEGIN
 90
        5
170
     1
 91
        0
 92
        0
 62
   257
 93
        1
300
CONTENTFORMAT
  1
CONTENTFORMAT_BEGIN
 90
        0
 91
        0
 92
        4
 93
        0
300

 40
0.0
140
1.0
 94
        5
 62
     0
340
11
144
0.18
309
CONTENTFORMAT_END
171
     1
301
MARGIN
  1
CELLMARGIN_BEGIN
 40
0.06
 40
0.06
 40
0.06
 40
0.06
 40
0.06
 40
0.06
309
CELLMARGIN_END
 94
        6
 95
        1
302
GRIDFORMAT
  1
GRIDFORMAT_BEGIN
 90
        0
 91
        1
 62
     0
 92
       -2
340
14
 93
        0
 40
0.045
309
GRIDFORMAT_END
 95
        2
302
GRIDFORMAT
  1
GRIDFORMAT_BEGIN
 90
        0
 91
        1
 62
     0
 92
       -2
340
14
 93
        0
 40
0.045
309
GRIDFORMAT_END
 95
        4
302
GRIDFORMAT
  1
GRIDFORMAT_BEGIN
 90
        0
 91
        1
 62
     0
 92
       -2
340
14
 93
        0
 40
0.045
309
GRIDFORMAT_END
 95
        8
302
GRIDFORMAT
  1
GRIDFORMAT_BEGIN
 90
        0
 91
        1
 62
     0
 92
       -2
340
14
 93
        0
 40
0.045
309
GRIDFORMAT_END
 95
       16
302
GRIDFORMAT
  1
GRIDFORMAT_BEGIN
 90
        0
 91
        1
 62
     0
 92
       -2
340
14
 93
        0
 40
0.045
309
GRIDFORMAT_END
 95
       32
302
GRIDFORMAT
  1
GRIDFORMAT_BEGIN
 90
        0
 91
        1
 62
     0
 92
       -2
340
14
 93
        0
 40
0.045
309
GRIDFORMAT_END
309
TABLEFORMAT_END
  1
CELLSTYLE_BEGIN
 90
        2
 91
        1
300
_HEADER
309
CELLSTYLE_END
300
CELLSTYLE
  1
TABLEFORMAT_BEGIN
 90
        5
170
     1
 91
        0
 92
        0
 62
   257
 93
        1
300
CONTENTFORMAT
  1
CONTENTFORMAT_BEGIN
 90
        0
 91
        0
 92
        4
 93
        0
300

 40
0.0
140
1.0
 94
        2
 62
     0
340
11
144
0.18
309
CONTENTFORMAT_END
171
     1
301
MARGIN
  1
CELLMARGIN_BEGIN
 40
0.06
 40
0.06
 40
0.06
 40
0.06
 40
0.06
 40
0.06
309
CELLMARGIN_END
 94
        6
 95
        1
302
GRIDFORMAT
  1
GRIDFORMAT_BEGIN
 90
        0
 91
        1
 62
     0
 92
       -2
340
14
 93
        0
 40
0.045
309
GRIDFORMAT_END
 95
        2
302
GRIDFORMAT
  1
GRIDFORMAT_BEGIN
 90
        0
 91
        1
 62
     0
 92
       -2
340
14
 93
        0
 40
0.045
309
GRIDFORMAT_END
 95
        4
302
GRIDFORMAT
  1
GRIDFORMAT_BEGIN
 90
        0
 91
        1
 62
     0
 92
       -2
340
14
 93
        0
 40
0.045
309
GRIDFORMAT_END
 95
        8
302
GRIDFORMAT
  1
GRIDFORMAT_BEGIN
 90
        0
 91
        1
 62
     0
 92
       -2
340
14
 93
        0
 40
0.045
309
GRIDFORMAT_END
 95
       16
302
GRIDFORMAT
  1
GRIDFORMAT_BEGIN
 90
        0
 91
        1
 62
     0
 92
       -2
340
14
 93
        0
 40
0.045
309
GRIDFORMAT_END
 95
       32
302
GRIDFORMAT
  1
GRIDFORMAT_BEGIN
 90
        0
 91
        1
 62
     0
 92
       -2
340
14
 93
        0
 40
0.045
309
GRIDFORMAT_END
309
TABLEFORMAT_END
  1
CELLSTYLE_BEGIN
 90
        3
 91
        2
300
_DATA
309
CELLSTYLE_END
  0
ENDSEC
  0
EOF