0
SECTION
  2
HEADER
  9
$ACADVER
  1
AC1027
  9
$ACADMAINTVER
 70
     8
  9
$DWGCODEPAGE
  3
ANSI_1252
  9
$REQUIREDVERSIONS
160
                 0
  9
$COMMENTS
  1
File was created by Cadenas
  9
$CUSTOMPROPERTYTAG
  1
NN
  9
$CUSTOMPROPERTY
  1
Grip Tight Narrow Slot Take Up Inch Bore
  9
$CUSTOMPROPERTYTAG
  1
NT
  9
$CUSTOMPROPERTY
  1
GT Normal Duty Narrow Slot Take-Up Bearings
  9
$CUSTOMPROPERTYTAG
  1
NB
  9
$CUSTOMPROPERTY
  1
136113
  9
$CUSTOMPROPERTYTAG
  1
NBSYN
  9
$CUSTOMPROPERTY
  1
$PN.
  9
$CUSTOMPROPERTYTAG
  1
LINA
  9
$CUSTOMPROPERTY
  1
136113
  9
$CUSTOMPROPERTYTAG
  1
SERIES
  9
$CUSTOMPROPERTY
  1
205
  9
$CUSTOMPROPERTYTAG
  1
SS
  9
$CUSTOMPROPERTY
  1
1
  9
$CUSTOMPROPERTYTAG
  1
PN
  9
$CUSTOMPROPERTY
  1
136113
  9
$CUSTOMPROPERTYTAG
  1
DESCRIPTION
  9
$CUSTOMPROPERTY
  1
NSTU-GT-100
  9
$CUSTOMPROPERTYTAG
  1
PNSL
  9
$CUSTOMPROPERTY
  1
136211
  9
$CUSTOMPROPERTYTAG
  1
DESCRIPTIONSL
  9
$CUSTOMPROPERTY
  1
NSTU-GT-05
  9
$CUSTOMPROPERTYTAG
  1
PNA
  9
$CUSTOMPROPERTY
  1
136524
  9
$CUSTOMPROPERTYTAG
  1
DESCRIPTIONA
  9
$CUSTOMPROPERTY
  1
AN-GT-05-100-D
  9
$CUSTOMPROPERTYTAG
  1
W
  9
$CUSTOMPROPERTY
  1
1.5
  9
$CUSTOMPROPERTYTAG
  1
TUFS
  9
$CUSTOMPROPERTY
  1
NS210
  9
$CUSTOMPROPERTYTAG
  1
A
  9
$CUSTOMPROPERTY
  1
1.46
  9
$CUSTOMPROPERTYTAG
  1
B
  9
$CUSTOMPROPERTY
  1
3.56
  9
$CUSTOMPROPERTYTAG
  1
C
  9
$CUSTOMPROPERTY
  1
0.250
  9
$CUSTOMPROPERTYTAG
  1
D
  9
$CUSTOMPROPERTY
  1
1.50
  9
$CUSTOMPROPERTYTAG
  1
E
  9
$CUSTOMPROPERTY
  1
2.19
  9
$CUSTOMPROPERTYTAG
  1
F
  9
$CUSTOMPROPERTY
  1
3/4
  9
$CUSTOMPROPERTYTAG
  1
G
  9
$CUSTOMPROPERTY
  1
0.44
  9
$CUSTOMPROPERTYTAG
  1
H
  9
$CUSTOMPROPERTY
  1
0.88
  9
$CUSTOMPROPERTYTAG
  1
J
  9
$CUSTOMPROPERTY
  1
1.38
  9
$CUSTOMPROPERTYTAG
  1
L
  9
$CUSTOMPROPERTY
  1
1.80
  9
$CUSTOMPROPERTYTAG
  1
M
  9
$CUSTOMPROPERTY
  1
2.635/2.605
  9
$CUSTOMPROPERTYTAG
  1
N
  9
$CUSTOMPROPERTY
  1
3.13
  9
$CUSTOMPROPERTYTAG
  1
P
  9
$CUSTOMPROPERTY
  1
0.32
  9
$CUSTOMPROPERTYTAG
  1
R
  9
$CUSTOMPROPERTY
  1
0.48
  9
$CUSTOMPROPERTYTAG
  1
S
  9
$CUSTOMPROPERTY
  1
0.98
  9
$CUSTOMPROPERTYTAG
  1
Z
  9
$CUSTOMPROPERTY
  1
1.00
  9
$CUSTOMPROPERTYTAG
  1
CAPS
  9
$CUSTOMPROPERTY
  1
1565
  9
$CUSTOMPROPERTYTAG
  1
CAPD
  9
$CUSTOMPROPERTY
  1
3146
  9
$CUSTOMPROPERTYTAG
  1
COMPANY
  9
$CUSTOMPROPERTY
  1
baldor
  9
$INSBASE
 10
0.0
 20
0.0
 30
0.0
  9
$EXTMIN
 10
1.000000000000000E+20
 20
1.000000000000000E+20
 30
1.000000000000000E+20
  9
$EXTMAX
 10
-1.000000000000000E+20
 20
-1.000000000000000E+20
 30
-1.000000000000000E+20
  9
$LIMMIN
 10
0.0
 20
0.0
  9
$LIMMAX
 10
12.0
 20
9.0
  9
$ORTHOMODE
 70
     0
  9
$REGENMODE
 70
     1
  9
$FILLMODE
 70
     1
  9
$QTEXTMODE
 70
     0
  9
$MIRRTEXT
 70
     1
  9
$LTSCALE
 40
1.0
  9
$ATTMODE
 70
     1
  9
$TEXTSIZE
 40
0.2
  9
$TRACEWID
 40
0.05
  9
$TEXTSTYLE
  7
Standard
  9
$CLAYER
  8
0
  9
$CELTYPE
  6
ByLayer
  9
$CECOLOR
 62
   256
  9
$CELTSCALE
 40
1.0
  9
$DISPSILH
 70
     0
  9
$DIMSCALE
 40
1.0
  9
$DIMASZ
 40
0.18
  9
$DIMEXO
 40
0.0625
  9
$DIMDLI
 40
0.38
  9
$DIMRND
 40
0.0
  9
$DIMDLE
 40
0.0
  9
$DIMEXE
 40
0.18
  9
$DIMTP
 40
0.0
  9
$DIMTM
 40
0.0
  9
$DIMTXT
 40
0.18
  9
$DIMCEN
 40
0.09
  9
$DIMTSZ
 40
0.0
  9
$DIMTOL
 70
     0
  9
$DIMLIM
 70
     0
  9
$DIMTIH
 70
     1
  9
$DIMTOH
 70
     1
  9
$DIMSE1
 70
     0
  9
$DIMSE2
 70
     0
  9
$DIMTAD
 70
     0
  9
$DIMZIN
 70
     0
  9
$DIMBLK
  1

  9
$DIMASO
 70
     1
  9
$DIMSHO
 70
     1
  9
$DIMPOST
  1

  9
$DIMAPOST
  1

  9
$DIMALT
 70
     0
  9
$DIMALTD
 70
     2
  9
$DIMALTF
 40
25.4
  9
$DIMLFAC
 40
1.0
  9
$DIMTOFL
 70
     0
  9
$DIMTVP
 40
0.0
  9
$DIMTIX
 70
     0
  9
$DIMSOXD
 70
     0
  9
$DIMSAH
 70
     0
  9
$DIMBLK1
  1

  9
$DIMBLK2
  1

  9
$DIMSTYLE
  2
Standard
  9
$DIMCLRD
 70
     0
  9
$DIMCLRE
 70
     0
  9
$DIMCLRT
 70
     0
  9
$DIMTFAC
 40
1.0
  9
$DIMGAP
 40
0.09
  9
$DIMJUST
 70
     0
  9
$DIMSD1
 70
     0
  9
$DIMSD2
 70
     0
  9
$DIMTOLJ
 70
     1
  9
$DIMTZIN
 70
     0
  9
$DIMALTZ
 70
     0
  9
$DIMALTTZ
 70
     0
  9
$DIMUPT
 70
     0
  9
$DIMDEC
 70
     4
  9
$DIMTDEC
 70
     4
  9
$DIMALTU
 70
     2
  9
$DIMALTTD
 70
     2
  9
$DIMTXSTY
  7
Standard
  9
$DIMAUNIT
 70
     0
  9
$DIMADEC
 70
     0
  9
$DIMALTRND
 40
0.0
  9
$DIMAZIN
 70
     0
  9
$DIMDSEP
 70
    46
  9
$DIMATFIT
 70
     3
  9
$DIMFRAC
 70
     0
  9
$DIMLDRBLK
  1

  9
$DIMLUNIT
 70
     2
  9
$DIMLWD
 70
    -2
  9
$DIMLWE
 70
    -2
  9
$DIMTMOVE
 70
     0
  9
$DIMFXL
 40
1.0
  9
$DIMFXLON
 70
     0
  9
$DIMJOGANG
 40
0.7853981633974483
  9
$DIMTFILL
 70
     0
  9
$DIMTFILLCLR
 70
     0
  9
$DIMARCSYM
 70
     0
  9
$DIMLTYPE
  6

  9
$DIMLTEX1
  6

  9
$DIMLTEX2
  6

  9
$DIMTXTDIRECTION
 70
     0
  9
$LUNITS
 70
     2
  9
$LUPREC
 70
     4
  9
$SKETCHINC
 40
0.1
  9
$FILLETRAD
 40
0.5
  9
$AUNITS
 70
     0
  9
$AUPREC
 70
     0
  9
$MENU
  1
.
  9
$ELEVATION
 40
0.0
  9
$PELEVATION
 40
0.0
  9
$THICKNESS
 40
0.0
  9
$LIMCHECK
 70
     0
  9
$CHAMFERA
 40
0.0
  9
$CHAMFERB
 40
0.0
  9
$CHAMFERC
 40
0.0
  9
$CHAMFERD
 40
0.0
  9
$SKPOLY
 70
     0
  9
$TDCREATE
 40
2458168.964609386
  9
$TDUCREATE
 40
2458168.92294272
  9
$TDUPDATE
 40
2458168.96460956
  9
$TDUUPDATE
 40
2458168.922942894
  9
$TDINDWG
 40
0.0000000116
  9
$TDUSRTIMER
 40
0.0000000116
  9
$USRTIMER
 70
     1
  9
$ANGBASE
 50
0.0
  9
$ANGDIR
 70
     0
  9
$PDMODE
 70
     0
  9
$PDSIZE
 40
0.0
  9
$PLINEWID
 40
0.0
  9
$SPLFRAME
 70
     0
  9
$SPLINETYPE
 70
     6
  9
$SPLINESEGS
 70
     8
  9
$HANDSEED
  5
234
  9
$SURFTAB1
 70
     6
  9
$SURFTAB2
 70
     6
  9
$SURFTYPE
 70
     6
  9
$SURFU
 70
     6
  9
$SURFV
 70
     6
  9
$UCSBASE
  2

  9
$UCSNAME
  2

  9
$UCSORG
 10
0.0
 20
0.0
 30
0.0
  9
$UCSXDIR
 10
1.0
 20
0.0
 30
0.0
  9
$UCSYDIR
 10
0.0
 20
1.0
 30
0.0
  9
$UCSORTHOREF
  2

  9
$UCSORTHOVIEW
 70
     0
  9
$UCSORGTOP
 10
0.0
 20
0.0
 30
0.0
  9
$UCSORGBOTTOM
 10
0.0
 20
0.0
 30
0.0
  9
$UCSORGLEFT
 10
0.0
 20
0.0
 30
0.0
  9
$UCSORGRIGHT
 10
0.0
 20
0.0
 30
0.0
  9
$UCSORGFRONT
 10
0.0
 20
0.0
 30
0.0
  9
$UCSORGBACK
 10
0.0
 20
0.0
 30
0.0
  9
$PUCSBASE
  2

  9
$PUCSNAME
  2

  9
$PUCSORG
 10
0.0
 20
0.0
 30
0.0
  9
$PUCSXDIR
 10
1.0
 20
0.0
 30
0.0
  9
$PUCSYDIR
 10
0.0
 20
1.0
 30
0.0
  9
$PUCSORTHOREF
  2

  9
$PUCSORTHOVIEW
 70
     0
  9
$PUCSORGTOP
 10
0.0
 20
0.0
 30
0.0
  9
$PUCSORGBOTTOM
 10
0.0
 20
0.0
 30
0.0
  9
$PUCSORGLEFT
 10
0.0
 20
0.0
 30
0.0
  9
$PUCSORGRIGHT
 10
0.0
 20
0.0
 30
0.0
  9
$PUCSORGFRONT
 10
0.0
 20
0.0
 30
0.0
  9
$PUCSORGBACK
 10
0.0
 20
0.0
 30
0.0
  9
$USERI1
 70
     0
  9
$USERI2
 70
     0
  9
$USERI3
 70
     0
  9
$USERI4
 70
     0
  9
$USERI5
 70
     0
  9
$USERR1
 40
0.0
  9
$USERR2
 40
0.0
  9
$USERR3
 40
0.0
  9
$USERR4
 40
0.0
  9
$USERR5
 40
0.0
  9
$WORLDVIEW
 70
     1
  9
$SHADEDGE
 70
     3
  9
$SHADEDIF
 70
    70
  9
$TILEMODE
 70
     1
  9
$MAXACTVP
 70
    64
  9
$PINSBASE
 10
0.0
 20
0.0
 30
0.0
  9
$PLIMCHECK
 70
     0
  9
$PEXTMIN
 10
1.000000000000000E+20
 20
1.000000000000000E+20
 30
1.000000000000000E+20
  9
$PEXTMAX
 10
-1.000000000000000E+20
 20
-1.000000000000000E+20
 30
-1.000000000000000E+20
  9
$PLIMMIN
 10
0.0
 20
0.0
  9
$PLIMMAX
 10
12.0
 20
9.0
  9
$UNITMODE
 70
     0
  9
$VISRETAIN
 70
     1
  9
$PLINEGEN
 70
     0
  9
$PSLTSCALE
 70
     1
  9
$TREEDEPTH
 70
  3020
  9
$CMLSTYLE
  2
Standard
  9
$CMLJUST
 70
     0
  9
$CMLSCALE
 40
1.0
  9
$PROXYGRAPHICS
 70
     1
  9
$MEASUREMENT
 70
     0
  9
$CELWEIGHT
370
    -1
  9
$ENDCAPS
280
     0
  9
$JOINSTYLE
280
     0
  9
$LWDISPLAY
290
     0
  9
$INSUNITS
 70
     1
  9
$HYPERLINKBASE
  1

  9
$STYLESHEET
  1

  9
$XEDIT
290
     1
  9
$CEPSNTYPE
380
     0
  9
$PSTYLEMODE
290
     1
  9
$FINGERPRINTGUID
  2
{77959EE1-50AE-4ECB-A4A6-695215A6FCAA}
  9
$VERSIONGUID
  2
{FAEB1C32-E019-11D5-929B-00C0DF256EC4}
  9
$EXTNAMES
290
     1
  9
$PSVPSCALE
 40
0.0
  9
$OLESTARTUP
290
     0
  9
$SORTENTS
280
   127
  9
$INDEXCTL
280
     0
  9
$HIDETEXT
280
     1
  9
$XCLIPFRAME
280
     2
  9
$HALOGAP
280
     0
  9
$OBSCOLOR
 70
   257
  9
$OBSLTYPE
280
     0
  9
$INTERSECTIONDISPLAY
280
     0
  9
$INTERSECTIONCOLOR
 70
   257
  9
$DIMASSOC
280
     2
  9
$PROJECTNAME
  1

  9
$CAMERADISPLAY
290
     0
  9
$LENSLENGTH
 40
50.0
  9
$CAMERAHEIGHT
 40
0.0
  9
$STEPSPERSEC
 40
2.0
  9
$STEPSIZE
 40
6.0
  9
$3DDWFPREC
 40
2.0
  9
$PSOLWIDTH
 40
0.25
  9
$PSOLHEIGHT
 40
4.0
  9
$LOFTANG1
 40
1.570796326794897
  9
$LOFTANG2
 40
1.570796326794897
  9
$LOFTMAG1
 40
0.0
  9
$LOFTMAG2
 40
0.0
  9
$LOFTPARAM
 70
     7
  9
$LOFTNORMALS
280
     1
  9
$LATITUDE
 40
37.795
  9
$LONGITUDE
 40
-122.394
  9
$NORTHDIRECTION
 40
0.0
  9
$TIMEZONE
 70
 -8000
  9
$LIGHTGLYPHDISPLAY
280
     1
  9
$TILEMODELIGHTSYNCH
280
     1
  9
$CMATERIAL
347
44
  9
$SOLIDHIST
280
     0
  9
$SHOWHIST
280
     1
  9
$DWFFRAME
280
     2
  9
$DGNFRAME
280
     2
  9
$REALWORLDSCALE
290
     1
  9
$INTERFERECOLOR
 62
   256
  9
$CSHADOW
280
     0
  9
$SHADOWPLANELOCATION
 40
0.0
  0
ENDSEC
  0
SECTION
  2
CLASSES
  0
CLASS
  1
ACDBDICTIONARYWDFLT
  2
AcDbDictionaryWithDefault
  3
ObjectDBX Classes
 90
        0
 91
        4
280
     0
281
     0
  0
CLASS
  1
VISUALSTYLE
  2
AcDbVisualStyle
  3
ObjectDBX Classes
 90
     4095
 91
        4
280
     0
281
     0
  0
CLASS
  1
MATERIAL
  2
AcDbMaterial
  3
ObjectDBX Classes
 90
     1153
 91
        4
280
     0
281
     0
  0
CLASS
  1
SCALE
  2
AcDbScale
  3
ObjectDBX Classes
 90
     1153
 91
        4
280
     0
281
     0
  0
CLASS
  1
TABLESTYLE
  2
AcDbTableStyle
  3
ObjectDBX Classes
 90
     4095
 91
        4
280
     0
281
     0
  0
CLASS
  1
MLEADERSTYLE
  2
AcDbMLeaderStyle
  3
ACDB_MLEADERSTYLE_CLASS
 90
     4095
 91
        4
280
     0
281
     0
  0
CLASS
  1
SUN
  2
AcDbSun
  3
SCENEOE
 90
     1153
 91
        4
280
     0
281
     0
  0
CLASS
  1
DICTIONARYVAR
  2
AcDbDictionaryVar
  3
ObjectDBX Classes
 90
        0
 91
        4
280
     0
281
     0
  0
CLASS
  1
CELLSTYLEMAP
  2
AcDbCellStyleMap
  3
ObjectDBX Classes
 90
     1152
 91
        4
280
     0
281
     0
  0
ENDSEC
  0
SECTION
  2
TABLES
  0
TABLE
  2
VPORT
  5
8
330
0
100
AcDbSymbolTable
 70
     1
  0
VPORT
  5
29
330
8
100
AcDbSymbolTableRecord
100
AcDbViewportTableRecord
  2
*Active
 70
     0
 10
0.0
 20
0.0
 11
1.0
 21
1.0
 12
0.2476511624150621
 22
-0.1475
 13
0.0
 23
0.0
 14
0.5
 24
0.5
 15
0.5
 25
0.5
 16
0.0
 26
0.0
 36
1.0
 17
0.0
 27
0.0
 37
0.0
 40
1.849260000000001
 41
2.201510024914442
 42
50.0
 43
0.0
 44
0.0
 50
0.0
 51
0.0
 71
     0
 72
   100
 73
     1
 74
     3
 75
     0
 76
     0
 77
     0
 78
     0
281
     0
 65
     1
110
0.0
120
0.0
130
0.0
111
1.0
121
0.0
131
0.0
112
0.0
122
1.0
132
0.0
 79
     0
146
0.0
348
2F
 60
     3
 61
     5
292
     1
282
     1
141
0.0
142
0.0
 63
   250
361
6D
  0
ENDTAB
  0
TABLE
  2
LTYPE
  5
5
330
0
100
AcDbSymbolTable
 70
     3
  0
LTYPE
  5
14
330
5
100
AcDbSymbolTableRecord
100
AcDbLinetypeTableRecord
  2
ByBlock
 70
     0
  3

 72
    65
 73
     0
 40
0.0
  0
LTYPE
  5
15
330
5
100
AcDbSymbolTableRecord
100
AcDbLinetypeTableRecord
  2
ByLayer
 70
     0
  3

 72
    65
 73
     0
 40
0.0
  0
LTYPE
  5
16
330
5
100
AcDbSymbolTableRecord
100
AcDbLinetypeTableRecord
  2
Continuous
 70
     0
  3
Solid line
 72
    65
 73
     0
 40
0.0
  0
LTYPE
  5
A6
330
5
100
AcDbSymbolTableRecord
100
AcDbLinetypeTableRecord
  2
Dashed
 70
     0
  3

 72
    65
 73
     2
 40
2.0
 49
1.0
 74
     0
 49
-1.0
 74
     0
  0
LTYPE
  5
197
330
5
100
AcDbSymbolTableRecord
100
AcDbLinetypeTableRecord
  2
Center
 70
     0
  3

 72
    65
 73
     4
 40
1.5
 49
0.45
 74
     0
 49
-0.5
 74
     0
 49
0.05
 74
     0
 49
-0.5
 74
     0
  0
ENDTAB
  0
TABLE
  2
LAYER
  5
2
330
0
100
AcDbSymbolTable
 70
     7
  0
LAYER
  5
10
330
2
100
AcDbSymbolTableRecord
100
AcDbLayerTableRecord
  2
0
 70
     0
 62
     7
  6
Continuous
370
    -3
390
F
347
46
348
0
  0
LAYER
  5
72
330
2
100
AcDbSymbolTableRecord
100
AcDbLayerTableRecord
  2
AM_6
 70
     0
 62
    -2
  6
Continuous
370
    35
390
F
347
46
348
0
  0
LAYER
  5
A7
330
2
100
AcDbSymbolTableRecord
100
AcDbLayerTableRecord
  2
AM_9
 70
     0
 62
     6
  6
Dashed
370
    25
390
F
347
46
348
0
  0
LAYER
  5
E4
330
2
100
AcDbSymbolTableRecord
100
AcDbLayerTableRecord
  2
AM_4
 70
     0
 62
     7
  6
Continuous
370
    50
390
F
347
46
348
0
  0
LAYER
  5
198
330
2
100
AcDbSymbolTableRecord
100
AcDbLayerTableRecord
  2
AM_7
 70
     0
 62
     7
  6
Center
370
    25
390
F
347
46
348
0
  0
LAYER
  5
1B8
330
2
100
AcDbSymbolTableRecord
100
AcDbLayerTableRecord
  2
AM_5
 70
     0
 62
     3
  6
Continuous
370
    25
390
F
347
46
348
0
  0
LAYER
  5
223
330
2
100
AcDbSymbolTableRecord
100
AcDbLayerTableRecord
  2
ConnectionPoints
 70
     0
 62
     7
  6
Continuous
370
    50
390
F
347
46
348
0
  0
ENDTAB
  0
TABLE
  2
STYLE
  5
3
330
0
100
AcDbSymbolTable
 70
     1
  0
STYLE
  5
11
330
3
100
AcDbSymbolTableRecord
100
AcDbTextStyleTableRecord
  2
Standard
 70
     0
 40
0.0
 41
1.0
 50
0.0
 71
     0
 42
0.2
  3
txt
  4

  0
ENDTAB
  0
TABLE
  2
VIEW
  5
6
330
0
100
AcDbSymbolTable
 70
     0
  0
ENDTAB
  0
TABLE
  2
UCS
  5
7
330
0
100
AcDbSymbolTable
 70
     0
  0
ENDTAB
  0
TABLE
  2
APPID
  5
9
330
0
100
AcDbSymbolTable
 70
     1
  0
APPID
  5
12
330
9
100
AcDbSymbolTableRecord
100
AcDbRegAppTableRecord
  2
ACAD
 70
     0
  0
ENDTAB
  0
TABLE
  2
DIMSTYLE
  5
A
330
0
100
AcDbSymbolTable
 70
     1
100
AcDbDimStyleTable
  0
DIMSTYLE
105
27
330
A
100
AcDbSymbolTableRecord
100
AcDbDimStyleTableRecord
  2
Standard
 70
     0
178
     0
340
11
  0
ENDTAB
  0
TABLE
  2
BLOCK_RECORD
  5
1
330
0
100
AcDbSymbolTable
 70
     6
  0
BLOCK_RECORD
  5
1F
330
1
100
AcDbSymbolTableRecord
100
AcDbBlockTableRecord
  2
*Model_Space
340
22
 70
     0
280
     1
281
     0
  0
BLOCK_RECORD
  5
1B
330
1
100
AcDbSymbolTableRecord
100
AcDbBlockTableRecord
  2
*Paper_Space
340
1E
 70
     0
280
     1
281
     0
  0
BLOCK_RECORD
  5
23
330
1
100
AcDbSymbolTableRecord
100
AcDbBlockTableRecord
  2
*Paper_Space0
340
26
 70
     0
280
     1
281
     0
  0
BLOCK_RECORD
  5
6E
330
1
100
AcDbSymbolTableRecord
100
AcDbBlockTableRecord
  2
1_136113_4
340
0
102
{BLKREFS
331
6F
102
}
 70
     0
280
     1
281
     0
  0
BLOCK_RECORD
  5
95
330
1
100
AcDbSymbolTableRecord
100
AcDbBlockTableRecord
  2
2_405016_Inch_0_in_136113_4
340
0
102
{BLKREFS
331
96
102
}
 70
     0
280
     1
281
     0
  0
BLOCK_RECORD
  5
11C
330
1
100
AcDbSymbolTableRecord
100
AcDbBlockTableRecord
  2
3_129518I_0_in_136113_4
340
0
102
{BLKREFS
331
11D
102
}
 70
     0
280
     1
281
     0
  0
BLOCK_RECORD
  5
15F
330
1
100
AcDbSymbolTableRecord
100
AcDbBlockTableRecord
  2
4_136524_0_in_136113_4
340
0
102
{BLKREFS
331
160
102
}
 70
     0
280
     1
281
     0
  0
BLOCK_RECORD
  5
1BA
330
1
100
AcDbSymbolTableRecord
100
AcDbBlockTableRecord
  2
5_136113h_0_in_136113_4
340
0
102
{BLKREFS
331
1BB
102
}
 70
     0
280
     1
281
     0
  0
ENDTAB
  0
ENDSEC
  0
SECTION
  2
BLOCKS
  0
BLOCK
  5
20
330
1F
100
AcDbEntity
  8
0
100
AcDbBlockBegin
  2
*Model_Space
 70
     0
 10
0.0
 20
0.0
 30
0.0
  3
*Model_Space
  1

  0
ENDBLK
  5
21
330
1F
100
AcDbEntity
  8
0
100
AcDbBlockEnd
  0
BLOCK
  5
1C
330
1B
100
AcDbEntity
 67
     1
  8
0
100
AcDbBlockBegin
  2
*Paper_Space
 70
     0
 10
0.0
 20
0.0
 30
0.0
  3
*Paper_Space
  1

  0
ENDBLK
  5
1D
330
1B
100
AcDbEntity
 67
     1
  8
0
100
AcDbBlockEnd
  0
BLOCK
  5
24
330
23
100
AcDbEntity
  8
0
100
AcDbBlockBegin
  2
*Paper_Space0
 70
     0
 10
0.0
 20
0.0
 30
0.0
  3
*Paper_Space0
  1

  0
ENDBLK
  5
25
330
23
100
AcDbEntity
  8
0
100
AcDbBlockEnd
  0
BLOCK
  5
70
330
6E
100
AcDbEntity
  8
0
100
AcDbBlockBegin
  2
1_136113_4
 70
     2
 10
0.0
 20
0.0
 30
0.0
  3
1_136113_4
  1

  0
ATTDEF
  5
73
330
6E
100
AcDbEntity
  8
AM_6
100
AcDbText
 10
7.243320000000004
 20
0.7589999999999998
 30
0.0
 40
0.5
  1
Grip Tight Narrow Slot Take Up Inch Bore
100
AcDbAttributeDefinition
  3

  2
NN
 70
     8
280
     0
  0
ATTDEF
  5
74
330
6E
100
AcDbEntity
  8
AM_6
100
AcDbText
 10
7.243320000000004
 20
0.2589999999999998
 30
0.0
 40
0.5
  1
GT Normal Duty Narrow Slot Take-Up Bearings
100
AcDbAttributeDefinition
  3

  2
NT
 70
     8
280
     0
  0
ATTDEF
  5
75
330
6E
100
AcDbEntity
  8
AM_6
100
AcDbText
 10
7.243320000000004
 20
-0.2410000000000002
 30
0.0
 40
0.5
  1
136113
100
AcDbAttributeDefinition
  3

  2
NB
 70
     8
280
     0
  0
ATTDEF
  5
76
330
6E
100
AcDbEntity
  8
AM_6
100
AcDbText
 10
7.243320000000004
 20
-0.7410000000000002
 30
0.0
 40
0.5
  1
$PN.
100
AcDbAttributeDefinition
  3

  2
NBSYN
 70
     8
280
     0
  0
ATTDEF
  5
77
330
6E
100
AcDbEntity
  8
AM_6
100
AcDbText
 10
7.243320000000004
 20
-1.241
 30
0.0
 40
0.5
  1
136113
100
AcDbAttributeDefinition
  3

  2
LINA
 70
     8
280
     0
  0
ATTDEF
  5
78
330
6E
100
AcDbEntity
  8
AM_6
100
AcDbText
 10
7.243320000000004
 20
-1.741
 30
0.0
 40
0.5
  1
205
100
AcDbAttributeDefinition
  3

  2
SERIES
 70
     8
280
     0
  0
ATTDEF
  5
79
330
6E
100
AcDbEntity
  8
AM_6
100
AcDbText
 10
7.243320000000004
 20
-2.241
 30
0.0
 40
0.5
  1
1
100
AcDbAttributeDefinition
  3

  2
SS
 70
     8
280
     0
  0
ATTDEF
  5
7A
330
6E
100
AcDbEntity
  8
AM_6
100
AcDbText
 10
7.243320000000004
 20
-2.741
 30
0.0
 40
0.5
  1
136113
100
AcDbAttributeDefinition
  3

  2
PN
 70
     8
280
     0
  0
ATTDEF
  5
7B
330
6E
100
AcDbEntity
  8
AM_6
100
AcDbText
 10
7.243320000000004
 20
-3.241
 30
0.0
 40
0.5
  1
NSTU-GT-100
100
AcDbAttributeDefinition
  3

  2
DESCRIPTION
 70
     8
280
     0
  0
ATTDEF
  5
7C
330
6E
100
AcDbEntity
  8
AM_6
100
AcDbText
 10
7.243320000000004
 20
-3.741
 30
0.0
 40
0.5
  1
136211
100
AcDbAttributeDefinition
  3

  2
PNSL
 70
     8
280
     0
  0
ATTDEF
  5
7D
330
6E
100
AcDbEntity
  8
AM_6
100
AcDbText
 10
7.243320000000004
 20
-4.241
 30
0.0
 40
0.5
  1
NSTU-GT-05
100
AcDbAttributeDefinition
  3

  2
DESCRIPTIONSL
 70
     8
280
     0
  0
ATTDEF
  5
7E
330
6E
100
AcDbEntity
  8
AM_6
100
AcDbText
 10
7.243320000000004
 20
-4.741
 30
0.0
 40
0.5
  1
136524
100
AcDbAttributeDefinition
  3

  2
PNA
 70
     8
280
     0
  0
ATTDEF
  5
7F
330
6E
100
AcDbEntity
  8
AM_6
100
AcDbText
 10
7.243320000000004
 20
-5.241
 30
0.0
 40
0.5
  1
AN-GT-05-100-D
100
AcDbAttributeDefinition
  3

  2
DESCRIPTIONA
 70
     8
280
     0
  0
ATTDEF
  5
80
330
6E
100
AcDbEntity
  8
AM_6
100
AcDbText
 10
7.243320000000004
 20
-5.741
 30
0.0
 40
0.5
  1
1.5
100
AcDbAttributeDefinition
  3

  2
W
 70
     8
280
     0
  0
ATTDEF
  5
81
330
6E
100
AcDbEntity
  8
AM_6
100
AcDbText
 10
7.243320000000004
 20
-6.241
 30
0.0
 40
0.5
  1
NS210
100
AcDbAttributeDefinition
  3

  2
TUFS
 70
     8
280
     0
  0
ATTDEF
  5
82
330
6E
100
AcDbEntity
  8
AM_6
100
AcDbText
 10
7.243320000000004
 20
-6.741
 30
0.0
 40
0.5
  1
1.46
100
AcDbAttributeDefinition
  3

  2
A
 70
     8
280
     0
  0
ATTDEF
  5
83
330
6E
100
AcDbEntity
  8
AM_6
100
AcDbText
 10
7.243320000000004
 20
-7.241
 30
0.0
 40
0.5
  1
3.56
100
AcDbAttributeDefinition
  3

  2
B
 70
     8
280
     0
  0
ATTDEF
  5
84
330
6E
100
AcDbEntity
  8
AM_6
100
AcDbText
 10
7.243320000000004
 20
-7.741
 30
0.0
 40
0.5
  1
0.250
100
AcDbAttributeDefinition
  3

  2
C
 70
     8
280
     0
  0
ATTDEF
  5
85
330
6E
100
AcDbEntity
  8
AM_6
100
AcDbText
 10
7.243320000000004
 20
-8.241
 30
0.0
 40
0.5
  1
1.50
100
AcDbAttributeDefinition
  3

  2
D
 70
     8
280
     0
  0
ATTDEF
  5
86
330
6E
100
AcDbEntity
  8
AM_6
100
AcDbText
 10
7.243320000000004
 20
-8.741
 30
0.0
 40
0.5
  1
2.19
100
AcDbAttributeDefinition
  3

  2
E
 70
     8
280
     0
  0
ATTDEF
  5
87
330
6E
100
AcDbEntity
  8
AM_6
100
AcDbText
 10
7.243320000000004
 20
-9.241
 30
0.0
 40
0.5
  1
3/4
100
AcDbAttributeDefinition
  3

  2
F
 70
     8
280
     0
  0
ATTDEF
  5
88
330
6E
100
AcDbEntity
  8
AM_6
100
AcDbText
 10
7.243320000000004
 20
-9.741
 30
0.0
 40
0.5
  1
0.44
100
AcDbAttributeDefinition
  3

  2
G
 70
     8
280
     0
  0
ATTDEF
  5
89
330
6E
100
AcDbEntity
  8
AM_6
100
AcDbText
 10
7.243320000000004
 20
-10.241
 30
0.0
 40
0.5
  1
0.88
100
AcDbAttributeDefinition
  3

  2
H
 70
     8
280
     0
  0
ATTDEF
  5
8A
330
6E
100
AcDbEntity
  8
AM_6
100
AcDbText
 10
7.243320000000004
 20
-10.741
 30
0.0
 40
0.5
  1
1.38
100
AcDbAttributeDefinition
  3

  2
J
 70
     8
280
     0
  0
ATTDEF
  5
8B
330
6E
100
AcDbEntity
  8
AM_6
100
AcDbText
 10
7.243320000000004
 20
-11.241
 30
0.0
 40
0.5
  1
1.80
100
AcDbAttributeDefinition
  3

  2
L
 70
     8
280
     0
  0
ATTDEF
  5
8C
330
6E
100
AcDbEntity
  8
AM_6
100
AcDbText
 10
7.243320000000004
 20
-11.741
 30
0.0
 40
0.5
  1
2.635/2.605
100
AcDbAttributeDefinition
  3

  2
M
 70
     8
280
     0
  0
ATTDEF
  5
8D
330
6E
100
AcDbEntity
  8
AM_6
100
AcDbText
 10
7.243320000000004
 20
-12.241
 30
0.0
 40
0.5
  1
3.13
100
AcDbAttributeDefinition
  3

  2
N
 70
     8
280
     0
  0
ATTDEF
  5
8E
330
6E
100
AcDbEntity
  8
AM_6
100
AcDbText
 10
7.243320000000004
 20
-12.741
 30
0.0
 40
0.5
  1
0.32
100
AcDbAttributeDefinition
  3

  2
P
 70
     8
280
     0
  0
ATTDEF
  5
8F
330
6E
100
AcDbEntity
  8
AM_6
100
AcDbText
 10
7.243320000000004
 20
-13.241
 30
0.0
 40
0.5
  1
0.48
100
AcDbAttributeDefinition
  3

  2
R
 70
     8
280
     0
  0
ATTDEF
  5
90
330
6E
100
AcDbEntity
  8
AM_6
100
AcDbText
 10
7.243320000000004
 20
-13.741
 30
0.0
 40
0.5
  1
0.98
100
AcDbAttributeDefinition
  3

  2
S
 70
     8
280
     0
  0
ATTDEF
  5
91
330
6E
100
AcDbEntity
  8
AM_6
100
AcDbText
 10
7.243320000000004
 20
-14.241
 30
0.0
 40
0.5
  1
1.00
100
AcDbAttributeDefinition
  3

  2
Z
 70
     8
280
     0
  0
ATTDEF
  5
92
330
6E
100
AcDbEntity
  8
AM_6
100
AcDbText
 10
7.243320000000004
 20
-14.741
 30
0.0
 40
0.5
  1
1565
100
AcDbAttributeDefinition
  3

  2
CAPS
 70
     8
280
     0
  0
ATTDEF
  5
93
330
6E
100
AcDbEntity
  8
AM_6
100
AcDbText
 10
7.243320000000004
 20
-15.241
 30
0.0
 40
0.5
  1
3146
100
AcDbAttributeDefinition
  3

  2
CAPD
 70
     8
280
     0
  0
ATTDEF
  5
94
330
6E
100
AcDbEntity
  8
AM_6
100
AcDbText
 10
7.243320000000004
 20
-15.741
 30
0.0
 40
0.5
  1
baldor
100
AcDbAttributeDefinition
  3

  2
COMPANY
 70
     8
280
     0
  0
INSERT
  5
96
330
6E
100
AcDbEntity
  8
0
100
AcDbBlockReference
  2
2_405016_Inch_0_in_136113_4
 10
0.0
 20
0.0
 30
0.0
  0
INSERT
  5
11D
330
6E
100
AcDbEntity
  8
0
100
AcDbBlockReference
  2
3_129518I_0_in_136113_4
 10
0.0
 20
0.0
 30
0.0
  0
INSERT
  5
160
330
6E
100
AcDbEntity
  8
0
100
AcDbBlockReference
  2
4_136524_0_in_136113_4
 10
0.0
 20
0.0
 30
0.0
  0
INSERT
  5
1BB
330
6E
100
AcDbEntity
  8
0
100
AcDbBlockReference
  2
5_136113h_0_in_136113_4
 10
0.0
 20
0.0
 30
0.0
  0
ENDBLK
  5
71
330
6E
100
AcDbEntity
  8
0
100
AcDbBlockEnd
  0
BLOCK
  5
97
330
95
100
AcDbEntity
  8
0
100
AcDbBlockBegin
  2
2_405016_Inch_0_in_136113_4
 70
     2
 10
0.0
 20
0.0
 30
0.0
  3
2_405016_Inch_0_in_136113_4
  1

  0
ATTDEF
  5
99
330
95
100
AcDbEntity
  8
AM_6
100
AcDbText
 10
4.083820116831776
 20
0.2187500000000006
 30
0.0
 40
0.5
  1
405016 -Inch
100
AcDbAttributeDefinition
  3

  2
NN
 70
     8
280
     0
  0
ATTDEF
  5
9A
330
95
100
AcDbEntity
  8
AM_6
100
AcDbText
 10
4.083820116831776
 20
-0.2812499999999994
 30
0.0
 40
0.5
  1
Grease Fitting
100
AcDbAttributeDefinition
  3

  2
NT
 70
     8
280
     0
  0
ATTDEF
  5
9B
330
95
100
AcDbEntity
  8
AM_6
100
AcDbText
 10
4.083820116831776
 20
-0.7812499999999994
 30
0.0
 40
0.5
  1
405016-Inch
100
AcDbAttributeDefinition
  3

  2
NB
 70
     8
280
     0
  0
ATTDEF
  5
9C
330
95
100
AcDbEntity
  8
AM_6
100
AcDbText
 10
4.083820116831776
 20
-1.28125
 30
0.0
 40
0.5
  1
$MN.-Inch
100
AcDbAttributeDefinition
  3

  2
NBSYN
 70
     8
280
     0
  0
ATTDEF
  5
9D
330
95
100
AcDbEntity
  8
AM_6
100
AcDbText
 10
4.083820116831776
 20
-1.78125
 30
0.0
 40
0.5
  1
405016
100
AcDbAttributeDefinition
  3

  2
LINA
 70
     8
280
     0
  0
ATTDEF
  5
9E
330
95
100
AcDbEntity
  8
AM_6
100
AcDbText
 10
4.083820116831776
 20
-2.28125
 30
0.0
 40
0.5
  1
405016
100
AcDbAttributeDefinition
  3

  2
MN
 70
     8
280
     0
  0
ATTDEF
  5
9F
330
95
100
AcDbEntity
  8
AM_6
100
AcDbText
 10
4.083820116831776
 20
-2.78125
 30
0.0
 40
0.5
  1
7/16 HEX
100
AcDbAttributeDefinition
  3

  2
H
 70
     8
280
     0
  0
ATTDEF
  5
A0
330
95
100
AcDbEntity
  8
AM_6
100
AcDbText
 10
4.083820116831776
 20
-3.28125
 30
0.0
 40
0.5
  1
0.383
100
AcDbAttributeDefinition
  3

  2
NDR
 70
     8
280
     0
  0
ATTDEF
  5
A1
330
95
100
AcDbEntity
  8
AM_6
100
AcDbText
 10
4.083820116831776
 20
-3.78125
 30
0.0
 40
0.5
  1
0.337
100
AcDbAttributeDefinition
  3

  2
KDR
 70
     8
280
     0
  0
ATTDEF
  5
A2
330
95
100
AcDbEntity
  8
AM_6
100
AcDbText
 10
4.083820116831776
 20
-4.28125
 30
0.0
 40
0.5
  1
0.1575
100
AcDbAttributeDefinition
  3

  2
BZE
 70
     8
280
     0
  0
ATTDEF
  5
A3
330
95
100
AcDbEntity
  8
AM_6
100
AcDbText
 10
4.083820116831776
 20
-4.78125
 30
0.0
 40
0.5
  1
0.4375
100
AcDbAttributeDefinition
  3

  2
HEX
 70
     8
280
     0
  0
ATTDEF
  5
A4
330
95
100
AcDbEntity
  8
AM_6
100
AcDbText
 10
4.083820116831776
 20
-5.28125
 30
0.0
 40
0.5
  1
0.281250
100
AcDbAttributeDefinition
  3

  2
HEX2
 70
     8
280
     0
  0
ATTDEF
  5
A5
330
95
100
AcDbEntity
  8
AM_6
100
AcDbText
 10
4.083820116831776
 20
-5.78125
 30
0.0
 40
0.5
  1
baldor
100
AcDbAttributeDefinition
  3

  2
COMPANY
 70
     8
280
     0
  0
LINE
  5
A8
330
95
100
AcDbEntity
  8
AM_9
100
AcDbLine
 10
-1.613322700998764
 20
-0.151074129835757
 30
0.0
 11
-1.624644274222641
 21
-0.1791093260592887
 31
0.0
  0
LINE
  5
A9
330
95
100
AcDbEntity
  8
AM_9
100
AcDbLine
 10
-1.462147854960267
 20
-0.2099962668917053
 30
0.0
 11
-1.473835101179812
 21
-0.2389369657326276
 31
0.0
  0
LWPOLYLINE
  5
AA
330
95
100
AcDbEntity
  8
AM_9
100
AcDbPolyline
 90
        3
 70
     0
 43
0.0
 10
-1.245994049694861
 20
0.1093749999999999
 10
-1.228134399710938
 20
0.0546874999999999
 10
-1.206567435159938
 20
-0.0000000000000001
  0
LWPOLYLINE
  5
AB
330
95
100
AcDbEntity
  8
AM_9
100
AcDbPolyline
 90
        3
 70
     0
 43
0.0
 10
-1.206567435159938
 20
-0.0000000000000001
 10
-1.22804510607756
 20
-0.0544416102741496
 10
-1.245994049694861
 20
-0.109375
  0
LWPOLYLINE
  5
AC
330
95
100
AcDbEntity
  8
AM_9
100
AcDbPolyline
 90
        3
 70
     0
 43
0.0
 10
-1.404217006538177
 20
-0.2987675689889718
 10
-1.420104291101273
 20
-0.2912216284034024
 10
-1.435314292799287
 20
-0.2813919000363599
  0
LWPOLYLINE
  5
AD
330
95
100
AcDbEntity
  8
AM_9
100
AcDbPolyline
 90
        3
 70
     0
 43
0.0
 10
-1.135670438158726
 20
-0.0000000000000001
 10
-1.145624645588001
 20
0.0544416102741495
 10
-1.159391509316418
 20
0.1093749999999999
  0
LWPOLYLINE
  5
AE
330
95
100
AcDbEntity
  8
AM_9
100
AcDbPolyline
 90
        3
 70
     0
 43
0.0
 10
-1.159391509316418
 20
-0.109375
 10
-1.145677316454033
 20
-0.0546875000000001
 10
-1.135670438158726
 20
-0.0000000000000001
  0
LWPOLYLINE
  5
AF
330
95
100
AcDbEntity
  8
AM_9
100
AcDbPolyline
 90
        3
 70
     0
 43
0.0
 10
-1.245994049694861
 20
-0.109375
 10
-1.259708242557246
 20
-0.1640625
 10
-1.269715120852553
 20
-0.21875
  0
LINE
  5
B0
330
95
100
AcDbEntity
  8
AM_9
100
AcDbLine
 10
-1.206567435159938
 20
-0.0000000000000001
 30
0.0
 11
-1.135670438158726
 21
-0.0000000000000001
 31
0.0
  0
LWPOLYLINE
  5
B1
330
95
100
AcDbEntity
  8
AM_9
100
AcDbPolyline
 90
        3
 70
     0
 43
0.0
 10
-1.269715120852553
 20
0.2187499999999999
 10
-1.259760913423278
 20
0.1643083897258504
 10
-1.245994049694861
 20
0.1093749999999999
  0
ELLIPSE
  5
B2
330
95
100
AcDbEntity
  8
AM_9
100
AcDbEllipse
 10
-1.646498649387268
 20
-0.4687500000000001
 30
0.0
 11
-0.09595382955731811
 21
0.03874944547499725
 31
0.0
210
0.0
220
0.0
230
1.0
 40
0.2113091308703511
 41
3.040609649696547
 42
6.38416831107283
  0
ELLIPSE
  5
B3
330
95
100
AcDbEntity
  8
AM_9
100
AcDbEllipse
 10
-1.618504987189784
 20
-0.399430321788976
 30
0.0
 11
-0.129024894793327
 21
0.05210467522533588
 31
0.0
210
0.0
220
0.0
230
1.0
 40
0.2113091308703475
 41
3.039322606910368
 42
5.801105639492182
  0
ELLIPSE
  5
B4
330
95
100
AcDbEntity
  8
AM_9
100
AcDbEllipse
 10
-1.607830005712451
 20
-0.3729962569746608
 30
0.0
 11
-0.1235034625625821
 21
0.04987493162723282
 31
0.0
210
0.0
220
0.0
230
1.0
 40
0.211309130870357
 41
3.384789684355427
 42
6.034567183346412
  0
LWPOLYLINE
  5
B5
330
95
100
AcDbEntity
  8
AM_9
100
AcDbPolyline
 90
        5
 70
     0
 43
0.0
 10
-1.624644274222641
 20
-0.1791093260592887
 10
-1.646506662721267
 20
-0.1842540823997054
 10
-1.66740274965126
 20
-0.1862220679364951
 10
-1.68732036920617
 20
-0.1844124966919381
 10
-1.705834155827432
 20
-0.1791093260592887
  0
LWPOLYLINE
  5
B6
330
95
100
AcDbEntity
  8
AM_9
100
AcDbPolyline
 90
        5
 70
     0
 43
0.0
 10
-1.473835101179812
 20
-0.2389369657326276
 10
-1.512676389867241
 20
-0.2295338871417796
 10
-1.55081143657916
 20
-0.216687117104632
 10
-1.588430230940343
 20
-0.1996402057054678
 10
-1.624644274222641
 20
-0.1791093260592887
  0
LWPOLYLINE
  5
B7
330
95
100
AcDbEntity
  8
AM_9
100
AcDbPolyline
 90
        3
 70
     0
 43
0.0
 10
-1.447335822981094
 20
-0.2711532636537956
 10
-1.461071000745667
 20
-0.256181552758992
 10
-1.473835101179812
 20
-0.2389369657326276
  0
ELLIPSE
  5
B8
330
95
100
AcDbEntity
  8
AM_9
100
AcDbEllipse
 10
-1.556829102448469
 20
-0.2467045921760109
 30
0.0
 11
-0.1303939210191587
 21
0.05265753494272202
 31
0.0
210
0.0
220
0.0
230
1.0
 40
0.2113091308703664
 41
3.806340372002511
 42
6.919181903097289
  0
LWPOLYLINE
  5
B9
330
95
100
AcDbEntity
  8
AM_9
100
AcDbPolyline
 90
        3
 70
     0
 43
0.0
 10
-1.191078483762691
 20
-0.2000409996967265
 10
-1.177340452933719
 20
-0.1643083897258504
 10
-1.159391509316418
 20
-0.109375
  0
LINE
  5
BA
330
95
100
AcDbEntity
  8
AM_9
100
AcDbLine
 10
-1.198818123851341
 20
-0.21875
 30
0.0
 11
-1.191078483762691
 21
-0.2000409996967265
 31
0.0
  0
LINE
  5
BB
330
95
100
AcDbEntity
  8
AM_9
100
AcDbLine
 10
-1.191078605844656
 20
0.2000413016192557
 30
0.0
 11
-1.198818123851341
 21
0.2187499999999999
 31
0.0
  0
LWPOLYLINE
  5
BC
330
95
100
AcDbEntity
  8
AM_9
100
AcDbPolyline
 90
        3
 70
     0
 43
0.0
 10
-1.159391509316418
 20
0.1093749999999999
 10
-1.177251159300341
 20
0.1640624999999999
 10
-1.191078605844656
 20
0.2000413016192557
  0
LINE
  5
BD
330
95
100
AcDbEntity
  8
AM_9
100
AcDbLine
 10
-1.624457501850654
 20
-0.1204089378707286
 30
0.0
 11
-1.625542946840366
 21
-0.1230967854582223
 31
0.0
  0
LINE
  5
BE
330
95
100
AcDbEntity
  8
AM_9
100
AcDbLine
 10
-1.419337273424779
 20
-0.2
 30
0.0
 11
-1.416668794080076
 21
-0.1933921425434559
 31
0.0
  0
ELLIPSE
  5
BF
330
95
100
AcDbEntity
  8
AM_9
100
AcDbEllipse
 10
-1.53852919490992
 20
-0.2013892028241878
 30
0.0
 11
-0.1019970226638882
 21
0.04118989399964942
 31
0.0
210
0.0
220
0.0
230
1.0
 40
0.2113091308703477
 41
3.141592653589793
 42
6.283185307179586
  0
LWPOLYLINE
  5
C0
330
95
100
AcDbEntity
  8
AM_9
100
AcDbPolyline
 90
        4
 70
     0
 43
0.0
 10
-1.624462231505674
 20
-0.1204206514110938
 10
-1.624601397490203
 20
-0.1208367673933812
 10
-1.624023813533076
 20
-0.1245107513506022
 10
-1.622117331158888
 20
-0.1273618207823364
  0
LWPOLYLINE
  5
C1
330
95
100
AcDbEntity
  8
AM_9
100
AcDbPolyline
 90
        5
 70
     0
 43
0.0
 10
-1.416667849878587
 20
-0.1933898041312626
 10
-1.416761186009739
 20
-0.1936098952159723
 10
-1.419976722962377
 20
-0.1971856748420371
 10
-1.42599508620516
 20
-0.1994144431868154
 10
-1.432859056785603
 20
-0.1999999999699528
  0
LWPOLYLINE
  5
C2
330
95
100
AcDbEntity
  8
AM_9
100
AcDbPolyline
 90
        4
 70
     0
 43
0.0
 10
-1.526156187998041
 20
-0.1745741884610188
 10
-1.49876711262461
 20
-0.1876759562813857
 10
-1.480160180551704
 20
-0.1983617847082468
 10
-1.462147854960267
 20
-0.2099962668917053
  0
LWPOLYLINE
  5
C3
330
95
100
AcDbEntity
  8
AM_9
100
AcDbPolyline
 90
        3
 70
     0
 43
0.0
 10
-1.613322700998764
 20
-0.151074129835757
 10
-1.584118093499241
 20
-0.1564222384464442
 10
-1.555447594556947
 20
-0.1639312493177431
  0
LWPOLYLINE
  5
C4
330
95
100
AcDbEntity
  8
AM_9
100
AcDbPolyline
 90
        3
 70
     0
 43
0.0
 10
-1.462147854960267
 20
-0.2099962668917053
 10
-1.445174172626744
 20
-0.2163479371246912
 10
-1.429035915442561
 20
-0.2258378743019628
  0
LWPOLYLINE
  5
C5
330
95
100
AcDbEntity
  8
AM_9
100
AcDbPolyline
 90
        5
 70
     0
 43
0.0
 10
-1.650233581343259
 20
-0.141958509815605
 10
-1.64635846189721
 20
-0.1420496512545706
 10
-1.63186954678246
 20
-0.1441228263802214
 10
-1.622351672483867
 20
-0.1470795994472237
 10
-1.613322700998764
 20
-0.151074129835757
  0
ELLIPSE
  5
C6
330
95
100
AcDbEntity
  8
AM_9
100
AcDbEllipse
 10
-1.53852919490992
 20
-0.2013892028241884
 30
0.0
 11
-0.1303939210191734
 21
0.05265753494273319
 31
0.0
210
0.0
220
0.0
230
1.0
 40
0.2113091308703515
 41
3.814164134970071
 42
4.680944708127858
  0
ELLIPSE
  5
C7
330
95
100
AcDbEntity
  8
AM_9
100
AcDbEllipse
 10
-1.53852919490992
 20
-0.2013892028241888
 30
0.0
 11
-0.1303939210191756
 21
0.05265753494273462
 31
0.0
210
0.0
220
0.0
230
1.0
 40
0.2113091308703499
 41
-1.278997867482523
 42
-0.6725714813802801
  0
LINE
  5
C8
330
95
100
AcDbEntity
  8
AM_9
100
AcDbLine
 10
-1.435314292799287
 20
-0.2813919000363599
 30
0.0
 11
-1.447335822981094
 21
-0.2711532636537956
 31
0.0
  0
ELLIPSE
  5
C9
330
95
100
AcDbEntity
  8
AM_9
100
AcDbEllipse
 10
-1.556829102448458
 20
-0.2467045921760181
 30
0.0
 11
-0.130393921019178
 21
0.05265753494273654
 31
0.0
210
0.0
220
0.0
230
1.0
 40
0.2113091308703499
 41
2.800469246484387
 42
3.607080702195121
  0
ELLIPSE
  5
CA
330
95
100
AcDbEntity
  8
AM_9
100
AcDbEllipse
 10
-1.556829102451778
 20
-0.2467045921755492
 30
0.0
 11
-0.130393921023324
 21
0.05265753494321708
 31
0.0
210
0.0
220
0.0
230
1.0
 40
0.2113091308648652
 41
-3.777589249508929
 42
-3.76462858186101
  0
LWPOLYLINE
  5
CB
330
95
100
AcDbEntity
  8
AM_9
100
AcDbPolyline
 90
        3
 70
     0
 43
0.0
 10
-1.684505977959548
 20
-0.2048113909327396
 10
-1.683680923878706
 20
-0.2060798271278187
 10
-1.683426804368275
 20
-0.2064878783497962
  0
LWPOLYLINE
  5
CC
330
95
100
AcDbEntity
  8
AM_9
100
AcDbPolyline
 90
       17
 70
     0
 43
0.0
 10
-1.423343959230663
 20
-0.1790373738501778
 10
-1.431311424306856
 20
-0.1733931390117467
 10
-1.442067497741038
 20
-0.167072978024251
 10
-1.454710549263482
 20
-0.1606047421316795
 10
-1.469600972409323
 20
-0.1538031670974776
 10
-1.485502849216203
 20
-0.1472336073736393
 10
-1.502863819037922
 20
-0.1407130262602576
 10
-1.520219296168166
 20
-0.1347930597680667
 10
-1.538077007752455
 20
-0.1293028157827817
 10
-1.554906769252529
 20
-0.1247141396218192
 10
-1.571223513153234
 20
-0.1208880884981781
 10
-1.585622564013068
 20
-0.1181545989145989
 10
-1.598554916878816
 20
-0.1164278875396128
 10
-1.608914645038516
 20
-0.1158549073091554
 10
-1.617024819855213
 20
-0.1164156227038167
 10
-1.622201461046054
 20
-0.1180609686233501
 10
-1.624462231505674
 20
-0.1204206514110938
  0
LWPOLYLINE
  5
CD
330
95
100
AcDbEntity
  8
AM_9
100
AcDbPolyline
 90
        4
 70
     0
 43
0.0
 10
-1.423343959230664
 20
-0.1790373738501783
 10
-1.418389298758596
 20
-0.1842628795203941
 10
-1.416281414291853
 20
-0.1891729979031393
 10
-1.416667849878587
 20
-0.1933898041312626
  0
LINE
  5
CE
330
95
100
AcDbEntity
  8
AM_9
100
AcDbLine
 10
-1.340715578233784
 20
0.2
 30
0.0
 11
-1.403404880083841
 21
0.2
 31
0.0
  0
LINE
  5
CF
330
95
100
AcDbEntity
  8
AM_9
100
AcDbLine
 10
-1.403407524171217
 20
-0.2
 30
0.0
 11
-1.340715578233784
 21
-0.2
 31
0.0
  0
LINE
  5
D0
330
95
100
AcDbEntity
  8
AM_9
100
AcDbLine
 10
-1.186454803184681
 20
0.1999999999999999
 30
0.0
 11
-1.25411303785534
 21
0.1999999999999999
 31
0.0
  0
LINE
  5
D1
330
95
100
AcDbEntity
  8
AM_9
100
AcDbLine
 10
-1.25411303785534
 20
-0.2
 30
0.0
 11
-1.186454803184681
 21
-0.2
 31
0.0
  0
LINE
  5
D2
330
95
100
AcDbEntity
  8
AM_9
100
AcDbLine
 10
-1.37
 20
0.2187499999999999
 30
0.0
 11
-1.198818123851341
 21
0.2187499999999999
 31
0.0
  0
LWPOLYLINE
  5
D3
330
95
100
AcDbEntity
  8
AM_9
100
AcDbPolyline
 90
        3
 70
     0
 43
0.0
 10
-1.348834566394263
 20
0.109375
 10
-1.366694216378187
 20
0.0546875
 10
-1.369787413246711
 20
0.0462865530073276
  0
LWPOLYLINE
  5
D4
330
95
100
AcDbEntity
  8
AM_9
100
AcDbPolyline
 90
        3
 70
     0
 43
0.0
 10
-1.325113495236572
 20
0.2187499999999999
 10
-1.335067702665847
 20
0.1643083897258504
 10
-1.348834566394263
 20
0.109375
  0
LINE
  5
D5
330
95
100
AcDbEntity
  8
AM_9
100
AcDbLine
 10
-1.37
 20
-0.21875
 30
0.0
 11
-1.198818123851341
 21
-0.21875
 31
0.0
  0
LWPOLYLINE
  5
D6
330
95
100
AcDbEntity
  8
AM_9
100
AcDbPolyline
 90
        3
 70
     0
 43
0.0
 10
-1.348834566394263
 20
-0.109375
 10
-1.335120373531879
 20
-0.1640625
 10
-1.325113495236572
 20
-0.21875
  0
LWPOLYLINE
  5
D7
330
95
100
AcDbEntity
  8
AM_9
100
AcDbPolyline
 90
        3
 70
     0
 43
0.0
 10
-1.36979340040009
 20
-0.046270516543993
 10
-1.366783510011565
 20
-0.0544416102741496
 10
-1.348834566394263
 20
-0.109375
  0
LINE
  5
D8
330
95
100
AcDbEntity
  8
AM_9
100
AcDbLine
 10
-1.015910185562278
 20
0.1853871066562612
 30
0.0
 11
-1.18472330257098
 21
0.1914799215852334
 31
0.0
  0
LINE
  5
D9
330
95
100
AcDbEntity
  8
AM_9
100
AcDbLine
 10
-1.18472330257098
 20
-0.1914799215852334
 30
0.0
 11
-1.015910185562278
 21
-0.1853871066562613
 31
0.0
  0
LINE
  5
DA
330
95
100
AcDbEntity
  8
AM_9
100
AcDbLine
 10
-0.9503434482801283
 20
0.1319978794387896
 30
0.0
 11
-0.9640575753391967
 21
0.1513925839218324
 31
0.0
  0
LINE
  5
DB
330
95
100
AcDbEntity
  8
AM_9
100
AcDbLine
 10
-0.9640575753391967
 20
-0.1513925839218324
 30
0.0
 11
-0.9503434482801282
 21
-0.1319978794387897
 31
0.0
  0
ELLIPSE
  5
DC
330
95
100
AcDbEntity
  8
AM_9
100
AcDbEllipse
 10
-1.340715578233785
 20
0.0
 30
0.0
 11
1.339457436567421E-17
 21
0.2187500000000006
 31
0.0
210
0.0
220
0.0
230
1.0
 40
0.4999999999999966
 41
0.0
 42
6.283185307179586
  0
ELLIPSE
  5
DD
330
95
100
AcDbEntity
  8
AM_9
100
AcDbEllipse
 10
-1.340715578233784
 20
-0.0000000000000001
 30
0.0
 11
1.224646799147353E-17
 21
0.1999999999999999
 31
0.0
210
0.0
220
0.0
230
1.0
 40
0.4999999999999996
 41
0.0
 42
6.283185307179586
  0
ELLIPSE
  5
DE
330
95
100
AcDbEntity
  8
AM_9
100
AcDbEllipse
 10
-1.25411303785534
 20
-0.0000000000000003
 30
0.0
 11
1.339457436567416E-17
 21
0.2187499999999997
 31
0.0
210
0.0
220
0.0
230
1.0
 40
0.5000000000000027
 41
0.0
 42
6.283185307179586
  0
ELLIPSE
  5
DF
330
95
100
AcDbEntity
  8
AM_9
100
AcDbEllipse
 10
-1.25411303785534
 20
0.0
 30
0.0
 11
1.224646799147354E-17
 21
0.2000000000000001
 31
0.0
210
0.0
220
0.0
230
1.0
 40
0.4999999999999991
 41
0.0
 42
6.283185307179586
  0
ELLIPSE
  5
E0
330
95
100
AcDbEntity
  8
AM_9
100
AcDbEllipse
 10
-1.186454803184679
 20
0.0
 30
0.0
 11
1.224646799147353E-17
 21
0.1999999999999999
 31
0.0
210
0.0
220
0.0
230
1.0
 40
0.4999999999999996
 41
0.0
 42
6.283185307179586
  0
ELLIPSE
  5
E1
330
95
100
AcDbEntity
  8
AM_9
100
AcDbEllipse
 10
-1.186454803184245
 20
0.0000000000000814
 30
0.0
 11
1.172668097676720E-17
 21
0.191511233850148
 31
0.0
210
0.0
220
0.0
230
1.0
 40
0.4999999999999719
 41
0.0
 42
6.283185307179586
  0
ELLIPSE
  5
E2
330
95
100
AcDbEntity
  8
AM_9
100
AcDbEllipse
 10
-1.017582936695469
 20
-0.0000000000000041
 30
0.0
 11
1.135353457964615E-17
 21
0.1854172907249816
 31
0.0
210
0.0
220
0.0
230
1.0
 40
0.5000000000000514
 41
0.0
 42
6.283185307179586
  0
ELLIPSE
  5
E3
330
95
100
AcDbEntity
  8
AM_9
100
AcDbEllipse
 10
-0.9970117461068352
 20
0.0000000000000001
 30
0.0
 11
9.899048221688848E-18
 21
0.1616637258772236
 31
0.0
210
0.0
220
0.0
230
1.0
 40
0.5
 41
0.0
 42
6.283185307179586
  0
LWPOLYLINE
  5
E5
330
95
100
AcDbEntity
  8
AM_4
100
AcDbPolyline
 90
        4
 70
     0
 43
0.0
 10
-1.417014385260754
 20
-0.2360765106845276
 10
-1.407849398684196
 20
-0.2462091938631851
 10
-1.39975812790521
 20
-0.2570505402207574
 10
-1.392161357227199
 20
-0.2689146070947222
  0
LWPOLYLINE
  5
E6
330
95
100
AcDbEntity
  8
AM_4
100
AcDbPolyline
 90
        3
 70
     0
 43
0.0
 10
-1.392161357227199
 20
-0.2689146070947222
 10
-1.40515724507681
 20
-0.2634308483997528
 10
-1.41937114519105
 20
-0.2602304684431305
  0
LWPOLYLINE
  5
E7
330
95
100
AcDbEntity
  8
AM_4
100
AcDbPolyline
 90
        3
 70
     0
 43
0.0
 10
-1.437671052729584
 20
-0.3055458577949631
 10
-1.421289098110606
 20
-0.3030753670497808
 10
-1.404217006538177
 20
-0.2987675689889718
  0
LINE
  5
E8
330
95
100
AcDbEntity
  8
AM_4
100
AcDbLine
 10
-1.392161357227199
 20
-0.2689146070947222
 30
0.0
 11
-1.404217006538177
 21
-0.2987675689889718
 31
0.0
  0
LINE
  5
E9
330
95
100
AcDbEntity
  8
AM_4
100
AcDbLine
 10
-1.551859107515921
 20
-0.5093460834378319
 30
0.0
 11
-1.491247357248658
 21
-0.4540180898723598
 31
0.0
  0
LINE
  5
EA
330
95
100
AcDbEntity
  8
AM_4
100
AcDbLine
 10
-1.747982524548533
 20
-0.3503396289636352
 30
0.0
 11
-1.742789102257802
 21
-0.4322420068738781
 31
0.0
  0
ELLIPSE
  5
EB
330
95
100
AcDbEntity
  8
AM_4
100
AcDbEllipse
 10
-1.646498649387268
 20
-0.4687500000000001
 30
0.0
 11
-0.09595382955731788
 21
0.03874944547499716
 31
0.0
210
0.0
220
0.0
230
1.0
 40
0.2113091308703454
 41
0.1009830038932549
 42
3.040609649696537
  0
LINE
  5
EC
330
95
100
AcDbEntity
  8
AM_4
100
AcDbLine
 10
-1.694512582603555
 20
-0.151074129835757
 30
0.0
 11
-1.705834155827432
 21
-0.1791093260592887
 31
0.0
  0
LWPOLYLINE
  5
ED
330
95
100
AcDbEntity
  8
AM_4
100
AcDbPolyline
 90
        9
 70
     0
 43
0.0
 10
-1.724694880199109
 20
-0.3181520868260564
 10
-1.729567673663612
 20
-0.3200659363770264
 10
-1.734383221394509
 20
-0.3228130222985276
 10
-1.738695359519708
 20
-0.3263177033522865
 10
-1.74237392147991
 20
-0.3305786718381552
 10
-1.745240310205839
 20
-0.335499791306006
 10
-1.747228072026421
 20
-0.3412581086966605
 10
-1.74801767516988
 20
-0.3469944652514269
 10
-1.747970576765343
 20
-0.3505199849343252
  0
LWPOLYLINE
  5
EE
330
95
100
AcDbEntity
  8
AM_4
100
AcDbPolyline
 90
        9
 70
     0
 43
0.0
 10
-1.491372781664213
 20
-0.4541319734514742
 10
-1.488549671337198
 20
-0.4512340128636655
 10
-1.485277610752229
 20
-0.446606844915683
 10
-1.482743301119975
 20
-0.4409251654723998
 10
-1.481457802948465
 20
-0.4351405173482192
 10
-1.481284214129647
 20
-0.4295233653470976
 10
-1.482043544277966
 20
-0.4241886164135155
 10
-1.48359055441046
 20
-0.4191461477603841
 10
-1.485523033699984
 20
-0.4149288028081429
  0
ELLIPSE
  5
EF
330
95
100
AcDbEntity
  8
AM_4
100
AcDbEllipse
 10
-1.618504987189784
 20
-0.399430321788976
 30
0.0
 11
-0.1290248947933272
 21
0.0521046752253359
 31
0.0
210
0.0
220
0.0
230
1.0
 40
0.2113091308703534
 41
0.1022675822278378
 42
3.03932260691037
  0
LWPOLYLINE
  5
F0
330
95
100
AcDbEntity
  8
AM_4
100
AcDbPolyline
 90
        3
 70
     0
 43
0.0
 10
-1.485406888142968
 20
-0.2987675689889718
 10
-1.471873622642578
 20
-0.3030606061861223
 10
-1.458314338017593
 20
-0.305456396233367
  0
ELLIPSE
  5
F1
330
95
100
AcDbEntity
  8
AM_4
100
AcDbEllipse
 10
-1.556829102448455
 20
-0.2467045921760198
 30
0.0
 11
-0.1303939210191756
 21
0.05265753494273462
 31
0.0
210
0.0
220
0.0
230
1.0
 40
0.2113091308703521
 41
1.711945269609639
 42
2.505596057672103
  0
LWPOLYLINE
  5
F2
330
95
100
AcDbEntity
  8
AM_4
100
AcDbPolyline
 90
        4
 70
     0
 43
0.0
 10
-1.705834155827432
 20
-0.1791093260592887
 10
-1.690957037784356
 20
-0.1988355121406938
 10
-1.674527765541682
 20
-0.2156330920108724
 10
-1.669030746930339
 20
-0.2201680623457971
  0
LWPOLYLINE
  5
F3
330
95
100
AcDbEntity
  8
AM_4
100
AcDbPolyline
 90
        3
 70
     0
 43
0.0
 10
-1.669030746930339
 20
-0.2201680623457971
 10
-1.656090225331711
 20
-0.229046210966002
 10
-1.636214864389395
 20
-0.2389369657326275
  0
LWPOLYLINE
  5
F4
330
95
100
AcDbEntity
  8
AM_4
100
AcDbPolyline
 90
        4
 70
     0
 43
0.0
 10
-1.439127545144318
 20
-0.2602304684431209
 10
-1.448376180558212
 20
-0.2616913382589203
 10
-1.460673698007847
 20
-0.2647402074337706
 10
-1.47335123883199
 20
-0.2689146070947222
  0
LINE
  5
F5
330
95
100
AcDbEntity
  8
AM_4
100
AcDbLine
 10
-1.625542946840366
 20
-0.1230967854582223
 30
0.0
 11
-1.640526217573808
 21
-0.1601993088245384
 31
0.0
  0
LINE
  5
F6
330
95
100
AcDbEntity
  8
AM_4
100
AcDbLine
 10
-1.436532172246033
 20
-0.2425790968238376
 30
0.0
 11
-1.419337273424779
 21
-0.2
 31
0.0
  0
ELLIPSE
  5
F7
330
95
100
AcDbEntity
  8
AM_4
100
AcDbEllipse
 10
-1.538529194909921
 20
-0.201389202824188
 30
0.0
 11
-0.1019970226638876
 21
0.04118989399964963
 31
0.0
210
0.0
220
0.0
230
1.0
 40
0.2113091308703499
 41
0.0
 42
3.141592653589793
  0
LWPOLYLINE
  5
F8
330
95
100
AcDbEntity
  8
AM_4
100
AcDbPolyline
 90
        4
 70
     0
 43
0.0
 10
-1.694512582603555
 20
-0.151074129835757
 10
-1.677896740616027
 20
-0.145877822676052
 10
-1.661842127960894
 20
-0.1427138007556462
 10
-1.650233581343259
 20
-0.141958509815605
  0
LWPOLYLINE
  5
F9
330
95
100
AcDbEntity
  8
AM_4
100
AcDbPolyline
 90
        7
 70
     0
 43
0.0
 10
-1.624527618169849
 20
-0.2099962668917053
 10
-1.634836754527178
 20
-0.1943573015029058
 10
-1.646180581361389
 20
-0.1805491420332303
 10
-1.658894555938196
 20
-0.1688997677199809
 10
-1.672790482127888
 20
-0.159872940321087
 10
-1.683463821768531
 20
-0.1549033058439655
 10
-1.694512582603555
 20
-0.151074129835757
  0
LINE
  5
FA
330
95
100
AcDbEntity
  8
AM_4
100
AcDbLine
 10
-1.64890372780043
 20
-0.1419585097669023
 30
0.0
 11
-1.650342204448583
 21
-0.1419585097669023
 31
0.0
  0
ELLIPSE
  5
FB
330
95
100
AcDbEntity
  8
AM_4
100
AcDbEllipse
 10
-1.538529194909924
 20
-0.2013892028241881
 30
0.0
 11
-0.1303939210191711
 21
0.0526575349427339
 31
0.0
210
0.0
220
0.0
230
1.0
 40
0.2113091308703573
 41
5.610613825799304
 42
7.795870906981535
  0
ELLIPSE
  5
FC
330
95
100
AcDbEntity
  8
AM_4
100
AcDbEllipse
 10
-1.556829102448454
 20
-0.2467045921760205
 30
0.0
 11
-0.1303939210191754
 21
0.05265753494273413
 31
0.0
210
0.0
220
0.0
230
1.0
 40
0.2113091308703517
 41
0.6359965959176872
 42
1.512685599801931
  0
LWPOLYLINE
  5
FD
330
95
100
AcDbEntity
  8
AM_4
100
AcDbPolyline
 90
        3
 70
     0
 43
0.0
 10
-1.457427452682853
 20
-0.3055458577949631
 10
-1.447977253796545
 20
-0.3064767622622301
 10
-1.437671052729584
 20
-0.3055458577949631
  0
LWPOLYLINE
  5
FE
330
95
100
AcDbEntity
  8
AM_4
100
AcDbPolyline
 90
       20
 70
     0
 43
0.0
 10
-1.485429051733846
 20
-0.4151075026140964
 10
-1.48727164410658
 20
-0.4112650848913482
 10
-1.489429779357759
 20
-0.4057004640670567
 10
-1.491339244184228
 20
-0.3990285028771656
 10
-1.492729911098081
 20
-0.3913686090382284
 10
-1.493353546729985
 20
-0.3829560268990505
 10
-1.493032315657031
 20
-0.3740806109033203
 10
-1.491453915855896
 20
-0.3640197041490862
 10
-1.488626665275097
 20
-0.3542576694625229
 10
-1.48469279343118
 20
-0.3451131301609213
 10
-1.479829713534711
 20
-0.3367671213335353
 10
-1.474240450100443
 20
-0.3293450797904123
 10
-1.468151584432355
 20
-0.3229318032041725
 10
-1.46182543297087
 20
-0.3175835289623345
 10
-1.455560355105115
 20
-0.3133176491234279
 10
-1.449664788033868
 20
-0.3100932592371835
 10
-1.444402449311695
 20
-0.3077996002504124
 10
-1.439946280949967
 20
-0.3062729329834335
 10
-1.436381490129014
 20
-0.3053345673832876
 10
-1.435763544414852
 20
-0.3051993741812264
  0
LWPOLYLINE
  5
FF
330
95
100
AcDbEntity
  8
AM_4
100
AcDbPolyline
 90
       19
 70
     0
 43
0.0
 10
-1.683426804368275
 20
-0.2064878783497962
 10
-1.681686119256244
 20
-0.2095221362406277
 10
-1.679516179254658
 20
-0.2140091724962394
 10
-1.677361634656823
 20
-0.2196062676143849
 10
-1.675463324599055
 20
-0.2263090673565094
 10
-1.674091579955948
 20
-0.2339944394412469
 10
-1.673493142915677
 20
-0.2424245328900127
 10
-1.673843452270661
 20
-0.2513089852566823
 10
-1.675454925703366
 20
-0.2613661696403721
 10
-1.67831258202363
 20
-0.2711153064987363
 10
-1.682272661793901
 20
-0.2802412695635083
 10
-1.687156995049073
 20
-0.2885648435357867
 10
-1.692762062882899
 20
-0.2959619151487456
 10
-1.698860475140867
 20
-0.3023484035905046
 10
-1.705188919195318
 20
-0.3076688852228259
 10
-1.711448305158396
 20
-0.3119072062302711
 10
-1.717330582405476
 20
-0.3151060097947799
 10
-1.722573946860132
 20
-0.3173777667441104
 10
-1.725079462640186
 20
-0.3182772195764772
  0
ELLIPSE
  5
100
330
95
100
AcDbEntity
  8
AM_4
100
AcDbEllipse
 10
-1.607830005712439
 20
-0.3729962569746643
 30
0.0
 11
-0.1235034625625957
 21
0.04987493162723568
 31
0.0
210
0.0
220
0.0
230
1.0
 40
0.2113091308703506
 41
6.040369579540733
 42
9.66797499153491
  0
ELLIPSE
  5
101
330
95
100
AcDbEntity
  8
AM_4
100
AcDbEllipse
 10
-1.538529194909922
 20
-0.201389202824187
 30
0.0
 11
-0.1303939210191831
 21
0.05265753494272145
 31
0.0
210
0.0
220
0.0
230
1.0
 40
0.2113091308703633
 41
1.711945269609619
 42
2.518556725320333
  0
LINE
  5
102
330
95
100
AcDbEntity
  8
AM_4
100
AcDbLine
 10
-1.41937114519105
 20
-0.2602304684431305
 30
0.0
 11
-1.439127545144318
 21
-0.2602304684431209
 31
0.0
  0
ELLIPSE
  5
103
330
95
100
AcDbEntity
  8
AM_4
100
AcDbEllipse
 10
-1.53852919490992
 20
-0.2013892028241879
 30
0.0
 11
-0.1303939210191738
 21
0.05265753494273431
 31
0.0
210
0.0
220
0.0
230
1.0
 40
0.2113091308703487
 41
2.800469246484372
 42
3.607080702195131
  0
LINE
  5
104
330
95
100
AcDbEntity
  8
AM_4
100
AcDbLine
 10
-1.429035915442561
 20
-0.2258378743019628
 30
0.0
 11
-1.417014385260754
 21
-0.2360765106845276
 31
0.0
  0
LWPOLYLINE
  5
105
330
95
100
AcDbEntity
  8
AM_4
100
AcDbPolyline
 90
        3
 70
     0
 43
0.0
 10
-1.47335123883199
 20
-0.2689146070947222
 10
-1.501413538800834
 20
-0.251275593729576
 10
-1.53120164363882
 20
-0.2360765106845274
  0
LINE
  5
106
330
95
100
AcDbEntity
  8
AM_4
100
AcDbLine
 10
-1.53120164363882
 20
-0.2360765106845274
 30
0.0
 11
-1.557210452664804
 21
-0.2258378743019626
 31
0.0
  0
LWPOLYLINE
  5
107
330
95
100
AcDbEntity
  8
AM_4
100
AcDbPolyline
 90
        4
 70
     0
 43
0.0
 10
-1.557210452664804
 20
-0.2258378743019626
 10
-1.580200487357045
 20
-0.2189176876709014
 10
-1.602206357217729
 20
-0.2138633349839127
 10
-1.624527618169849
 20
-0.2099962668917053
  0
LINE
  5
108
330
95
100
AcDbEntity
  8
AM_4
100
AcDbLine
 10
-1.624527618169849
 20
-0.2099962668917053
 30
0.0
 11
-1.636214864389394
 21
-0.2389369657326276
 31
0.0
  0
LWPOLYLINE
  5
109
330
95
100
AcDbEntity
  8
AM_4
100
AcDbPolyline
 90
        3
 70
     0
 43
0.0
 10
-1.636214864389394
 20
-0.2389369657326276
 10
-1.606535043155592
 20
-0.2560939713202353
 10
-1.575510360203337
 20
-0.2711532636537956
  0
LINE
  5
10A
330
95
100
AcDbEntity
  8
AM_4
100
AcDbLine
 10
-1.575510360203337
 20
-0.2711532636537956
 30
0.0
 11
-1.549501551177354
 21
-0.2813919000363599
 31
0.0
  0
LWPOLYLINE
  5
10B
330
95
100
AcDbEntity
  8
AM_4
100
AcDbPolyline
 90
        3
 70
     0
 43
0.0
 10
-1.549501551177354
 20
-0.2813919000363599
 10
-1.517851000323329
 20
-0.2911775952746242
 10
-1.485406888142968
 20
-0.2987675689889718
  0
LINE
  5
10C
330
95
100
AcDbEntity
  8
AM_4
100
AcDbLine
 10
-1.47335123883199
 20
-0.2689146070947222
 30
0.0
 11
-1.485406888142968
 21
-0.2987675689889718
 31
0.0
  0
ARC
  5
10D
330
95
100
AcDbEntity
  8
AM_4
100
AcDbCircle
 10
-1.467913059414625
 20
0.0000000000000006
 30
0.0
 40
0.1999999999999994
100
AcDbArc
 50
90.0
 51
219.6392470489607
  0
LWPOLYLINE
  5
10E
330
95
100
AcDbEntity
  8
AM_4
100
AcDbPolyline
 90
       10
 70
     0
 43
0.0
 10
-1.622117331158888
 20
-0.1273618207823364
 10
-1.620452109723953
 20
-0.1291842652280562
 10
-1.614174562456289
 20
-0.1344729790611519
 10
-1.605016963393568
 20
-0.1405186270901959
 10
-1.593720774231557
 20
-0.146827078301712
 10
-1.579979623090807
 20
-0.1535654953592165
 10
-1.564918133351325
 20
-0.1601799433259583
 10
-1.548124710531666
 20
-0.1668493358980661
 10
-1.53072537437767
 20
-0.1731116383367605
 10
-1.512482159598566
 20
-0.1790373738502115
  0
ELLIPSE
  5
10F
330
95
100
AcDbEntity
  8
AM_4
100
AcDbEllipse
 10
-1.467913059414623
 20
0.0
 30
0.0
 11
1.224646799147353E-17
 21
0.1999999999999999
 31
0.0
210
0.0
220
0.0
230
1.0
 40
0.5000000000000007
 41
0.0
 42
2.679646633022827
  0
LINE
  5
110
330
95
100
AcDbEntity
  8
AM_4
100
AcDbLine
 10
-1.403404880083841
 20
0.2
 30
0.0
 11
-1.467913059414623
 21
0.2
 31
0.0
  0
LINE
  5
111
330
95
100
AcDbEntity
  8
AM_4
100
AcDbLine
 10
-1.43300684101251
 20
-0.2
 30
0.0
 11
-1.403407524171217
 21
-0.2
 31
0.0
  0
LWPOLYLINE
  5
112
330
95
100
AcDbEntity
  8
AM_4
100
AcDbPolyline
 90
        8
 70
     0
 43
0.0
 10
-1.432859056785603
 20
-0.1999999999699528
 10
-1.434346174024906
 20
-0.1999786710855127
 10
-1.445219774501655
 20
-0.1988321115509052
 10
-1.457618096215637
 20
-0.1961649429984259
 10
-1.47204152658163
 20
-0.1920694300574957
 10
-1.487554506442447
 20
-0.1870948030566195
 10
-1.504647910229418
 20
-0.181500594761393
 10
-1.512482159598584
 20
-0.1790373738501784
  0
LINE
  5
113
330
95
100
AcDbEntity
  8
AM_4
100
AcDbLine
 10
-1.396010492237784
 20
0.2187499999999999
 30
0.0
 11
-1.37
 21
0.2187499999999999
 31
0.0
  0
LWPOLYLINE
  5
114
330
95
100
AcDbEntity
  8
AM_4
100
AcDbPolyline
 90
        3
 70
     0
 43
0.0
 10
-1.435437106772707
 20
0.109375
 10
-1.417577456788784
 20
0.1640624999999999
 10
-1.396010492237784
 20
0.2187499999999999
  0
LWPOLYLINE
  5
115
330
95
100
AcDbEntity
  8
AM_4
100
AcDbPolyline
 90
        3
 70
     0
 43
0.0
 10
-1.459158177930399
 20
0.0
 10
-1.449203970501124
 20
0.0544416102741495
 10
-1.435437106772707
 20
0.109375
  0
LINE
  5
116
330
95
100
AcDbEntity
  8
AM_4
100
AcDbLine
 10
-1.369787413246711
 20
0.0462865530073276
 30
0.0
 11
-1.388261180929187
 21
0.0
 31
0.0
  0
LINE
  5
117
330
95
100
AcDbEntity
  8
AM_4
100
AcDbLine
 10
-1.459158177930399
 20
0.0
 30
0.0
 11
-1.388261180929187
 21
0.0
 31
0.0
  0
LWPOLYLINE
  5
118
330
95
100
AcDbEntity
  8
AM_4
100
AcDbPolyline
 90
        3
 70
     0
 43
0.0
 10
-1.435437106772707
 20
-0.1093749999999999
 10
-1.449151299635091
 20
-0.0546875
 10
-1.459158177930399
 20
0.0
  0
LWPOLYLINE
  5
119
330
95
100
AcDbEntity
  8
AM_4
100
AcDbPolyline
 90
        3
 70
     0
 43
0.0
 10
-1.396010492237784
 20
-0.21875
 10
-1.417488163155406
 20
-0.1643083897258504
 10
-1.435437106772707
 20
-0.1093749999999999
  0
LINE
  5
11A
330
95
100
AcDbEntity
  8
AM_4
100
AcDbLine
 10
-1.396010492237784
 20
-0.21875
 30
0.0
 11
-1.37
 21
-0.21875
 31
0.0
  0
LINE
  5
11B
330
95
100
AcDbEntity
  8
AM_4
100
AcDbLine
 10
-1.388261180929187
 20
0.0
 30
0.0
 11
-1.36979340040009
 21
-0.046270516543993
 31
0.0
  0
ENDBLK
  5
98
330
95
100
AcDbEntity
  8
0
100
AcDbBlockEnd
  0
BLOCK
  5
11E
330
11C
100
AcDbEntity
  8
0
100
AcDbBlockBegin
  2
3_129518I_0_in_136113_4
 70
     2
 10
0.0
 20
0.0
 30
0.0
  3
3_129518I_0_in_136113_4
  1

  0
ATTDEF
  5
120
330
11C
100
AcDbEntity
  8
AM_6
100
AcDbText
 10
6.023573513856515
 20
0.452
 30
0.0
 40
0.5
  1
INS-GT B
100
AcDbAttributeDefinition
  3

  2
NN
 70
     8
280
     0
  0
ATTDEF
  5
121
330
11C
100
AcDbEntity
  8
AM_6
100
AcDbText
 10
6.023573513856515
 20
-0.048
 30
0.0
 40
0.5
  1
GT Normal Duty Bearing Inserts
100
AcDbAttributeDefinition
  3

  2
NT
 70
     8
280
     0
  0
ATTDEF
  5
122
330
11C
100
AcDbEntity
  8
AM_6
100
AcDbText
 10
6.023573513856515
 20
-0.548
 30
0.0
 40
0.5
  1
129518I
100
AcDbAttributeDefinition
  3

  2
NB
 70
     8
280
     0
  0
ATTDEF
  5
123
330
11C
100
AcDbEntity
  8
AM_6
100
AcDbText
 10
6.023573513856515
 20
-1.048
 30
0.0
 40
0.5
  1
$PN.I
100
AcDbAttributeDefinition
  3

  2
NBSYN
 70
     8
280
     0
  0
ATTDEF
  5
124
330
11C
100
AcDbEntity
  8
AM_6
100
AcDbText
 10
6.023573513856515
 20
-1.548
 30
0.0
 40
0.5
  1
129518
100
AcDbAttributeDefinition
  3

  2
LINA
 70
     8
280
     0
  0
ATTDEF
  5
125
330
11C
100
AcDbEntity
  8
AM_6
100
AcDbText
 10
6.023573513856515
 20
-2.048
 30
0.0
 40
0.5
  1
205
100
AcDbAttributeDefinition
  3

  2
SERIES
 70
     8
280
     0
  0
ATTDEF
  5
126
330
11C
100
AcDbEntity
  8
AM_6
100
AcDbText
 10
6.023573513856515
 20
-2.548
 30
0.0
 40
0.5
  1
129518
100
AcDbAttributeDefinition
  3

  2
PN
 70
     8
280
     0
  0
ATTDEF
  5
127
330
11C
100
AcDbEntity
  8
AM_6
100
AcDbText
 10
6.023573513856515
 20
-3.048
 30
0.0
 40
0.5
  1
INS-GT-05
100
AcDbAttributeDefinition
  3

  2
DESCRIPTION
 70
     8
280
     0
  0
ATTDEF
  5
128
330
11C
100
AcDbEntity
  8
AM_6
100
AcDbText
 10
6.023573513856515
 20
-3.548
 30
0.0
 40
0.5
  1
1.46
100
AcDbAttributeDefinition
  3

  2
A
 70
     8
280
     0
  0
ATTDEF
  5
129
330
11C
100
AcDbEntity
  8
AM_6
100
AcDbText
 10
6.023573513856515
 20
-4.048
 30
0.0
 40
0.5
  1
0.59
100
AcDbAttributeDefinition
  3

  2
C
 70
     8
280
     0
  0
ATTDEF
  5
12A
330
11C
100
AcDbEntity
  8
AM_6
100
AcDbText
 10
6.023573513856515
 20
-4.548
 30
0.0
 40
0.5
  1
2.0472
100
AcDbAttributeDefinition
  3

  2
D
 70
     8
280
     0
  0
ATTDEF
  5
12B
330
11C
100
AcDbEntity
  8
AM_6
100
AcDbText
 10
6.023573513856515
 20
-5.048
 30
0.0
 40
0.5
  1
0.16
100
AcDbAttributeDefinition
  3

  2
J
 70
     8
280
     0
  0
ATTDEF
  5
12C
330
11C
100
AcDbEntity
  8
AM_6
100
AcDbText
 10
6.023573513856515
 20
-5.548
 30
0.0
 40
0.5
  1
1.80
100
AcDbAttributeDefinition
  3

  2
L
 70
     8
280
     0
  0
ATTDEF
  5
12D
330
11C
100
AcDbEntity
  8
AM_6
100
AcDbText
 10
6.023573513856515
 20
-6.048
 30
0.0
 40
0.5
  1
#10 - 32 x 1/4
100
AcDbAttributeDefinition
  3

  2
N
 70
     8
280
     0
  0
ATTDEF
  5
12E
330
11C
100
AcDbEntity
  8
AM_6
100
AcDbText
 10
6.023573513856515
 20
-6.548
 30
0.0
 40
0.5
  1
0.48000
100
AcDbAttributeDefinition
  3

  2
W
 70
     8
280
     0
  0
ATTDEF
  5
12F
330
11C
100
AcDbEntity
  8
AM_6
100
AcDbText
 10
6.023573513856515
 20
-7.048
 30
0.0
 40
0.5
  1
1.00
100
AcDbAttributeDefinition
  3

  2
X
 70
     8
280
     0
  0
ATTDEF
  5
130
330
11C
100
AcDbEntity
  8
AM_6
100
AcDbText
 10
6.023573513856515
 20
-7.548
 30
0.0
 40
0.5
  1
0.98
100
AcDbAttributeDefinition
  3

  2
Y
 70
     8
280
     0
  0
ATTDEF
  5
131
330
11C
100
AcDbEntity
  8
AM_6
100
AcDbText
 10
6.023573513856515
 20
-8.048
 30
0.0
 40
0.5
  1
baldor
100
AcDbAttributeDefinition
  3

  2
COMPANY
 70
     8
280
     0
  0
LINE
  5
132
330
11C
100
AcDbEntity
  8
AM_9
100
AcDbLine
 10
0.6714285200000001
 20
-0.7299993649987302
 30
0.0
 11
0.6714285200000001
 21
-0.35499936499873
 31
0.0
  0
LINE
  5
133
330
11C
100
AcDbEntity
  8
AM_9
100
AcDbLine
 10
-0.6714285200000001
 20
-0.35499936499873
 30
0.0
 11
-0.6714285200000001
 21
-0.7299993649987302
 31
0.0
  0
LINE
  5
134
330
11C
100
AcDbEntity
  8
AM_9
100
AcDbLine
 10
0.6714285200000001
 20
-0.35499936499873
 30
0.0
 11
0.6996095588051076
 21
0.4519999999999999
 31
0.0
  0
LINE
  5
135
330
11C
100
AcDbEntity
  8
AM_9
100
AcDbLine
 10
-0.6996095588051076
 20
0.4519999999999999
 30
0.0
 11
-0.6714285200000001
 21
-0.35499936499873
 31
0.0
  0
LINE
  5
136
330
11C
100
AcDbEntity
  8
AM_9
100
AcDbLine
 10
-0.6714285200000001
 20
-0.35499936499873
 30
0.0
 11
0.6714285200000001
 21
-0.35499936499873
 31
0.0
  0
LINE
  5
137
330
11C
100
AcDbEntity
  8
AM_9
100
AcDbLine
 10
0.7357142600000001
 20
-0.6049993649987304
 30
0.0
 11
0.7357142600000001
 21
-0.4799993649987301
 31
0.0
  0
LINE
  5
138
330
11C
100
AcDbEntity
  8
AM_9
100
AcDbLine
 10
-0.7357142600000001
 20
-0.4799993649987301
 30
0.0
 11
-0.7357142600000001
 21
-0.6049993649987304
 31
0.0
  0
LINE
  5
139
330
11C
100
AcDbEntity
  8
AM_9
100
AcDbLine
 10
0.7764000000000001
 20
-0.7299993649987302
 30
0.0
 11
0.8
 21
-0.7063993649987302
 31
0.0
  0
LINE
  5
13A
330
11C
100
AcDbEntity
  8
AM_9
100
AcDbLine
 10
-0.8
 20
-0.7063993649987302
 30
0.0
 11
-0.7764000000000001
 21
-0.7299993649987302
 31
0.0
  0
LINE
  5
13B
330
11C
100
AcDbEntity
  8
AM_9
100
AcDbLine
 10
-0.7764000000000001
 20
-0.7299993649987302
 30
0.0
 11
0.7764000000000001
 21
-0.7299993649987302
 31
0.0
  0
LINE
  5
13C
330
11C
100
AcDbEntity
  8
AM_9
100
AcDbLine
 10
0.7999999999999999
 20
0.315
 30
0.0
 11
0.7999999999999999
 21
0.4284
 31
0.0
  0
LINE
  5
13D
330
11C
100
AcDbEntity
  8
AM_9
100
AcDbLine
 10
-0.7999999999999999
 20
0.4284
 30
0.0
 11
-0.7999999999999999
 21
0.315
 31
0.0
  0
LINE
  5
13E
330
11C
100
AcDbEntity
  8
AM_9
100
AcDbLine
 10
0.8
 20
-0.7063993649987302
 30
0.0
 11
0.8
 21
-0.6049993649987304
 31
0.0
  0
LINE
  5
13F
330
11C
100
AcDbEntity
  8
AM_9
100
AcDbLine
 10
-0.8
 20
-0.6049993649987304
 30
0.0
 11
-0.8
 21
-0.7063993649987302
 31
0.0
  0
LINE
  5
140
330
11C
100
AcDbEntity
  8
AM_9
100
AcDbLine
 10
-0.8
 20
-0.7063993649987302
 30
0.0
 11
0.8
 21
-0.7063993649987302
 31
0.0
  0
LINE
  5
141
330
11C
100
AcDbEntity
  8
AM_9
100
AcDbLine
 10
-0.8
 20
-0.6049993649987304
 30
0.0
 11
0.8
 21
-0.6049993649987304
 31
0.0
  0
LINE
  5
142
330
11C
100
AcDbEntity
  8
AM_9
100
AcDbLine
 10
-0.7764000000000001
 20
0.452
 30
0.0
 11
-0.8
 21
0.4284
 31
0.0
  0
LINE
  5
143
330
11C
100
AcDbEntity
  8
AM_9
100
AcDbLine
 10
0.8
 20
0.4284
 30
0.0
 11
0.7764000000000001
 21
0.452
 31
0.0
  0
LINE
  5
144
330
11C
100
AcDbEntity
  8
AM_9
100
AcDbLine
 10
-0.8
 20
0.4284
 30
0.0
 11
0.8
 21
0.4284
 31
0.0
  0
LINE
  5
145
330
11C
100
AcDbEntity
  8
AM_9
100
AcDbLine
 10
-0.7764000000000001
 20
0.452
 30
0.0
 11
0.7764000000000001
 21
0.452
 31
0.0
  0
LINE
  5
146
330
11C
100
AcDbEntity
  8
AM_9
100
AcDbLine
 10
0.8000000000000002
 20
-0.4799993649987301
 30
0.0
 11
0.8000000000000002
 21
-0.2749999999999999
 31
0.0
  0
LINE
  5
147
330
11C
100
AcDbEntity
  8
AM_9
100
AcDbLine
 10
-0.8000000000000002
 20
-0.2749999999999999
 30
0.0
 11
-0.8000000000000002
 21
-0.4799993649987301
 31
0.0
  0
LINE
  5
148
330
11C
100
AcDbEntity
  8
AM_9
100
AcDbLine
 10
-0.8000000000000002
 20
-0.4799993649987301
 30
0.0
 11
0.8
 21
-0.4799993649987301
 31
0.0
  0
LINE
  5
149
330
11C
100
AcDbEntity
  8
AM_9
100
AcDbLine
 10
0.9646000000000001
 20
-0.1719999999999999
 30
0.0
 11
0.9646000000000001
 21
-0.108
 31
0.0
  0
LINE
  5
14A
330
11C
100
AcDbEntity
  8
AM_9
100
AcDbLine
 10
-0.9646000000000001
 20
-0.108
 30
0.0
 11
-0.9646000000000001
 21
-0.1719999999999999
 31
0.0
  0
LINE
  5
14B
330
11C
100
AcDbEntity
  8
AM_9
100
AcDbLine
 10
-0.9486878556900858
 20
0.315
 30
0.0
 11
0.9486878556946367
 21
0.315
 31
0.0
  0
ARC
  5
14C
330
11C
100
AcDbEntity
  8
AM_9
100
AcDbCircle
 10
0.9486878556946369
 20
0.2913999999999999
 30
0.0
 40
0.0236
100
AcDbArc
 50
21.4124755069705
 51
90.0
  0
ARC
  5
14D
330
11C
100
AcDbEntity
  8
AM_9
100
AcDbCircle
 10
-0.9486878556946369
 20
0.2913999999999999
 30
0.0
 40
0.0236000000000001
100
AcDbArc
 50
90.0
 51
158.5875244930295
  0
LINE
  5
14E
330
11C
100
AcDbEntity
  8
AM_9
100
AcDbLine
 10
-0.9486878556900856
 20
-0.275
 30
0.0
 11
0.9486878556946365
 21
-0.275
 31
0.0
  0
ARC
  5
14F
330
11C
100
AcDbEntity
  8
AM_9
100
AcDbCircle
 10
0.9486878556946367
 20
-0.2514000000000005
 30
0.0
 40
0.0235999999999995
100
AcDbArc
 50
270.0
 51
338.5875329531174
  0
ARC
  5
150
330
11C
100
AcDbEntity
  8
AM_9
100
AcDbCircle
 10
-0.9486878556946367
 20
-0.2514000000000005
 30
0.0
 40
0.0235999999999995
100
AcDbArc
 50
201.4124670468826
 51
270.0
  0
ARC
  5
151
330
11C
100
AcDbEntity
  8
AM_9
100
AcDbCircle
 10
0.2566000000001237
 20
0.0199999999999599
 30
0.0
 40
0.7669999999998701
100
AcDbArc
 50
338.5875329531153
 51
344.9288463923388
  0
ARC
  5
152
330
11C
100
AcDbEntity
  8
AM_9
100
AcDbCircle
 10
-0.2566000000001587
 20
0.0199999999999487
 30
0.0
 40
0.7669999999998335
100
AcDbArc
 50
195.071153607661
 51
201.4124670468848
  0
LINE
  5
153
330
11C
100
AcDbEntity
  8
AM_9
100
AcDbLine
 10
-0.9706588987325615
 20
-0.2600158730158728
 30
0.0
 11
0.9706588987325615
 21
-0.2600158730158728
 31
0.0
  0
LINE
  5
154
330
11C
100
AcDbEntity
  8
AM_9
100
AcDbLine
 10
-0.9915209481248035
 20
-0.1719999999999999
 30
0.0
 11
0.9915209481297971
 21
-0.1719999999999999
 31
0.0
  0
ARC
  5
155
330
11C
100
AcDbEntity
  8
AM_9
100
AcDbCircle
 10
0.9915209481297975
 20
-0.1778999999999997
 30
0.0
 40
0.0058999999999998
100
AcDbArc
 50
344.9288463923359
 51
90.0
  0
ARC
  5
156
330
11C
100
AcDbEntity
  8
AM_9
100
AcDbCircle
 10
-0.9915209481297975
 20
-0.1778999999999997
 30
0.0
 40
0.0058999999999998
100
AcDbArc
 50
90.0
 51
195.0711536076642
  0
LINE
  5
157
330
11C
100
AcDbEntity
  8
AM_9
100
AcDbLine
 10
-0.9972180097432065
 20
-0.1794341085271317
 30
0.0
 11
0.9972180097432065
 21
-0.1794341085271317
 31
0.0
  0
LINE
  5
158
330
11C
100
AcDbEntity
  8
AM_9
100
AcDbLine
 10
-1.007842171336316
 20
-0.108
 30
0.0
 11
1.00784217134026
 21
-0.108
 31
0.0
  0
ARC
  5
159
330
11C
100
AcDbEntity
  8
AM_9
100
AcDbCircle
 10
1.00784217134026
 20
-0.1020999999999996
 30
0.0
 40
0.0059000000000004
100
AcDbArc
 50
270.0
 51
350.7682490865388
  0
ARC
  5
15A
330
11C
100
AcDbEntity
  8
AM_9
100
AcDbCircle
 10
-1.00784217134026
 20
-0.1020999999999996
 30
0.0
 40
0.0059000000000004
100
AcDbArc
 50
189.2317509134612
 51
270.0
  0
ARC
  5
15B
330
11C
100
AcDbEntity
  8
AM_9
100
AcDbCircle
 10
0.2565999999999855
 20
0.0199999999999981
 30
0.0
 40
0.7670000000000143
100
AcDbArc
 50
350.7683926808379
 51
21.41246730719415
  0
ARC
  5
15C
330
11C
100
AcDbEntity
  8
AM_9
100
AcDbCircle
 10
-0.2565999999999872
 20
0.0199999999999982
 30
0.0
 40
0.7670000000000127
100
AcDbArc
 50
158.5875326928059
 51
189.2316073191621
  0
LINE
  5
15D
330
11C
100
AcDbEntity
  8
AM_9
100
AcDbLine
 10
-1.01366575167328
 20
-0.1030465263360673
 30
0.0
 11
1.013665751673279
 21
-0.1030465263360673
 31
0.0
  0
LINE
  5
15E
330
11C
100
AcDbEntity
  8
AM_9
100
AcDbLine
 10
-0.9706588974603731
 20
0.3000158762600372
 30
0.0
 11
0.9706588974603731
 21
0.3000158762600372
 31
0.0
  0
ENDBLK
  5
11F
330
11C
100
AcDbEntity
  8
0
100
AcDbBlockEnd
  0
BLOCK
  5
161
330
15F
100
AcDbEntity
  8
0
100
AcDbBlockBegin
  2
4_136524_0_in_136113_4
 70
     2
 10
0.0
 20
0.0
 30
0.0
  3
4_136524_0_in_136113_4
  1

  0
ATTDEF
  5
163
330
15F
100
AcDbEntity
  8
AM_6
100
AcDbText
 10
5.9
 20
0.5740000000000001
 30
0.0
 40
0.5
  1
Grip Tight Normal Duty Adapter and Nut Inch Bore D
100
AcDbAttributeDefinition
  3

  2
NN
 70
     8
280
     0
  0
ATTDEF
  5
164
330
15F
100
AcDbEntity
  8
AM_6
100
AcDbText
 10
5.9
 20
0.0740000000000001
 30
0.0
 40
0.5
  1
GT and GTM Adapter & Lock Nut Assemblies
100
AcDbAttributeDefinition
  3

  2
NT
 70
     8
280
     0
  0
ATTDEF
  5
165
330
15F
100
AcDbEntity
  8
AM_6
100
AcDbText
 10
5.9
 20
-0.4259999999999999
 30
0.0
 40
0.5
  1
136524
100
AcDbAttributeDefinition
  3

  2
NB
 70
     8
280
     0
  0
ATTDEF
  5
166
330
15F
100
AcDbEntity
  8
AM_6
100
AcDbText
 10
5.9
 20
-0.9259999999999999
 30
0.0
 40
0.5
  1
$PN.
100
AcDbAttributeDefinition
  3

  2
NBSYN
 70
     8
280
     0
  0
ATTDEF
  5
167
330
15F
100
AcDbEntity
  8
AM_6
100
AcDbText
 10
5.9
 20
-1.426
 30
0.0
 40
0.5
  1
136524
100
AcDbAttributeDefinition
  3

  2
LINA
 70
     8
280
     0
  0
ATTDEF
  5
168
330
15F
100
AcDbEntity
  8
AM_6
100
AcDbText
 10
5.9
 20
-1.926
 30
0.0
 40
0.5
  1
205
100
AcDbAttributeDefinition
  3

  2
SERIES
 70
     8
280
     0
  0
ATTDEF
  5
169
330
15F
100
AcDbEntity
  8
AM_6
100
AcDbText
 10
5.9
 20
-2.426
 30
0.0
 40
0.5
  1
1
100
AcDbAttributeDefinition
  3

  2
SS
 70
     8
280
     0
  0
ATTDEF
  5
16A
330
15F
100
AcDbEntity
  8
AM_6
100
AcDbText
 10
5.9
 20
-2.926
 30
0.0
 40
0.5
  1
136524
100
AcDbAttributeDefinition
  3

  2
PN
 70
     8
280
     0
  0
ATTDEF
  5
16B
330
15F
100
AcDbEntity
  8
AM_6
100
AcDbText
 10
5.9
 20
-3.426
 30
0.0
 40
0.5
  1
AN-GT-05-100-D
100
AcDbAttributeDefinition
  3

  2
DESCRIPTION
 70
     8
280
     0
  0
ATTDEF
  5
16C
330
15F
100
AcDbEntity
  8
AM_6
100
AcDbText
 10
5.9
 20
-3.926
 30
0.0
 40
0.5
  1
1.46
100
AcDbAttributeDefinition
  3

  2
A
 70
     8
280
     0
  0
ATTDEF
  5
16D
330
15F
100
AcDbEntity
  8
AM_6
100
AcDbText
 10
5.9
 20
-4.426
 30
0.0
 40
0.5
  1
0.59
100
AcDbAttributeDefinition
  3

  2
C
 70
     8
280
     0
  0
ATTDEF
  5
16E
330
15F
100
AcDbEntity
  8
AM_6
100
AcDbText
 10
5.9
 20
-4.926
 30
0.0
 40
0.5
  1
2.0472
100
AcDbAttributeDefinition
  3

  2
D
 70
     8
280
     0
  0
ATTDEF
  5
16F
330
15F
100
AcDbEntity
  8
AM_6
100
AcDbText
 10
5.9
 20
-5.426
 30
0.0
 40
0.5
  1
0.16
100
AcDbAttributeDefinition
  3

  2
J
 70
     8
280
     0
  0
ATTDEF
  5
170
330
15F
100
AcDbEntity
  8
AM_6
100
AcDbText
 10
5.9
 20
-5.926
 30
0.0
 40
0.5
  1
1.80
100
AcDbAttributeDefinition
  3

  2
L
 70
     8
280
     0
  0
ATTDEF
  5
171
330
15F
100
AcDbEntity
  8
AM_6
100
AcDbText
 10
5.9
 20
-6.426
 30
0.0
 40
0.5
  1
10 - 32 x 1/4
100
AcDbAttributeDefinition
  3

  2
N
 70
     8
280
     0
  0
ATTDEF
  5
172
330
15F
100
AcDbEntity
  8
AM_6
100
AcDbText
 10
5.9
 20
-6.926
 30
0.0
 40
0.5
  1
0.48
100
AcDbAttributeDefinition
  3

  2
W
 70
     8
280
     0
  0
ATTDEF
  5
173
330
15F
100
AcDbEntity
  8
AM_6
100
AcDbText
 10
5.9
 20
-7.426
 30
0.0
 40
0.5
  1
1.00
100
AcDbAttributeDefinition
  3

  2
X
 70
     8
280
     0
  0
ATTDEF
  5
174
330
15F
100
AcDbEntity
  8
AM_6
100
AcDbText
 10
5.9
 20
-7.926
 30
0.0
 40
0.5
  1
0.98
100
AcDbAttributeDefinition
  3

  2
Y
 70
     8
280
     0
  0
ATTDEF
  5
175
330
15F
100
AcDbEntity
  8
AM_6
100
AcDbText
 10
5.9
 20
-8.426
 30
0.0
 40
0.5
  1
baldor
100
AcDbAttributeDefinition
  3

  2
COMPANY
 70
     8
280
     0
  0
LINE
  5
176
330
15F
100
AcDbEntity
  8
AM_9
100
AcDbLine
 10
-0.08
 20
-0.4800000000000001
 30
0.0
 11
-0.08
 21
-0.98
 31
0.0
  0
LINE
  5
177
330
15F
100
AcDbEntity
  8
AM_9
100
AcDbLine
 10
0.08
 20
-0.4800000000000001
 30
0.0
 11
0.08
 21
-0.98
 31
0.0
  0
LINE
  5
178
330
15F
100
AcDbEntity
  8
AM_9
100
AcDbLine
 10
0.6714285714285715
 20
-0.7299999999999999
 30
0.0
 11
0.6714285714285717
 21
-0.98
 31
0.0
  0
LINE
  5
179
330
15F
100
AcDbEntity
  8
AM_9
100
AcDbLine
 10
0.6714285714285715
 20
-0.9599999999999999
 30
0.0
 11
-0.6714285714285717
 21
-0.9599999999999999
 31
0.0
  0
LINE
  5
17A
330
15F
100
AcDbEntity
  8
AM_9
100
AcDbLine
 10
-0.8763999999999995
 20
-0.4799999999999999
 30
0.0
 11
-0.8963999999999995
 21
-0.4999999999999999
 31
0.0
  0
LINE
  5
17B
330
15F
100
AcDbEntity
  8
AM_9
100
AcDbLine
 10
-0.7363375554486591
 20
-0.5035999999999999
 30
0.0
 11
-0.8163375554486587
 21
-0.5035999999999999
 31
0.0
  0
LINE
  5
17C
330
15F
100
AcDbEntity
  8
AM_9
100
AcDbLine
 10
-0.7363375554486591
 20
-0.9563999999999999
 30
0.0
 11
-0.816337555448659
 21
-0.9563999999999999
 31
0.0
  0
LINE
  5
17D
330
15F
100
AcDbEntity
  8
AM_9
100
AcDbLine
 10
-0.7958159299723706
 20
-0.48
 30
0.0
 11
-0.8132072802595401
 21
-0.4999998350783394
 31
0.0
  0
LINE
  5
17E
330
15F
100
AcDbEntity
  8
AM_9
100
AcDbLine
 10
0.8963999999999995
 20
-0.4999999999999999
 30
0.0
 11
0.8763999999999995
 21
-0.4799999999999999
 31
0.0
  0
LINE
  5
17F
330
15F
100
AcDbEntity
  8
AM_9
100
AcDbLine
 10
0.8163375554486587
 20
-0.5035999999999999
 30
0.0
 11
0.7363375554486586
 21
-0.5035999999999999
 31
0.0
  0
LINE
  5
180
330
15F
100
AcDbEntity
  8
AM_9
100
AcDbLine
 10
0.81320728025954
 20
-0.4999998350783396
 30
0.0
 11
0.7958159299723704
 21
-0.4799999999999999
 31
0.0
  0
LINE
  5
181
330
15F
100
AcDbEntity
  8
AM_9
100
AcDbLine
 10
0.8163375554486587
 20
-0.9563999999999999
 30
0.0
 11
0.736337555448659
 21
-0.9563999999999999
 31
0.0
  0
LINE
  5
182
330
15F
100
AcDbEntity
  8
AM_9
100
AcDbLine
 10
-0.6874612071963929
 20
-0.48
 30
0.0
 11
-0.6874612071963929
 21
-0.98
 31
0.0
  0
LINE
  5
183
330
15F
100
AcDbEntity
  8
AM_9
100
AcDbLine
 10
-0.7674612071963929
 20
-0.48
 30
0.0
 11
-0.7674612071963929
 21
-0.4999999999999999
 31
0.0
  0
LINE
  5
184
330
15F
100
AcDbEntity
  8
AM_9
100
AcDbLine
 10
0.8763999999999995
 20
-0.4799999999999999
 30
0.0
 11
-0.8763999999999995
 21
-0.4799999999999999
 31
0.0
  0
LINE
  5
185
330
15F
100
AcDbEntity
  8
AM_9
100
AcDbLine
 10
0.6874612071963927
 20
-0.48
 30
0.0
 11
0.6874612071963927
 21
-0.98
 31
0.0
  0
LINE
  5
186
330
15F
100
AcDbEntity
  8
AM_9
100
AcDbLine
 10
0.7674612071963927
 20
-0.48
 30
0.0
 11
0.7674612071963927
 21
-0.4999999999999999
 31
0.0
  0
LINE
  5
187
330
15F
100
AcDbEntity
  8
AM_9
100
AcDbLine
 10
0.49749371855331
 20
0.5
 30
0.0
 11
0.49749371855331
 21
-0.9599999999999999
 31
0.0
  0
LINE
  5
188
330
15F
100
AcDbEntity
  8
AM_9
100
AcDbLine
 10
-0.5
 20
0.5000000000000001
 30
0.0
 11
-0.5
 21
-0.9599999999999999
 31
0.0
  0
LINE
  5
189
330
15F
100
AcDbEntity
  8
AM_9
100
AcDbLine
 10
0.6695642811042208
 20
-0.7299993649987302
 30
0.0
 11
0.6695642811042208
 21
-0.3550000000000006
 31
0.0
  0
LINE
  5
18A
330
15F
100
AcDbEntity
  8
AM_9
100
AcDbLine
 10
-0.6714285714285714
 20
-0.3550000000000004
 30
0.0
 11
-0.6714285714285714
 21
-0.7299993649987302
 31
0.0
  0
LINE
  5
18B
330
15F
100
AcDbEntity
  8
AM_9
100
AcDbLine
 10
-0.6714285714285717
 20
-0.9599999999999999
 30
0.0
 11
-0.6714285714285717
 21
-0.98
 31
0.0
  0
LINE
  5
18C
330
15F
100
AcDbEntity
  8
AM_9
100
AcDbLine
 10
0.6695642811042208
 20
-0.3550000000000006
 30
0.0
 11
0.6995011182540911
 21
0.5
 31
0.0
  0
LINE
  5
18D
330
15F
100
AcDbEntity
  8
AM_9
100
AcDbLine
 10
-0.7012858293440157
 20
0.5
 30
0.0
 11
-0.6714285714285715
 21
-0.3550000000000004
 31
0.0
  0
LINE
  5
18E
330
15F
100
AcDbEntity
  8
AM_9
100
AcDbLine
 10
-0.6714285714285715
 20
-0.3550000000000004
 30
0.0
 11
0.6695642811042208
 21
-0.3550000000000006
 31
0.0
  0
LINE
  5
18F
330
15F
100
AcDbEntity
  8
AM_9
100
AcDbLine
 10
0.7357142857142858
 20
-0.605
 30
0.0
 11
0.7357142857142858
 21
-0.4799999999999999
 31
0.0
  0
LINE
  5
190
330
15F
100
AcDbEntity
  8
AM_9
100
AcDbLine
 10
-0.7357142857142858
 20
-0.4799999999999999
 30
0.0
 11
-0.7357142857142858
 21
-0.605
 31
0.0
  0
LINE
  5
191
330
15F
100
AcDbEntity
  8
AM_9
100
AcDbLine
 10
0.8000000000000002
 20
-0.7299999999999999
 30
0.0
 11
0.8000000000000002
 21
-0.605
 31
0.0
  0
LINE
  5
192
330
15F
100
AcDbEntity
  8
AM_9
100
AcDbLine
 10
-0.8000000000000002
 20
-0.605
 30
0.0
 11
-0.8000000000000002
 21
-0.7299999999999999
 31
0.0
  0
LINE
  5
193
330
15F
100
AcDbEntity
  8
AM_9
100
AcDbLine
 10
-0.8000000000000002
 20
-0.605
 30
0.0
 11
0.8000000000000002
 21
-0.605
 31
0.0
  0
LINE
  5
194
330
15F
100
AcDbEntity
  8
AM_9
100
AcDbLine
 10
-0.8000000000000002
 20
-0.7299999999999999
 30
0.0
 11
0.8000000000000002
 21
-0.7299999999999999
 31
0.0
  0
LINE
  5
195
330
15F
100
AcDbEntity
  8
AM_9
100
AcDbLine
 10
-0.7332072802595403
 20
-0.4999998350783396
 30
0.0
 11
-0.7158159299723708
 21
-0.48
 31
0.0
  0
LINE
  5
196
330
15F
100
AcDbEntity
  8
AM_9
100
AcDbLine
 10
0.7158159299723705
 20
-0.4799999999999999
 30
0.0
 11
0.7332072802595401
 21
-0.4999998350783394
 31
0.0
  0
LINE
  5
199
330
15F
100
AcDbEntity
  8
AM_7
100
AcDbLine
 10
-0.0760725000000001
 20
-0.8579167915502497
 30
0.0
 11
0.0760725000000001
 21
-0.8579167915502497
 31
0.0
  0
LINE
  5
19A
330
15F
100
AcDbEntity
  8
AM_7
100
AcDbLine
 10
0.0
 20
-1.054
 30
0.0
 11
0.0
 21
0.5740000000000001
 31
0.0
  0
LINE
  5
19B
330
15F
100
AcDbEntity
  8
AM_4
100
AcDbLine
 10
-0.8963999999999995
 20
-0.4999999999999999
 30
0.0
 11
-0.8999999999999995
 21
-0.5035999999999999
 31
0.0
  0
LINE
  5
19C
330
15F
100
AcDbEntity
  8
AM_4
100
AcDbLine
 10
-0.8999999999999999
 20
-0.9563999999999999
 30
0.0
 11
-0.8764000000000001
 21
-0.98
 31
0.0
  0
LINE
  5
19D
330
15F
100
AcDbEntity
  8
AM_4
100
AcDbLine
 10
-0.8999999999999997
 20
-0.5035999999999999
 30
0.0
 11
-0.8999999999999997
 21
-0.9563999999999999
 31
0.0
  0
LINE
  5
19E
330
15F
100
AcDbEntity
  8
AM_4
100
AcDbLine
 10
-0.8999999999999997
 20
-0.5035999999999999
 30
0.0
 11
-0.8163375554486587
 21
-0.5035999999999999
 31
0.0
  0
LINE
  5
19F
330
15F
100
AcDbEntity
  8
AM_4
100
AcDbLine
 10
-0.8999999999999997
 20
-0.9563999999999999
 30
0.0
 11
-0.816337555448659
 21
-0.9563999999999999
 31
0.0
  0
LINE
  5
1A0
330
15F
100
AcDbEntity
  8
AM_4
100
AcDbLine
 10
-0.8132072802595401
 20
-0.4999998350783394
 30
0.0
 11
-0.8163375554486587
 21
-0.5035999999999999
 31
0.0
  0
LINE
  5
1A1
330
15F
100
AcDbEntity
  8
AM_4
100
AcDbLine
 10
-0.8163375554486587
 20
-0.5035999999999999
 30
0.0
 11
-0.816337555448659
 21
-0.9563999999999999
 31
0.0
  0
LINE
  5
1A2
330
15F
100
AcDbEntity
  8
AM_4
100
AcDbLine
 10
-0.816337555448659
 20
-0.9563999999999999
 30
0.0
 11
-0.7958159299723712
 21
-0.98
 31
0.0
  0
LINE
  5
1A3
330
15F
100
AcDbEntity
  8
AM_4
100
AcDbLine
 10
0.8999999999999995
 20
-0.5035999999999999
 30
0.0
 11
0.8963999999999995
 21
-0.4999999999999999
 31
0.0
  0
LINE
  5
1A4
330
15F
100
AcDbEntity
  8
AM_4
100
AcDbLine
 10
0.8163375554486587
 20
-0.5035999999999999
 30
0.0
 11
0.8999999999999997
 21
-0.5035999999999999
 31
0.0
  0
LINE
  5
1A5
330
15F
100
AcDbEntity
  8
AM_4
100
AcDbLine
 10
0.8999999999999997
 20
-0.9563999999999999
 30
0.0
 11
0.8999999999999997
 21
-0.5035999999999999
 31
0.0
  0
LINE
  5
1A6
330
15F
100
AcDbEntity
  8
AM_4
100
AcDbLine
 10
0.8163375554486587
 20
-0.9563999999999999
 30
0.0
 11
0.8163375554486587
 21
-0.5035999999999999
 31
0.0
  0
LINE
  5
1A7
330
15F
100
AcDbEntity
  8
AM_4
100
AcDbLine
 10
0.8163375554486587
 20
-0.5035999999999999
 30
0.0
 11
0.81320728025954
 21
-0.4999998350783396
 31
0.0
  0
LINE
  5
1A8
330
15F
100
AcDbEntity
  8
AM_4
100
AcDbLine
 10
-0.8764000000000001
 20
-0.98
 30
0.0
 11
0.8764000000000001
 21
-0.98
 31
0.0
  0
LINE
  5
1A9
330
15F
100
AcDbEntity
  8
AM_4
100
AcDbLine
 10
0.8163375554486587
 20
-0.9563999999999999
 30
0.0
 11
0.8999999999999999
 21
-0.9563999999999999
 31
0.0
  0
LINE
  5
1AA
330
15F
100
AcDbEntity
  8
AM_4
100
AcDbLine
 10
0.7958159299723709
 20
-0.98
 30
0.0
 11
0.8163375554486587
 21
-0.9563999999999999
 31
0.0
  0
LINE
  5
1AB
330
15F
100
AcDbEntity
  8
AM_4
100
AcDbLine
 10
0.8764000000000001
 20
-0.98
 30
0.0
 11
0.8999999999999999
 21
-0.9563999999999999
 31
0.0
  0
LINE
  5
1AC
330
15F
100
AcDbEntity
  8
AM_4
100
AcDbLine
 10
-0.7674612071963929
 20
-0.4999999999999999
 30
0.0
 11
-0.7674612071963929
 21
-0.98
 31
0.0
  0
LINE
  5
1AD
330
15F
100
AcDbEntity
  8
AM_4
100
AcDbLine
 10
0.7674612071963927
 20
-0.4999999999999999
 30
0.0
 11
0.7674612071963927
 21
-0.98
 31
0.0
  0
LINE
  5
1AE
330
15F
100
AcDbEntity
  8
AM_4
100
AcDbLine
 10
-0.7363375554486591
 20
-0.5035999999999999
 30
0.0
 11
-0.7332072802595403
 21
-0.4999998350783396
 31
0.0
  0
LINE
  5
1AF
330
15F
100
AcDbEntity
  8
AM_4
100
AcDbLine
 10
0.7332072802595401
 20
-0.4999998350783394
 30
0.0
 11
0.7363375554486586
 21
-0.5035999999999999
 31
0.0
  0
CIRCLE
  5
1B0
330
15F
100
AcDbEntity
  8
AM_4
100
AcDbCircle
 10
0.0
 20
-0.8579167915502497
 30
0.0
 40
0.0724500000000001
  0
LINE
  5
1B1
330
15F
100
AcDbEntity
  8
AM_4
100
AcDbLine
 10
-0.7158159299723712
 20
-0.98
 30
0.0
 11
-0.7363375554486591
 21
-0.9563999999999999
 31
0.0
  0
LINE
  5
1B2
330
15F
100
AcDbEntity
  8
AM_4
100
AcDbLine
 10
0.736337555448659
 20
-0.9563999999999999
 30
0.0
 11
0.7158159299723711
 21
-0.98
 31
0.0
  0
LINE
  5
1B3
330
15F
100
AcDbEntity
  8
AM_4
100
AcDbLine
 10
-0.7363375554486591
 20
-0.9563999999999999
 30
0.0
 11
-0.7363375554486591
 21
-0.5035999999999999
 31
0.0
  0
LINE
  5
1B4
330
15F
100
AcDbEntity
  8
AM_4
100
AcDbLine
 10
-0.7363375554486591
 20
-0.9563999999999999
 30
0.0
 11
0.736337555448659
 21
-0.9563999999999999
 31
0.0
  0
LINE
  5
1B5
330
15F
100
AcDbEntity
  8
AM_4
100
AcDbLine
 10
0.7363375554486586
 20
-0.5035999999999999
 30
0.0
 11
0.736337555448659
 21
-0.9563999999999999
 31
0.0
  0
LINE
  5
1B6
330
15F
100
AcDbEntity
  8
AM_4
100
AcDbLine
 10
-0.7363375554486591
 20
-0.5035999999999999
 30
0.0
 11
0.7363375554486586
 21
-0.5035999999999999
 31
0.0
  0
LWPOLYLINE
  5
1B7
330
15F
100
AcDbEntity
  8
AM_4
100
AcDbPolyline
 90
       39
 70
     0
 43
0.0
 10
0.0655150284450321
 20
-0.9233752740405629
 10
0.0556837667336517
 20
-0.9327478222124953
 10
0.0443026912608877
 20
-0.9407187204161453
 10
0.030608703593774
 20
-0.9473005456149174
 10
0.0155025816824688
 20
-0.9515080183708119
 10
0.0010301171304864
 20
-0.9529106168740493
 10
-0.0139095295530219
 20
-0.9517843203351471
 10
-0.0277131229007345
 20
-0.9483384551716021
 10
-0.0411235498076454
 20
-0.9425107282003745
 10
-0.0534231026869758
 20
-0.934535899851677
 10
-0.0642919081741785
 20
-0.9246998037043925
 10
-0.0737282673905486
 20
-0.9129035389394053
 10
-0.0813515044996851
 20
-0.8993956998338788
 10
-0.0868110088280471
 20
-0.8845460628026746
 10
-0.089871511210327
 20
-0.8685774978104125
 10
-0.0902839234570852
 20
-0.8522736428312707
 10
-0.0879236486694674
 20
-0.8356680882020339
 10
-0.0829230772575374
 20
-0.8200215813128293
 10
-0.0751067777062031
 20
-0.8050268541941918
 10
-0.0652858079137696
 20
-0.7922061462625702
 10
-0.0529983772884834
 20
-0.7809631276108008
 10
-0.0398877353030432
 20
-0.7726716985876462
 10
-0.025050194897653
 20
-0.766640512715878
 10
-0.0106259528422702
 20
-0.7635760565736897
 10
0.0045712687469073
 20
-0.7630384595605862
 10
0.0187072357959499
 20
-0.7649752354343341
 10
0.0327117068492853
 20
-0.7693599724406535
 10
0.0455002735335369
 20
-0.7758352417140264
 10
0.0573837163582858
 20
-0.7845170254982807
 10
0.0678271710067124
 20
-0.7951097587562825
 10
0.0766694925605298
 20
-0.8075592225810965
 10
0.0835478824413803
 20
-0.821564949116332
 10
0.0881997464198784
 20
-0.8369059761970288
 10
0.0903202995394561
 20
-0.8529557642753356
 10
0.0897569607863346
 20
-0.8695918422058689
 10
0.086483877136105
 20
-0.8856936824035361
 10
0.0803681792698954
 20
-0.9014567852771572
 10
0.0737785407686934
 20
-0.9128291430084353
 10
0.0655150285866502
 20
-0.9233752741292403
  0
ARC
  5
1B9
330
15F
100
AcDbEntity
  8
AM_5
100
AcDbCircle
 10
0.0
 20
-0.8579167915502498
 30
0.0
 40
0.095
100
AcDbArc
 50
75.00000000000001
 51
15.0
  0
ENDBLK
  5
162
330
15F
100
AcDbEntity
  8
0
100
AcDbBlockEnd
  0
BLOCK
  5
1BC
330
1BA
100
AcDbEntity
  8
0
100
AcDbBlockBegin
  2
5_136113h_0_in_136113_4
 70
     2
 10
0.0
 20
0.0
 30
0.0
  3
5_136113h_0_in_136113_4
  1

  0
ATTDEF
  5
1BE
330
1BA
100
AcDbEntity
  8
AM_6
100
AcDbText
 10
7.243320000000004
 20
0.7589999999999998
 30
0.0
 40
0.5
  1
NSTU-GT - Inch - Housing
100
AcDbAttributeDefinition
  3

  2
NN
 70
     8
280
     0
  0
ATTDEF
  5
1BF
330
1BA
100
AcDbEntity
  8
AM_6
100
AcDbText
 10
7.243320000000004
 20
0.2589999999999998
 30
0.0
 40
0.5
  1
GT Normal Duty Narrow Slot Take-Up Bearings
100
AcDbAttributeDefinition
  3

  2
NT
 70
     8
280
     0
  0
ATTDEF
  5
1C0
330
1BA
100
AcDbEntity
  8
AM_6
100
AcDbText
 10
7.243320000000004
 20
-0.2410000000000002
 30
0.0
 40
0.5
  1
136113h
100
AcDbAttributeDefinition
  3

  2
NB
 70
     8
280
     0
  0
ATTDEF
  5
1C1
330
1BA
100
AcDbEntity
  8
AM_6
100
AcDbText
 10
7.243320000000004
 20
-0.7410000000000002
 30
0.0
 40
0.5
  1
$PN.h
100
AcDbAttributeDefinition
  3

  2
NBSYN
 70
     8
280
     0
  0
ATTDEF
  5
1C2
330
1BA
100
AcDbEntity
  8
AM_6
100
AcDbText
 10
7.243320000000004
 20
-1.241
 30
0.0
 40
0.5
  1
136113I
100
AcDbAttributeDefinition
  3

  2
LINA
 70
     8
280
     0
  0
ATTDEF
  5
1C3
330
1BA
100
AcDbEntity
  8
AM_6
100
AcDbText
 10
7.243320000000004
 20
-1.741
 30
0.0
 40
0.5
  1
205
100
AcDbAttributeDefinition
  3

  2
SERIES
 70
     8
280
     0
  0
ATTDEF
  5
1C4
330
1BA
100
AcDbEntity
  8
AM_6
100
AcDbText
 10
7.243320000000004
 20
-2.241
 30
0.0
 40
0.5
  1
1
100
AcDbAttributeDefinition
  3

  2
SS
 70
     8
280
     0
  0
ATTDEF
  5
1C5
330
1BA
100
AcDbEntity
  8
AM_6
100
AcDbText
 10
7.243320000000004
 20
-2.741
 30
0.0
 40
0.5
  1
136113
100
AcDbAttributeDefinition
  3

  2
PN
 70
     8
280
     0
  0
ATTDEF
  5
1C6
330
1BA
100
AcDbEntity
  8
AM_6
100
AcDbText
 10
7.243320000000004
 20
-3.241
 30
0.0
 40
0.5
  1
NSTU-GT-100
100
AcDbAttributeDefinition
  3

  2
DESCRIPTION
 70
     8
280
     0
  0
ATTDEF
  5
1C7
330
1BA
100
AcDbEntity
  8
AM_6
100
AcDbText
 10
7.243320000000004
 20
-3.741
 30
0.0
 40
0.5
  1
136211
100
AcDbAttributeDefinition
  3

  2
PNSL
 70
     8
280
     0
  0
ATTDEF
  5
1C8
330
1BA
100
AcDbEntity
  8
AM_6
100
AcDbText
 10
7.243320000000004
 20
-4.241
 30
0.0
 40
0.5
  1
NSTU-GT-05
100
AcDbAttributeDefinition
  3

  2
DESCRIPTIONSL
 70
     8
280
     0
  0
ATTDEF
  5
1C9
330
1BA
100
AcDbEntity
  8
AM_6
100
AcDbText
 10
7.243320000000004
 20
-4.741
 30
0.0
 40
0.5
  1
136524
100
AcDbAttributeDefinition
  3

  2
PNA
 70
     8
280
     0
  0
ATTDEF
  5
1CA
330
1BA
100
AcDbEntity
  8
AM_6
100
AcDbText
 10
7.243320000000004
 20
-5.241
 30
0.0
 40
0.5
  1
AN-GT-05-100-D
100
AcDbAttributeDefinition
  3

  2
DESCRIPTIONA
 70
     8
280
     0
  0
ATTDEF
  5
1CB
330
1BA
100
AcDbEntity
  8
AM_6
100
AcDbText
 10
7.243320000000004
 20
-5.741
 30
0.0
 40
0.5
  1
1.5
100
AcDbAttributeDefinition
  3

  2
W
 70
     8
280
     0
  0
ATTDEF
  5
1CC
330
1BA
100
AcDbEntity
  8
AM_6
100
AcDbText
 10
7.243320000000004
 20
-6.241
 30
0.0
 40
0.5
  1
NS210
100
AcDbAttributeDefinition
  3

  2
TUFS
 70
     8
280
     0
  0
ATTDEF
  5
1CD
330
1BA
100
AcDbEntity
  8
AM_6
100
AcDbText
 10
7.243320000000004
 20
-6.741
 30
0.0
 40
0.5
  1
1.46
100
AcDbAttributeDefinition
  3

  2
A
 70
     8
280
     0
  0
ATTDEF
  5
1CE
330
1BA
100
AcDbEntity
  8
AM_6
100
AcDbText
 10
7.243320000000004
 20
-7.241
 30
0.0
 40
0.5
  1
3.56
100
AcDbAttributeDefinition
  3

  2
B
 70
     8
280
     0
  0
ATTDEF
  5
1CF
330
1BA
100
AcDbEntity
  8
AM_6
100
AcDbText
 10
7.243320000000004
 20
-7.741
 30
0.0
 40
0.5
  1
0.250
100
AcDbAttributeDefinition
  3

  2
C
 70
     8
280
     0
  0
ATTDEF
  5
1D0
330
1BA
100
AcDbEntity
  8
AM_6
100
AcDbText
 10
7.243320000000004
 20
-8.241
 30
0.0
 40
0.5
  1
1.50
100
AcDbAttributeDefinition
  3

  2
D
 70
     8
280
     0
  0
ATTDEF
  5
1D1
330
1BA
100
AcDbEntity
  8
AM_6
100
AcDbText
 10
7.243320000000004
 20
-8.741
 30
0.0
 40
0.5
  1
2.19
100
AcDbAttributeDefinition
  3

  2
E
 70
     8
280
     0
  0
ATTDEF
  5
1D2
330
1BA
100
AcDbEntity
  8
AM_6
100
AcDbText
 10
7.243320000000004
 20
-9.241
 30
0.0
 40
0.5
  1
3/4
100
AcDbAttributeDefinition
  3

  2
F
 70
     8
280
     0
  0
ATTDEF
  5
1D3
330
1BA
100
AcDbEntity
  8
AM_6
100
AcDbText
 10
7.243320000000004
 20
-9.741
 30
0.0
 40
0.5
  1
0.44
100
AcDbAttributeDefinition
  3

  2
G
 70
     8
280
     0
  0
ATTDEF
  5
1D4
330
1BA
100
AcDbEntity
  8
AM_6
100
AcDbText
 10
7.243320000000004
 20
-10.241
 30
0.0
 40
0.5
  1
0.88
100
AcDbAttributeDefinition
  3

  2
H
 70
     8
280
     0
  0
ATTDEF
  5
1D5
330
1BA
100
AcDbEntity
  8
AM_6
100
AcDbText
 10
7.243320000000004
 20
-10.741
 30
0.0
 40
0.5
  1
1.38
100
AcDbAttributeDefinition
  3

  2
J
 70
     8
280
     0
  0
ATTDEF
  5
1D6
330
1BA
100
AcDbEntity
  8
AM_6
100
AcDbText
 10
7.243320000000004
 20
-11.241
 30
0.0
 40
0.5
  1
1.80
100
AcDbAttributeDefinition
  3

  2
L
 70
     8
280
     0
  0
ATTDEF
  5
1D7
330
1BA
100
AcDbEntity
  8
AM_6
100
AcDbText
 10
7.243320000000004
 20
-11.741
 30
0.0
 40
0.5
  1
2.635/2.605
100
AcDbAttributeDefinition
  3

  2
M
 70
     8
280
     0
  0
ATTDEF
  5
1D8
330
1BA
100
AcDbEntity
  8
AM_6
100
AcDbText
 10
7.243320000000004
 20
-12.241
 30
0.0
 40
0.5
  1
3.13
100
AcDbAttributeDefinition
  3

  2
N
 70
     8
280
     0
  0
ATTDEF
  5
1D9
330
1BA
100
AcDbEntity
  8
AM_6
100
AcDbText
 10
7.243320000000004
 20
-12.741
 30
0.0
 40
0.5
  1
0.32
100
AcDbAttributeDefinition
  3

  2
P
 70
     8
280
     0
  0
ATTDEF
  5
1DA
330
1BA
100
AcDbEntity
  8
AM_6
100
AcDbText
 10
7.243320000000004
 20
-13.241
 30
0.0
 40
0.5
  1
0.48
100
AcDbAttributeDefinition
  3

  2
R
 70
     8
280
     0
  0
ATTDEF
  5
1DB
330
1BA
100
AcDbEntity
  8
AM_6
100
AcDbText
 10
7.243320000000004
 20
-13.741
 30
0.0
 40
0.5
  1
0.98
100
AcDbAttributeDefinition
  3

  2
S
 70
     8
280
     0
  0
ATTDEF
  5
1DC
330
1BA
100
AcDbEntity
  8
AM_6
100
AcDbText
 10
7.243320000000004
 20
-14.241
 30
0.0
 40
0.5
  1
1.00
100
AcDbAttributeDefinition
  3

  2
Z
 70
     8
280
     0
  0
ATTDEF
  5
1DD
330
1BA
100
AcDbEntity
  8
AM_6
100
AcDbText
 10
7.243320000000004
 20
-14.741
 30
0.0
 40
0.5
  1
1565
100
AcDbAttributeDefinition
  3

  2
CAPS
 70
     8
280
     0
  0
ATTDEF
  5
1DE
330
1BA
100
AcDbEntity
  8
AM_6
100
AcDbText
 10
7.243320000000004
 20
-15.241
 30
0.0
 40
0.5
  1
3146
100
AcDbAttributeDefinition
  3

  2
CAPD
 70
     8
280
     0
  0
ATTDEF
  5
1DF
330
1BA
100
AcDbEntity
  8
AM_6
100
AcDbText
 10
7.243320000000004
 20
-15.741
 30
0.0
 40
0.5
  1
baldor
100
AcDbAttributeDefinition
  3

  2
COMPANY
 70
     8
280
     0
  0
LINE
  5
1E0
330
1BA
100
AcDbEntity
  8
AM_9
100
AcDbLine
 10
1.91
 20
0.3750000000000001
 30
0.0
 11
1.91
 21
0.6899999999999963
 31
0.0
  0
LINE
  5
1E1
330
1BA
100
AcDbEntity
  8
AM_9
100
AcDbLine
 10
1.59
 20
0.6899999999999963
 30
0.0
 11
1.59
 21
0.3749999999999998
 31
0.0
  0
LINE
  5
1E2
330
1BA
100
AcDbEntity
  8
AM_9
100
AcDbLine
 10
1.91
 20
-0.6899999999999963
 30
0.0
 11
1.91
 21
-0.3749999999999999
 31
0.0
  0
LINE
  5
1E3
330
1BA
100
AcDbEntity
  8
AM_9
100
AcDbLine
 10
1.59
 20
-0.3749999999999999
 30
0.0
 11
1.59
 21
-0.6899999999999965
 31
0.0
  0
LINE
  5
1E4
330
1BA
100
AcDbEntity
  8
AM_9
100
AcDbLine
 10
1.90351416345829
 20
-0.3722789255145915
 30
0.0
 11
1.909999999967329
 21
-0.3749999999860606
 31
0.0
  0
LINE
  5
1E5
330
1BA
100
AcDbEntity
  8
AM_9
100
AcDbLine
 10
1.31
 20
0.3749999999999999
 30
0.0
 11
1.31
 21
-0.3749999999999999
 31
0.0
  0
LWPOLYLINE
  5
1E6
330
1BA
100
AcDbEntity
  8
AM_9
100
AcDbPolyline
 90
       23
 70
     0
 43
0.0
 10
1.59
 20
0.3749999999999999
 10
1.591997302716337
 20
0.3741521780625
 10
1.59814675046068
 20
0.3715971062799747
 10
1.607847339836107
 20
0.3677395529334196
 10
1.621303694897208
 20
0.3627502432075143
 10
1.638316092112752
 20
0.3570690343350532
 10
1.658801894212291
 20
0.3512009318029581
 10
1.682458004417134
 20
0.3458134195882453
 10
1.695558913146996
 20
0.3434959376175933
 10
1.709146153092783
 20
0.341605088965487
 10
1.735026893722942
 20
0.3394837167105133
 10
1.762303401167014
 20
0.3393764483288085
 10
1.786264691059636
 20
0.3410866866613981
 10
1.809876996401682
 20
0.3443983953186876
 10
1.831806646858942
 20
0.3488801047212404
 10
1.852173194557665
 20
0.354209488419097
 10
1.871040615752141
 20
0.3601053049618367
 10
1.88702794679631
 20
0.3657890897815468
 10
1.899066055755283
 20
0.3704668527391314
 10
1.903628137484356
 20
0.3723256007841406
 10
1.906995108612056
 20
0.3737277941605512
 10
1.909915232500955
 20
0.3749638403710875
 10
1.909999999967329
 20
0.3749999999860606
  0
LINE
  5
1E7
330
1BA
100
AcDbEntity
  8
AM_9
100
AcDbLine
 10
1.31
 20
-0.3749999999999999
 30
0.0
 11
1.59
 21
-0.3749999999999999
 31
0.0
  0
LINE
  5
1E8
330
1BA
100
AcDbEntity
  8
AM_9
100
AcDbLine
 10
1.91
 20
-0.3749999999999999
 30
0.0
 11
2.19
 21
-0.3749999999999999
 31
0.0
  0
LINE
  5
1E9
330
1BA
100
AcDbEntity
  8
AM_9
100
AcDbLine
 10
2.19
 20
0.3749999999999999
 30
0.0
 11
1.91
 21
0.3749999999999999
 31
0.0
  0
LINE
  5
1EA
330
1BA
100
AcDbEntity
  8
AM_9
100
AcDbLine
 10
1.59
 20
0.3749999999999999
 30
0.0
 11
1.31
 21
0.3749999999999999
 31
0.0
  0
LWPOLYLINE
  5
1EB
330
1BA
100
AcDbEntity
  8
AM_9
100
AcDbPolyline
 90
       23
 70
     0
 43
0.0
 10
1.909999999967329
 20
-0.3749999999860606
 10
1.90855716354838
 20
-0.3743866639084619
 10
1.903437731240092
 20
-0.3722474141859237
 10
1.894514866612369
 20
-0.3686591198817559
 10
1.882103194651517
 20
-0.363972875414002
 10
1.866150676689222
 20
-0.358491254698583
 10
1.846341326701011
 20
-0.352571483858963
 10
1.823127369711886
 20
-0.3469475640510808
 10
1.797926259976097
 20
-0.3425228844840829
 10
1.784212346590341
 20
-0.3408758561502758
 10
1.770180233674187
 20
-0.3397532072418813
 10
1.744813423645203
 20
-0.33919301374628
 10
1.718799019351194
 20
-0.3405855269876381
 10
1.695671685337975
 20
-0.3434771692180079
 10
1.673381571482429
 20
-0.3477001345822317
 10
1.652316745298556
 20
-0.3529405307542152
 10
1.633287630616721
 20
-0.3586736360078045
 10
1.616533015818854
 20
-0.364470075405938
 10
1.603192978009165
 20
-0.3695636639414343
 10
1.594606770532534
 20
-0.3730577110372181
 10
1.591871743738536
 20
-0.3742048378039797
 10
1.590341538009763
 20
-0.3748544043826721
 10
1.59
 20
-0.3749999999999999
  0
LINE
  5
1EC
330
1BA
100
AcDbEntity
  8
AM_9
100
AcDbLine
 10
1.909999999967329
 20
0.3749999999860606
 30
0.0
 11
1.903515996713375
 21
0.3722796814854404
 31
0.0
  0
LINE
  5
1ED
330
1BA
100
AcDbEntity
  8
AM_9
100
AcDbLine
 10
0.3333333333333333
 20
-0.15
 30
0.0
 11
0.3333333333333333
 21
0.5000000000000001
 31
0.0
  0
LINE
  5
1EE
330
1BA
100
AcDbEntity
  8
AM_9
100
AcDbLine
 10
-0.3333333333333333
 20
-0.15
 30
0.0
 11
-0.3333333333333333
 21
0.5000000000000001
 31
0.0
  0
LINE
  5
1EF
330
1BA
100
AcDbEntity
  8
AM_9
100
AcDbLine
 10
1.0236
 20
-0.5
 30
0.0
 11
1.0236
 21
0.5
 31
0.0
  0
LINE
  5
1F0
330
1BA
100
AcDbEntity
  8
AM_9
100
AcDbLine
 10
-1.0236
 20
0.5
 30
0.0
 11
-1.0236
 21
-0.5
 31
0.0
  0
LINE
  5
1F1
330
1BA
100
AcDbEntity
  8
AM_9
100
AcDbLine
 10
0.3333333333333333
 20
-0.15
 30
0.0
 11
-0.3333333333333333
 21
-0.15
 31
0.0
  0
LINE
  5
1F2
330
1BA
100
AcDbEntity
  8
AM_7
100
AcDbLine
 10
1.07028
 20
0.0
 30
0.0
 11
2.243320000000005
 21
0.0
 31
0.0
  0
LINE
  5
1F3
330
1BA
100
AcDbEntity
  8
AM_7
100
AcDbLine
 10
1.75
 20
0.7589999999999998
 30
0.0
 11
1.75
 21
-0.7589999999999998
 31
0.0
  0
LINE
  5
1F4
330
1BA
100
AcDbEntity
  8
AM_4
100
AcDbLine
 10
1.123600000000002
 20
-0.5
 30
0.0
 11
1.123600000000004
 21
-0.6066666666666666
 31
0.0
  0
ARC
  5
1F5
330
1BA
100
AcDbEntity
  8
AM_4
100
AcDbCircle
 10
1.206933333333338
 20
-0.6066666666666657
 30
0.0
 40
0.0833333333333335
100
AcDbArc
 50
180.0
 51
270.0
  0
LINE
  5
1F6
330
1BA
100
AcDbEntity
  8
AM_4
100
AcDbLine
 10
1.123600000000004
 20
0.6066666666666666
 30
0.0
 11
1.123600000000002
 21
0.5
 31
0.0
  0
ARC
  5
1F7
330
1BA
100
AcDbEntity
  8
AM_4
100
AcDbCircle
 10
1.206933333333338
 20
0.6066666666666657
 30
0.0
 40
0.0833333333333336
100
AcDbArc
 50
90.0
 51
180.0
  0
LINE
  5
1F8
330
1BA
100
AcDbEntity
  8
AM_4
100
AcDbLine
 10
1.206933333333335
 20
-0.5
 30
0.0
 11
1.206933333333338
 21
-0.6899999999999963
 31
0.0
  0
LWPOLYLINE
  5
1F9
330
1BA
100
AcDbEntity
  8
AM_4
100
AcDbPolyline
 90
       20
 70
     0
 43
0.0
 10
1.59
 20
0.6899999999999963
 10
1.592140695186946
 20
0.6895067513201416
 10
1.598744453112481
 20
0.6880248836083167
 10
1.609228912398576
 20
0.6857962518886226
 10
1.623871820805277
 20
0.6829409327218363
 10
1.641788263482065
 20
0.6798601179067815
 10
1.663290384396643
 20
0.676770683051562
 10
1.68692998885057
 20
0.6741497061531551
 10
1.71318123305064
 20
0.6722020690236437
 10
1.73930063684482
 20
0.6712782406513135
 10
1.766525437208579
 20
0.6713963732959324
 10
1.791968581129403
 20
0.6725038005855518
 10
1.816939965558996
 20
0.6745227638775698
 10
1.839607367282522
 20
0.677148049005017
 10
1.860400415249584
 20
0.6802119167489471
 10
1.878058731664017
 20
0.6833001088507102
 10
1.892545545830738
 20
0.6861626867122539
 10
1.90265563967751
 20
0.6883340354256391
 10
1.908620003712707
 20
0.6896813072556152
 10
1.90999999999742
 20
0.6899999999993982
  0
LINE
  5
1FA
330
1BA
100
AcDbEntity
  8
AM_4
100
AcDbLine
 10
1.206933333333338
 20
-0.6899999999999963
 30
0.0
 11
1.59
 21
-0.6899999999999963
 31
0.0
  0
LINE
  5
1FB
330
1BA
100
AcDbEntity
  8
AM_4
100
AcDbLine
 10
1.91
 20
-0.6899999999999962
 30
0.0
 11
2.106666666666671
 21
-0.6899999999999963
 31
0.0
  0
LINE
  5
1FC
330
1BA
100
AcDbEntity
  8
AM_4
100
AcDbLine
 10
2.106666666666671
 20
0.6899999999999963
 30
0.0
 11
1.91
 21
0.6899999999999963
 31
0.0
  0
LINE
  5
1FD
330
1BA
100
AcDbEntity
  8
AM_4
100
AcDbLine
 10
1.59
 20
0.6899999999999963
 30
0.0
 11
1.206933333333338
 21
0.6899999999999963
 31
0.0
  0
LINE
  5
1FE
330
1BA
100
AcDbEntity
  8
AM_4
100
AcDbLine
 10
1.206933333333338
 20
0.6899999999999963
 30
0.0
 11
1.206933333333334
 21
0.5
 31
0.0
  0
LWPOLYLINE
  5
1FF
330
1BA
100
AcDbEntity
  8
AM_4
100
AcDbPolyline
 90
       21
 70
     0
 43
0.0
 10
1.90999999999742
 20
-0.6899999999993982
 10
1.9099145453997
 20
-0.6899801894477754
 10
1.90675802693369
 20
-0.6892554526502773
 10
1.899543043560536
 20
-0.6876504358155705
 10
1.888078204457363
 20
-0.6852485611412585
 10
1.873045938683022
 20
-0.6823784162958131
 10
1.854181942129107
 20
-0.6792303564077422
 10
1.832533212320225
 20
-0.6762482762535456
 10
1.807806266272367
 20
-0.6736776413243564
 10
1.782251654225126
 20
-0.671967387006433
 10
1.754943172524084
 20
-0.6712111701652462
 10
1.728929179778923
 20
-0.6715236253958494
 10
1.702771120070543
 20
-0.6728525597033775
 10
1.678752490926386
 20
-0.6749638564761751
 10
1.65605748722644
 20
-0.6777353434093625
 10
1.636063058469616
 20
-0.680794849161841
 10
1.618733146158331
 20
-0.6839086100624013
 10
1.605316239328239
 20
-0.6866100717307596
 10
1.595719718082652
 20
-0.6886961633321994
 10
1.5914649330141
 20
-0.6896617775868253
 10
1.59
 20
-0.6899999999999963
  0
LINE
  5
200
330
1BA
100
AcDbEntity
  8
AM_4
100
AcDbLine
 10
2.106666666666671
 20
0.6899999999999933
 30
0.0
 11
2.106666666666671
 21
-0.6899999999999933
 31
0.0
  0
LINE
  5
201
330
1BA
100
AcDbEntity
  8
AM_4
100
AcDbLine
 10
2.190000000000004
 20
0.6066666666666602
 30
0.0
 11
2.190000000000004
 21
-0.6066666666666602
 31
0.0
  0
ARC
  5
202
330
1BA
100
AcDbEntity
  8
AM_4
100
AcDbCircle
 10
2.106666666666672
 20
-0.6066666666666611
 30
0.0
 40
0.0833333333333321
100
AcDbArc
 50
270.0
 51
0.0
  0
ARC
  5
203
330
1BA
100
AcDbEntity
  8
AM_4
100
AcDbCircle
 10
2.106666666666672
 20
0.6066666666666612
 30
0.0
 40
0.0833333333333321
100
AcDbArc
 50
0.0
 51
90.0
  0
LINE
  5
204
330
1BA
100
AcDbEntity
  8
AM_4
100
AcDbLine
 10
1.206933333333334
 20
0.2364065800926692
 30
0.0
 11
1.206933333333335
 21
-0.2364065800926679
 31
0.0
  0
LWPOLYLINE
  5
205
330
1BA
100
AcDbEntity
  8
AM_4
100
AcDbPolyline
 90
        3
 70
     0
 43
0.0
 10
1.224343892743068
 20
0.3133974596215561
 10
1.215212142443871
 20
0.2755731321138142
 10
1.206933333333334
 20
0.2364065800926692
  0
LWPOLYLINE
  5
206
330
1BA
100
AcDbEntity
  8
AM_4
100
AcDbPolyline
 90
        3
 70
     0
 43
0.0
 10
1.206933333333335
 20
-0.2364065800926679
 10
1.218098313301442
 20
-0.2880338536835789
 10
1.224343892743069
 20
-0.313397459621556
  0
LWPOLYLINE
  5
207
330
1BA
100
AcDbEntity
  8
AM_4
100
AcDbPolyline
 90
       12
 70
     0
 43
0.0
 10
1.206933333333335
 20
-0.2364065800926679
 10
1.200048100636717
 20
-0.1972874238204033
 10
1.194458904342717
 20
-0.156962395471171
 10
1.190143910111174
 20
-0.1152703903457903
 10
1.187175723223514
 20
-0.0728895788759334
 10
1.185330754469714
 20
-0.0169079715713543
 10
1.185798649177102
 20
0.0395717849367425
 10
1.188694380330786
 20
0.0970061410538278
 10
1.191090320357236
 20
0.1257011384959541
 10
1.194121244812233
 20
0.1541403322836246
 10
1.199795277058802
 20
0.1956684508686469
 10
1.206933333333334
 20
0.2364065800926692
  0
LINE
  5
208
330
1BA
100
AcDbEntity
  8
AM_4
100
AcDbLine
 10
-1.37
 20
0.313397459621556
 30
0.0
 11
-1.37
 21
-0.3133974596215561
 31
0.0
  0
LWPOLYLINE
  5
209
330
1BA
100
AcDbEntity
  8
AM_4
100
AcDbPolyline
 90
        7
 70
     0
 43
0.0
 10
1.231381338172706
 20
0.5
 10
1.227224556893425
 20
0.4588807525068551
 10
1.224370823344367
 20
0.4142002172071855
 10
1.223556438514024
 20
0.3901507583951722
 10
1.22324648102708
 20
0.3653758519259677
 10
1.22349327263236
 20
0.3396997060832502
 10
1.224343892743068
 20
0.3133974596215561
  0
LINE
  5
20A
330
1BA
100
AcDbEntity
  8
AM_4
100
AcDbLine
 10
0.7499999999999999
 20
0.3133974596215561
 30
0.0
 11
1.224343892743068
 21
0.3133974596215561
 31
0.0
  0
LINE
  5
20B
330
1BA
100
AcDbEntity
  8
AM_4
100
AcDbLine
 10
-1.32
 20
0.5
 30
0.0
 11
-1.37
 21
0.313397459621556
 31
0.0
  0
LINE
  5
20C
330
1BA
100
AcDbEntity
  8
AM_4
100
AcDbLine
 10
-1.32
 20
0.5
 30
0.0
 11
1.231381338172706
 21
0.5
 31
0.0
  0
LINE
  5
20D
330
1BA
100
AcDbEntity
  8
AM_4
100
AcDbLine
 10
-1.37
 20
0.313397459621556
 30
0.0
 11
-0.7499999999999999
 21
0.3133974596215561
 31
0.0
  0
LWPOLYLINE
  5
20E
330
1BA
100
AcDbEntity
  8
AM_4
100
AcDbPolyline
 90
        7
 70
     0
 43
0.0
 10
1.224343892743068
 20
-0.313397459621556
 10
1.223244941062053
 20
-0.3633276616416844
 10
1.224239077599075
 20
-0.4111399690979032
 10
1.225454134629537
 20
-0.4345354763934461
 10
1.227078946703497
 20
-0.4571166551138547
 10
1.229077334370518
 20
-0.47901260316922
 10
1.231381338172706
 20
-0.5
  0
LINE
  5
20F
330
1BA
100
AcDbEntity
  8
AM_4
100
AcDbLine
 10
0.7499999999999999
 20
-0.3133974596215559
 30
0.0
 11
1.224343892743068
 21
-0.313397459621556
 31
0.0
  0
LINE
  5
210
330
1BA
100
AcDbEntity
  8
AM_4
100
AcDbLine
 10
-1.37
 20
-0.3133974596215561
 30
0.0
 11
-1.32
 21
-0.5
 31
0.0
  0
LINE
  5
211
330
1BA
100
AcDbEntity
  8
AM_4
100
AcDbLine
 10
-1.37
 20
-0.3133974596215561
 30
0.0
 11
-0.7499999999999999
 21
-0.3133974596215559
 31
0.0
  0
LINE
  5
212
330
1BA
100
AcDbEntity
  8
AM_4
100
AcDbLine
 10
-1.32
 20
-0.5
 30
0.0
 11
1.231381338172706
 21
-0.5
 31
0.0
  0
LINE
  5
213
330
1BA
100
AcDbEntity
  8
AM_4
100
AcDbLine
 10
0.7499999999999999
 20
0.3750000000000001
 30
0.0
 11
-0.7499999999999999
 21
0.3750000000000001
 31
0.0
  0
LINE
  5
214
330
1BA
100
AcDbEntity
  8
AM_4
100
AcDbLine
 10
0.7499999999999999
 20
0.3750000000000001
 30
0.0
 11
0.7499999999999999
 21
-0.3749999999999999
 31
0.0
  0
LINE
  5
215
330
1BA
100
AcDbEntity
  8
AM_4
100
AcDbLine
 10
0.7000000000000001
 20
-0.3250000000000001
 30
0.0
 11
0.7000000000000001
 21
-0.1249999999999999
 31
0.0
  0
LINE
  5
216
330
1BA
100
AcDbEntity
  8
AM_4
100
AcDbLine
 10
0.7000000000000001
 20
-0.3250000000000001
 30
0.0
 11
-0.7
 21
-0.3250000000000001
 31
0.0
  0
LINE
  5
217
330
1BA
100
AcDbEntity
  8
AM_4
100
AcDbLine
 10
0.7499999999999999
 20
-0.3749999999999999
 30
0.0
 11
-0.7499999999999998
 21
-0.3749999999999999
 31
0.0
  0
LINE
  5
218
330
1BA
100
AcDbEntity
  8
AM_4
100
AcDbLine
 10
0.7499999999999998
 20
-0.3749999999999998
 30
0.0
 11
0.7000000000000002
 21
-0.325
 31
0.0
  0
LINE
  5
219
330
1BA
100
AcDbEntity
  8
AM_4
100
AcDbLine
 10
0.7000000000000001
 20
0.3250000000000002
 30
0.0
 11
-0.7
 21
0.3250000000000002
 31
0.0
  0
LINE
  5
21A
330
1BA
100
AcDbEntity
  8
AM_4
100
AcDbLine
 10
0.7499999999999999
 20
0.1250000000000001
 30
0.0
 11
-0.7499999999999998
 21
0.1250000000000001
 31
0.0
  0
LINE
  5
21B
330
1BA
100
AcDbEntity
  8
AM_4
100
AcDbLine
 10
-0.7000000000000002
 20
0.1250000000000001
 30
0.0
 11
-0.7
 21
0.3250000000000002
 31
0.0
  0
LINE
  5
21C
330
1BA
100
AcDbEntity
  8
AM_4
100
AcDbLine
 10
-0.7499999999999999
 20
0.3749999999999999
 30
0.0
 11
-0.7000000000000003
 21
0.3250000000000003
 31
0.0
  0
LINE
  5
21D
330
1BA
100
AcDbEntity
  8
AM_4
100
AcDbLine
 10
-0.7499999999999998
 20
-0.1249999999999999
 30
0.0
 11
0.7499999999999999
 21
-0.1249999999999999
 31
0.0
  0
LINE
  5
21E
330
1BA
100
AcDbEntity
  8
AM_4
100
AcDbLine
 10
-0.7499999999999999
 20
0.3750000000000001
 30
0.0
 11
-0.7499999999999998
 21
-0.3749999999999999
 31
0.0
  0
LINE
  5
21F
330
1BA
100
AcDbEntity
  8
AM_4
100
AcDbLine
 10
-0.7000000000000001
 20
-0.3249999999999999
 30
0.0
 11
-0.7499999999999999
 21
-0.3749999999999997
 31
0.0
  0
LINE
  5
220
330
1BA
100
AcDbEntity
  8
AM_4
100
AcDbLine
 10
-0.7
 20
-0.3250000000000001
 30
0.0
 11
-0.7000000000000002
 21
-0.1249999999999999
 31
0.0
  0
LINE
  5
221
330
1BA
100
AcDbEntity
  8
AM_4
100
AcDbLine
 10
0.7000000000000001
 20
0.3250000000000002
 30
0.0
 11
0.7499999999999999
 21
0.3749999999999999
 31
0.0
  0
LINE
  5
222
330
1BA
100
AcDbEntity
  8
AM_4
100
AcDbLine
 10
0.7000000000000001
 20
0.1250000000000001
 30
0.0
 11
0.7000000000000001
 21
0.3250000000000002
 31
0.0
  0
ENDBLK
  5
1BD
330
1BA
100
AcDbEntity
  8
0
100
AcDbBlockEnd
  0
ENDSEC
  0
SECTION
  2
ENTITIES
  0
INSERT
  5
6F
330
1F
100
AcDbEntity
  8
0
100
AcDbBlockReference
  2
1_136113_4
 10
0.0
 20
0.0
 30
0.0
  0
POINT
  5
224
330
1F
100
AcDbEntity
  8
ConnectionPoints
100
AcDbPoint
 10
0.0
 20
0.02
 30
0.0000000000000001
  0
POINT
  5
225
330
1F
100
AcDbEntity
  8
ConnectionPoints
100
AcDbPoint
 10
0.0
 20
0.02
 30
0.0000000000000001
  0
POINT
  5
226
330
1F
100
AcDbEntity
  8
ConnectionPoints
100
AcDbPoint
 10
0.0
 20
-0.98
 30
0.0000000000000002
  0
POINT
  5
227
330
1F
100
AcDbEntity
  8
ConnectionPoints
100
AcDbPoint
 10
0.0
 20
0.0
 30
0.0
  0
POINT
  5
228
330
1F
100
AcDbEntity
  8
ConnectionPoints
100
AcDbPoint
 10
0.0
 20
0.0
 30
0.0
  0
POINT
  5
229
330
1F
100
AcDbEntity
  8
ConnectionPoints
100
AcDbPoint
 10
-1.186454803184681
 20
0.0
 30
-0.6849999999999999
  0
POINT
  5
22A
330
1F
100
AcDbEntity
  8
ConnectionPoints
100
AcDbPoint
 10
0.0
 20
-0.98
 30
0.0000000000000001
  0
ENDSEC
  0
SECTION
  2
OBJECTS
  0
DICTIONARY
  5
C
330
0
100
AcDbDictionary
281
     1
  3
ACAD_DETAILVIEWSTYLE
350
232
  3
ACAD_GROUP
350
D
  3
ACAD_LAYOUT
350
1A
  3
ACAD_MATERIAL
350
43
  3
ACAD_MLEADERSTYLE
350
6B
  3
ACAD_MLINESTYLE
350
17
  3
ACAD_PLOTSETTINGS
350
19
  3
ACAD_PLOTSTYLENAME
350
E
  3
ACAD_SCALELIST
350
47
  3
ACAD_SECTIONVIEWSTYLE
350
233
  3
ACAD_TABLESTYLE
350
69
  3
ACAD_VISUALSTYLE
350
2A
  3
ACDB_RECOMPOSE_DATA
350
22F
  3
AcDbVariableDictionary
350
22B
  0
SUN
  5
6D
330
29
100
AcDbSun
 90
        1
290
     0
 63
     7
421
 16777215
 40
1.0
291
     1
 91
  2455826
 92
 54000000
292
     0
 70
     2
 71
   256
280
     1
  0
DICTIONARY
  5
232
102
{ACAD_REACTORS
330
C
102
}
330
C
100
AcDbDictionary
281
     1
  0
DICTIONARY
  5
D
102
{ACAD_REACTORS
330
C
102
}
330
C
100
AcDbDictionary
281
     1
  0
DICTIONARY
  5
1A
102
{ACAD_REACTORS
330
C
102
}
330
C
100
AcDbDictionary
281
     1
  3
Layout1
350
1E
  3
Layout2
350
26
  3
Model
350
22
  0
DICTIONARY
  5
43
102
{ACAD_REACTORS
330
C
102
}
330
C
100
AcDbDictionary
281
     1
  3
ByBlock
350
45
  3
ByLayer
350
44
  3
Global
350
46
  0
DICTIONARY
  5
6B
102
{ACAD_REACTORS
330
C
102
}
330
C
100
AcDbDictionary
281
     1
  3
Standard
350
6C
  0
DICTIONARY
  5
17
102
{ACAD_REACTORS
330
C
102
}
330
C
100
AcDbDictionary
281
     1
  3
Standard
350
18
  0
DICTIONARY
  5
19
102
{ACAD_REACTORS
330
C
102
}
330
C
100
AcDbDictionary
281
     1
  0
ACDBDICTIONARYWDFLT
  5
E
102
{ACAD_REACTORS
330
C
102
}
330
C
100
AcDbDictionary
281
     1
  3
Normal
350
F
100
AcDbDictionaryWithDefault
340
F
  0
DICTIONARY
  5
47
102
{ACAD_REACTORS
330
C
102
}
330
C
100
AcDbDictionary
281
     1
  3
A0
350
48
  3
A1
350
49
  3
A2
350
4A
  3
A3
350
4B
  3
A4
350
4C
  3
A5
350
4D
  3
A6
350
4E
  3
A7
350
4F
  3
A8
350
50
  3
A9
350
51
  3
B0
350
52
  3
B1
350
53
  3
B2
350
54
  3
B3
350
55
  3
B4
350
56
  3
B5
350
57
  3
B6
350
58
  3
B7
350
59
  3
B8
350
5A
  3
B9
350
5B
  3
C0
350
5C
  3
C1
350
5D
  3
C2
350
5E
  3
C3
350
5F
  3
C4
350
60
  3
C5
350
61
  3
C6
350
62
  3
C7
350
63
  3
C8
350
64
  3
C9
350
65
  3
D0
350
66
  3
D1
350
67
  3
D2
350
68
  0
DICTIONARY
  5
233
102
{ACAD_REACTORS
330
C
102
}
330
C
100
AcDbDictionary
281
     1
  0
DICTIONARY
  5
69
102
{ACAD_REACTORS
330
C
102
}
330
C
100
AcDbDictionary
281
     1
  3
Standard
350
6A
  0
DICTIONARY
  5
2A
102
{ACAD_REACTORS
330
C
102
}
330
C
100
AcDbDictionary
281
     1
  3
2dWireframe
350
2F
  3
Basic
350
32
  3
Brighten
350
36
  3
ColorChange
350
3A
  3
Conceptual
350
34
  3
Dim
350
35
  3
EdgeColorOff
350
3D
  3
Facepattern
350
39
  3
Flat
350
2B
  3
FlatWithEdges
350
2C
  3
Gouraud
350
2D
  3
GouraudWithEdges
350
2E
  3
Hidden
350
31
  3
JitterOff
350
3B
  3
Linepattern
350
38
  3
OverhangOff
350
3C
  3
Realistic
350
33
  3
Shaded
350
42
  3
Shaded with edges
350
41
  3
Shades of Gray
350
3E
  3
Sketchy
350
3F
  3
Thicken
350
37
  3
Wireframe
350
30
  3
X-Ray
350
40
  0
XRECORD
  5
22F
102
{ACAD_REACTORS
330
C
102
}
330
C
100
AcDbXrecord
280
     1
 90
        1
330
6A
  0
DICTIONARY
  5
22B
102
{ACAD_REACTORS
330
C
102
}
330
C
100
AcDbDictionary
281
     1
  3
CANNOSCALE
350
22C
  3
CMLEADERSTYLE
350
231
  3
CTABLESTYLE
350
230
  0
LAYOUT
  5
1E
102
{ACAD_REACTORS
330
1A
102
}
330
1A
100
AcDbPlotSettings
  1

  2
none_device
  4

  6

 40
0.0
 41
0.0
 42
0.0
 43
0.0
 44
0.0
 45
0.0
 46
0.0
 47
0.0
 48
0.0
 49
0.0
140
0.0
141
0.0
142
1.0
143
1.0
 70
   688
 72
     0
 73
     0
 74
     5
  7

 75
    16
 76
     0
 77
     2
 78
   300
147
1.0
148
0.0
149
0.0
100
AcDbLayout
  1
Layout1
 70
     1
 71
     1
 10
0.0
 20
0.0
 11
12.0
 21
9.0
 12
0.0
 22
0.0
 32
0.0
 14
1.000000000000000E+20
 24
1.000000000000000E+20
 34
1.000000000000000E+20
 15
-1.000000000000000E+20
 25
-1.000000000000000E+20
 35
-1.000000000000000E+20
146
0.0
 13
0.0
 23
0.0
 33
0.0
 16
1.0
 26
0.0
 36
0.0
 17
0.0
 27
1.0
 37
0.0
 76
     0
330
1B
  0
LAYOUT
  5
26
102
{ACAD_REACTORS
330
1A
102
}
330
1A
100
AcDbPlotSettings
  1

  2
none_device
  4

  6

 40
0.0
 41
0.0
 42
0.0
 43
0.0
 44
0.0
 45
0.0
 46
0.0
 47
0.0
 48
0.0
 49
0.0
140
0.0
141
0.0
142
1.0
143
1.0
 70
   688
 72
     0
 73
     0
 74
     5
  7

 75
    16
 76
     0
 77
     2
 78
   300
147
1.0
148
0.0
149
0.0
100
AcDbLayout
  1
Layout2
 70
     1
 71
     2
 10
0.0
 20
0.0
 11
0.0
 21
0.0
 12
0.0
 22
0.0
 32
0.0
 14
0.0
 24
0.0
 34
0.0
 15
0.0
 25
0.0
 35
0.0
146
0.0
 13
0.0
 23
0.0
 33
0.0
 16
1.0
 26
0.0
 36
0.0
 17
0.0
 27
1.0
 37
0.0
 76
     0
330
23
  0
LAYOUT
  5
22
102
{ACAD_REACTORS
330
1A
102
}
330
1A
100
AcDbPlotSettings
  1

  2
none_device
  4
Letter_(8.50_x_11.00_Inches)
  6

 40
6.35
 41
6.35
 42
6.35000508
 43
6.35000508
 44
215.9
 45
279.4
 46
0.0
 47
0.0
 48
0.0
 49
0.0
140
0.0
141
0.0
142
1.0
143
1.0
 70
  1712
 72
     0
 73
     0
 74
     0
  7

 75
     0
 76
     0
 77
     2
 78
   300
147
1.0
148
0.0
149
0.0
100
AcDbLayout
  1
Model
 70
     1
 71
     0
 10
0.0
 20
0.0
 11
12.0
 21
9.0
 12
0.0
 22
0.0
 32
0.0
 14
1.000000000000000E+20
 24
1.000000000000000E+20
 34
1.000000000000000E+20
 15
-1.000000000000000E+20
 25
-1.000000000000000E+20
 35
-1.000000000000000E+20
146
0.0
 13
0.0
 23
0.0
 33
0.0
 16
1.0
 26
0.0
 36
0.0
 17
0.0
 27
1.0
 37
0.0
 76
     0
330
1F
331
29
  0
MATERIAL
  5
45
102
{ACAD_REACTORS
330
43
102
}
330
43
100
AcDbMaterial
  1
ByBlock
 72
     1
 94
      127
  0
MATERIAL
  5
44
102
{ACAD_REACTORS
330
43
102
}
330
43
100
AcDbMaterial
  1
ByLayer
 72
     1
 94
      127
  0
MATERIAL
  5
46
102
{ACAD_REACTORS
330
43
102
}
330
43
100
AcDbMaterial
  1
Global
 72
     1
 94
      127
  0
MLEADERSTYLE
  5
6C
102
{ACAD_REACTORS
330
6B
102
}
330
6B
100
AcDbMLeaderStyle
179
     2
170
     2
171
     1
172
     0
 90
        2
 40
0.0
 41
0.0
173
     1
 91
-1056964608
340
14
 92
       -2
290
     1
 42
0.09
291
     1
 43
0.36
  3
Standard
341
0
 44
0.18
300

342
11
174
     1
178
     6
175
     1
176
     0
 93
-1056964608
 45
0.18
292
     0
297
     0
 46
0.18
343
0
 94
-1056964608
 47
1.0
 49
1.0
140
1.0
293
     1
141
0.0
294
     1
177
     0
142
1.0
295
     0
296
     0
143
0.125
271
     0
272
     9
273
     9
298
     0
  0
MLINESTYLE
  5
18
102
{ACAD_REACTORS
330
17
102
}
330
17
100
AcDbMlineStyle
  2
Standard
 70
     0
  3

 62
   256
 51
90.0
 52
90.0
 71
     2
 49
0.5
 62
   256
  6
BYLAYER
 49
-0.5
 62
   256
  6
BYLAYER
  0
ACDBPLACEHOLDER
  5
F
102
{ACAD_REACTORS
330
E
102
}
330
E
  0
SCALE
  5
48
102
{ACAD_REACTORS
330
47
102
}
330
47
100
AcDbScale
 70
     0
300
1:1
140
1.0
141
1.0
290
     1
  0
SCALE
  5
49
102
{ACAD_REACTORS
330
47
102
}
330
47
100
AcDbScale
 70
     0
300
1:2
140
1.0
141
2.0
290
     0
  0
SCALE
  5
4A
102
{ACAD_REACTORS
330
47
102
}
330
47
100
AcDbScale
 70
     0
300
1:4
140
1.0
141
4.0
290
     0
  0
SCALE
  5
4B
102
{ACAD_REACTORS
330
47
102
}
330
47
100
AcDbScale
 70
     0
300
1:5
140
1.0
141
5.0
290
     0
  0
SCALE
  5
4C
102
{ACAD_REACTORS
330
47
102
}
330
47
100
AcDbScale
 70
     0
300
1:8
140
1.0
141
8.0
290
     0
  0
SCALE
  5
4D
102
{ACAD_REACTORS
330
47
102
}
330
47
100
AcDbScale
 70
     0
300
1:10
140
1.0
141
10.0
290
     0
  0
SCALE
  5
4E
102
{ACAD_REACTORS
330
47
102
}
330
47
100
AcDbScale
 70
     0
300
1:16
140
1.0
141
16.0
290
     0
  0
SCALE
  5
4F
102
{ACAD_REACTORS
330
47
102
}
330
47
100
AcDbScale
 70
     0
300
1:20
140
1.0
141
20.0
290
     0
  0
SCALE
  5
50
102
{ACAD_REACTORS
330
47
102
}
330
47
100
AcDbScale
 70
     0
300
1:30
140
1.0
141
30.0
290
     0
  0
SCALE
  5
51
102
{ACAD_REACTORS
330
47
102
}
330
47
100
AcDbScale
 70
     0
300
1:40
140
1.0
141
40.0
290
     0
  0
SCALE
  5
52
102
{ACAD_REACTORS
330
47
102
}
330
47
100
AcDbScale
 70
     0
300
1:50
140
1.0
141
50.0
290
     0
  0
SCALE
  5
53
102
{ACAD_REACTORS
330
47
102
}
330
47
100
AcDbScale
 70
     0
300
1:100
140
1.0
141
100.0
290
     0
  0
SCALE
  5
54
102
{ACAD_REACTORS
330
47
102
}
330
47
100
AcDbScale
 70
     0
300
2:1
140
2.0
141
1.0
290
     0
  0
SCALE
  5
55
102
{ACAD_REACTORS
330
47
102
}
330
47
100
AcDbScale
 70
     0
300
4:1
140
4.0
141
1.0
290
     0
  0
SCALE
  5
56
102
{ACAD_REACTORS
330
47
102
}
330
47
100
AcDbScale
 70
     0
300
8:1
140
8.0
141
1.0
290
     0
  0
SCALE
  5
57
102
{ACAD_REACTORS
330
47
102
}
330
47
100
AcDbScale
 70
     0
300
10:1
140
10.0
141
1.0
290
     0
  0
SCALE
  5
58
102
{ACAD_REACTORS
330
47
102
}
330
47
100
AcDbScale
 70
     0
300
100:1
140
100.0
141
1.0
290
     0
  0
SCALE
  5
59
102
{ACAD_REACTORS
330
47
102
}
330
47
100
AcDbScale
 70
     0
300
1/128" = 1'-0"
140
0.0078125
141
12.0
290
     0
  0
SCALE
  5
5A
102
{ACAD_REACTORS
330
47
102
}
330
47
100
AcDbScale
 70
     0
300
1/64" = 1'-0"
140
0.015625
141
12.0
290
     0
  0
SCALE
  5
5B
102
{ACAD_REACTORS
330
47
102
}
330
47
100
AcDbScale
 70
     0
300
1/32" = 1'-0"
140
0.03125
141
12.0
290
     0
  0
SCALE
  5
5C
102
{ACAD_REACTORS
330
47
102
}
330
47
100
AcDbScale
 70
     0
300
1/16" = 1'-0"
140
0.0625
141
12.0
290
     0
  0
SCALE
  5
5D
102
{ACAD_REACTORS
330
47
102
}
330
47
100
AcDbScale
 70
     0
300
3/32" = 1'-0"
140
0.09375
141
12.0
290
     0
  0
SCALE
  5
5E
102
{ACAD_REACTORS
330
47
102
}
330
47
100
AcDbScale
 70
     0
300
1/8" = 1'-0"
140
0.125
141
12.0
290
     0
  0
SCALE
  5
5F
102
{ACAD_REACTORS
330
47
102
}
330
47
100
AcDbScale
 70
     0
300
3/16" = 1'-0"
140
0.1875
141
12.0
290
     0
  0
SCALE
  5
60
102
{ACAD_REACTORS
330
47
102
}
330
47
100
AcDbScale
 70
     0
300
1/4" = 1'-0"
140
0.25
141
12.0
290
     0
  0
SCALE
  5
61
102
{ACAD_REACTORS
330
47
102
}
330
47
100
AcDbScale
 70
     0
300
3/8" = 1'-0"
140
0.375
141
12.0
290
     0
  0
SCALE
  5
62
102
{ACAD_REACTORS
330
47
102
}
330
47
100
AcDbScale
 70
     0
300
1/2" = 1'-0"
140
0.5
141
12.0
290
     0
  0
SCALE
  5
63
102
{ACAD_REACTORS
330
47
102
}
330
47
100
AcDbScale
 70
     0
300
3/4" = 1'-0"
140
0.75
141
12.0
290
     0
  0
SCALE
  5
64
102
{ACAD_REACTORS
330
47
102
}
330
47
100
AcDbScale
 70
     0
300
1" = 1'-0"
140
1.0
141
12.0
290
     0
  0
SCALE
  5
65
102
{ACAD_REACTORS
330
47
102
}
330
47
100
AcDbScale
 70
     0
300
1-1/2" = 1'-0"
140
1.5
141
12.0
290
     0
  0
SCALE
  5
66
102
{ACAD_REACTORS
330
47
102
}
330
47
100
AcDbScale
 70
     0
300
3" = 1'-0"
140
3.0
141
12.0
290
     0
  0
SCALE
  5
67
102
{ACAD_REACTORS
330
47
102
}
330
47
100
AcDbScale
 70
     0
300
6" = 1'-0"
140
6.0
141
12.0
290
     0
  0
SCALE
  5
68
102
{ACAD_REACTORS
330
47
102
}
330
47
100
AcDbScale
 70
     0
300
1'-0" = 1'-0"
140
12.0
141
12.0
290
     0
  0
TABLESTYLE
  5
6A
102
{ACAD_REACTORS
330
69
102
}
102
{ACAD_XDICTIONARY
360
22D
102
}
330
69
100
AcDbTableStyle
  3
Standard
 70
     0
 71
     0
 40
0.06
 41
0.06
280
     0
281
     0
  7
Standard
140
0.18
170
     2
 62
     0
 63
   257
283
     0
 90
        4
 91
        0
  1

274
    -2
284
     1
 64
     0
275
    -2
285
     1
 65
     0
276
    -2
286
     1
 66
     0
277
    -2
287
     1
 67
     0
278
    -2
288
     1
 68
     0
279
    -2
289
     1
 69
     0
  7
Standard
140
0.25
170
     5
 62
     0
 63
   257
283
     0
 90
        4
 91
        0
  1

274
    -2
284
     1
 64
     0
275
    -2
285
     1
 65
     0
276
    -2
286
     1
 66
     0
277
    -2
287
     1
 67
     0
278
    -2
288
     1
 68
     0
279
    -2
289
     1
 69
     0
  7
Standard
140
0.18
170
     5
 62
     0
 63
   257
283
     0
 90
        4
 91
        0
  1

274
    -2
284
     1
 64
     0
275
    -2
285
     1
 65
     0
276
    -2
286
     1
 66
     0
277
    -2
287
     1
 67
     0
278
    -2
288
     1
 68
     0
279
    -2
289
     1
 69
     0
  0
VISUALSTYLE
  5
2F
102
{ACAD_REACTORS
330
2A
102
}
330
2A
100
AcDbVisualStyle
  2
2dWireframe
 70
     4
177
     3
291
     0
 70
    58
 90
        0
176
     1
 90
        2
176
     1
 90
        0
176
     1
 90
        0
176
     1
 40
0.6
176
     1
 40
30.0
176
     1
 62
     7
420
 16777215
176
     1
 90
        1
176
     1
 90
        4
176
     1
 62
     7
176
     1
 62
   257
176
     1
 90
        1
176
     1
 90
        1
176
     1
 40
1.0
176
     1
 90
        0
176
     1
 62
   257
176
     1
 40
1.0
176
     1
 90
        1
176
     1
 90
        6
176
     1
 90
        2
176
     1
 62
     7
176
     1
 90
        5
176
     1
 90
        0
176
     1
 90
        0
176
     1
290
     0
176
     1
 90
        1
176
     1
 40
0.0
176
     1
 90
        0
176
     1
290
     1
176
     1
290
     1
176
     1
290
     0
176
     1
290
     0
176
     1
290
     0
176
     1
290
     0
176
     1
290
     0
176
     1
290
     0
176
     1
290
     0
176
     1
 90
       50
176
     1
 40
0.0
176
     1
 40
1.0
176
     1
 90
        0
176
     1
 62
    18
420
        0
176
     1
 90
       50
176
     1
 90
        3
176
     1
 62
     5
420
      255
176
     1
290
     0
176
     1
 90
       50
176
     1
 90
       50
176
     1
 90
       50
176
     1
290
     0
176
     1
 90
       50
176
     1
 62
   256
176
     0
 40
1.0
176
     0
 90
        2
176
     1
  1
strokes_ogs.tif
176
     1
290
     0
176
     1
 40
1.0
176
     1
 40
1.0
176
     1
  0
VISUALSTYLE
  5
32
102
{ACAD_REACTORS
330
2A
102
}
330
2A
100
AcDbVisualStyle
  2
Basic
 70
     7
177
     3
291
     1
 70
    58
 90
        1
176
     1
 90
        0
176
     1
 90
        1
176
     1
 90
        0
176
     1
 40
0.6
176
     1
 40
30.0
176
     1
 62
     7
420
 16777215
176
     1
 90
        0
176
     1
 90
        4
176
     1
 62
     7
176
     1
 62
   257
176
     1
 90
        1
176
     1
 90
        1
176
     1
 40
1.0
176
     1
 90
        8
176
     1
 62
     7
176
     1
 40
1.0
176
     1
 90
        1
176
     1
 90
        6
176
     1
 90
        2
176
     1
 62
     7
176
     1
 90
        5
176
     1
 90
        0
176
     1
 90
        0
176
     1
290
     0
176
     1
 90
        1
176
     1
 40
0.0
176
     1
 90
        0
176
     1
290
     0
176
     1
290
     1
176
     1
290
     1
176
     1
290
     0
176
     1
290
     0
176
     1
290
     0
176
     1
290
     0
176
     1
290
     0
176
     1
290
     0
176
     1
 90
       50
176
     1
 40
0.0
176
     1
 40
1.0
176
     1
 90
        0
176
     1
 62
    18
420
        0
176
     1
 90
       50
176
     1
 90
        3
176
     1
 62
     5
420
      255
176
     1
290
     0
176
     1
 90
       50
176
     1
 90
       50
176
     1
 90
       50
176
     1
290
     0
176
     1
 90
       50
176
     1
 62
   256
176
     0
 40
1.0
176
     0
 90
        2
176
     1
  1
strokes_ogs.tif
176
     1
290
     0
176
     1
 40
1.0
176
     1
 40
1.0
176
     1
  0
VISUALSTYLE
  5
36
102
{ACAD_REACTORS
330
2A
102
}
330
2A
100
AcDbVisualStyle
  2
Brighten
 70
    12
177
     3
291
     1
 70
    58
 90
        2
176
     1
 90
        2
176
     1
 90
        0
176
     1
 90
        0
176
     1
 40
0.6
176
     1
 40
30.0
176
     1
 62
     7
420
 16777215
176
     1
 90
        1
176
     1
 90
        4
176
     1
 62
     7
176
     1
 62
   257
176
     1
 90
        1
176
     1
 90
        1
176
     1
 40
1.0
176
     1
 90
        8
176
     1
 62
     7
176
     1
 40
1.0
176
     1
 90
        1
176
     1
 90
        6
176
     1
 90
        2
176
     1
 62
     7
176
     1
 90
        5
176
     1
 90
        0
176
     1
 90
        0
176
     1
290
     0
176
     1
 90
        1
176
     1
 40
50.0
176
     1
 90
        0
176
     1
290
     0
176
     1
290
     1
176
     1
290
     1
176
     1
290
     0
176
     1
290
     0
176
     1
290
     0
176
     1
290
     0
176
     1
290
     0
176
     1
290
     0
176
     1
 90
       50
176
     1
 40
0.0
176
     1
 40
1.0
176
     1
 90
        0
176
     1
 62
    18
420
        0
176
     1
 90
       50
176
     1
 90
        3
176
     1
 62
     5
420
      255
176
     1
290
     0
176
     1
 90
       50
176
     1
 90
       50
176
     1
 90
       50
176
     1
290
     0
176
     1
 90
       50
176
     1
 62
   256
176
     0
 40
1.0
176
     0
 90
        2
176
     1
  1
strokes_ogs.tif
176
     1
290
     0
176
     1
 40
1.0
176
     1
 40
1.0
176
     1
  0
VISUALSTYLE
  5
3A
102
{ACAD_REACTORS
330
2A
102
}
330
2A
100
AcDbVisualStyle
  2
ColorChange
 70
    16
177
     3
291
     1
 70
    58
 90
        2
176
     1
 90
        2
176
     1
 90
        3
176
     1
 90
        0
176
     1
 40
0.6
176
     1
 40
30.0
176
     1
 62
     8
420
  8421504
176
     1
 90
        1
176
     1
 90
        4
176
     1
 62
     7
176
     1
 62
   257
176
     1
 90
        1
176
     1
 90
        1
176
     1
 40
1.0
176
     1
 90
        8
176
     1
 62
     8
420
  8421504
176
     1
 40
1.0
176
     1
 90
        1
176
     1
 90
        6
176
     1
 90
        2
176
     1
 62
     7
176
     1
 90
        5
176
     1
 90
        0
176
     1
 90
        0
176
     1
290
     0
176
     1
 90
        1
176
     1
 40
0.0
176
     1
 90
        0
176
     1
290
     0
176
     1
290
     1
176
     1
290
     1
176
     1
290
     0
176
     1
290
     0
176
     1
290
     0
176
     1
290
     0
176
     1
290
     0
176
     1
290
     0
176
     1
 90
       50
176
     1
 40
0.0
176
     1
 40
1.0
176
     1
 90
        0
176
     1
 62
    18
420
        0
176
     1
 90
       50
176
     1
 90
        3
176
     1
 62
     5
420
      255
176
     1
290
     0
176
     1
 90
       50
176
     1
 90
       50
176
     1
 90
       50
176
     1
290
     0
176
     1
 90
       50
176
     1
 62
   256
176
     0
 40
1.0
176
     0
 90
        2
176
     1
  1
strokes_ogs.tif
176
     1
290
     0
176
     1
 40
1.0
176
     1
 40
1.0
176
     1
  0
VISUALSTYLE
  5
34
102
{ACAD_REACTORS
330
2A
102
}
330
2A
100
AcDbVisualStyle
  2
Conceptual
 70
     9
177
     3
291
     0
 70
    58
 90
        3
176
     1
 90
        2
176
     1
 90
        0
176
     1
 90
        0
176
     1
 40
0.6
176
     1
 40
30.0
176
     1
 62
     7
420
 16777215
176
     1
 90
        2
176
     1
 90
        2
176
     1
 62
     7
176
     1
 62
   257
176
     1
 90
        1
176
     1
 90
        1
176
     1
 40
179.0
176
     1
 90
        8
176
     1
 62
     7
176
     1
 40
1.0
176
     1
 90
        1
176
     1
 90
        6
176
     1
 90
        2
176
     1
 62
     7
176
     1
 90
        3
176
     1
 90
        0
176
     1
 90
        0
176
     1
290
     0
176
     1
 90
        1
176
     1
 40
0.0
176
     1
 90
        0
176
     1
290
     0
176
     1
290
     1
176
     1
290
     1
176
     1
290
     0
176
     1
290
     0
176
     1
290
     0
176
     1
290
     0
176
     1
290
     0
176
     1
290
     0
176
     1
 90
       50
176
     1
 40
0.0
176
     1
 40
1.0
176
     1
 90
        0
176
     1
 62
    18
420
        0
176
     1
 90
       50
176
     1
 90
        3
176
     1
 62
     5
420
      255
176
     1
290
     0
176
     1
 90
       50
176
     1
 90
       50
176
     1
 90
       50
176
     1
290
     0
176
     1
 90
       50
176
     1
 62
   256
176
     0
 40
1.0
176
     0
 90
        2
176
     1
  1
strokes_ogs.tif
176
     1
290
     0
176
     1
 40
1.0
176
     1
 40
1.0
176
     1
  0
VISUALSTYLE
  5
35
102
{ACAD_REACTORS
330
2A
102
}
330
2A
100
AcDbVisualStyle
  2
Dim
 70
    11
177
     3
291
     1
 70
    58
 90
        2
176
     1
 90
        2
176
     1
 90
        0
176
     1
 90
        0
176
     1
 40
0.6
176
     1
 40
30.0
176
     1
 62
     7
420
 16777215
176
     1
 90
        1
176
     1
 90
        4
176
     1
 62
     7
176
     1
 62
   257
176
     1
 90
        1
176
     1
 90
        1
176
     1
 40
1.0
176
     1
 90
        8
176
     1
 62
     7
176
     1
 40
1.0
176
     1
 90
        1
176
     1
 90
        6
176
     1
 90
        2
176
     1
 62
     7
176
     1
 90
        5
176
     1
 90
        0
176
     1
 90
        0
176
     1
290
     0
176
     1
 90
        1
176
     1
 40
-50.0
176
     1
 90
        0
176
     1
290
     0
176
     1
290
     1
176
     1
290
     1
176
     1
290
     0
176
     1
290
     0
176
     1
290
     0
176
     1
290
     0
176
     1
290
     0
176
     1
290
     0
176
     1
 90
       50
176
     1
 40
0.0
176
     1
 40
1.0
176
     1
 90
        0
176
     1
 62
    18
420
        0
176
     1
 90
       50
176
     1
 90
        3
176
     1
 62
     5
420
      255
176
     1
290
     0
176
     1
 90
       50
176
     1
 90
       50
176
     1
 90
       50
176
     1
290
     0
176
     1
 90
       50
176
     1
 62
   256
176
     0
 40
1.0
176
     0
 90
        2
176
     1
  1
strokes_ogs.tif
176
     1
290
     0
176
     1
 40
1.0
176
     1
 40
1.0
176
     1
  0
VISUALSTYLE
  5
3D
102
{ACAD_REACTORS
330
2A
102
}
330
2A
100
AcDbVisualStyle
  2
EdgeColorOff
 70
    22
177
     3
291
     1
 70
    58
 90
        2
176
     0
 90
        2
176
     0
 90
        0
176
     0
 90
        0
176
     0
 40
0.6
176
     0
 40
30.0
176
     0
 62
     7
420
 16777215
176
     0
 90
        1
176
     0
 90
        4
176
     0
 62
     7
176
     0
 62
   257
176
     0
 90
        1
176
     0
 90
        1
176
     0
 40
1.0
176
     0
 90
        8
176
     2
 62
     7
176
     0
 40
1.0
176
     0
 90
        1
176
     0
 90
        6
176
     0
 90
        2
176
     0
 62
     7
176
     0
 90
        5
176
     0
 90
        0
176
     0
 90
        0
176
     0
290
     0
176
     0
 90
        1
176
     0
 40
0.0
176
     0
 90
        0
176
     0
290
     0
176
     0
290
     1
176
     0
290
     1
176
     0
290
     0
176
     0
290
     0
176
     0
290
     0
176
     0
290
     0
176
     0
290
     0
176
     0
290
     0
176
     0
 90
       50
176
     0
 40
0.0
176
     0
 40
1.0
176
     0
 90
        0
176
     0
 62
    18
420
        0
176
     0
 90
       50
176
     0
 90
        3
176
     0
 62
     5
420
      255
176
     0
290
     0
176
     0
 90
       50
176
     0
 90
       50
176
     0
 90
       50
176
     0
290
     0
176
     0
 90
       50
176
     0
 62
   256
176
     0
 40
1.0
176
     0
 90
        2
176
     0
  1
strokes_ogs.tif
176
     0
290
     0
176
     0
 40
1.0
176
     0
 40
1.0
176
     0
  0
VISUALSTYLE
  5
39
102
{ACAD_REACTORS
330
2A
102
}
330
2A
100
AcDbVisualStyle
  2
Facepattern
 70
    15
177
     3
291
     1
 70
    58
 90
        2
176
     1
 90
        2
176
     1
 90
        0
176
     1
 90
        0
176
     1
 40
0.6
176
     1
 40
30.0
176
     1
 62
     7
420
 16777215
176
     1
 90
        1
176
     1
 90
        4
176
     1
 62
     7
176
     1
 62
   257
176
     1
 90
        1
176
     1
 90
        1
176
     1
 40
1.0
176
     1
 90
        8
176
     1
 62
     7
176
     1
 40
1.0
176
     1
 90
        1
176
     1
 90
        6
176
     1
 90
        2
176
     1
 62
     7
176
     1
 90
        5
176
     1
 90
        0
176
     1
 90
        0
176
     1
290
     0
176
     1
 90
        1
176
     1
 40
0.0
176
     1
 90
        0
176
     1
290
     0
176
     1
290
     1
176
     1
290
     1
176
     1
290
     0
176
     1
290
     0
176
     1
290
     0
176
     1
290
     0
176
     1
290
     0
176
     1
290
     0
176
     1
 90
       50
176
     1
 40
0.0
176
     1
 40
1.0
176
     1
 90
        0
176
     1
 62
    18
420
        0
176
     1
 90
       50
176
     1
 90
        3
176
     1
 62
     5
420
      255
176
     1
290
     0
176
     1
 90
       50
176
     1
 90
       50
176
     1
 90
       50
176
     1
290
     0
176
     1
 90
       50
176
     1
 62
   256
176
     0
 40
1.0
176
     0
 90
        2
176
     1
  1
strokes_ogs.tif
176
     1
290
     0
176
     1
 40
1.0
176
     1
 40
1.0
176
     1
  0
VISUALSTYLE
  5
2B
102
{ACAD_REACTORS
330
2A
102
}
330
2A
100
AcDbVisualStyle
  2
Flat
 70
     0
177
     3
291
     1
 70
    58
 90
        2
176
     1
 90
        1
176
     1
 90
        1
176
     1
 90
        2
176
     1
 40
0.6
176
     1
 40
30.0
176
     1
 62
     7
420
 16777215
176
     1
 90
        0
176
     1
 90
        0
176
     1
 62
     7
176
     1
 62
   257
176
     1
 90
        1
176
     1
 90
        1
176
     1
 40
1.0
176
     1
 90
        8
176
     1
 62
     7
176
     1
 40
1.0
176
     1
 90
        1
176
     1
 90
        6
176
     1
 90
        2
176
     1
 62
     7
176
     1
 90
        5
176
     1
 90
        0
176
     1
 90
        0
176
     1
290
     0
176
     1
 90
       13
176
     1
 40
0.0
176
     1
 90
        0
176
     1
290
     0
176
     1
290
     1
176
     1
290
     1
176
     1
290
     0
176
     1
290
     0
176
     1
290
     0
176
     1
290
     0
176
     1
290
     0
176
     1
290
     0
176
     1
 90
       50
176
     1
 40
0.0
176
     1
 40
1.0
176
     1
 90
        0
176
     1
 62
    18
420
        0
176
     1
 90
       50
176
     1
 90
        3
176
     1
 62
     5
420
      255
176
     1
290
     0
176
     1
 90
       50
176
     1
 90
       50
176
     1
 90
       50
176
     1
290
     0
176
     1
 90
       50
176
     1
 62
   256
176
     0
 40
1.0
176
     0
 90
        2
176
     1
  1
strokes_ogs.tif
176
     1
290
     0
176
     1
 40
1.0
176
     1
 40
1.0
176
     1
  0
VISUALSTYLE
  5
2C
102
{ACAD_REACTORS
330
2A
102
}
330
2A
100
AcDbVisualStyle
  2
FlatWithEdges
 70
     1
177
     3
291
     1
 70
    58
 90
        2
176
     1
 90
        1
176
     1
 90
        1
176
     1
 90
        2
176
     1
 40
0.6
176
     1
 40
30.0
176
     1
 62
     7
420
 16777215
176
     1
 90
        1
176
     1
 90
        0
176
     1
 62
     7
176
     1
 62
   257
176
     1
 90
        1
176
     1
 90
        1
176
     1
 40
1.0
176
     1
 90
        0
176
     1
 62
   257
176
     1
 40
1.0
176
     1
 90
        1
176
     1
 90
        6
176
     1
 90
        2
176
     1
 62
     7
176
     1
 90
        5
176
     1
 90
        0
176
     1
 90
        0
176
     1
290
     0
176
     1
 90
       13
176
     1
 40
0.0
176
     1
 90
        0
176
     1
290
     0
176
     1
290
     1
176
     1
290
     1
176
     1
290
     0
176
     1
290
     0
176
     1
290
     0
176
     1
290
     0
176
     1
290
     0
176
     1
290
     0
176
     1
 90
       50
176
     1
 40
0.0
176
     1
 40
1.0
176
     1
 90
        0
176
     1
 62
    18
420
        0
176
     1
 90
       50
176
     1
 90
        3
176
     1
 62
     5
420
      255
176
     1
290
     0
176
     1
 90
       50
176
     1
 90
       50
176
     1
 90
       50
176
     1
290
     0
176
     1
 90
       50
176
     1
 62
   256
176
     0
 40
1.0
176
     0
 90
        2
176
     1
  1
strokes_ogs.tif
176
     1
290
     0
176
     1
 40
1.0
176
     1
 40
1.0
176
     1
  0
VISUALSTYLE
  5
2D
102
{ACAD_REACTORS
330
2A
102
}
330
2A
100
AcDbVisualStyle
  2
Gouraud
 70
     2
177
     3
291
     1
 70
    58
 90
        2
176
     1
 90
        2
176
     1
 90
        1
176
     1
 90
        2
176
     1
 40
0.6
176
     1
 40
30.0
176
     1
 62
     7
420
 16777215
176
     1
 90
        0
176
     1
 90
        0
176
     1
 62
     7
176
     1
 62
   257
176
     1
 90
        1
176
     1
 90
        1
176
     1
 40
1.0
176
     1
 90
        0
176
     1
 62
     7
176
     1
 40
1.0
176
     1
 90
        1
176
     1
 90
        6
176
     1
 90
        2
176
     1
 62
     7
176
     1
 90
        5
176
     1
 90
        0
176
     1
 90
        0
176
     1
290
     0
176
     1
 90
       13
176
     1
 40
0.0
176
     1
 90
        0
176
     1
290
     0
176
     1
290
     1
176
     1
290
     1
176
     1
290
     0
176
     1
290
     0
176
     1
290
     0
176
     1
290
     0
176
     1
290
     0
176
     1
290
     0
176
     1
 90
       50
176
     1
 40
0.0
176
     1
 40
1.0
176
     1
 90
        0
176
     1
 62
    18
420
        0
176
     1
 90
       50
176
     1
 90
        3
176
     1
 62
     5
420
      255
176
     1
290
     0
176
     1
 90
       50
176
     1
 90
       50
176
     1
 90
       50
176
     1
290
     0
176
     1
 90
       50
176
     1
 62
   256
176
     0
 40
1.0
176
     0
 90
        2
176
     1
  1
strokes_ogs.tif
176
     1
290
     0
176
     1
 40
1.0
176
     1
 40
1.0
176
     1
  0
VISUALSTYLE
  5
2E
102
{ACAD_REACTORS
330
2A
102
}
330
2A
100
AcDbVisualStyle
  2
GouraudWithEdges
 70
     3
177
     3
291
     1
 70
    58
 90
        2
176
     1
 90
        2
176
     1
 90
        1
176
     1
 90
        2
176
     1
 40
0.6
176
     1
 40
30.0
176
     1
 62
     7
420
 16777215
176
     1
 90
        1
176
     1
 90
        0
176
     1
 62
     7
176
     1
 62
   257
176
     1
 90
        1
176
     1
 90
        1
176
     1
 40
1.0
176
     1
 90
        0
176
     1
 62
   257
176
     1
 40
1.0
176
     1
 90
        1
176
     1
 90
        6
176
     1
 90
        2
176
     1
 62
     7
176
     1
 90
        5
176
     1
 90
        0
176
     1
 90
        0
176
     1
290
     0
176
     1
 90
       13
176
     1
 40
0.0
176
     1
 90
        0
176
     1
290
     0
176
     1
290
     1
176
     1
290
     1
176
     1
290
     0
176
     1
290
     0
176
     1
290
     0
176
     1
290
     0
176
     1
290
     0
176
     1
290
     0
176
     1
 90
       50
176
     1
 40
0.0
176
     1
 40
1.0
176
     1
 90
        0
176
     1
 62
    18
420
        0
176
     1
 90
       50
176
     1
 90
        3
176
     1
 62
     5
420
      255
176
     1
290
     0
176
     1
 90
       50
176
     1
 90
       50
176
     1
 90
       50
176
     1
290
     0
176
     1
 90
       50
176
     1
 62
   256
176
     0
 40
1.0
176
     0
 90
        2
176
     1
  1
strokes_ogs.tif
176
     1
290
     0
176
     1
 40
1.0
176
     1
 40
1.0
176
     1
  0
VISUALSTYLE
  5
31
102
{ACAD_REACTORS
330
2A
102
}
330
2A
100
AcDbVisualStyle
  2
Hidden
 70
     6
177
     3
291
     0
 70
    58
 90
        1
176
     1
 90
        2
176
     1
 90
        2
176
     1
 90
        0
176
     1
 40
0.6
176
     1
 40
30.0
176
     1
 62
     7
420
 16777215
176
     1
 90
        2
176
     1
 90
        2
176
     1
 62
     7
176
     1
 62
   257
176
     1
 90
        2
176
     1
 90
        1
176
     1
 40
40.0
176
     1
 90
        0
176
     1
 62
   257
176
     1
 40
1.0
176
     1
 90
        1
176
     1
 90
        6
176
     1
 90
        2
176
     1
 62
     7
176
     1
 90
        3
176
     1
 90
        0
176
     1
 90
        0
176
     1
290
     0
176
     1
 90
        1
176
     1
 40
0.0
176
     1
 90
        0
176
     1
290
     0
176
     1
290
     1
176
     1
290
     1
176
     1
290
     0
176
     1
290
     0
176
     1
290
     0
176
     1
290
     0
176
     1
290
     0
176
     1
290
     0
176
     1
 90
       50
176
     1
 40
0.0
176
     1
 40
1.0
176
     1
 90
        0
176
     1
 62
    18
420
        0
176
     1
 90
       50
176
     1
 90
        3
176
     1
 62
     5
420
      255
176
     1
290
     0
176
     1
 90
       50
176
     1
 90
       50
176
     1
 90
       50
176
     1
290
     0
176
     1
 90
       50
176
     1
 62
   256
176
     0
 40
1.0
176
     0
 90
        2
176
     1
  1
strokes_ogs.tif
176
     1
290
     0
176
     1
 40
1.0
176
     1
 40
1.0
176
     1
  0
VISUALSTYLE
  5
3B
102
{ACAD_REACTORS
330
2A
102
}
330
2A
100
AcDbVisualStyle
  2
JitterOff
 70
    20
177
     3
291
     1
 70
    58
 90
        2
176
     0
 90
        2
176
     0
 90
        0
176
     0
 90
        0
176
     0
 40
0.6
176
     0
 40
30.0
176
     0
 62
     7
420
 16777215
176
     0
 90
        1
176
     0
 90
        4
176
     0
 62
     7
176
     0
 62
   257
176
     0
 90
        1
176
     0
 90
        1
176
     0
 40
1.0
176
     0
 90
       10
176
     2
 62
     7
176
     0
 40
1.0
176
     0
 90
        1
176
     0
 90
        6
176
     0
 90
        2
176
     0
 62
     7
176
     0
 90
        5
176
     0
 90
        0
176
     0
 90
        0
176
     0
290
     0
176
     0
 90
        1
176
     0
 40
0.0
176
     0
 90
        0
176
     0
290
     0
176
     0
290
     1
176
     0
290
     1
176
     0
290
     0
176
     0
290
     0
176
     0
290
     0
176
     0
290
     0
176
     0
290
     0
176
     0
290
     0
176
     0
 90
       50
176
     0
 40
0.0
176
     0
 40
1.0
176
     0
 90
        0
176
     0
 62
    18
420
        0
176
     0
 90
       50
176
     0
 90
        3
176
     0
 62
     5
420
      255
176
     0
290
     0
176
     0
 90
       50
176
     0
 90
       50
176
     0
 90
       50
176
     0
290
     0
176
     0
 90
       50
176
     0
 62
   256
176
     0
 40
1.0
176
     0
 90
        2
176
     0
  1
strokes_ogs.tif
176
     0
290
     0
176
     0
 40
1.0
176
     0
 40
1.0
176
     0
  0
VISUALSTYLE
  5
38
102
{ACAD_REACTORS
330
2A
102
}
330
2A
100
AcDbVisualStyle
  2
Linepattern
 70
    14
177
     3
291
     1
 70
    58
 90
        2
176
     1
 90
        2
176
     1
 90
        0
176
     1
 90
        0
176
     1
 40
0.6
176
     1
 40
30.0
176
     1
 62
     7
420
 16777215
176
     1
 90
        1
176
     1
 90
        4
176
     1
 62
     7
176
     1
 62
   257
176
     1
 90
        7
176
     1
 90
        7
176
     1
 40
1.0
176
     1
 90
        8
176
     1
 62
     7
176
     1
 40
1.0
176
     1
 90
        1
176
     1
 90
        6
176
     1
 90
        2
176
     1
 62
     7
176
     1
 90
        5
176
     1
 90
        0
176
     1
 90
        0
176
     1
290
     0
176
     1
 90
        1
176
     1
 40
0.0
176
     1
 90
        0
176
     1
290
     0
176
     1
290
     1
176
     1
290
     1
176
     1
290
     0
176
     1
290
     0
176
     1
290
     0
176
     1
290
     0
176
     1
290
     0
176
     1
290
     0
176
     1
 90
       50
176
     1
 40
0.0
176
     1
 40
1.0
176
     1
 90
        0
176
     1
 62
    18
420
        0
176
     1
 90
       50
176
     1
 90
        3
176
     1
 62
     5
420
      255
176
     1
290
     0
176
     1
 90
       50
176
     1
 90
       50
176
     1
 90
       50
176
     1
290
     0
176
     1
 90
       50
176
     1
 62
   256
176
     0
 40
1.0
176
     0
 90
        2
176
     1
  1
strokes_ogs.tif
176
     1
290
     0
176
     1
 40
1.0
176
     1
 40
1.0
176
     1
  0
VISUALSTYLE
  5
3C
102
{ACAD_REACTORS
330
2A
102
}
330
2A
100
AcDbVisualStyle
  2
OverhangOff
 70
    21
177
     3
291
     1
 70
    58
 90
        2
176
     0
 90
        2
176
     0
 90
        0
176
     0
 90
        0
176
     0
 40
0.6
176
     0
 40
30.0
176
     0
 62
     7
420
 16777215
176
     0
 90
        1
176
     0
 90
        4
176
     0
 62
     7
176
     0
 62
   257
176
     0
 90
        1
176
     0
 90
        1
176
     0
 40
1.0
176
     0
 90
        9
176
     2
 62
     7
176
     0
 40
1.0
176
     0
 90
        1
176
     0
 90
        6
176
     0
 90
        2
176
     0
 62
     7
176
     0
 90
        5
176
     0
 90
        0
176
     0
 90
        0
176
     0
290
     0
176
     0
 90
        1
176
     0
 40
0.0
176
     0
 90
        0
176
     0
290
     0
176
     0
290
     1
176
     0
290
     1
176
     0
290
     0
176
     0
290
     0
176
     0
290
     0
176
     0
290
     0
176
     0
290
     0
176
     0
290
     0
176
     0
 90
       50
176
     0
 40
0.0
176
     0
 40
1.0
176
     0
 90
        0
176
     0
 62
    18
420
        0
176
     0
 90
       50
176
     0
 90
        3
176
     0
 62
     5
420
      255
176
     0
290
     0
176
     0
 90
       50
176
     0
 90
       50
176
     0
 90
       50
176
     0
290
     0
176
     0
 90
       50
176
     0
 62
   256
176
     0
 40
1.0
176
     0
 90
        2
176
     0
  1
strokes_ogs.tif
176
     0
290
     0
176
     0
 40
1.0
176
     0
 40
1.0
176
     0
  0
VISUALSTYLE
  5
33
102
{ACAD_REACTORS
330
2A
102
}
330
2A
100
AcDbVisualStyle
  2
Realistic
 70
     8
177
     3
291
     0
 70
    58
 90
        2
176
     1
 90
        3
176
     1
 90
        0
176
     1
 90
        2
176
     1
 40
0.6
176
     1
 40
30.0
176
     1
 62
     7
420
 16777215
176
     1
 90
        0
176
     1
 90
        0
176
     1
 62
     7
176
     1
 62
   257
176
     1
 90
        1
176
     1
 90
        1
176
     1
 40
1.0
176
     1
 90
        8
176
     1
 62
   257
176
     1
 40
1.0
176
     1
 90
        1
176
     1
 90
        6
176
     1
 90
        2
176
     1
 62
     7
176
     1
 90
        3
176
     1
 90
        0
176
     1
 90
        0
176
     1
290
     0
176
     1
 90
       13
176
     1
 40
0.0
176
     1
 90
        0
176
     1
290
     0
176
     1
290
     1
176
     1
290
     1
176
     1
290
     0
176
     1
290
     0
176
     1
290
     0
176
     1
290
     0
176
     1
290
     0
176
     1
290
     0
176
     1
 90
       50
176
     1
 40
0.0
176
     1
 40
1.0
176
     1
 90
        0
176
     1
 62
    18
420
        0
176
     1
 90
       50
176
     1
 90
        3
176
     1
 62
     5
420
      255
176
     1
290
     0
176
     1
 90
       50
176
     1
 90
       50
176
     1
 90
       50
176
     1
290
     0
176
     1
 90
       50
176
     1
 62
   256
176
     0
 40
1.0
176
     0
 90
        2
176
     1
  1
strokes_ogs.tif
176
     1
290
     0
176
     1
 40
1.0
176
     1
 40
1.0
176
     1
  0
VISUALSTYLE
  5
42
102
{ACAD_REACTORS
330
2A
102
}
330
2A
100
AcDbVisualStyle
  2
Shaded
 70
    27
177
     3
291
     0
 70
    58
 90
        2
176
     1
 90
        2
176
     1
 90
        1
176
     1
 90
        2
176
     1
 40
0.6
176
     1
 40
30.0
176
     1
 62
     7
420
 16777215
176
     1
 90
        0
176
     1
 90
        4
176
     1
 62
     7
176
     1
 62
   257
176
     1
 90
        1
176
     1
 90
        1
176
     1
 40
1.0
176
     1
 90
        8
176
     1
 62
   257
176
     1
 40
1.0
176
     1
 90
        1
176
     1
 90
        6
176
     1
 90
        2
176
     1
 62
     8
420
  7895160
176
     1
 90
        3
176
     1
 90
        0
176
     1
 90
        0
176
     1
290
     0
176
     1
 90
        5
176
     1
 40
0.0
176
     1
 90
        0
176
     1
290
     0
176
     1
290
     1
176
     1
290
     1
176
     1
290
     0
176
     1
290
     0
176
     1
290
     0
176
     1
290
     0
176
     1
290
     0
176
     1
290
     0
176
     1
 90
       50
176
     1
 40
0.0
176
     1
 40
1.0
176
     1
 90
        0
176
     1
 62
    18
420
        0
176
     1
 90
       50
176
     1
 90
        3
176
     1
 62
     5
420
      255
176
     1
290
     0
176
     1
 90
       50
176
     1
 90
       50
176
     1
 90
       50
176
     1
290
     0
176
     1
 90
       50
176
     1
 62
   256
176
     0
 40
1.0
176
     0
 90
        2
176
     1
  1
strokes_ogs.tif
176
     1
290
     0
176
     1
 40
1.0
176
     1
 40
1.0
176
     1
  0
VISUALSTYLE
  5
41
102
{ACAD_REACTORS
330
2A
102
}
330
2A
100
AcDbVisualStyle
  2
Shaded with edges
 70
    26
177
     3
291
     0
 70
    58
 90
        2
176
     1
 90
        2
176
     1
 90
        1
176
     1
 90
        2
176
     1
 40
0.6
176
     1
 40
30.0
176
     1
 62
     7
420
 16777215
176
     1
 90
        1
176
     1
 90
       10
176
     1
 62
     7
176
     1
 62
   257
176
     1
 90
        2
176
     1
 90
        1
176
     1
 40
1.0
176
     1
 90
        8
176
     1
 62
   257
176
     1
 40
1.0
176
     1
 90
        1
176
     1
 90
        6
176
     1
 90
        2
176
     1
 62
     7
176
     1
 90
        3
176
     1
 90
        0
176
     1
 90
        0
176
     1
290
     0
176
     1
 90
        5
176
     1
 40
0.0
176
     1
 90
        0
176
     1
290
     0
176
     1
290
     1
176
     1
290
     1
176
     1
290
     0
176
     1
290
     0
176
     1
290
     0
176
     1
290
     0
176
     1
290
     0
176
     1
290
     0
176
     1
 90
       50
176
     1
 40
0.0
176
     1
 40
1.0
176
     1
 90
        0
176
     1
 62
    18
420
        0
176
     1
 90
       50
176
     1
 90
        3
176
     1
 62
     5
420
      255
176
     1
290
     0
176
     1
 90
       50
176
     1
 90
       50
176
     1
 90
       50
176
     1
290
     0
176
     1
 90
       50
176
     1
 62
   256
176
     0
 40
1.0
176
     0
 90
        2
176
     1
  1
strokes_ogs.tif
176
     1
290
     0
176
     1
 40
1.0
176
     1
 40
1.0
176
     1
  0
VISUALSTYLE
  5
3E
102
{ACAD_REACTORS
330
2A
102
}
330
2A
100
AcDbVisualStyle
  2
Shades of Gray
 70
    23
177
     3
291
     0
 70
    58
 90
        2
176
     1
 90
        2
176
     1
 90
        3
176
     1
 90
        0
176
     1
 40
0.6
176
     1
 40
30.0
176
     1
 62
     7
420
 16777215
176
     1
 90
        2
176
     1
 90
        2
176
     1
 62
     7
176
     1
 62
     7
176
     1
 90
        1
176
     1
 90
        1
176
     1
 40
40.0
176
     1
 90
        8
176
     1
 62
     7
176
     1
 40
1.0
176
     1
 90
        1
176
     1
 90
        6
176
     1
 90
        2
176
     1
 62
     7
176
     1
 90
        3
176
     1
 90
        0
176
     1
 90
        0
176
     1
290
     0
176
     1
 90
        1
176
     1
 40
0.0
176
     1
 90
        0
176
     1
290
     0
176
     1
290
     1
176
     1
290
     1
176
     1
290
     0
176
     1
290
     0
176
     1
290
     0
176
     1
290
     0
176
     1
290
     0
176
     1
290
     0
176
     1
 90
       50
176
     1
 40
0.0
176
     1
 40
1.0
176
     1
 90
        0
176
     1
 62
    18
420
        0
176
     1
 90
       50
176
     1
 90
        3
176
     1
 62
     5
420
      255
176
     1
290
     0
176
     1
 90
       50
176
     1
 90
       50
176
     1
 90
       50
176
     1
290
     0
176
     1
 90
       50
176
     1
 62
   256
176
     0
 40
1.0
176
     0
 90
        2
176
     1
  1
strokes_ogs.tif
176
     1
290
     0
176
     1
 40
1.0
176
     1
 40
1.0
176
     1
  0
VISUALSTYLE
  5
3F
102
{ACAD_REACTORS
330
2A
102
}
330
2A
100
AcDbVisualStyle
  2
Sketchy
 70
    24
177
     3
291
     0
 70
    58
 90
        1
176
     1
 90
        2
176
     1
 90
        2
176
     1
 90
        0
176
     1
 40
0.6
176
     1
 40
30.0
176
     1
 62
     7
420
 16777215
176
     1
 90
        2
176
     1
 90
        2
176
     1
 62
     7
176
     1
 62
     7
176
     1
 90
        1
176
     1
 90
        1
176
     1
 40
40.0
176
     1
 90
       11
176
     1
 62
     7
176
     1
 40
1.0
176
     1
 90
        1
176
     1
 90
        6
176
     1
 90
        2
176
     1
 62
     7
176
     1
 90
        6
176
     1
 90
        0
176
     1
 90
        0
176
     1
290
     0
176
     1
 90
        1
176
     1
 40
0.0
176
     1
 90
        0
176
     1
290
     0
176
     1
290
     1
176
     1
290
     1
176
     1
290
     0
176
     1
290
     0
176
     1
290
     0
176
     1
290
     0
176
     1
290
     0
176
     1
290
     0
176
     1
 90
       50
176
     1
 40
0.0
176
     1
 40
1.0
176
     1
 90
        0
176
     1
 62
    18
420
        0
176
     1
 90
       50
176
     1
 90
        3
176
     1
 62
     5
420
      255
176
     1
290
     0
176
     1
 90
       50
176
     1
 90
       50
176
     1
 90
       50
176
     1
290
     0
176
     1
 90
       50
176
     1
 62
   256
176
     0
 40
1.0
176
     0
 90
        2
176
     1
  1
strokes_ogs.tif
176
     1
290
     0
176
     1
 40
1.0
176
     1
 40
1.0
176
     1
  0
VISUALSTYLE
  5
37
102
{ACAD_REACTORS
330
2A
102
}
330
2A
100
AcDbVisualStyle
  2
Thicken
 70
    13
177
     3
291
     1
 70
    58
 90
        2
176
     1
 90
        2
176
     1
 90
        0
176
     1
 90
        0
176
     1
 40
0.6
176
     1
 40
30.0
176
     1
 62
     7
420
 16777215
176
     1
 90
        1
176
     1
 90
        4
176
     1
 62
     7
176
     1
 62
   257
176
     1
 90
        1
176
     1
 90
        1
176
     1
 40
1.0
176
     1
 90
       12
176
     1
 62
     7
176
     1
 40
1.0
176
     1
 90
        1
176
     1
 90
        6
176
     1
 90
        2
176
     1
 62
     7
176
     1
 90
        5
176
     1
 90
        0
176
     1
 90
        0
176
     1
290
     0
176
     1
 90
        1
176
     1
 40
0.0
176
     1
 90
        0
176
     1
290
     0
176
     1
290
     1
176
     1
290
     1
176
     1
290
     0
176
     1
290
     0
176
     1
290
     0
176
     1
290
     0
176
     1
290
     0
176
     1
290
     0
176
     1
 90
       50
176
     1
 40
0.0
176
     1
 40
1.0
176
     1
 90
        0
176
     1
 62
    18
420
        0
176
     1
 90
       50
176
     1
 90
        3
176
     1
 62
     5
420
      255
176
     1
290
     0
176
     1
 90
       50
176
     1
 90
       50
176
     1
 90
       50
176
     1
290
     0
176
     1
 90
       50
176
     1
 62
   256
176
     0
 40
1.0
176
     0
 90
        2
176
     1
  1
strokes_ogs.tif
176
     1
290
     0
176
     1
 40
1.0
176
     1
 40
1.0
176
     1
  0
VISUALSTYLE
  5
30
102
{ACAD_REACTORS
330
2A
102
}
330
2A
100
AcDbVisualStyle
  2
Wireframe
 70
     5
177
     3
291
     0
 70
    58
 90
        0
176
     1
 90
        2
176
     1
 90
        0
176
     1
 90
        0
176
     1
 40
0.6
176
     1
 40
30.0
176
     1
 62
     7
420
 16777215
176
     1
 90
        1
176
     1
 90
        4
176
     1
 62
     7
176
     1
 62
   257
176
     1
 90
        1
176
     1
 90
        1
176
     1
 40
1.0
176
     1
 90
        0
176
     1
 62
   257
176
     1
 40
1.0
176
     1
 90
        1
176
     1
 90
        6
176
     1
 90
        2
176
     1
 62
     7
176
     1
 90
        3
176
     1
 90
        0
176
     1
 90
        0
176
     1
290
     0
176
     1
 90
        1
176
     1
 40
0.0
176
     1
 90
        0
176
     1
290
     0
176
     1
290
     1
176
     1
290
     1
176
     1
290
     0
176
     1
290
     0
176
     1
290
     0
176
     1
290
     0
176
     1
290
     0
176
     1
290
     0
176
     1
 90
       50
176
     1
 40
0.0
176
     1
 40
1.0
176
     1
 90
        0
176
     1
 62
    18
420
        0
176
     1
 90
       50
176
     1
 90
        3
176
     1
 62
     5
420
      255
176
     1
290
     0
176
     1
 90
       50
176
     1
 90
       50
176
     1
 90
       50
176
     1
290
     0
176
     1
 90
       50
176
     1
 62
   256
176
     0
 40
1.0
176
     0
 90
        2
176
     1
  1
strokes_ogs.tif
176
     1
290
     0
176
     1
 40
1.0
176
     1
 40
1.0
176
     1
  0
VISUALSTYLE
  5
40
102
{ACAD_REACTORS
330
2A
102
}
330
2A
100
AcDbVisualStyle
  2
X-Ray
 70
    25
177
     3
291
     0
 70
    58
 90
        2
176
     1
 90
        2
176
     1
 90
        1
176
     1
 90
        1
176
     1
 40
0.5
176
     1
 40
30.0
176
     1
 62
     7
420
 16777215
176
     1
 90
        1
176
     1
 90
        0
176
     1
 62
     7
176
     1
 62
   257
176
     1
 90
        1
176
     1
 90
        1
176
     1
 40
1.0
176
     1
 90
        8
176
     1
 62
     7
176
     1
 40
1.0
176
     1
 90
        1
176
     1
 90
        6
176
     1
 90
        2
176
     1
 62
     7
176
     1
 90
        3
176
     1
 90
        0
176
     1
 90
        0
176
     1
290
     0
176
     1
 90
       13
176
     1
 40
0.0
176
     1
 90
        0
176
     1
290
     0
176
     1
290
     1
176
     1
290
     1
176
     1
290
     0
176
     1
290
     0
176
     1
290
     0
176
     1
290
     0
176
     1
290
     0
176
     1
290
     0
176
     1
 90
       50
176
     1
 40
0.0
176
     1
 40
1.0
176
     1
 90
        0
176
     1
 62
    18
420
        0
176
     1
 90
       50
176
     1
 90
        3
176
     1
 62
     5
420
      255
176
     1
290
     0
176
     1
 90
       50
176
     1
 90
       50
176
     1
 90
       50
176
     1
290
     0
176
     1
 90
       50
176
     1
 62
   256
176
     0
 40
1.0
176
     0
 90
        2
176
     1
  1
strokes_ogs.tif
176
     1
290
     0
176
     1
 40
1.0
176
     1
 40
1.0
176
     1
  0
DICTIONARYVAR
  5
22C
102
{ACAD_REACTORS
330
22B
102
}
330
22B
100
DictionaryVariables
280
     0
  1
1:1
  0
DICTIONARYVAR
  5
231
102
{ACAD_REACTORS
330
22B
102
}
330
22B
100
DictionaryVariables
280
     0
  1
Standard
  0
DICTIONARYVAR
  5
230
102
{ACAD_REACTORS
330
22B
102
}
330
22B
100
DictionaryVariables
280
     0
  1
Standard
  0
DICTIONARY
  5
22D
330
6A
100
AcDbDictionary
280
     1
281
     1
  3
ACAD_ROUNDTRIP_2008_TABLESTYLE_CELLSTYLEMAP
360
22E
  0
CELLSTYLEMAP
  5
22E
102
{ACAD_REACTORS
330
22D
102
}
330
22D
100
AcDbCellStyleMap
 90
        3
300
CELLSTYLE
  1
TABLEFORMAT_BEGIN
 90
        5
170
     1
 91
        0
 92
    32768
 62
   257
 93
        1
300
CONTENTFORMAT
  1
CONTENTFORMAT_BEGIN
 90
        0
 91
        0
 92
        4
 93
        0
300

 40
0.0
140
1.0
 94
        5
 62
     0
340
11
144
0.25
309
CONTENTFORMAT_END
171
     1
301
MARGIN
  1
CELLMARGIN_BEGIN
 40
0.06
 40
0.06
 40
0.06
 40
0.06
 40
0.06
 40
0.06
309
CELLMARGIN_END
 94
        6
 95
        1
302
GRIDFORMAT
  1
GRIDFORMAT_BEGIN
 90
        0
 91
        1
 62
     0
 92
       -2
340
14
 93
        0
 40
0.045
309
GRIDFORMAT_END
 95
        2
302
GRIDFORMAT
  1
GRIDFORMAT_BEGIN
 90
        0
 91
        1
 62
     0
 92
       -2
340
14
 93
        0
 40
0.045
309
GRIDFORMAT_END
 95
        4
302
GRIDFORMAT
  1
GRIDFORMAT_BEGIN
 90
        0
 91
        1
 62
     0
 92
       -2
340
14
 93
        0
 40
0.045
309
GRIDFORMAT_END
 95
        8
302
GRIDFORMAT
  1
GRIDFORMAT_BEGIN
 90
        0
 91
        1
 62
     0
 92
       -2
340
14
 93
        0
 40
0.045
309
GRIDFORMAT_END
 95
       16
302
GRIDFORMAT
  1
GRIDFORMAT_BEGIN
 90
        0
 91
        1
 62
     0
 92
       -2
340
14
 93
        0
 40
0.045
309
GRIDFORMAT_END
 95
       32
302
GRIDFORMAT
  1
GRIDFORMAT_BEGIN
 90
        0
 91
        1
 62
     0
 92
       -2
340
14
 93
        0
 40
0.045
309
GRIDFORMAT_END
309
TABLEFORMAT_END
  1
CELLSTYLE_BEGIN
 90
        1
 91
        1
300
_TITLE
309
CELLSTYLE_END
300
CELLSTYLE
  1
TABLEFORMAT_BEGIN
 90
        5
170
     1
 91
        0
 92
        0
 62
   257
 93
        1
300
CONTENTFORMAT
  1
CONTENTFORMAT_BEGIN
 90
        0
 91
        0
 92
        4
 93
        0
300

 40
0.0
140
1.0
 94
        5
 62
     0
340
11
144
0.18
309
CONTENTFORMAT_END
171
     1
301
MARGIN
  1
CELLMARGIN_BEGIN
 40
0.06
 40
0.06
 40
0.06
 40
0.06
 40
0.06
 40
0.06
309
CELLMARGIN_END
 94
        6
 95
        1
302
GRIDFORMAT
  1
GRIDFORMAT_BEGIN
 90
        0
 91
        1
 62
     0
 92
       -2
340
14
 93
        0
 40
0.045
309
GRIDFORMAT_END
 95
        2
302
GRIDFORMAT
  1
GRIDFORMAT_BEGIN
 90
        0
 91
        1
 62
     0
 92
       -2
340
14
 93
        0
 40
0.045
309
GRIDFORMAT_END
 95
        4
302
GRIDFORMAT
  1
GRIDFORMAT_BEGIN
 90
        0
 91
        1
 62
     0
 92
       -2
340
14
 93
        0
 40
0.045
309
GRIDFORMAT_END
 95
        8
302
GRIDFORMAT
  1
GRIDFORMAT_BEGIN
 90
        0
 91
        1
 62
     0
 92
       -2
340
14
 93
        0
 40
0.045
309
GRIDFORMAT_END
 95
       16
302
GRIDFORMAT
  1
GRIDFORMAT_BEGIN
 90
        0
 91
        1
 62
     0
 92
       -2
340
14
 93
        0
 40
0.045
309
GRIDFORMAT_END
 95
       32
302
GRIDFORMAT
  1
GRIDFORMAT_BEGIN
 90
        0
 91
        1
 62
     0
 92
       -2
340
14
 93
        0
 40
0.045
309
GRIDFORMAT_END
309
TABLEFORMAT_END
  1
CELLSTYLE_BEGIN
 90
        2
 91
        1
300
_HEADER
309
CELLSTYLE_END
300
CELLSTYLE
  1
TABLEFORMAT_BEGIN
 90
        5
170
     1
 91
        0
 92
        0
 62
   257
 93
        1
300
CONTENTFORMAT
  1
CONTENTFORMAT_BEGIN
 90
        0
 91
        0
 92
        4
 93
        0
300

 40
0.0
140
1.0
 94
        2
 62
     0
340
11
144
0.18
309
CONTENTFORMAT_END
171
     1
301
MARGIN
  1
CELLMARGIN_BEGIN
 40
0.06
 40
0.06
 40
0.06
 40
0.06
 40
0.06
 40
0.06
309
CELLMARGIN_END
 94
        6
 95
        1
302
GRIDFORMAT
  1
GRIDFORMAT_BEGIN
 90
        0
 91
        1
 62
     0
 92
       -2
340
14
 93
        0
 40
0.045
309
GRIDFORMAT_END
 95
        2
302
GRIDFORMAT
  1
GRIDFORMAT_BEGIN
 90
        0
 91
        1
 62
     0
 92
       -2
340
14
 93
        0
 40
0.045
309
GRIDFORMAT_END
 95
        4
302
GRIDFORMAT
  1
GRIDFORMAT_BEGIN
 90
        0
 91
        1
 62
     0
 92
       -2
340
14
 93
        0
 40
0.045
309
GRIDFORMAT_END
 95
        8
302
GRIDFORMAT
  1
GRIDFORMAT_BEGIN
 90
        0
 91
        1
 62
     0
 92
       -2
340
14
 93
        0
 40
0.045
309
GRIDFORMAT_END
 95
       16
302
GRIDFORMAT
  1
GRIDFORMAT_BEGIN
 90
        0
 91
        1
 62
     0
 92
       -2
340
14
 93
        0
 40
0.045
309
GRIDFORMAT_END
 95
       32
302
GRIDFORMAT
  1
GRIDFORMAT_BEGIN
 90
        0
 91
        1
 62
     0
 92
       -2
340
14
 93
        0
 40
0.045
309
GRIDFORMAT_END
309
TABLEFORMAT_END
  1
CELLSTYLE_BEGIN
 90
        3
 91
        2
300
_DATA
309
CELLSTYLE_END
  0
ENDSEC
  0
EOF