0
SECTION
  2
HEADER
  9
$ACADVER
  1
AC1027
  9
$ACADMAINTVER
 70
     8
  9
$DWGCODEPAGE
  3
ANSI_1252
  9
$REQUIREDVERSIONS
160
                 0
  9
$COMMENTS
  1
File was created by Cadenas
  9
$CUSTOMPROPERTYTAG
  1
NN
  9
$CUSTOMPROPERTY
  1
Grip Tight Narrow Slot Take Up Inch Bore
  9
$CUSTOMPROPERTYTAG
  1
NT
  9
$CUSTOMPROPERTY
  1
GT Normal Duty Narrow Slot Take-Up Bearings
  9
$CUSTOMPROPERTYTAG
  1
NB
  9
$CUSTOMPROPERTY
  1
136110
  9
$CUSTOMPROPERTYTAG
  1
NBSYN
  9
$CUSTOMPROPERTY
  1
$PN.
  9
$CUSTOMPROPERTYTAG
  1
LINA
  9
$CUSTOMPROPERTY
  1
136110
  9
$CUSTOMPROPERTYTAG
  1
SERIES
  9
$CUSTOMPROPERTY
  1
204
  9
$CUSTOMPROPERTYTAG
  1
SS
  9
$CUSTOMPROPERTY
  1
3/4
  9
$CUSTOMPROPERTYTAG
  1
PN
  9
$CUSTOMPROPERTY
  1
136110
  9
$CUSTOMPROPERTYTAG
  1
DESCRIPTION
  9
$CUSTOMPROPERTY
  1
NSTU-GT-012
  9
$CUSTOMPROPERTYTAG
  1
PNSL
  9
$CUSTOMPROPERTY
  1
136210
  9
$CUSTOMPROPERTYTAG
  1
DESCRIPTIONSL
  9
$CUSTOMPROPERTY
  1
NSTU-GT-04
  9
$CUSTOMPROPERTYTAG
  1
PNA
  9
$CUSTOMPROPERTY
  1
136522
  9
$CUSTOMPROPERTYTAG
  1
DESCRIPTIONA
  9
$CUSTOMPROPERTY
  1
AN-GT-04-012-D
  9
$CUSTOMPROPERTYTAG
  1
W
  9
$CUSTOMPROPERTY
  1
1.6
  9
$CUSTOMPROPERTYTAG
  1
TUFS
  9
$CUSTOMPROPERTY
  1
NS210
  9
$CUSTOMPROPERTYTAG
  1
A
  9
$CUSTOMPROPERTY
  1
1.48
  9
$CUSTOMPROPERTYTAG
  1
B
  9
$CUSTOMPROPERTY
  1
3.50
  9
$CUSTOMPROPERTYTAG
  1
C
  9
$CUSTOMPROPERTY
  1
0.250
  9
$CUSTOMPROPERTYTAG
  1
D
  9
$CUSTOMPROPERTY
  1
1.50
  9
$CUSTOMPROPERTYTAG
  1
E
  9
$CUSTOMPROPERTY
  1
2.00
  9
$CUSTOMPROPERTYTAG
  1
F
  9
$CUSTOMPROPERTY
  1
3/4
  9
$CUSTOMPROPERTYTAG
  1
G
  9
$CUSTOMPROPERTY
  1
0.44
  9
$CUSTOMPROPERTYTAG
  1
H
  9
$CUSTOMPROPERTY
  1
0.88
  9
$CUSTOMPROPERTYTAG
  1
J
  9
$CUSTOMPROPERTY
  1
1.38
  9
$CUSTOMPROPERTYTAG
  1
L
  9
$CUSTOMPROPERTY
  1
1.50
  9
$CUSTOMPROPERTYTAG
  1
M
  9
$CUSTOMPROPERTY
  1
2.635/2.605
  9
$CUSTOMPROPERTYTAG
  1
N
  9
$CUSTOMPROPERTY
  1
3.13
  9
$CUSTOMPROPERTYTAG
  1
P
  9
$CUSTOMPROPERTY
  1
0.32
  9
$CUSTOMPROPERTYTAG
  1
R
  9
$CUSTOMPROPERTY
  1
0.46
  9
$CUSTOMPROPERTYTAG
  1
S
  9
$CUSTOMPROPERTY
  1
1.02
  9
$CUSTOMPROPERTYTAG
  1
Z
  9
$CUSTOMPROPERTY
  1
1.03
  9
$CUSTOMPROPERTYTAG
  1
CAPS
  9
$CUSTOMPROPERTY
  1
1390
  9
$CUSTOMPROPERTYTAG
  1
CAPD
  9
$CUSTOMPROPERTY
  1
2899
  9
$CUSTOMPROPERTYTAG
  1
COMPANY
  9
$CUSTOMPROPERTY
  1
baldor
  9
$INSBASE
 10
0.0
 20
0.0
 30
0.0
  9
$EXTMIN
 10
1.000000000000000E+20
 20
1.000000000000000E+20
 30
1.000000000000000E+20
  9
$EXTMAX
 10
-1.000000000000000E+20
 20
-1.000000000000000E+20
 30
-1.000000000000000E+20
  9
$LIMMIN
 10
0.0
 20
0.0
  9
$LIMMAX
 10
12.0
 20
9.0
  9
$ORTHOMODE
 70
     0
  9
$REGENMODE
 70
     1
  9
$FILLMODE
 70
     1
  9
$QTEXTMODE
 70
     0
  9
$MIRRTEXT
 70
     1
  9
$LTSCALE
 40
1.0
  9
$ATTMODE
 70
     1
  9
$TEXTSIZE
 40
0.2
  9
$TRACEWID
 40
0.05
  9
$TEXTSTYLE
  7
Standard
  9
$CLAYER
  8
0
  9
$CELTYPE
  6
ByLayer
  9
$CECOLOR
 62
   256
  9
$CELTSCALE
 40
1.0
  9
$DISPSILH
 70
     0
  9
$DIMSCALE
 40
1.0
  9
$DIMASZ
 40
0.18
  9
$DIMEXO
 40
0.0625
  9
$DIMDLI
 40
0.38
  9
$DIMRND
 40
0.0
  9
$DIMDLE
 40
0.0
  9
$DIMEXE
 40
0.18
  9
$DIMTP
 40
0.0
  9
$DIMTM
 40
0.0
  9
$DIMTXT
 40
0.18
  9
$DIMCEN
 40
0.09
  9
$DIMTSZ
 40
0.0
  9
$DIMTOL
 70
     0
  9
$DIMLIM
 70
     0
  9
$DIMTIH
 70
     1
  9
$DIMTOH
 70
     1
  9
$DIMSE1
 70
     0
  9
$DIMSE2
 70
     0
  9
$DIMTAD
 70
     0
  9
$DIMZIN
 70
     0
  9
$DIMBLK
  1

  9
$DIMASO
 70
     1
  9
$DIMSHO
 70
     1
  9
$DIMPOST
  1

  9
$DIMAPOST
  1

  9
$DIMALT
 70
     0
  9
$DIMALTD
 70
     2
  9
$DIMALTF
 40
25.4
  9
$DIMLFAC
 40
1.0
  9
$DIMTOFL
 70
     0
  9
$DIMTVP
 40
0.0
  9
$DIMTIX
 70
     0
  9
$DIMSOXD
 70
     0
  9
$DIMSAH
 70
     0
  9
$DIMBLK1
  1

  9
$DIMBLK2
  1

  9
$DIMSTYLE
  2
Standard
  9
$DIMCLRD
 70
     0
  9
$DIMCLRE
 70
     0
  9
$DIMCLRT
 70
     0
  9
$DIMTFAC
 40
1.0
  9
$DIMGAP
 40
0.09
  9
$DIMJUST
 70
     0
  9
$DIMSD1
 70
     0
  9
$DIMSD2
 70
     0
  9
$DIMTOLJ
 70
     1
  9
$DIMTZIN
 70
     0
  9
$DIMALTZ
 70
     0
  9
$DIMALTTZ
 70
     0
  9
$DIMUPT
 70
     0
  9
$DIMDEC
 70
     4
  9
$DIMTDEC
 70
     4
  9
$DIMALTU
 70
     2
  9
$DIMALTTD
 70
     2
  9
$DIMTXSTY
  7
Standard
  9
$DIMAUNIT
 70
     0
  9
$DIMADEC
 70
     0
  9
$DIMALTRND
 40
0.0
  9
$DIMAZIN
 70
     0
  9
$DIMDSEP
 70
    46
  9
$DIMATFIT
 70
     3
  9
$DIMFRAC
 70
     0
  9
$DIMLDRBLK
  1

  9
$DIMLUNIT
 70
     2
  9
$DIMLWD
 70
    -2
  9
$DIMLWE
 70
    -2
  9
$DIMTMOVE
 70
     0
  9
$DIMFXL
 40
1.0
  9
$DIMFXLON
 70
     0
  9
$DIMJOGANG
 40
0.7853981633974483
  9
$DIMTFILL
 70
     0
  9
$DIMTFILLCLR
 70
     0
  9
$DIMARCSYM
 70
     0
  9
$DIMLTYPE
  6

  9
$DIMLTEX1
  6

  9
$DIMLTEX2
  6

  9
$DIMTXTDIRECTION
 70
     0
  9
$LUNITS
 70
     2
  9
$LUPREC
 70
     4
  9
$SKETCHINC
 40
0.1
  9
$FILLETRAD
 40
0.5
  9
$AUNITS
 70
     0
  9
$AUPREC
 70
     0
  9
$MENU
  1
.
  9
$ELEVATION
 40
0.0
  9
$PELEVATION
 40
0.0
  9
$THICKNESS
 40
0.0
  9
$LIMCHECK
 70
     0
  9
$CHAMFERA
 40
0.0
  9
$CHAMFERB
 40
0.0
  9
$CHAMFERC
 40
0.0
  9
$CHAMFERD
 40
0.0
  9
$SKPOLY
 70
     0
  9
$TDCREATE
 40
2458168.994835347
  9
$TDUCREATE
 40
2458168.95316868
  9
$TDUPDATE
 40
2458168.994835532
  9
$TDUUPDATE
 40
2458168.953168866
  9
$TDINDWG
 40
0.0000000116
  9
$TDUSRTIMER
 40
0.0000000116
  9
$USRTIMER
 70
     1
  9
$ANGBASE
 50
0.0
  9
$ANGDIR
 70
     0
  9
$PDMODE
 70
     0
  9
$PDSIZE
 40
0.0
  9
$PLINEWID
 40
0.0
  9
$SPLFRAME
 70
     0
  9
$SPLINETYPE
 70
     6
  9
$SPLINESEGS
 70
     8
  9
$HANDSEED
  5
226
  9
$SURFTAB1
 70
     6
  9
$SURFTAB2
 70
     6
  9
$SURFTYPE
 70
     6
  9
$SURFU
 70
     6
  9
$SURFV
 70
     6
  9
$UCSBASE
  2

  9
$UCSNAME
  2

  9
$UCSORG
 10
0.0
 20
0.0
 30
0.0
  9
$UCSXDIR
 10
1.0
 20
0.0
 30
0.0
  9
$UCSYDIR
 10
0.0
 20
1.0
 30
0.0
  9
$UCSORTHOREF
  2

  9
$UCSORTHOVIEW
 70
     0
  9
$UCSORGTOP
 10
0.0
 20
0.0
 30
0.0
  9
$UCSORGBOTTOM
 10
0.0
 20
0.0
 30
0.0
  9
$UCSORGLEFT
 10
0.0
 20
0.0
 30
0.0
  9
$UCSORGRIGHT
 10
0.0
 20
0.0
 30
0.0
  9
$UCSORGFRONT
 10
0.0
 20
0.0
 30
0.0
  9
$UCSORGBACK
 10
0.0
 20
0.0
 30
0.0
  9
$PUCSBASE
  2

  9
$PUCSNAME
  2

  9
$PUCSORG
 10
0.0
 20
0.0
 30
0.0
  9
$PUCSXDIR
 10
1.0
 20
0.0
 30
0.0
  9
$PUCSYDIR
 10
0.0
 20
1.0
 30
0.0
  9
$PUCSORTHOREF
  2

  9
$PUCSORTHOVIEW
 70
     0
  9
$PUCSORGTOP
 10
0.0
 20
0.0
 30
0.0
  9
$PUCSORGBOTTOM
 10
0.0
 20
0.0
 30
0.0
  9
$PUCSORGLEFT
 10
0.0
 20
0.0
 30
0.0
  9
$PUCSORGRIGHT
 10
0.0
 20
0.0
 30
0.0
  9
$PUCSORGFRONT
 10
0.0
 20
0.0
 30
0.0
  9
$PUCSORGBACK
 10
0.0
 20
0.0
 30
0.0
  9
$USERI1
 70
     0
  9
$USERI2
 70
     0
  9
$USERI3
 70
     0
  9
$USERI4
 70
     0
  9
$USERI5
 70
     0
  9
$USERR1
 40
0.0
  9
$USERR2
 40
0.0
  9
$USERR3
 40
0.0
  9
$USERR4
 40
0.0
  9
$USERR5
 40
0.0
  9
$WORLDVIEW
 70
     1
  9
$SHADEDGE
 70
     3
  9
$SHADEDIF
 70
    70
  9
$TILEMODE
 70
     1
  9
$MAXACTVP
 70
    64
  9
$PINSBASE
 10
0.0
 20
0.0
 30
0.0
  9
$PLIMCHECK
 70
     0
  9
$PEXTMIN
 10
1.000000000000000E+20
 20
1.000000000000000E+20
 30
1.000000000000000E+20
  9
$PEXTMAX
 10
-1.000000000000000E+20
 20
-1.000000000000000E+20
 30
-1.000000000000000E+20
  9
$PLIMMIN
 10
0.0
 20
0.0
  9
$PLIMMAX
 10
12.0
 20
9.0
  9
$UNITMODE
 70
     0
  9
$VISRETAIN
 70
     1
  9
$PLINEGEN
 70
     0
  9
$PSLTSCALE
 70
     1
  9
$TREEDEPTH
 70
  3020
  9
$CMLSTYLE
  2
Standard
  9
$CMLJUST
 70
     0
  9
$CMLSCALE
 40
1.0
  9
$PROXYGRAPHICS
 70
     1
  9
$MEASUREMENT
 70
     0
  9
$CELWEIGHT
370
    -1
  9
$ENDCAPS
280
     0
  9
$JOINSTYLE
280
     0
  9
$LWDISPLAY
290
     0
  9
$INSUNITS
 70
     1
  9
$HYPERLINKBASE
  1

  9
$STYLESHEET
  1

  9
$XEDIT
290
     1
  9
$CEPSNTYPE
380
     0
  9
$PSTYLEMODE
290
     1
  9
$FINGERPRINTGUID
  2
{6741466E-0DAE-4AED-90A4-B60006E810F0}
  9
$VERSIONGUID
  2
{FAEB1C32-E019-11D5-929B-00C0DF256EC4}
  9
$EXTNAMES
290
     1
  9
$PSVPSCALE
 40
0.0
  9
$OLESTARTUP
290
     0
  9
$SORTENTS
280
   127
  9
$INDEXCTL
280
     0
  9
$HIDETEXT
280
     1
  9
$XCLIPFRAME
280
     2
  9
$HALOGAP
280
     0
  9
$OBSCOLOR
 70
   257
  9
$OBSLTYPE
280
     0
  9
$INTERSECTIONDISPLAY
280
     0
  9
$INTERSECTIONCOLOR
 70
   257
  9
$DIMASSOC
280
     2
  9
$PROJECTNAME
  1

  9
$CAMERADISPLAY
290
     0
  9
$LENSLENGTH
 40
50.0
  9
$CAMERAHEIGHT
 40
0.0
  9
$STEPSPERSEC
 40
2.0
  9
$STEPSIZE
 40
6.0
  9
$3DDWFPREC
 40
2.0
  9
$PSOLWIDTH
 40
0.25
  9
$PSOLHEIGHT
 40
4.0
  9
$LOFTANG1
 40
1.570796326794897
  9
$LOFTANG2
 40
1.570796326794897
  9
$LOFTMAG1
 40
0.0
  9
$LOFTMAG2
 40
0.0
  9
$LOFTPARAM
 70
     7
  9
$LOFTNORMALS
280
     1
  9
$LATITUDE
 40
37.795
  9
$LONGITUDE
 40
-122.394
  9
$NORTHDIRECTION
 40
0.0
  9
$TIMEZONE
 70
 -8000
  9
$LIGHTGLYPHDISPLAY
280
     1
  9
$TILEMODELIGHTSYNCH
280
     1
  9
$CMATERIAL
347
44
  9
$SOLIDHIST
280
     0
  9
$SHOWHIST
280
     1
  9
$DWFFRAME
280
     2
  9
$DGNFRAME
280
     2
  9
$REALWORLDSCALE
290
     1
  9
$INTERFERECOLOR
 62
   256
  9
$CSHADOW
280
     0
  9
$SHADOWPLANELOCATION
 40
0.0
  0
ENDSEC
  0
SECTION
  2
CLASSES
  0
CLASS
  1
ACDBDICTIONARYWDFLT
  2
AcDbDictionaryWithDefault
  3
ObjectDBX Classes
 90
        0
 91
        4
280
     0
281
     0
  0
CLASS
  1
VISUALSTYLE
  2
AcDbVisualStyle
  3
ObjectDBX Classes
 90
     4095
 91
        4
280
     0
281
     0
  0
CLASS
  1
MATERIAL
  2
AcDbMaterial
  3
ObjectDBX Classes
 90
     1153
 91
        4
280
     0
281
     0
  0
CLASS
  1
SCALE
  2
AcDbScale
  3
ObjectDBX Classes
 90
     1153
 91
        4
280
     0
281
     0
  0
CLASS
  1
TABLESTYLE
  2
AcDbTableStyle
  3
ObjectDBX Classes
 90
     4095
 91
        4
280
     0
281
     0
  0
CLASS
  1
MLEADERSTYLE
  2
AcDbMLeaderStyle
  3
ACDB_MLEADERSTYLE_CLASS
 90
     4095
 91
        4
280
     0
281
     0
  0
CLASS
  1
SUN
  2
AcDbSun
  3
SCENEOE
 90
     1153
 91
        4
280
     0
281
     0
  0
CLASS
  1
DICTIONARYVAR
  2
AcDbDictionaryVar
  3
ObjectDBX Classes
 90
        0
 91
        4
280
     0
281
     0
  0
CLASS
  1
CELLSTYLEMAP
  2
AcDbCellStyleMap
  3
ObjectDBX Classes
 90
     1152
 91
        4
280
     0
281
     0
  0
ENDSEC
  0
SECTION
  2
TABLES
  0
TABLE
  2
VPORT
  5
8
330
0
100
AcDbSymbolTable
 70
     1
  0
VPORT
  5
29
330
8
100
AcDbSymbolTableRecord
100
AcDbViewportTableRecord
  2
*Active
 70
     0
 10
0.0
 20
0.0
 11
1.0
 21
1.0
 12
-0.1677499999999998
 22
0.0
 13
0.0
 23
0.0
 14
0.5
 24
0.5
 15
0.5
 25
0.5
 16
0.0
 26
0.0
 36
1.0
 17
0.0
 27
0.0
 37
0.0
 40
3.1926
 41
0.5921725239616615
 42
50.0
 43
0.0
 44
0.0
 50
0.0
 51
0.0
 71
     0
 72
   100
 73
     1
 74
     3
 75
     0
 76
     0
 77
     0
 78
     0
281
     0
 65
     1
110
0.0
120
0.0
130
0.0
111
1.0
121
0.0
131
0.0
112
0.0
122
1.0
132
0.0
 79
     0
146
0.0
348
2F
 60
     3
 61
     5
292
     1
282
     1
141
0.0
142
0.0
 63
   250
361
6D
  0
ENDTAB
  0
TABLE
  2
LTYPE
  5
5
330
0
100
AcDbSymbolTable
 70
     3
  0
LTYPE
  5
14
330
5
100
AcDbSymbolTableRecord
100
AcDbLinetypeTableRecord
  2
ByBlock
 70
     0
  3

 72
    65
 73
     0
 40
0.0
  0
LTYPE
  5
15
330
5
100
AcDbSymbolTableRecord
100
AcDbLinetypeTableRecord
  2
ByLayer
 70
     0
  3

 72
    65
 73
     0
 40
0.0
  0
LTYPE
  5
16
330
5
100
AcDbSymbolTableRecord
100
AcDbLinetypeTableRecord
  2
Continuous
 70
     0
  3
Solid line
 72
    65
 73
     0
 40
0.0
  0
LTYPE
  5
A6
330
5
100
AcDbSymbolTableRecord
100
AcDbLinetypeTableRecord
  2
Dashed
 70
     0
  3

 72
    65
 73
     2
 40
2.0
 49
1.0
 74
     0
 49
-1.0
 74
     0
  0
LTYPE
  5
196
330
5
100
AcDbSymbolTableRecord
100
AcDbLinetypeTableRecord
  2
Center
 70
     0
  3

 72
    65
 73
     4
 40
1.5
 49
0.45
 74
     0
 49
-0.5
 74
     0
 49
0.05
 74
     0
 49
-0.5
 74
     0
  0
ENDTAB
  0
TABLE
  2
LAYER
  5
2
330
0
100
AcDbSymbolTable
 70
     7
  0
LAYER
  5
10
330
2
100
AcDbSymbolTableRecord
100
AcDbLayerTableRecord
  2
0
 70
     0
 62
     7
  6
Continuous
370
    -3
390
F
347
46
348
0
  0
LAYER
  5
72
330
2
100
AcDbSymbolTableRecord
100
AcDbLayerTableRecord
  2
AM_6
 70
     0
 62
    -2
  6
Continuous
370
    35
390
F
347
46
348
0
  0
LAYER
  5
A7
330
2
100
AcDbSymbolTableRecord
100
AcDbLayerTableRecord
  2
AM_9
 70
     0
 62
     6
  6
Dashed
370
    25
390
F
347
46
348
0
  0
LAYER
  5
10C
330
2
100
AcDbSymbolTableRecord
100
AcDbLayerTableRecord
  2
AM_4
 70
     0
 62
     7
  6
Continuous
370
    50
390
F
347
46
348
0
  0
LAYER
  5
193
330
2
100
AcDbSymbolTableRecord
100
AcDbLayerTableRecord
  2
AM_5
 70
     0
 62
     3
  6
Continuous
370
    25
390
F
347
46
348
0
  0
LAYER
  5
197
330
2
100
AcDbSymbolTableRecord
100
AcDbLayerTableRecord
  2
AM_7
 70
     0
 62
     7
  6
Center
370
    25
390
F
347
46
348
0
  0
LAYER
  5
215
330
2
100
AcDbSymbolTableRecord
100
AcDbLayerTableRecord
  2
ConnectionPoints
 70
     0
 62
     7
  6
Continuous
370
    50
390
F
347
46
348
0
  0
ENDTAB
  0
TABLE
  2
STYLE
  5
3
330
0
100
AcDbSymbolTable
 70
     1
  0
STYLE
  5
11
330
3
100
AcDbSymbolTableRecord
100
AcDbTextStyleTableRecord
  2
Standard
 70
     0
 40
0.0
 41
1.0
 50
0.0
 71
     0
 42
0.2
  3
txt
  4

  0
ENDTAB
  0
TABLE
  2
VIEW
  5
6
330
0
100
AcDbSymbolTable
 70
     0
  0
ENDTAB
  0
TABLE
  2
UCS
  5
7
330
0
100
AcDbSymbolTable
 70
     0
  0
ENDTAB
  0
TABLE
  2
APPID
  5
9
330
0
100
AcDbSymbolTable
 70
     1
  0
APPID
  5
12
330
9
100
AcDbSymbolTableRecord
100
AcDbRegAppTableRecord
  2
ACAD
 70
     0
  0
ENDTAB
  0
TABLE
  2
DIMSTYLE
  5
A
330
0
100
AcDbSymbolTable
 70
     1
100
AcDbDimStyleTable
  0
DIMSTYLE
105
27
330
A
100
AcDbSymbolTableRecord
100
AcDbDimStyleTableRecord
  2
Standard
 70
     0
178
     0
340
11
  0
ENDTAB
  0
TABLE
  2
BLOCK_RECORD
  5
1
330
0
100
AcDbSymbolTable
 70
     6
  0
BLOCK_RECORD
  5
1F
330
1
100
AcDbSymbolTableRecord
100
AcDbBlockTableRecord
  2
*Model_Space
340
22
 70
     0
280
     1
281
     0
  0
BLOCK_RECORD
  5
1B
330
1
100
AcDbSymbolTableRecord
100
AcDbBlockTableRecord
  2
*Paper_Space
340
1E
 70
     0
280
     1
281
     0
  0
BLOCK_RECORD
  5
23
330
1
100
AcDbSymbolTableRecord
100
AcDbBlockTableRecord
  2
*Paper_Space0
340
26
 70
     0
280
     1
281
     0
  0
BLOCK_RECORD
  5
6E
330
1
100
AcDbSymbolTableRecord
100
AcDbBlockTableRecord
  2
1_136110_2
340
0
102
{BLKREFS
331
6F
102
}
 70
     0
280
     1
281
     0
  0
BLOCK_RECORD
  5
95
330
1
100
AcDbSymbolTableRecord
100
AcDbBlockTableRecord
  2
2_405016_Inch_0_in_136110_2
340
0
102
{BLKREFS
331
96
102
}
 70
     0
280
     1
281
     0
  0
BLOCK_RECORD
  5
10E
330
1
100
AcDbSymbolTableRecord
100
AcDbBlockTableRecord
  2
3_129517I_0_in_136110_2
340
0
102
{BLKREFS
331
10F
102
}
 70
     0
280
     1
281
     0
  0
BLOCK_RECORD
  5
155
330
1
100
AcDbSymbolTableRecord
100
AcDbBlockTableRecord
  2
4_136522_0_in_136110_2
340
0
102
{BLKREFS
331
156
102
}
 70
     0
280
     1
281
     0
  0
BLOCK_RECORD
  5
1AE
330
1
100
AcDbSymbolTableRecord
100
AcDbBlockTableRecord
  2
5_136110h_0_in_136110_2
340
0
102
{BLKREFS
331
1AF
102
}
 70
     0
280
     1
281
     0
  0
ENDTAB
  0
ENDSEC
  0
SECTION
  2
BLOCKS
  0
BLOCK
  5
20
330
1F
100
AcDbEntity
  8
0
100
AcDbBlockBegin
  2
*Model_Space
 70
     0
 10
0.0
 20
0.0
 30
0.0
  3
*Model_Space
  1

  0
ENDBLK
  5
21
330
1F
100
AcDbEntity
  8
0
100
AcDbBlockEnd
  0
BLOCK
  5
1C
330
1B
100
AcDbEntity
 67
     1
  8
0
100
AcDbBlockBegin
  2
*Paper_Space
 70
     0
 10
0.0
 20
0.0
 30
0.0
  3
*Paper_Space
  1

  0
ENDBLK
  5
1D
330
1B
100
AcDbEntity
 67
     1
  8
0
100
AcDbBlockEnd
  0
BLOCK
  5
24
330
23
100
AcDbEntity
  8
0
100
AcDbBlockBegin
  2
*Paper_Space0
 70
     0
 10
0.0
 20
0.0
 30
0.0
  3
*Paper_Space0
  1

  0
ENDBLK
  5
25
330
23
100
AcDbEntity
  8
0
100
AcDbBlockEnd
  0
BLOCK
  5
70
330
6E
100
AcDbEntity
  8
0
100
AcDbBlockBegin
  2
1_136110_2
 70
     2
 10
0.0
 20
0.0
 30
0.0
  3
1_136110_2
  1

  0
ATTDEF
  5
73
330
6E
100
AcDbEntity
  8
AM_6
100
AcDbText
 10
5.759
 20
1.565
 30
0.0
 40
0.5
  1
Grip Tight Narrow Slot Take Up Inch Bore
100
AcDbAttributeDefinition
  3

  2
NN
 70
     8
280
     0
  0
ATTDEF
  5
74
330
6E
100
AcDbEntity
  8
AM_6
100
AcDbText
 10
5.759
 20
1.065
 30
0.0
 40
0.5
  1
GT Normal Duty Narrow Slot Take-Up Bearings
100
AcDbAttributeDefinition
  3

  2
NT
 70
     8
280
     0
  0
ATTDEF
  5
75
330
6E
100
AcDbEntity
  8
AM_6
100
AcDbText
 10
5.759
 20
0.5649999999999997
 30
0.0
 40
0.5
  1
136110
100
AcDbAttributeDefinition
  3

  2
NB
 70
     8
280
     0
  0
ATTDEF
  5
76
330
6E
100
AcDbEntity
  8
AM_6
100
AcDbText
 10
5.759
 20
0.0649999999999997
 30
0.0
 40
0.5
  1
$PN.
100
AcDbAttributeDefinition
  3

  2
NBSYN
 70
     8
280
     0
  0
ATTDEF
  5
77
330
6E
100
AcDbEntity
  8
AM_6
100
AcDbText
 10
5.759
 20
-0.4350000000000003
 30
0.0
 40
0.5
  1
136110
100
AcDbAttributeDefinition
  3

  2
LINA
 70
     8
280
     0
  0
ATTDEF
  5
78
330
6E
100
AcDbEntity
  8
AM_6
100
AcDbText
 10
5.759
 20
-0.9350000000000003
 30
0.0
 40
0.5
  1
204
100
AcDbAttributeDefinition
  3

  2
SERIES
 70
     8
280
     0
  0
ATTDEF
  5
79
330
6E
100
AcDbEntity
  8
AM_6
100
AcDbText
 10
5.759
 20
-1.435
 30
0.0
 40
0.5
  1
3/4
100
AcDbAttributeDefinition
  3

  2
SS
 70
     8
280
     0
  0
ATTDEF
  5
7A
330
6E
100
AcDbEntity
  8
AM_6
100
AcDbText
 10
5.759
 20
-1.935
 30
0.0
 40
0.5
  1
136110
100
AcDbAttributeDefinition
  3

  2
PN
 70
     8
280
     0
  0
ATTDEF
  5
7B
330
6E
100
AcDbEntity
  8
AM_6
100
AcDbText
 10
5.759
 20
-2.435
 30
0.0
 40
0.5
  1
NSTU-GT-012
100
AcDbAttributeDefinition
  3

  2
DESCRIPTION
 70
     8
280
     0
  0
ATTDEF
  5
7C
330
6E
100
AcDbEntity
  8
AM_6
100
AcDbText
 10
5.759
 20
-2.935
 30
0.0
 40
0.5
  1
136210
100
AcDbAttributeDefinition
  3

  2
PNSL
 70
     8
280
     0
  0
ATTDEF
  5
7D
330
6E
100
AcDbEntity
  8
AM_6
100
AcDbText
 10
5.759
 20
-3.435
 30
0.0
 40
0.5
  1
NSTU-GT-04
100
AcDbAttributeDefinition
  3

  2
DESCRIPTIONSL
 70
     8
280
     0
  0
ATTDEF
  5
7E
330
6E
100
AcDbEntity
  8
AM_6
100
AcDbText
 10
5.759
 20
-3.935
 30
0.0
 40
0.5
  1
136522
100
AcDbAttributeDefinition
  3

  2
PNA
 70
     8
280
     0
  0
ATTDEF
  5
7F
330
6E
100
AcDbEntity
  8
AM_6
100
AcDbText
 10
5.759
 20
-4.435
 30
0.0
 40
0.5
  1
AN-GT-04-012-D
100
AcDbAttributeDefinition
  3

  2
DESCRIPTIONA
 70
     8
280
     0
  0
ATTDEF
  5
80
330
6E
100
AcDbEntity
  8
AM_6
100
AcDbText
 10
5.759
 20
-4.935
 30
0.0
 40
0.5
  1
1.6
100
AcDbAttributeDefinition
  3

  2
W
 70
     8
280
     0
  0
ATTDEF
  5
81
330
6E
100
AcDbEntity
  8
AM_6
100
AcDbText
 10
5.759
 20
-5.435
 30
0.0
 40
0.5
  1
NS210
100
AcDbAttributeDefinition
  3

  2
TUFS
 70
     8
280
     0
  0
ATTDEF
  5
82
330
6E
100
AcDbEntity
  8
AM_6
100
AcDbText
 10
5.759
 20
-5.935
 30
0.0
 40
0.5
  1
1.48
100
AcDbAttributeDefinition
  3

  2
A
 70
     8
280
     0
  0
ATTDEF
  5
83
330
6E
100
AcDbEntity
  8
AM_6
100
AcDbText
 10
5.759
 20
-6.435
 30
0.0
 40
0.5
  1
3.50
100
AcDbAttributeDefinition
  3

  2
B
 70
     8
280
     0
  0
ATTDEF
  5
84
330
6E
100
AcDbEntity
  8
AM_6
100
AcDbText
 10
5.759
 20
-6.935
 30
0.0
 40
0.5
  1
0.250
100
AcDbAttributeDefinition
  3

  2
C
 70
     8
280
     0
  0
ATTDEF
  5
85
330
6E
100
AcDbEntity
  8
AM_6
100
AcDbText
 10
5.759
 20
-7.435
 30
0.0
 40
0.5
  1
1.50
100
AcDbAttributeDefinition
  3

  2
D
 70
     8
280
     0
  0
ATTDEF
  5
86
330
6E
100
AcDbEntity
  8
AM_6
100
AcDbText
 10
5.759
 20
-7.935
 30
0.0
 40
0.5
  1
2.00
100
AcDbAttributeDefinition
  3

  2
E
 70
     8
280
     0
  0
ATTDEF
  5
87
330
6E
100
AcDbEntity
  8
AM_6
100
AcDbText
 10
5.759
 20
-8.435
 30
0.0
 40
0.5
  1
3/4
100
AcDbAttributeDefinition
  3

  2
F
 70
     8
280
     0
  0
ATTDEF
  5
88
330
6E
100
AcDbEntity
  8
AM_6
100
AcDbText
 10
5.759
 20
-8.935
 30
0.0
 40
0.5
  1
0.44
100
AcDbAttributeDefinition
  3

  2
G
 70
     8
280
     0
  0
ATTDEF
  5
89
330
6E
100
AcDbEntity
  8
AM_6
100
AcDbText
 10
5.759
 20
-9.435
 30
0.0
 40
0.5
  1
0.88
100
AcDbAttributeDefinition
  3

  2
H
 70
     8
280
     0
  0
ATTDEF
  5
8A
330
6E
100
AcDbEntity
  8
AM_6
100
AcDbText
 10
5.759
 20
-9.935
 30
0.0
 40
0.5
  1
1.38
100
AcDbAttributeDefinition
  3

  2
J
 70
     8
280
     0
  0
ATTDEF
  5
8B
330
6E
100
AcDbEntity
  8
AM_6
100
AcDbText
 10
5.759
 20
-10.435
 30
0.0
 40
0.5
  1
1.50
100
AcDbAttributeDefinition
  3

  2
L
 70
     8
280
     0
  0
ATTDEF
  5
8C
330
6E
100
AcDbEntity
  8
AM_6
100
AcDbText
 10
5.759
 20
-10.935
 30
0.0
 40
0.5
  1
2.635/2.605
100
AcDbAttributeDefinition
  3

  2
M
 70
     8
280
     0
  0
ATTDEF
  5
8D
330
6E
100
AcDbEntity
  8
AM_6
100
AcDbText
 10
5.759
 20
-11.435
 30
0.0
 40
0.5
  1
3.13
100
AcDbAttributeDefinition
  3

  2
N
 70
     8
280
     0
  0
ATTDEF
  5
8E
330
6E
100
AcDbEntity
  8
AM_6
100
AcDbText
 10
5.759
 20
-11.935
 30
0.0
 40
0.5
  1
0.32
100
AcDbAttributeDefinition
  3

  2
P
 70
     8
280
     0
  0
ATTDEF
  5
8F
330
6E
100
AcDbEntity
  8
AM_6
100
AcDbText
 10
5.759
 20
-12.435
 30
0.0
 40
0.5
  1
0.46
100
AcDbAttributeDefinition
  3

  2
R
 70
     8
280
     0
  0
ATTDEF
  5
90
330
6E
100
AcDbEntity
  8
AM_6
100
AcDbText
 10
5.759
 20
-12.935
 30
0.0
 40
0.5
  1
1.02
100
AcDbAttributeDefinition
  3

  2
S
 70
     8
280
     0
  0
ATTDEF
  5
91
330
6E
100
AcDbEntity
  8
AM_6
100
AcDbText
 10
5.759
 20
-13.435
 30
0.0
 40
0.5
  1
1.03
100
AcDbAttributeDefinition
  3

  2
Z
 70
     8
280
     0
  0
ATTDEF
  5
92
330
6E
100
AcDbEntity
  8
AM_6
100
AcDbText
 10
5.759
 20
-13.935
 30
0.0
 40
0.5
  1
1390
100
AcDbAttributeDefinition
  3

  2
CAPS
 70
     8
280
     0
  0
ATTDEF
  5
93
330
6E
100
AcDbEntity
  8
AM_6
100
AcDbText
 10
5.759
 20
-14.435
 30
0.0
 40
0.5
  1
2899
100
AcDbAttributeDefinition
  3

  2
CAPD
 70
     8
280
     0
  0
ATTDEF
  5
94
330
6E
100
AcDbEntity
  8
AM_6
100
AcDbText
 10
5.759
 20
-14.935
 30
0.0
 40
0.5
  1
baldor
100
AcDbAttributeDefinition
  3

  2
COMPANY
 70
     8
280
     0
  0
INSERT
  5
96
330
6E
100
AcDbEntity
  8
0
100
AcDbBlockReference
  2
2_405016_Inch_0_in_136110_2
 10
0.0
 20
0.0
 30
0.0
  0
INSERT
  5
10F
330
6E
100
AcDbEntity
  8
0
100
AcDbBlockReference
  2
3_129517I_0_in_136110_2
 10
0.0
 20
0.0
 30
0.0
  0
INSERT
  5
156
330
6E
100
AcDbEntity
  8
0
100
AcDbBlockReference
  2
4_136522_0_in_136110_2
 10
0.0
 20
0.0
 30
0.0
  0
INSERT
  5
1AF
330
6E
100
AcDbEntity
  8
0
100
AcDbBlockReference
  2
5_136110h_0_in_136110_2
 10
0.0
 20
0.0
 30
0.0
  0
ENDBLK
  5
71
330
6E
100
AcDbEntity
  8
0
100
AcDbBlockEnd
  0
BLOCK
  5
97
330
95
100
AcDbEntity
  8
0
100
AcDbBlockBegin
  2
2_405016_Inch_0_in_136110_2
 70
     2
 10
0.0
 20
0.0
 30
0.0
  3
2_405016_Inch_0_in_136110_2
  1

  0
ATTDEF
  5
99
330
95
100
AcDbEntity
  8
AM_6
100
AcDbText
 10
5.218750000000001
 20
-0.4919256983551581
 30
0.0
 40
0.5
  1
405016 -Inch
100
AcDbAttributeDefinition
  3

  2
NN
 70
     8
280
     0
  0
ATTDEF
  5
9A
330
95
100
AcDbEntity
  8
AM_6
100
AcDbText
 10
5.218750000000001
 20
-0.9919256983551581
 30
0.0
 40
0.5
  1
Grease Fitting
100
AcDbAttributeDefinition
  3

  2
NT
 70
     8
280
     0
  0
ATTDEF
  5
9B
330
95
100
AcDbEntity
  8
AM_6
100
AcDbText
 10
5.218750000000001
 20
-1.491925698355158
 30
0.0
 40
0.5
  1
405016-Inch
100
AcDbAttributeDefinition
  3

  2
NB
 70
     8
280
     0
  0
ATTDEF
  5
9C
330
95
100
AcDbEntity
  8
AM_6
100
AcDbText
 10
5.218750000000001
 20
-1.991925698355158
 30
0.0
 40
0.5
  1
$MN.-Inch
100
AcDbAttributeDefinition
  3

  2
NBSYN
 70
     8
280
     0
  0
ATTDEF
  5
9D
330
95
100
AcDbEntity
  8
AM_6
100
AcDbText
 10
5.218750000000001
 20
-2.491925698355158
 30
0.0
 40
0.5
  1
405016
100
AcDbAttributeDefinition
  3

  2
LINA
 70
     8
280
     0
  0
ATTDEF
  5
9E
330
95
100
AcDbEntity
  8
AM_6
100
AcDbText
 10
5.218750000000001
 20
-2.991925698355158
 30
0.0
 40
0.5
  1
405016
100
AcDbAttributeDefinition
  3

  2
MN
 70
     8
280
     0
  0
ATTDEF
  5
9F
330
95
100
AcDbEntity
  8
AM_6
100
AcDbText
 10
5.218750000000001
 20
-3.491925698355158
 30
0.0
 40
0.5
  1
7/16 HEX
100
AcDbAttributeDefinition
  3

  2
H
 70
     8
280
     0
  0
ATTDEF
  5
A0
330
95
100
AcDbEntity
  8
AM_6
100
AcDbText
 10
5.218750000000001
 20
-3.991925698355158
 30
0.0
 40
0.5
  1
0.383
100
AcDbAttributeDefinition
  3

  2
NDR
 70
     8
280
     0
  0
ATTDEF
  5
A1
330
95
100
AcDbEntity
  8
AM_6
100
AcDbText
 10
5.218750000000001
 20
-4.491925698355158
 30
0.0
 40
0.5
  1
0.337
100
AcDbAttributeDefinition
  3

  2
KDR
 70
     8
280
     0
  0
ATTDEF
  5
A2
330
95
100
AcDbEntity
  8
AM_6
100
AcDbText
 10
5.218750000000001
 20
-4.991925698355158
 30
0.0
 40
0.5
  1
0.1575
100
AcDbAttributeDefinition
  3

  2
BZE
 70
     8
280
     0
  0
ATTDEF
  5
A3
330
95
100
AcDbEntity
  8
AM_6
100
AcDbText
 10
5.218750000000001
 20
-5.491925698355158
 30
0.0
 40
0.5
  1
0.4375
100
AcDbAttributeDefinition
  3

  2
HEX
 70
     8
280
     0
  0
ATTDEF
  5
A4
330
95
100
AcDbEntity
  8
AM_6
100
AcDbText
 10
5.218750000000001
 20
-5.991925698355158
 30
0.0
 40
0.5
  1
0.281250
100
AcDbAttributeDefinition
  3

  2
HEX2
 70
     8
280
     0
  0
ATTDEF
  5
A5
330
95
100
AcDbEntity
  8
AM_6
100
AcDbText
 10
5.218750000000001
 20
-6.491925698355158
 30
0.0
 40
0.5
  1
baldor
100
AcDbAttributeDefinition
  3

  2
COMPANY
 70
     8
280
     0
  0
LWPOLYLINE
  5
A8
330
95
100
AcDbEntity
  8
AM_9
100
AcDbPolyline
 90
        5
 70
     0
 43
0.0
 10
-0.1791093260592887
 20
-1.096738809059826
 10
-0.1842540823997054
 20
-1.063670119967152
 10
-0.1862220679364951
 20
-1.029312409178914
 10
-0.1844124966919382
 20
-0.9931264462853558
 10
-0.1791093260592887
 20
-0.9561138090598258
  0
LINE
  5
A9
330
95
100
AcDbEntity
  8
AM_9
100
AcDbLine
 10
-0.1510741298357571
 20
-0.9495772957113703
 30
0.0
 11
-0.1791093260592887
 21
-0.9561138090598258
 31
0.0
  0
LWPOLYLINE
  5
AA
330
95
100
AcDbEntity
  8
AM_9
100
AcDbPolyline
 90
        5
 70
     0
 43
0.0
 10
-0.1791093260592887
 20
-0.9561138090598258
 10
-0.1988355121406939
 20
-0.9246885177366109
 10
-0.2156330920108725
 20
-0.8919977243283276
 10
-0.2290462109660021
 20
-0.8575061536907939
 10
-0.2389369657326277
 20
-0.8221690924072834
  0
LINE
  5
AB
330
95
100
AcDbEntity
  8
AM_9
100
AcDbLine
 10
-0.2099962668917054
 20
-0.8154214576563438
 30
0.0
 11
-0.2389369657326277
 21
-0.8221690924072834
 31
0.0
  0
LINE
  5
AC
330
95
100
AcDbEntity
  8
AM_9
100
AcDbLine
 10
-0.2389369657326277
 20
-0.8221690924072834
 30
0.0
 11
-0.2711532636537957
 21
-0.8266181234374058
 31
0.0
  0
LWPOLYLINE
  5
AD
330
95
100
AcDbEntity
  8
AM_9
100
AcDbPolyline
 90
        3
 70
     0
 43
0.0
 10
-0.2813919000363599
 20
-0.827753048956784
 10
-0.2911775952746243
 20
-0.8285555934942603
 10
-0.2987675689889718
 20
-0.8288500667254667
  0
LWPOLYLINE
  5
AE
330
95
100
AcDbEntity
  8
AM_9
100
AcDbPolyline
 90
        5
 70
     0
 43
0.0
 10
-0.2389369657326277
 20
-1.103419092407284
 10
-0.2295338871417796
 20
-1.10299806213629
 10
-0.2166871171046321
 20
-1.101802555641742
 10
-0.1996402057054678
 20
-1.099676787031713
 10
-0.1791093260592887
 20
-1.096738809059826
  0
LINE
  5
AF
330
95
100
AcDbEntity
  8
AM_9
100
AcDbLine
 10
-0.1510741298357571
 20
-1.09020229571137
 30
0.0
 11
-0.1791093260592887
 21
-1.096738809059826
 31
0.0
  0
LINE
  5
B0
330
95
100
AcDbEntity
  8
AM_9
100
AcDbLine
 10
-0.4524158089341449
 20
-1.116254016496842
 30
0.0
 11
-0.3774664534000949
 21
-1.134780662014441
 31
0.0
  0
LINE
  5
B1
330
95
100
AcDbEntity
  8
AM_9
100
AcDbLine
 10
-0.4395859245204075
 20
-0.8683493905826324
 30
0.0
 11
-0.4986131040655763
 21
-0.9181131782604874
 31
0.0
  0
ELLIPSE
  5
B2
330
95
100
AcDbEntity
  8
AM_9
100
AcDbEllipse
 10
-0.4687499999995215
 20
-1.015606438444562
 30
0.0
 11
-0.02349716402122471
 21
0.1007796617101573
 31
0.0
210
0.0
220
0.0
230
1.0
 40
0.3659981507712887
 41
1.778400841810082
 42
6.511962502475077
  0
LWPOLYLINE
  5
B3
330
95
100
AcDbEntity
  8
AM_9
100
AcDbPolyline
 90
        3
 70
     0
 43
0.0
 10
-0.2689146070947222
 20
-0.8218897343505177
 10
-0.251275593729576
 20
-0.8192388430145476
 10
-0.2360765106845275
 20
-0.8171875924132664
  0
ELLIPSE
  5
B4
330
95
100
AcDbEntity
  8
AM_9
100
AcDbEllipse
 10
-0.3994303217889759
 20
-0.9994442900387734
 30
0.0
 11
-0.03159560311146593
 21
0.1355139790604261
 31
0.0
210
0.0
220
0.0
230
1.0
 40
0.3659981507706652
 41
0.1855502943377196
 42
4.145181672147546
  0
LWPOLYLINE
  5
B5
330
95
100
AcDbEntity
  8
AM_9
100
AcDbPolyline
 90
       11
 70
     0
 43
0.0
 10
-0.3783145455512998
 20
-0.8727404577847255
 10
-0.3814884083727066
 20
-0.8701269623400065
 10
-0.3883327667993965
 20
-0.8654427957287786
 10
-0.3951283225921565
 20
-0.8620100906070297
 10
-0.4019051387127621
 20
-0.8597276568078134
 10
-0.4086843200528987
 20
-0.8585414309918895
 10
-0.4154326785217429
 20
-0.8584427122822202
 10
-0.4226213624702128
 20
-0.8595710943123689
 10
-0.4293033201165161
 20
-0.8618754258730638
 10
-0.4353808969742544
 20
-0.8652048229930195
 10
-0.4396788500344461
 20
-0.8684279434515453
  0
LWPOLYLINE
  5
B6
330
95
100
AcDbEntity
  8
AM_9
100
AcDbPolyline
 90
        3
 70
     0
 43
0.0
 10
-0.3266033065152924
 20
-1.108418678646547
 10
-0.3259060644881847
 20
-1.106992155316774
 10
-0.3243836686167625
 20
-1.103573213912484
  0
LWPOLYLINE
  5
B7
330
95
100
AcDbEntity
  8
AM_9
100
AcDbPolyline
 90
       10
 70
     0
 43
0.0
 10
-0.3774993669634206
 20
-1.134772513266494
 10
-0.3712778643016118
 20
-1.135857251434549
 10
-0.364527108431169
 20
-1.135996621623383
 10
-0.3573227219987655
 20
-1.134910296847415
 10
-0.3506219244075962
 20
-1.132643180375807
 10
-0.3445231414699367
 20
-1.129346017853719
 10
-0.3390445873880406
 20
-1.125135426194495
 10
-0.3341476059043313
 20
-1.1200513001644
 10
-0.3297800127450669
 20
-1.114046429131878
 10
-0.3269199867688474
 20
-1.109041042213442
  0
LWPOLYLINE
  5
B8
330
95
100
AcDbEntity
  8
AM_9
100
AcDbPolyline
 90
        3
 70
     0
 43
0.0
 10
-0.109375
 20
-0.6749999999999999
 10
-0.0546875
 20
-0.6464595596074827
 10
-0.0000000000000001
 20
-0.6157787001516928
  0
LWPOLYLINE
  5
B9
330
95
100
AcDbEntity
  8
AM_9
100
AcDbPolyline
 90
        3
 70
     0
 43
0.0
 10
-0.0000000000000001
 20
-0.6157787001516928
 10
0.0544416102741495
 20
-0.6463260426622647
 10
0.1093749999999999
 20
-0.6749999999999999
  0
LWPOLYLINE
  5
BA
330
95
100
AcDbEntity
  8
AM_9
100
AcDbPolyline
 90
        6
 70
     0
 43
0.0
 10
-0.1510741298357571
 20
-1.09020229571137
 10
-0.1564222384464443
 20
-1.090146258798399
 10
-0.1639940363880805
 20
-1.090585121917566
 10
-0.1744063212866123
 20
-1.091646289109958
 10
-0.1876759562813858
 20
-1.093363121169831
 10
-0.2099962668917054
 20
-1.096671457656344
  0
LINE
  5
BB
330
95
100
AcDbEntity
  8
AM_9
100
AcDbLine
 10
-0.1423875610664503
 20
-1.003132032602742
 30
0.0
 11
-0.141958509815605
 21
-1.017769408754154
 31
0.0
  0
LWPOLYLINE
  5
BC
330
95
100
AcDbEntity
  8
AM_9
100
AcDbPolyline
 90
        3
 70
     0
 43
0.0
 10
-0.1510741298357571
 20
-0.9495772957113703
 10
-0.1458778226760521
 20
-0.973510622598914
 10
-0.1428814723212274
 20
-0.9963274949467882
  0
LINE
  5
BD
330
95
100
AcDbEntity
  8
AM_9
100
AcDbLine
 10
-0.1777653900703286
 20
-0.8668285786203199
 30
0.0
 11
-0.1765789831125442
 21
-0.8692058555423607
 31
0.0
  0
LWPOLYLINE
  5
BE
330
95
100
AcDbEntity
  8
AM_9
100
AcDbPolyline
 90
        3
 70
     0
 43
0.0
 10
-0.2099962668917054
 20
-0.8154214576563438
 10
-0.1943573015029059
 20
-0.8379928542882339
 10
-0.1848868783124304
 20
-0.853582749489311
  0
LWPOLYLINE
  5
BF
330
95
100
AcDbEntity
  8
AM_9
100
AcDbPolyline
 90
        4
 70
     0
 43
0.0
 10
-0.2258378743019627
 20
-0.8160526668938883
 10
-0.2189176876709015
 20
-0.8155103698475837
 10
-0.2138633349839128
 20
-0.8153309118621996
 10
-0.2099962668917054
 20
-0.8154214576563438
  0
LWPOLYLINE
  5
C0
330
95
100
AcDbEntity
  8
AM_9
100
AcDbPolyline
 90
        4
 70
     0
 43
0.0
 10
-0.1428364406591876
 20
-1.039082554157222
 10
-0.1441228263802215
 20
-1.051595324422914
 10
-0.1470795994472237
 20
-1.070838298137269
 10
-0.1510741298357571
 20
-1.09020229571137
  0
LINE
  5
C1
330
95
100
AcDbEntity
  8
AM_9
100
AcDbLine
 10
-0.141958509815605
 20
-1.017769408754154
 30
0.0
 11
-0.1419646013158479
 21
-1.019518223597389
 31
0.0
  0
LWPOLYLINE
  5
C2
330
95
100
AcDbEntity
  8
AM_9
100
AcDbPolyline
 90
        4
 70
     0
 43
0.0
 10
-0.167927637958963
 20
-0.8886104221209814
 10
-0.1598729403210871
 20
-0.9117686897126438
 10
-0.1549033058439656
 20
-0.9306071719614788
 10
-0.1510741298357571
 20
-0.9495772957113703
  0
LINE
  5
C3
330
95
100
AcDbEntity
  8
AM_9
100
AcDbLine
 10
-0.1765789831125442
 20
-0.8692058555423607
 30
0.0
 11
-0.1691290022697755
 21
-0.8856537287633404
 31
0.0
  0
ELLIPSE
  5
C4
330
95
100
AcDbEntity
  8
AM_9
100
AcDbEllipse
 10
-0.2013892028241884
 20
-0.9532702448373409
 30
0.0
 11
-0.03193085011438272
 21
0.1369518580960947
 31
0.0
210
0.0
220
0.0
230
1.0
 40
0.3659981507706686
 41
2.150416404658208
 42
6.139946939636884
  0
LWPOLYLINE
  5
C5
330
95
100
AcDbEntity
  8
AM_9
100
AcDbPolyline
 90
        3
 70
     0
 43
0.0
 10
-0.3055458577949631
 20
-0.917852494962034
 10
-0.3030753670497808
 20
-0.943922855181632
 10
-0.2987675689889718
 20
-0.9694750667254667
  0
LWPOLYLINE
  5
C6
330
95
100
AcDbEntity
  8
AM_9
100
AcDbPolyline
 90
        4
 70
     0
 43
0.0
 10
-0.2602304684431209
 20
-0.8730679499247962
 10
-0.2616913382589203
 20
-0.8584112730526002
 10
-0.2647402074337707
 20
-0.8399547701127597
 10
-0.2689146070947222
 20
-0.8218897343505177
  0
LINE
  5
C7
330
95
100
AcDbEntity
  8
AM_9
100
AcDbLine
 10
-0.2689146070947222
 20
-0.8218897343505177
 30
0.0
 11
-0.2987675689889718
 21
-0.8288500667254667
 31
0.0
  0
LWPOLYLINE
  5
C8
330
95
100
AcDbEntity
  8
AM_9
100
AcDbPolyline
 90
        3
 70
     0
 43
0.0
 10
-0.2987675689889718
 20
-0.8288500667254667
 10
-0.3030606061861223
 20
-0.856294122408012
 10
-0.3055458577949631
 20
-0.8836334064683196
  0
LINE
  5
C9
330
95
100
AcDbEntity
  8
AM_9
100
AcDbLine
 10
-0.2711532636537957
 20
-0.8266181234374058
 30
0.0
 11
-0.2813919000363599
 21
-0.827753048956784
 31
0.0
  0
ELLIPSE
  5
CA
330
95
100
AcDbEntity
  8
AM_9
100
AcDbEllipse
 10
-0.2467045921760208
 20
-0.9638357013808583
 30
0.0
 11
-0.03193085011438256
 21
0.1369518580960945
 31
0.0
210
0.0
220
0.0
230
1.0
 40
0.3659981507706649
 41
2.150416404658199
 42
6.139946939636895
  0
ELLIPSE
  5
CB
330
95
100
AcDbEntity
  8
AM_9
100
AcDbEllipse
 10
-0.2467045921760217
 20
-0.9638357013808585
 30
0.0
 11
-0.0319308501143825
 21
0.1369518580960941
 31
0.0
210
0.0
220
0.0
230
1.0
 40
0.3659981507706602
 41
1.144545279139738
 42
1.951156734850504
  0
LWPOLYLINE
  5
CC
330
95
100
AcDbEntity
  8
AM_9
100
AcDbPolyline
 90
        3
 70
     0
 43
0.0
 10
-0.3055458577949631
 20
-0.8836334064683196
 10
-0.3064767622622302
 20
-0.9008698068452318
 10
-0.3055458577949631
 20
-0.917852494962034
  0
ELLIPSE
  5
CD
330
95
100
AcDbEntity
  8
AM_9
100
AcDbEllipse
 10
-0.2467045921760175
 20
-0.963835701380861
 30
0.0
 11
-0.0319308501143844
 21
0.1369518580960994
 31
0.0
210
0.0
220
0.0
230
1.0
 40
0.3659981507706727
 41
0.0560213022650382
 42
0.8626327579757687
  0
LWPOLYLINE
  5
CE
330
95
100
AcDbEntity
  8
AM_9
100
AcDbPolyline
 90
       18
 70
     0
 43
0.0
 10
-0.325009550099858
 20
-1.105033501492457
 10
-0.3248093891090656
 20
-1.10461743260416
 10
-0.3239231830163888
 20
-1.103048511565028
 10
-0.3221748618265359
 20
-1.10048813486104
 10
-0.3193779837361702
 20
-1.097125969366085
 10
-0.3153495251828058
 20
-1.093202185888639
 10
-0.3099543614982727
 20
-1.089039332236465
 10
-0.3031919216206132
 20
-1.085058007660061
 10
-0.2952921802863147
 20
-1.081728417595563
 10
-0.2867229211761659
 20
-1.079439658125283
 10
-0.2780652222661948
 20
-1.078373097037141
 10
-0.2699117416378726
 20
-1.078473600763951
 10
-0.2627201904415625
 20
-1.079489354087608
 10
-0.256785363519505
 20
-1.081061706183427
 10
-0.252215092874905
 20
-1.082818023375283
 10
-0.2489597222978971
 20
-1.084446069045186
 10
-0.2468932029258231
 20
-1.085713350713355
 10
-0.2458790038859078
 20
-1.086446842650356
  0
LWPOLYLINE
  5
CF
330
95
100
AcDbEntity
  8
AM_9
100
AcDbPolyline
 90
        3
 70
     0
 43
0.0
 10
-0.2460501087075967
 20
-1.086270694180426
 10
-0.2465465173594632
 20
-1.085776257867128
 10
-0.2472117132071561
 20
-1.085072296917188
  0
LWPOLYLINE
  5
D0
330
95
100
AcDbEntity
  8
AM_9
100
AcDbPolyline
 90
        3
 70
     0
 43
0.0
 10
-0.245724988250897
 20
-1.086571960916105
 10
-0.2457977537544789
 20
-1.086507191933308
 10
-0.2460501087075967
 20
-1.086270694180426
  0
LWPOLYLINE
  5
D1
330
95
100
AcDbEntity
  8
AM_9
100
AcDbPolyline
 90
        3
 70
     0
 43
0.0
 10
-0.3007175513313866
 20
-0.8551199874233493
 10
-0.300258011149792
 20
-0.8537130880403613
 10
-0.3001080482840255
 20
-0.8533222637170429
  0
LWPOLYLINE
  5
D2
330
95
100
AcDbEntity
  8
AM_9
100
AcDbPolyline
 90
       18
 70
     0
 43
0.0
 10
-0.3001199655047942
 20
-0.8533493997006653
 10
-0.3005450710059013
 20
-0.8541940601061037
 10
-0.3017149644022951
 20
-0.8561328762999968
 10
-0.3038115080442853
 20
-0.8589996768212844
 10
-0.3070230111922709
 20
-0.8625909166534586
 10
-0.3115228002668178
 20
-0.8666409572405599
 10
-0.3174103648899495
 20
-0.8707923005372007
 10
-0.3246137792071548
 20
-0.8745965843454886
 10
-0.3328124426362882
 20
-0.8775946475352869
 10
-0.3414801063101495
 20
-0.8794604547325294
 10
-0.3500263140081095
 20
-0.8800974498945083
 10
-0.3578844700042092
 20
-0.8796377694247397
 10
-0.3646568423754911
 20
-0.8783818876206538
 10
-0.3701128269345651
 20
-0.8767040734989778
 10
-0.3742076033306815
 20
-0.8749616384593976
 10
-0.3770274578605047
 20
-0.8734380382757907
 10
-0.3787076135343804
 20
-0.8723416003375405
 10
-0.3793753922281653
 20
-0.8718347467044498
  0
LINE
  5
D3
330
95
100
AcDbEntity
  8
AM_9
100
AcDbLine
 10
-0.1771207715546619
 20
-0.8346616924073271
 30
0.0
 11
-0.2263662233581052
 21
-0.8461434580599514
 31
0.0
  0
LINE
  5
D4
330
95
100
AcDbEntity
  8
AM_9
100
AcDbLine
 10
-0.1764121822902709
 20
-1.06039703161473
 30
0.0
 11
-0.1343592486638226
 21
-1.050592229115782
 31
0.0
  0
LWPOLYLINE
  5
D5
330
95
100
AcDbEntity
  8
AM_9
100
AcDbPolyline
 90
       20
 70
     0
 43
0.0
 10
-0.1343659249938088
 20
-1.05059378540361
 10
-0.1293028157827817
 20
-1.047990967168627
 10
-0.1247141396218193
 20
-1.042417196040507
 10
-0.1208880884981781
 20
-1.033797239076489
 10
-0.1181545989145989
 20
-1.022880991490922
 10
-0.1164278875396128
 20
-1.009336212655024
 10
-0.1158549073091554
 20
-0.9943302713177413
 10
-0.1164156227038168
 20
-0.9774082867497738
 10
-0.1180609686233502
 20
-0.9600047030275385
 10
-0.1208367673933812
 20
-0.9416073935114571
 10
-0.1245107513506023
 20
-0.9237474551200029
 10
-0.1291842652280563
 20
-0.9059224816066245
 10
-0.134472979061152
 20
-0.8895960564441002
 10
-0.1405186270901959
 20
-0.8743288727646308
 10
-0.1468270783017121
 20
-0.8613704784891935
 10
-0.1535654953592165
 20
-0.8503813720298788
 10
-0.1601799433259583
 20
-0.8422689428626643
 10
-0.1668493358980661
 20
-0.8368204774364152
 10
-0.1731116383367606
 20
-0.8344809397560725
 10
-0.1771125901748263
 20
-0.834659785344162
  0
LINE
  5
D6
330
95
100
AcDbEntity
  8
AM_9
100
AcDbLine
 10
-0.1771125901748263
 20
-0.834659785344162
 30
0.0
 11
-0.1790373738502115
 21
-0.8353040540337613
 31
0.0
  0
LWPOLYLINE
  5
D7
330
95
100
AcDbEntity
  8
AM_9
100
AcDbPolyline
 90
        3
 70
     0
 43
0.0
 10
-0.2689146070947222
 20
-0.9625147343505178
 10
-0.2634308483997528
 20
-0.9348909589556474
 10
-0.2602304684431305
 20
-0.9072870384185165
  0
LWPOLYLINE
  5
D8
330
95
100
AcDbEntity
  8
AM_9
100
AcDbPolyline
 90
        5
 70
     0
 43
0.0
 10
-0.179037373850178
 20
-0.9896959459662461
 10
-0.1733931390117467
 20
-1.005209976006311
 10
-0.1670729780242511
 20
-1.01935797563067
 10
-0.1606047421316796
 20
-1.030955943415793
 10
-0.1545795941182181
 20
-1.039406030487873
  0
ARC
  5
D9
330
95
100
AcDbEntity
  8
AM_9
100
AcDbCircle
 10
0.0000000000000001
 20
-0.9124999999999999
 30
0.0
 40
0.1999999999999998
100
AcDbArc
 50
219.35389920723
 51
0.0
  0
LWPOLYLINE
  5
DA
330
95
100
AcDbEntity
  8
AM_9
100
AcDbPolyline
 90
        6
 70
     0
 43
0.0
 10
-0.1545795941182181
 20
-1.039406030487873
 10
-0.1538031670974777
 20
-1.040334802540261
 10
-0.1472336073736393
 20
-1.046712011960484
 10
-0.1407130262602577
 20
-1.050261709638181
 10
-0.1347930597680667
 20
-1.050684256104104
 10
-0.1343659249938088
 20
-1.05059378540361
  0
LINE
  5
DB
330
95
100
AcDbEntity
  8
AM_9
100
AcDbLine
 10
-0.2360765106845275
 20
-0.8171875924132664
 30
0.0
 11
-0.2258378743019627
 21
-0.8160526668938883
 31
0.0
  0
ELLIPSE
  5
DC
330
95
100
AcDbEntity
  8
AM_9
100
AcDbEllipse
 10
-0.2013892028241872
 20
-0.9532702448373439
 30
0.0
 11
-0.03193085011438427
 21
0.1369518580960977
 31
0.0
210
0.0
220
0.0
230
1.0
 40
0.3659981507705685
 41
0.0560213022650107
 42
0.8626327579757257
  0
LINE
  5
DD
330
95
100
AcDbEntity
  8
AM_9
100
AcDbLine
 10
-0.2602304684431305
 20
-0.9072870384185165
 30
0.0
 11
-0.2602304684431209
 21
-0.8730679499247962
 31
0.0
  0
ELLIPSE
  5
DE
330
95
100
AcDbEntity
  8
AM_9
100
AcDbEllipse
 10
-0.2013892028241899
 20
-0.9532702448373409
 30
0.0
 11
-0.03193085011438184
 21
0.1369518580960918
 31
0.0
210
0.0
220
0.0
230
1.0
 40
0.3659981507706611
 41
1.144545279139734
 42
1.951156734850507
  0
LWPOLYLINE
  5
DF
330
95
100
AcDbEntity
  8
AM_9
100
AcDbPolyline
 90
        3
 70
     0
 43
0.0
 10
-0.2099962668917054
 20
-1.096671457656344
 10
-0.2163479371246913
 20
-1.067339189975666
 10
-0.2258378743019629
 20
-1.038057477599441
  0
LINE
  5
E0
330
95
100
AcDbEntity
  8
AM_9
100
AcDbLine
 10
-0.2258378743019629
 20
-1.038057477599441
 30
0.0
 11
-0.2360765106845277
 21
-1.014965725501071
 31
0.0
  0
LWPOLYLINE
  5
E1
330
95
100
AcDbEntity
  8
AM_9
100
AcDbPolyline
 90
        4
 70
     0
 43
0.0
 10
-0.2360765106845277
 20
-1.014965725501071
 10
-0.2462091938631851
 20
-0.9964216112135015
 10
-0.2570505402207574
 20
-0.9792846905716821
 10
-0.2689146070947222
 20
-0.9625147343505178
  0
LINE
  5
E2
330
95
100
AcDbEntity
  8
AM_9
100
AcDbLine
 10
-0.2689146070947222
 20
-0.9625147343505178
 30
0.0
 11
-0.2987675689889718
 21
-0.9694750667254667
 31
0.0
  0
LWPOLYLINE
  5
E3
330
95
100
AcDbEntity
  8
AM_9
100
AcDbPolyline
 90
        3
 70
     0
 43
0.0
 10
-0.2987675689889718
 20
-0.9694750667254667
 10
-0.2912216284034025
 20
-0.9975761834951973
 10
-0.2813919000363599
 20
-1.025531182044589
  0
LINE
  5
E4
330
95
100
AcDbEntity
  8
AM_9
100
AcDbLine
 10
-0.2813919000363599
 20
-1.025531182044589
 30
0.0
 11
-0.2711532636537957
 21
-1.048622934142958
 31
0.0
  0
LWPOLYLINE
  5
E5
330
95
100
AcDbEntity
  8
AM_9
100
AcDbPolyline
 90
        3
 70
     0
 43
0.0
 10
-0.2711532636537957
 20
-1.048622934142958
 10
-0.2561815527589921
 20
-1.076327936735335
 10
-0.2389369657326277
 20
-1.103419092407284
  0
LINE
  5
E6
330
95
100
AcDbEntity
  8
AM_9
100
AcDbLine
 10
-0.2099962668917054
 20
-1.096671457656344
 30
0.0
 11
-0.2389369657326277
 21
-1.103419092407284
 31
0.0
  0
LWPOLYLINE
  5
E7
330
95
100
AcDbEntity
  8
AM_9
100
AcDbPolyline
 90
        3
 70
     0
 43
0.0
 10
-0.0000000000000001
 20
-0.5748462998483072
 10
-0.0544416102741497
 20
-0.5987405676118847
 10
-0.1093750000000001
 20
-0.6249999999999999
  0
LWPOLYLINE
  5
E8
330
95
100
AcDbEntity
  8
AM_9
100
AcDbPolyline
 90
        3
 70
     0
 43
0.0
 10
0.1093749999999999
 20
-0.6249999999999999
 10
0.0546874999999999
 20
-0.5988529403925172
 10
-0.0000000000000001
 20
-0.5748462998483072
  0
LWPOLYLINE
  5
E9
330
95
100
AcDbEntity
  8
AM_9
100
AcDbPolyline
 90
        3
 70
     0
 43
0.0
 10
0.1093749999999999
 20
-0.6749999999999999
 10
0.1640624999999999
 20
-0.7011470596074826
 10
0.2187499999999999
 20
-0.7251537001516927
  0
LWPOLYLINE
  5
EA
330
95
100
AcDbEntity
  8
AM_9
100
AcDbPolyline
 90
        3
 70
     0
 43
0.0
 10
-0.2187500000000001
 20
-0.7251537001516927
 10
-0.1643083897258504
 20
-0.7012594323881152
 10
-0.109375
 20
-0.6749999999999999
  0
LINE
  5
EB
330
95
100
AcDbEntity
  8
AM_9
100
AcDbLine
 10
-0.0000000000000001
 20
-0.6157787001516928
 30
0.0
 11
-0.0000000000000001
 21
-0.5748462998483072
 31
0.0
  0
LWPOLYLINE
  5
EC
330
95
100
AcDbEntity
  8
AM_9
100
AcDbPolyline
 90
        3
 70
     0
 43
0.0
 10
0.2187499999999999
 20
-0.6842212998483072
 10
0.1643083897258503
 20
-0.653673957337735
 10
0.1093749999999999
 20
-0.6249999999999999
  0
LWPOLYLINE
  5
ED
330
95
100
AcDbEntity
  8
AM_9
100
AcDbPolyline
 90
        3
 70
     0
 43
0.0
 10
-0.1093750000000001
 20
-0.6249999999999999
 10
-0.1640625
 20
-0.6535404403925172
 10
-0.2187500000000001
 20
-0.6842212998483072
  0
ELLIPSE
  5
EE
330
95
100
AcDbEntity
  8
AM_9
100
AcDbEllipse
 10
-0.0000000000000001
 20
-0.9125
 30
0.0
 11
-0.2
 21
2.449293598294706E-17
 31
0.0
210
0.0
220
0.0
230
1.0
 40
0.8660254037844392
 41
0.4619460205669661
 42
5.821239286612619
  0
LWPOLYLINE
  5
EF
330
95
100
AcDbEntity
  8
AM_9
100
AcDbPolyline
 90
        7
 70
     0
 43
0.0
 10
-0.1790373738501784
 20
-0.9896959459662461
 10
-0.1842628795203941
 20
-0.973701216295605
 10
-0.1891729979031393
 20
-0.9576444582564121
 10
-0.1936098952159724
 20
-0.9408778251052954
 10
-0.1971856748420371
 20
-0.9234298087252539
 10
-0.1994144431868155
 20
-0.9059576332075927
 10
-0.1999999999699529
 20
-0.8922575590009699
  0
LINE
  5
F0
330
95
100
AcDbEntity
  8
AM_9
100
AcDbLine
 10
-0.2
 20
-0.8390624999999998
 30
0.0
 11
-0.2
 21
-0.8923468854091476
 31
0.0
  0
LINE
  5
F1
330
95
100
AcDbEntity
  8
AM_9
100
AcDbLine
 10
0.1999999999999999
 20
-0.9124999999999999
 30
0.0
 11
0.1999999999999999
 21
-0.8390624999999998
 31
0.0
  0
LWPOLYLINE
  5
F2
330
95
100
AcDbEntity
  8
AM_9
100
AcDbPolyline
 90
        8
 70
     0
 43
0.0
 10
-0.1999999999699529
 20
-0.8922575590009699
 10
-0.1999786710855128
 20
-0.8897474927945717
 10
-0.1988321115509053
 20
-0.8744770462991154
 10
-0.1961649429984259
 20
-0.8615478285833823
 10
-0.1920694300574958
 20
-0.8504958498463314
 10
-0.1870948030566195
 20
-0.8422268040530577
 10
-0.181500594761393
 20
-0.8367034871441515
 10
-0.1790373738501785
 20
-0.8353040540337537
  0
LINE
  5
F3
330
95
100
AcDbEntity
  8
AM_9
100
AcDbLine
 10
-0.2187500000000001
 20
-0.9439037001516928
 30
0.0
 11
-0.2187500000000001
 21
-0.6842212998483072
 31
0.0
  0
LWPOLYLINE
  5
F4
330
95
100
AcDbEntity
  8
AM_9
100
AcDbPolyline
 90
        3
 70
     0
 43
0.0
 10
-0.109375
 20
-1.003125
 10
-0.1640625
 20
-0.9745845596074826
 10
-0.2187500000000001
 20
-0.9439037001516928
  0
LWPOLYLINE
  5
F5
330
95
100
AcDbEntity
  8
AM_9
100
AcDbPolyline
 90
        3
 70
     0
 43
0.0
 10
-0.0000000000000001
 20
-1.053278700151693
 10
-0.0544416102741496
 20
-1.029384432388115
 10
-0.109375
 20
-1.003125
  0
LWPOLYLINE
  5
F6
330
95
100
AcDbEntity
  8
AM_9
100
AcDbPolyline
 90
        3
 70
     0
 43
0.0
 10
-0.1093750000000001
 20
-0.953125
 10
-0.0546875000000001
 20
-0.9816654403925172
 10
-0.0000000000000001
 20
-1.012346299848307
  0
LWPOLYLINE
  5
F7
330
95
100
AcDbEntity
  8
AM_9
100
AcDbPolyline
 90
        3
 70
     0
 43
0.0
 10
-0.2187500000000001
 20
-0.9029712998483073
 10
-0.1643083897258505
 20
-0.9268655676118848
 10
-0.1093750000000001
 20
-0.953125
  0
LINE
  5
F8
330
95
100
AcDbEntity
  8
AM_9
100
AcDbLine
 10
-0.0000000000000001
 20
-1.053278700151693
 30
0.0
 11
-0.0000000000000001
 21
-1.012346299848307
 31
0.0
  0
LWPOLYLINE
  5
F9
330
95
100
AcDbEntity
  8
AM_9
100
AcDbPolyline
 90
        3
 70
     0
 43
0.0
 10
0.1093749999999999
 20
-1.003125
 10
0.0546874999999999
 20
-1.029272059607483
 10
-0.0000000000000001
 20
-1.053278700151693
  0
LWPOLYLINE
  5
FA
330
95
100
AcDbEntity
  8
AM_9
100
AcDbPolyline
 90
        3
 70
     0
 43
0.0
 10
0.2187499999999999
 20
-0.9439037001516928
 10
0.1643083897258503
 20
-0.9744510426622647
 10
0.1093749999999999
 20
-1.003125
  0
LINE
  5
FB
330
95
100
AcDbEntity
  8
AM_9
100
AcDbLine
 10
0.2187499999999999
 20
-0.9439037001516928
 30
0.0
 11
0.2187499999999999
 21
-0.6842212998483072
 31
0.0
  0
LWPOLYLINE
  5
FC
330
95
100
AcDbEntity
  8
AM_9
100
AcDbPolyline
 90
        3
 70
     0
 43
0.0
 10
0.1093749999999999
 20
-0.953125
 10
0.1640624999999999
 20
-0.9269779403925172
 10
0.2187499999999999
 20
-0.902971299848307
  0
LWPOLYLINE
  5
FD
330
95
100
AcDbEntity
  8
AM_9
100
AcDbPolyline
 90
        3
 70
     0
 43
0.0
 10
-0.0000000000000001
 20
-1.012346299848307
 10
0.0544416102741495
 20
-0.9817989573377351
 10
0.1093749999999999
 20
-0.953125
  0
LINE
  5
FE
330
95
100
AcDbEntity
  8
AM_9
100
AcDbLine
 10
-0.2
 20
-0.7499999999999999
 30
0.0
 11
-0.2
 21
-0.7890624999999999
 31
0.0
  0
LINE
  5
FF
330
95
100
AcDbEntity
  8
AM_9
100
AcDbLine
 10
0.1999999999999999
 20
-0.7890625
 30
0.0
 11
0.1999999999999999
 21
-0.7499999999999999
 31
0.0
  0
LINE
  5
100
330
95
100
AcDbEntity
  8
AM_9
100
AcDbLine
 10
-0.1851454569549801
 20
-0.643809912570727
 30
0.0
 11
-0.1912304659644924
 21
-0.7410224622874461
 31
0.0
  0
LINE
  5
101
330
95
100
AcDbEntity
  8
AM_9
100
AcDbLine
 10
0.1912304659644923
 20
-0.7410224622874461
 30
0.0
 11
0.18514545695498
 21
-0.643809912570727
 31
0.0
  0
ELLIPSE
  5
102
330
95
100
AcDbEntity
  8
AM_9
100
AcDbEllipse
 10
-0.0000000000000001
 20
-0.640625
 30
0.0
 11
0.1616637258772237
 21
0.0
 31
0.0
210
0.0
220
0.0
230
1.0
 40
0.8660254037844384
 41
0.0
 42
6.283185307179586
  0
ELLIPSE
  5
103
330
95
100
AcDbEntity
  8
AM_9
100
AcDbEllipse
 10
-0.3729962569746643
 20
-0.993281086609234
 30
0.0
 11
-0.03024351534849238
 21
0.1297148559307583
 31
0.0
210
0.0
220
0.0
230
1.0
 40
0.3659981507706673
 41
0.0
 42
6.283185307179586
  0
ELLIPSE
  5
104
330
95
100
AcDbEntity
  8
AM_9
100
AcDbEllipse
 10
-0.2013892028241881
 20
-0.9532702448373408
 30
0.0
 11
-0.0249770205339171
 21
0.1071267867773894
 31
0.0
210
0.0
220
0.0
230
1.0
 40
0.3659981507706673
 41
0.0
 42
6.283185307179586
  0
ELLIPSE
  5
105
330
95
100
AcDbEntity
  8
AM_9
100
AcDbEllipse
 10
0.0
 20
-0.8390624999999996
 30
0.0
 11
-0.2
 21
2.980232263262467E-9
 31
0.0
210
0.0
220
0.0
230
1.0
 40
0.8660254037844395
 41
0.0
 42
6.283185307179586
  0
ELLIPSE
  5
106
330
95
100
AcDbEntity
  8
AM_9
100
AcDbEllipse
 10
-0.0000000000000001
 20
-0.8390624999999987
 30
0.0
 11
-0.2187500000000011
 21
2.678914873134849E-17
 31
0.0
210
0.0
220
0.0
230
1.0
 40
0.8660254037844395
 41
0.0
 42
6.283185307179586
  0
ELLIPSE
  5
107
330
95
100
AcDbEntity
  8
AM_9
100
AcDbEllipse
 10
-0.0000000000000001
 20
-0.789062499999999
 30
0.0
 11
-0.2187500000000006
 21
2.678914873134843E-17
 31
0.0
210
0.0
220
0.0
230
1.0
 40
0.8660254037844407
 41
0.0
 42
6.283185307179586
  0
ELLIPSE
  5
108
330
95
100
AcDbEntity
  8
AM_9
100
AcDbEllipse
 10
-0.0000000000000002
 20
-0.7890624999999999
 30
0.0
 11
-0.1999999999999998
 21
2.980232263262465E-9
 31
0.0
210
0.0
220
0.0
230
1.0
 40
0.866025403784439
 41
0.0
 42
6.283185307179586
  0
ELLIPSE
  5
109
330
95
100
AcDbEntity
  8
AM_9
100
AcDbEllipse
 10
-0.0000000000000001
 20
-0.7499999999999999
 30
0.0
 11
-0.2
 21
2.449293598294707E-17
 31
0.0
210
0.0
220
0.0
230
1.0
 40
0.8660254037844384
 41
0.0
 42
6.283185307179586
  0
ELLIPSE
  5
10A
330
95
100
AcDbEntity
  8
AM_9
100
AcDbEllipse
 10
-0.0000000000000002
 20
-0.75
 30
0.0
 11
-0.1915112338502294
 21
2.345336195354437E-17
 31
0.0
210
0.0
220
0.0
230
1.0
 40
0.8660254037844385
 41
0.0
 42
6.283185307179586
  0
ELLIPSE
  5
10B
330
95
100
AcDbEntity
  8
AM_9
100
AcDbEllipse
 10
-0.0000000000000001
 20
-0.6525017824238809
 30
0.0
 11
-0.1854172907249858
 21
2.762932959926596E-9
 31
0.0
210
0.0
220
0.0
230
1.0
 40
0.8660254037844404
 41
0.0
 42
6.283185307179586
  0
ELLIPSE
  5
10D
330
95
100
AcDbEntity
  8
AM_4
100
AcDbEllipse
 10
-0.4687500000000004
 20
-1.015606438444094
 30
0.0
 11
-0.02349716402074582
 21
0.1007796617096759
 31
0.0
210
0.0
220
0.0
230
1.0
 40
0.3659981507706648
 41
0.2287771952968551
 42
1.77840084181865
  0
ENDBLK
  5
98
330
95
100
AcDbEntity
  8
0
100
AcDbBlockEnd
  0
BLOCK
  5
110
330
10E
100
AcDbEntity
  8
0
100
AcDbBlockBegin
  2
3_129517I_0_in_136110_2
 70
     2
 10
0.0
 20
0.0
 30
0.0
  3
3_129517I_0_in_136110_2
  1

  0
ATTDEF
  5
112
330
10E
100
AcDbEntity
  8
AM_6
100
AcDbText
 10
5.424
 20
0.9251973027284761
 30
0.0
 40
0.5
  1
INS-GT B
100
AcDbAttributeDefinition
  3

  2
NN
 70
     8
280
     0
  0
ATTDEF
  5
113
330
10E
100
AcDbEntity
  8
AM_6
100
AcDbText
 10
5.424
 20
0.4251973027284761
 30
0.0
 40
0.5
  1
GT Normal Duty Bearing Inserts
100
AcDbAttributeDefinition
  3

  2
NT
 70
     8
280
     0
  0
ATTDEF
  5
114
330
10E
100
AcDbEntity
  8
AM_6
100
AcDbText
 10
5.424
 20
-0.0748026972715239
 30
0.0
 40
0.5
  1
129517I
100
AcDbAttributeDefinition
  3

  2
NB
 70
     8
280
     0
  0
ATTDEF
  5
115
330
10E
100
AcDbEntity
  8
AM_6
100
AcDbText
 10
5.424
 20
-0.5748026972715239
 30
0.0
 40
0.5
  1
$PN.I
100
AcDbAttributeDefinition
  3

  2
NBSYN
 70
     8
280
     0
  0
ATTDEF
  5
116
330
10E
100
AcDbEntity
  8
AM_6
100
AcDbText
 10
5.424
 20
-1.074802697271524
 30
0.0
 40
0.5
  1
129517
100
AcDbAttributeDefinition
  3

  2
LINA
 70
     8
280
     0
  0
ATTDEF
  5
117
330
10E
100
AcDbEntity
  8
AM_6
100
AcDbText
 10
5.424
 20
-1.574802697271524
 30
0.0
 40
0.5
  1
204
100
AcDbAttributeDefinition
  3

  2
SERIES
 70
     8
280
     0
  0
ATTDEF
  5
118
330
10E
100
AcDbEntity
  8
AM_6
100
AcDbText
 10
5.424
 20
-2.074802697271524
 30
0.0
 40
0.5
  1
129517
100
AcDbAttributeDefinition
  3

  2
PN
 70
     8
280
     0
  0
ATTDEF
  5
119
330
10E
100
AcDbEntity
  8
AM_6
100
AcDbText
 10
5.424
 20
-2.574802697271524
 30
0.0
 40
0.5
  1
INS-GT-04
100
AcDbAttributeDefinition
  3

  2
DESCRIPTION
 70
     8
280
     0
  0
ATTDEF
  5
11A
330
10E
100
AcDbEntity
  8
AM_6
100
AcDbText
 10
5.424
 20
-3.074802697271524
 30
0.0
 40
0.5
  1
1.48
100
AcDbAttributeDefinition
  3

  2
A
 70
     8
280
     0
  0
ATTDEF
  5
11B
330
10E
100
AcDbEntity
  8
AM_6
100
AcDbText
 10
5.424
 20
-3.574802697271524
 30
0.0
 40
0.5
  1
0.58
100
AcDbAttributeDefinition
  3

  2
C
 70
     8
280
     0
  0
ATTDEF
  5
11C
330
10E
100
AcDbEntity
  8
AM_6
100
AcDbText
 10
5.424
 20
-4.074802697271524
 30
0.0
 40
0.5
  1
1.8504
100
AcDbAttributeDefinition
  3

  2
D
 70
     8
280
     0
  0
ATTDEF
  5
11D
330
10E
100
AcDbEntity
  8
AM_6
100
AcDbText
 10
5.424
 20
-4.574802697271524
 30
0.0
 40
0.5
  1
0.15
100
AcDbAttributeDefinition
  3

  2
J
 70
     8
280
     0
  0
ATTDEF
  5
11E
330
10E
100
AcDbEntity
  8
AM_6
100
AcDbText
 10
5.424
 20
-5.074802697271524
 30
0.0
 40
0.5
  1
1.50
100
AcDbAttributeDefinition
  3

  2
L
 70
     8
280
     0
  0
ATTDEF
  5
11F
330
10E
100
AcDbEntity
  8
AM_6
100
AcDbText
 10
5.424
 20
-5.574802697271524
 30
0.0
 40
0.5
  1
#10 - 32 x 1/4
100
AcDbAttributeDefinition
  3

  2
N
 70
     8
280
     0
  0
ATTDEF
  5
120
330
10E
100
AcDbEntity
  8
AM_6
100
AcDbText
 10
5.424
 20
-6.074802697271524
 30
0.0
 40
0.5
  1
0.46000
100
AcDbAttributeDefinition
  3

  2
W
 70
     8
280
     0
  0
ATTDEF
  5
121
330
10E
100
AcDbEntity
  8
AM_6
100
AcDbText
 10
5.424
 20
-6.574802697271524
 30
0.0
 40
0.5
  1
1.03
100
AcDbAttributeDefinition
  3

  2
X
 70
     8
280
     0
  0
ATTDEF
  5
122
330
10E
100
AcDbEntity
  8
AM_6
100
AcDbText
 10
5.424
 20
-7.074802697271524
 30
0.0
 40
0.5
  1
1.02
100
AcDbAttributeDefinition
  3

  2
Y
 70
     8
280
     0
  0
ATTDEF
  5
123
330
10E
100
AcDbEntity
  8
AM_6
100
AcDbText
 10
5.424
 20
-7.574802697271524
 30
0.0
 40
0.5
  1
baldor
100
AcDbAttributeDefinition
  3

  2
COMPANY
 70
     8
280
     0
  0
LINE
  5
124
330
10E
100
AcDbEntity
  8
AM_9
100
AcDbLine
 10
-0.762499345948692
 20
-0.5595237666666665
 30
0.0
 11
-0.3762493459486921
 21
-0.5595237666666665
 31
0.0
  0
LINE
  5
125
330
10E
100
AcDbEntity
  8
AM_9
100
AcDbLine
 10
-0.3762493459486921
 20
0.5595237666666667
 30
0.0
 11
-0.762499345948692
 21
0.5595237666666667
 31
0.0
  0
LINE
  5
126
330
10E
100
AcDbEntity
  8
AM_9
100
AcDbLine
 10
-0.3762493459486921
 20
0.5595237666666667
 30
0.0
 11
-0.3762493459486921
 21
-0.5595237666666665
 31
0.0
  0
LINE
  5
127
330
10E
100
AcDbEntity
  8
AM_9
100
AcDbLine
 10
-0.3762493459486921
 20
-0.5595237666666665
 30
0.0
 11
0.424
 21
-0.5874690896124625
 31
0.0
  0
LINE
  5
128
330
10E
100
AcDbEntity
  8
AM_9
100
AcDbLine
 10
0.424
 20
0.5874690896124628
 30
0.0
 11
-0.3762493459486921
 21
0.5595237666666667
 31
0.0
  0
LINE
  5
129
330
10E
100
AcDbEntity
  8
AM_9
100
AcDbLine
 10
-0.633749345948692
 20
-0.6130952166666664
 30
0.0
 11
-0.5050000000000001
 21
-0.6130952166666664
 31
0.0
  0
LINE
  5
12A
330
10E
100
AcDbEntity
  8
AM_9
100
AcDbLine
 10
-0.5050000000000001
 20
0.6130952166666667
 30
0.0
 11
-0.633749345948692
 21
0.6130952166666667
 31
0.0
  0
LINE
  5
12B
330
10E
100
AcDbEntity
  8
AM_9
100
AcDbLine
 10
0.424
 20
0.6434666666666667
 30
0.0
 11
0.4008
 21
0.6666666666666667
 31
0.0
  0
LINE
  5
12C
330
10E
100
AcDbEntity
  8
AM_9
100
AcDbLine
 10
0.4008
 20
-0.6666666666666665
 30
0.0
 11
0.424
 21
-0.6434666666666664
 31
0.0
  0
LINE
  5
12D
330
10E
100
AcDbEntity
  8
AM_9
100
AcDbLine
 10
0.424
 20
0.6434666666666667
 30
0.0
 11
0.424
 21
-0.6434666666666664
 31
0.0
  0
LINE
  5
12E
330
10E
100
AcDbEntity
  8
AM_9
100
AcDbLine
 10
-0.7392993459486921
 20
-0.6666666666666665
 30
0.0
 11
-0.633749345948692
 21
-0.6666666666666665
 31
0.0
  0
LINE
  5
12F
330
10E
100
AcDbEntity
  8
AM_9
100
AcDbLine
 10
-0.633749345948692
 20
0.6666666666666667
 30
0.0
 11
-0.7392993459486921
 21
0.6666666666666667
 31
0.0
  0
LINE
  5
130
330
10E
100
AcDbEntity
  8
AM_9
100
AcDbLine
 10
-0.633749345948692
 20
0.6666666666666667
 30
0.0
 11
-0.633749345948692
 21
-0.6666666666666665
 31
0.0
  0
LINE
  5
131
330
10E
100
AcDbEntity
  8
AM_9
100
AcDbLine
 10
0.3
 20
-0.6666666666666663
 30
0.0
 11
0.4008
 21
-0.6666666666666663
 31
0.0
  0
LINE
  5
132
330
10E
100
AcDbEntity
  8
AM_9
100
AcDbLine
 10
0.4008
 20
0.6666666666666666
 30
0.0
 11
0.3
 21
0.6666666666666666
 31
0.0
  0
LINE
  5
133
330
10E
100
AcDbEntity
  8
AM_9
100
AcDbLine
 10
0.4008
 20
0.6666666666666666
 30
0.0
 11
0.4008
 21
-0.6666666666666663
 31
0.0
  0
LINE
  5
134
330
10E
100
AcDbEntity
  8
AM_9
100
AcDbLine
 10
-0.5
 20
-0.6666666666666663
 30
0.0
 11
-0.2799999999999999
 21
-0.6666666666666663
 31
0.0
  0
LINE
  5
135
330
10E
100
AcDbEntity
  8
AM_9
100
AcDbLine
 10
-0.2799999999999999
 20
0.6666666666666666
 30
0.0
 11
-0.5
 21
0.6666666666666666
 31
0.0
  0
LINE
  5
136
330
10E
100
AcDbEntity
  8
AM_9
100
AcDbLine
 10
-0.5049993459486919
 20
0.4701868358337888
 30
0.0
 11
-0.5049993459486919
 21
-0.4701868358337757
 31
0.0
  0
LINE
  5
137
330
10E
100
AcDbEntity
  8
AM_9
100
AcDbLine
 10
-0.762499345948692
 20
-0.6434666666666664
 30
0.0
 11
-0.7392993459486921
 21
-0.6666666666666665
 31
0.0
  0
LINE
  5
138
330
10E
100
AcDbEntity
  8
AM_9
100
AcDbLine
 10
-0.7392993459486921
 20
0.6666666666666667
 30
0.0
 11
-0.762499345948692
 21
0.6434666666666667
 31
0.0
  0
LINE
  5
139
330
10E
100
AcDbEntity
  8
AM_9
100
AcDbLine
 10
-0.762499345948692
 20
0.6434666666666667
 30
0.0
 11
-0.762499345948692
 21
-0.6434666666666664
 31
0.0
  0
LINE
  5
13A
330
10E
100
AcDbEntity
  8
AM_9
100
AcDbLine
 10
-0.7392993459486921
 20
0.6666666666666667
 30
0.0
 11
-0.7392993459486921
 21
-0.6666666666666665
 31
0.0
  0
LINE
  5
13B
330
10E
100
AcDbEntity
  8
AM_9
100
AcDbLine
 10
-0.1700000000000001
 20
-0.8671999999999999
 30
0.0
 11
-0.11
 21
-0.8671999999999999
 31
0.0
  0
LINE
  5
13C
330
10E
100
AcDbEntity
  8
AM_9
100
AcDbLine
 10
-0.11
 20
0.8672000000000001
 30
0.0
 11
-0.1700000000000001
 21
0.8672000000000001
 31
0.0
  0
LINE
  5
13D
330
10E
100
AcDbEntity
  8
AM_9
100
AcDbLine
 10
0.3
 20
0.8515575530557442
 30
0.0
 11
0.3
 21
-0.851557553055744
 31
0.0
  0
ARC
  5
13E
330
10E
100
AcDbEntity
  8
AM_9
100
AcDbCircle
 10
0.2767999999999994
 20
-0.8515575530557439
 30
0.0
 40
0.0232000000000005
100
AcDbArc
 50
291.4124670468852
 51
0.0
  0
ARC
  5
13F
330
10E
100
AcDbEntity
  8
AM_9
100
AcDbCircle
 10
0.2767999999999996
 20
0.8515575530557441
 30
0.0
 40
0.0232000000000004
100
AcDbArc
 50
0.0
 51
68.58753295311513
  0
LINE
  5
140
330
10E
100
AcDbEntity
  8
AM_9
100
AcDbLine
 10
-0.28
 20
0.8515575530557447
 30
0.0
 11
-0.28
 21
-0.8515575530557444
 31
0.0
  0
ARC
  5
141
330
10E
100
AcDbEntity
  8
AM_9
100
AcDbCircle
 10
-0.2568000000000001
 20
-0.8515575530557443
 30
0.0
 40
0.0231999999999999
100
AcDbArc
 50
180.0
 51
248.5875329531156
  0
ARC
  5
142
330
10E
100
AcDbEntity
  8
AM_9
100
AcDbCircle
 10
-0.2568000000000005
 20
0.8515575530557448
 30
0.0
 40
0.0231999999999995
100
AcDbArc
 50
111.4124670468835
 51
180.0
  0
ARC
  5
143
330
10E
100
AcDbEntity
  8
AM_9
100
AcDbCircle
 10
0.0100000000000074
 20
-0.1711999999999769
 30
0.0
 40
0.7540000000000241
100
AcDbArc
 50
248.587532953116
 51
255.6213278305018
  0
ARC
  5
144
330
10E
100
AcDbEntity
  8
AM_9
100
AcDbCircle
 10
0.0100000000000013
 20
0.171199999999996
 30
0.0
 40
0.7540000000000043
100
AcDbArc
 50
104.3786721694981
 51
111.4124670468841
  0
LINE
  5
145
330
10E
100
AcDbEntity
  8
AM_9
100
AcDbLine
 10
-0.2652698412698414
 20
0.8731562055337045
 30
0.0
 11
-0.2652698412698414
 21
-0.8731562055337043
 31
0.0
  0
LINE
  5
146
330
10E
100
AcDbEntity
  8
AM_9
100
AcDbLine
 10
-0.1700000000000001
 20
0.8959631337202522
 30
0.0
 11
-0.1700000000000001
 21
-0.8959631337202519
 31
0.0
  0
ARC
  5
147
330
10E
100
AcDbEntity
  8
AM_9
100
AcDbCircle
 10
-0.1758000000000002
 20
-0.8959631337202518
 30
0.0
 40
0.0058000000000001
100
AcDbArc
 50
255.6213278305027
 51
0.0
  0
ARC
  5
148
330
10E
100
AcDbEntity
  8
AM_9
100
AcDbCircle
 10
-0.1758
 20
0.8959631337202524
 30
0.0
 40
0.0057999999999999
100
AcDbArc
 50
0.0
 51
104.3786721694999
  0
LINE
  5
149
330
10E
100
AcDbEntity
  8
AM_9
100
AcDbLine
 10
-0.1772403100775195
 20
0.9015814525863006
 30
0.0
 11
-0.1772403100775195
 21
-0.9015814525863004
 31
0.0
  0
LINE
  5
14A
330
10E
100
AcDbEntity
  8
AM_9
100
AcDbLine
 10
-0.1100000000000001
 20
0.9106332965183637
 30
0.0
 11
-0.1100000000000001
 21
-0.9106332965183634
 31
0.0
  0
ARC
  5
14B
330
10E
100
AcDbEntity
  8
AM_9
100
AcDbCircle
 10
-0.1041999999999999
 20
-0.9106332965183633
 30
0.0
 40
0.0058000000000001
100
AcDbArc
 50
180.0
 51
261.2203530087232
  0
ARC
  5
14C
330
10E
100
AcDbEntity
  8
AM_9
100
AcDbCircle
 10
-0.1041999999999999
 20
0.9106332965183636
 30
0.0
 40
0.0058000000000001
100
AcDbArc
 50
98.77964699127675
 51
180.0
  0
ARC
  5
14D
330
10E
100
AcDbEntity
  8
AM_9
100
AcDbCircle
 10
0.0099999999999997
 20
-0.1711999999999976
 30
0.0
 40
0.7540000000000022
100
AcDbArc
 50
261.2204562958441
 51
291.4124670468839
  0
ARC
  5
14E
330
10E
100
AcDbEntity
  8
AM_9
100
AcDbCircle
 10
0.0100000000000002
 20
0.1712000000000015
 30
0.0
 40
0.7539999999999986
100
AcDbArc
 50
68.58753295311591
 51
98.77954370415601
  0
LINE
  5
14F
330
10E
100
AcDbEntity
  8
AM_9
100
AcDbLine
 10
-0.1050852817310822
 20
0.916365335968386
 30
0.0
 11
-0.1050852817310822
 21
-0.9163653359683858
 31
0.0
  0
LINE
  5
150
330
10E
100
AcDbEntity
  8
AM_9
100
AcDbLine
 10
0.2852698412698413
 20
0.8731562055337045
 30
0.0
 11
0.2852698412698413
 21
-0.8731562055337043
 31
0.0
  0
LINE
  5
151
330
10E
100
AcDbEntity
  8
AM_4
100
AcDbLine
 10
-0.5049993459486919
 20
-0.4701868358337757
 30
0.0
 11
-0.5049993459486919
 21
-0.6666666666666663
 31
0.0
  0
LINE
  5
152
330
10E
100
AcDbEntity
  8
AM_4
100
AcDbLine
 10
-0.5049993459486919
 20
-0.6666666666666663
 30
0.0
 11
-0.5
 21
-0.6666666666666663
 31
0.0
  0
LINE
  5
153
330
10E
100
AcDbEntity
  8
AM_4
100
AcDbLine
 10
-0.5
 20
0.6666666666666666
 30
0.0
 11
-0.5049993459486919
 21
0.6666666666666666
 31
0.0
  0
LINE
  5
154
330
10E
100
AcDbEntity
  8
AM_4
100
AcDbLine
 10
-0.5049993459486919
 20
0.6666666666666666
 30
0.0
 11
-0.5049993459486919
 21
0.4701868358337888
 31
0.0
  0
ENDBLK
  5
111
330
10E
100
AcDbEntity
  8
0
100
AcDbBlockEnd
  0
BLOCK
  5
157
330
155
100
AcDbEntity
  8
0
100
AcDbBlockBegin
  2
4_136522_0_in_136110_2
 70
     2
 10
0.0
 20
0.0
 30
0.0
  3
4_136522_0_in_136110_2
  1

  0
ATTDEF
  5
159
330
155
100
AcDbEntity
  8
AM_6
100
AcDbText
 10
5.47
 20
0.7593750000000001
 30
0.0
 40
0.5
  1
Grip Tight Normal Duty Adapter and Nut Inch Bore D
100
AcDbAttributeDefinition
  3

  2
NN
 70
     8
280
     0
  0
ATTDEF
  5
15A
330
155
100
AcDbEntity
  8
AM_6
100
AcDbText
 10
5.47
 20
0.2593750000000001
 30
0.0
 40
0.5
  1
GT and GTM Adapter & Lock Nut Assemblies
100
AcDbAttributeDefinition
  3

  2
NT
 70
     8
280
     0
  0
ATTDEF
  5
15B
330
155
100
AcDbEntity
  8
AM_6
100
AcDbText
 10
5.47
 20
-0.2406249999999999
 30
0.0
 40
0.5
  1
136522
100
AcDbAttributeDefinition
  3

  2
NB
 70
     8
280
     0
  0
ATTDEF
  5
15C
330
155
100
AcDbEntity
  8
AM_6
100
AcDbText
 10
5.47
 20
-0.7406249999999999
 30
0.0
 40
0.5
  1
$PN.
100
AcDbAttributeDefinition
  3

  2
NBSYN
 70
     8
280
     0
  0
ATTDEF
  5
15D
330
155
100
AcDbEntity
  8
AM_6
100
AcDbText
 10
5.47
 20
-1.240625
 30
0.0
 40
0.5
  1
136522
100
AcDbAttributeDefinition
  3

  2
LINA
 70
     8
280
     0
  0
ATTDEF
  5
15E
330
155
100
AcDbEntity
  8
AM_6
100
AcDbText
 10
5.47
 20
-1.740625
 30
0.0
 40
0.5
  1
204
100
AcDbAttributeDefinition
  3

  2
SERIES
 70
     8
280
     0
  0
ATTDEF
  5
15F
330
155
100
AcDbEntity
  8
AM_6
100
AcDbText
 10
5.47
 20
-2.240625
 30
0.0
 40
0.5
  1
3/4
100
AcDbAttributeDefinition
  3

  2
SS
 70
     8
280
     0
  0
ATTDEF
  5
160
330
155
100
AcDbEntity
  8
AM_6
100
AcDbText
 10
5.47
 20
-2.740625
 30
0.0
 40
0.5
  1
136522
100
AcDbAttributeDefinition
  3

  2
PN
 70
     8
280
     0
  0
ATTDEF
  5
161
330
155
100
AcDbEntity
  8
AM_6
100
AcDbText
 10
5.47
 20
-3.240625
 30
0.0
 40
0.5
  1
AN-GT-04-012-D
100
AcDbAttributeDefinition
  3

  2
DESCRIPTION
 70
     8
280
     0
  0
ATTDEF
  5
162
330
155
100
AcDbEntity
  8
AM_6
100
AcDbText
 10
5.47
 20
-3.740625
 30
0.0
 40
0.5
  1
1.48
100
AcDbAttributeDefinition
  3

  2
A
 70
     8
280
     0
  0
ATTDEF
  5
163
330
155
100
AcDbEntity
  8
AM_6
100
AcDbText
 10
5.47
 20
-4.240625
 30
0.0
 40
0.5
  1
0.58
100
AcDbAttributeDefinition
  3

  2
C
 70
     8
280
     0
  0
ATTDEF
  5
164
330
155
100
AcDbEntity
  8
AM_6
100
AcDbText
 10
5.47
 20
-4.740625
 30
0.0
 40
0.5
  1
1.8504
100
AcDbAttributeDefinition
  3

  2
D
 70
     8
280
     0
  0
ATTDEF
  5
165
330
155
100
AcDbEntity
  8
AM_6
100
AcDbText
 10
5.47
 20
-5.240625
 30
0.0
 40
0.5
  1
0.15
100
AcDbAttributeDefinition
  3

  2
J
 70
     8
280
     0
  0
ATTDEF
  5
166
330
155
100
AcDbEntity
  8
AM_6
100
AcDbText
 10
5.47
 20
-5.740625
 30
0.0
 40
0.5
  1
1.50
100
AcDbAttributeDefinition
  3

  2
L
 70
     8
280
     0
  0
ATTDEF
  5
167
330
155
100
AcDbEntity
  8
AM_6
100
AcDbText
 10
5.47
 20
-6.240625
 30
0.0
 40
0.5
  1
10 - 32 x 1/4
100
AcDbAttributeDefinition
  3

  2
N
 70
     8
280
     0
  0
ATTDEF
  5
168
330
155
100
AcDbEntity
  8
AM_6
100
AcDbText
 10
5.47
 20
-6.740625
 30
0.0
 40
0.5
  1
0.46
100
AcDbAttributeDefinition
  3

  2
W
 70
     8
280
     0
  0
ATTDEF
  5
169
330
155
100
AcDbEntity
  8
AM_6
100
AcDbText
 10
5.47
 20
-7.240625
 30
0.0
 40
0.5
  1
1.03
100
AcDbAttributeDefinition
  3

  2
X
 70
     8
280
     0
  0
ATTDEF
  5
16A
330
155
100
AcDbEntity
  8
AM_6
100
AcDbText
 10
5.47
 20
-7.740625
 30
0.0
 40
0.5
  1
1.02
100
AcDbAttributeDefinition
  3

  2
Y
 70
     8
280
     0
  0
ATTDEF
  5
16B
330
155
100
AcDbEntity
  8
AM_6
100
AcDbText
 10
5.47
 20
-8.240625
 30
0.0
 40
0.5
  1
baldor
100
AcDbAttributeDefinition
  3

  2
COMPANY
 70
     8
280
     0
  0
LINE
  5
16C
330
155
100
AcDbEntity
  8
AM_9
100
AcDbLine
 10
-0.9582834561002455
 20
0.7274500000000002
 30
0.0
 11
-0.9582834561002455
 21
0.5850500000000001
 31
0.0
  0
LINE
  5
16D
330
155
100
AcDbEntity
  8
AM_9
100
AcDbLine
 10
-0.8133834561002456
 20
0.5850500000000001
 30
0.0
 11
-0.8133834561002456
 21
0.7274500000000002
 31
0.0
  0
LINE
  5
16E
330
155
100
AcDbEntity
  8
AM_9
100
AcDbLine
 10
-0.505
 20
-0.6999998729997458
 30
0.0
 11
-1.02
 21
-0.6999998729997458
 31
0.0
  0
LINE
  5
16F
330
155
100
AcDbEntity
  8
AM_9
100
AcDbLine
 10
-0.8133834561002456
 20
0.7274500000000002
 30
0.0
 11
-0.7908334561002454
 21
0.7500000000000003
 31
0.0
  0
LINE
  5
170
330
155
100
AcDbEntity
  8
AM_9
100
AcDbLine
 10
-0.9808334561002457
 20
0.7500000000000003
 30
0.0
 11
-0.9582834561002455
 21
0.7274500000000002
 31
0.0
  0
LINE
  5
171
330
155
100
AcDbEntity
  8
AM_9
100
AcDbLine
 10
-0.8133834561002456
 20
0.7274500000000002
 30
0.0
 11
-0.9582834561002455
 21
0.7274500000000002
 31
0.0
  0
LINE
  5
172
330
155
100
AcDbEntity
  8
AM_9
100
AcDbLine
 10
-0.9582834561002455
 20
0.5850500000000001
 30
0.0
 11
-0.9808334561002455
 21
0.5625000000000001
 31
0.0
  0
LINE
  5
173
330
155
100
AcDbEntity
  8
AM_9
100
AcDbLine
 10
-0.7908334561002456
 20
0.5625000000000001
 30
0.0
 11
-0.8133834561002456
 21
0.5850500000000001
 31
0.0
  0
LINE
  5
174
330
155
100
AcDbEntity
  8
AM_9
100
AcDbLine
 10
-0.7908334561002456
 20
0.5625000000000001
 30
0.0
 11
-0.9808334561002455
 21
0.5625000000000001
 31
0.0
  0
LINE
  5
175
330
155
100
AcDbEntity
  8
AM_9
100
AcDbLine
 10
-0.8133834561002456
 20
0.5850500000000001
 30
0.0
 11
-0.9582834561002455
 21
0.5850500000000001
 31
0.0
  0
LINE
  5
176
330
155
100
AcDbEntity
  8
AM_9
100
AcDbLine
 10
-1.01
 20
-0.3749999999999998
 30
0.0
 11
0.47
 21
-0.3749999999999998
 31
0.0
  0
LINE
  5
177
330
155
100
AcDbEntity
  8
AM_9
100
AcDbLine
 10
0.47
 20
0.3750000000000001
 30
0.0
 11
-1.01
 21
0.3750000000000001
 31
0.0
  0
LINE
  5
178
330
155
100
AcDbEntity
  8
AM_9
100
AcDbLine
 10
-0.7624993459486922
 20
-0.5595238095238095
 30
0.0
 11
-0.3762499999999994
 21
-0.5595238095238095
 31
0.0
  0
LINE
  5
179
330
155
100
AcDbEntity
  8
AM_9
100
AcDbLine
 10
-0.3762499999999994
 20
0.5595238095238099
 30
0.0
 11
-0.7624993459486922
 21
0.5595238095238099
 31
0.0
  0
LINE
  5
17A
330
155
100
AcDbEntity
  8
AM_9
100
AcDbLine
 10
0.4700000000000001
 20
-0.0499999999999999
 30
0.0
 11
-1.01
 21
-0.0499999999999999
 31
0.0
  0
LINE
  5
17B
330
155
100
AcDbEntity
  8
AM_9
100
AcDbLine
 10
0.4700000000000001
 20
0.0500000000000001
 30
0.0
 11
-1.01
 21
0.0500000000000001
 31
0.0
  0
LINE
  5
17C
330
155
100
AcDbEntity
  8
AM_9
100
AcDbLine
 10
-1.02
 20
-0.5595238095238096
 30
0.0
 11
-1.01
 21
-0.5595238095238096
 31
0.0
  0
LINE
  5
17D
330
155
100
AcDbEntity
  8
AM_9
100
AcDbLine
 10
-1.01
 20
0.5595238095238099
 30
0.0
 11
-1.02
 21
0.5595238095238099
 31
0.0
  0
LINE
  5
17E
330
155
100
AcDbEntity
  8
AM_9
100
AcDbLine
 10
-1.01
 20
0.5595238095238099
 30
0.0
 11
-1.01
 21
-0.5595238095238096
 31
0.0
  0
LINE
  5
17F
330
155
100
AcDbEntity
  8
AM_9
100
AcDbLine
 10
-0.3762499999999994
 20
-0.5595238095238094
 30
0.0
 11
0.47
 21
-0.5890755107062008
 31
0.0
  0
LINE
  5
180
330
155
100
AcDbEntity
  8
AM_9
100
AcDbLine
 10
0.47
 20
0.5890755107062011
 30
0.0
 11
-0.3762499999999994
 21
0.5595238095238096
 31
0.0
  0
LINE
  5
181
330
155
100
AcDbEntity
  8
AM_9
100
AcDbLine
 10
-0.3762499999999994
 20
0.5595238095238096
 30
0.0
 11
-0.3762499999999994
 21
-0.5595238095238094
 31
0.0
  0
LINE
  5
182
330
155
100
AcDbEntity
  8
AM_9
100
AcDbLine
 10
0.47
 20
0.5890755107062011
 30
0.0
 11
0.47
 21
-0.5890755107062008
 31
0.0
  0
LINE
  5
183
330
155
100
AcDbEntity
  8
AM_9
100
AcDbLine
 10
-0.5050000000000001
 20
0.4264118754050076
 30
0.0
 11
-0.5281999999999999
 21
0.4380721941988161
 31
0.0
  0
LINE
  5
184
330
155
100
AcDbEntity
  8
AM_9
100
AcDbLine
 10
-0.5281999999999999
 20
0.4380721941988161
 30
0.0
 11
-0.5330973200737659
 21
0.438072194198816
 31
0.0
  0
LINE
  5
185
330
155
100
AcDbEntity
  8
AM_9
100
AcDbLine
 10
-0.5281999999999999
 20
0.443964818425961
 30
0.0
 11
-0.5281999999999999
 21
0.4380721941988161
 31
0.0
  0
LINE
  5
186
330
155
100
AcDbEntity
  8
AM_9
100
AcDbLine
 10
-0.9524583842584736
 20
0.7472775488589698
 30
0.0
 11
-0.9458232187592595
 21
0.7467769201994607
 31
0.0
  0
LINE
  5
187
330
155
100
AcDbEntity
  8
AM_9
100
AcDbLine
 10
-0.63375
 20
-0.613095238095238
 30
0.0
 11
-0.5050000000000001
 21
-0.613095238095238
 31
0.0
  0
LINE
  5
188
330
155
100
AcDbEntity
  8
AM_9
100
AcDbLine
 10
-0.5050000000000001
 20
0.6130952380952382
 30
0.0
 11
-0.63375
 21
0.6130952380952382
 31
0.0
  0
LINE
  5
189
330
155
100
AcDbEntity
  8
AM_9
100
AcDbLine
 10
-0.5049999999999999
 20
0.2850480312160404
 30
0.0
 11
-1.02
 21
0.2850480312160404
 31
0.0
  0
LINE
  5
18A
330
155
100
AcDbEntity
  8
AM_9
100
AcDbLine
 10
-0.5049999999999999
 20
0.4149518417837063
 30
0.0
 11
-0.5512848347272995
 21
0.4149518417837063
 31
0.0
  0
LINE
  5
18B
330
155
100
AcDbEntity
  8
AM_9
100
AcDbLine
 10
-0.63375
 20
0.6666666666666663
 30
0.0
 11
-0.63375
 21
-0.6666666666666661
 31
0.0
  0
LINE
  5
18C
330
155
100
AcDbEntity
  8
AM_9
100
AcDbLine
 10
-0.7625
 20
0.6666666666666663
 30
0.0
 11
-0.7625
 21
-0.6666666666666661
 31
0.0
  0
LINE
  5
18D
330
155
100
AcDbEntity
  8
AM_9
100
AcDbLine
 10
-0.7625
 20
-0.6666666666666661
 30
0.0
 11
-0.63375
 21
-0.6666666666666661
 31
0.0
  0
LINE
  5
18E
330
155
100
AcDbEntity
  8
AM_9
100
AcDbLine
 10
-0.63375
 20
0.6666666666666663
 30
0.0
 11
-0.7625
 21
0.6666666666666663
 31
0.0
  0
LINE
  5
18F
330
155
100
AcDbEntity
  8
AM_9
100
AcDbLine
 10
-0.6173590910727392
 20
0.3081683836311501
 30
0.0
 11
-0.5281999999999999
 21
0.3081683836311501
 31
0.0
  0
LINE
  5
190
330
155
100
AcDbEntity
  8
AM_9
100
AcDbLine
 10
-0.5050000000000001
 20
0.4701861333557133
 30
0.0
 11
-0.5050000000000001
 21
-0.4701861333557005
 31
0.0
  0
LINE
  5
191
330
155
100
AcDbEntity
  8
AM_9
100
AcDbLine
 10
-0.5281999999999999
 20
0.3081683836311501
 30
0.0
 11
-0.5050000000000001
 21
0.2965080648373417
 31
0.0
  0
LINE
  5
192
330
155
100
AcDbEntity
  8
AM_9
100
AcDbLine
 10
-0.5281999999999999
 20
0.3081683836311501
 30
0.0
 11
-0.5281999999999999
 21
-0.4439648184259481
 31
0.0
  0
LINE
  5
194
330
155
100
AcDbEntity
  8
AM_5
100
AcDbLine
 10
-0.9808334561002455
 20
0.7500000000000003
 30
0.0
 11
-0.9808334561002455
 21
0.5625000000000001
 31
0.0
  0
LINE
  5
195
330
155
100
AcDbEntity
  8
AM_5
100
AcDbLine
 10
-0.7908334561002455
 20
0.7500000000000003
 30
0.0
 11
-0.7908334561002455
 21
0.5625000000000001
 31
0.0
  0
LINE
  5
198
330
155
100
AcDbEntity
  8
AM_7
100
AcDbLine
 10
-0.8858334561002456
 20
0.5531250000000002
 30
0.0
 11
-0.8858334561002456
 21
0.7593750000000001
 31
0.0
  0
LINE
  5
199
330
155
100
AcDbEntity
  8
AM_4
100
AcDbLine
 10
-0.9968000000000002
 20
0.438072194198816
 30
0.0
 11
-1.02
 21
0.4264118754050074
 31
0.0
  0
LINE
  5
19A
330
155
100
AcDbEntity
  8
AM_4
100
AcDbLine
 10
-0.9968000000000002
 20
0.7500000000000001
 30
0.0
 11
-1.02
 21
0.7268000000000001
 31
0.0
  0
LINE
  5
19B
330
155
100
AcDbEntity
  8
AM_4
100
AcDbLine
 10
-0.5050000000000001
 20
0.7268000000000006
 30
0.0
 11
-0.5282
 21
0.7500000000000006
 31
0.0
  0
LINE
  5
19C
330
155
100
AcDbEntity
  8
AM_4
100
AcDbLine
 10
-0.5050000000000001
 20
0.7268000000000006
 30
0.0
 11
-0.5050000000000001
 21
0.4701861333557133
 31
0.0
  0
LINE
  5
19D
330
155
100
AcDbEntity
  8
AM_4
100
AcDbLine
 10
-0.5330973200737659
 20
0.438072194198816
 30
0.0
 11
-0.9968000000000002
 21
0.438072194198816
 31
0.0
  0
LWPOLYLINE
  5
19E
330
155
100
AcDbEntity
  8
AM_4
100
AcDbPolyline
 90
        7
 70
     0
 43
0.0
 10
-0.9510098856858658
 20
0.747163833903715
 10
-0.9604165624237725
 20
0.7479462746587648
 10
-0.9684417108165876
 20
0.7486956930853405
 10
-0.9750938671268508
 20
0.7493737494657845
 10
-0.9793734258076601
 20
0.7498370845266046
 10
-0.980822192635377
 20
0.7499987337664701
 10
-0.9808334561001888
 20
0.7499999999999939
  0
LINE
  5
19F
330
155
100
AcDbEntity
  8
AM_4
100
AcDbLine
 10
-0.5282
 20
0.7500000000000003
 30
0.0
 11
-0.7908334561002454
 21
0.7500000000000003
 31
0.0
  0
LINE
  5
1A0
330
155
100
AcDbEntity
  8
AM_4
100
AcDbLine
 10
-0.9808334561002457
 20
0.7500000000000003
 30
0.0
 11
-0.9968000000000002
 21
0.7500000000000003
 31
0.0
  0
LINE
  5
1A1
330
155
100
AcDbEntity
  8
AM_4
100
AcDbLine
 10
-0.9968000000000002
 20
0.7500000000000003
 30
0.0
 11
-0.9968000000000002
 21
0.438072194198816
 31
0.0
  0
LINE
  5
1A2
330
155
100
AcDbEntity
  8
AM_4
100
AcDbLine
 10
-0.5282
 20
0.7500000000000003
 30
0.0
 11
-0.5281999999999999
 21
0.443964818425961
 31
0.0
  0
LWPOLYLINE
  5
1A3
330
155
100
AcDbEntity
  8
AM_4
100
AcDbPolyline
 90
       16
 70
     0
 43
0.0
 10
-0.7908334561003569
 20
0.7499999999999879
 10
-0.7909311903245416
 20
0.7499890176379517
 10
-0.7927597809100575
 20
0.7497855722218133
 10
-0.7969858844891738
 20
0.7493301737554967
 10
-0.8032612483426131
 20
0.7486921589334079
 10
-0.8116878018472078
 20
0.7479075867801457
 10
-0.8220613860374744
 20
0.7470559419911077
 10
-0.8342646936112046
 20
0.7462163940333909
 10
-0.8481446949028615
 20
0.7454760416103977
 10
-0.8633722719683626
 20
0.7449278409453585
 10
-0.8794427244523366
 20
0.7446500578035415
 10
-0.8961364348847911
 20
0.7446891965115081
 10
-0.9123807666499298
 20
0.7450477575663782
 10
-0.9283263896897974
 20
0.7457063781227199
 10
-0.9400898425586729
 20
0.746386175154735
 10
-0.9510098856858658
 20
0.747163833903715
  0
LINE
  5
1A4
330
155
100
AcDbEntity
  8
AM_4
100
AcDbLine
 10
-0.5512848347272995
 20
0.4149518417837063
 30
0.0
 11
-1.02
 21
0.4149518417837063
 31
0.0
  0
LINE
  5
1A5
330
155
100
AcDbEntity
  8
AM_4
100
AcDbLine
 10
-0.9968000000000002
 20
-0.746240577829965
 30
0.0
 11
-1.02
 21
-0.7229199402423478
 31
0.0
  0
LINE
  5
1A6
330
155
100
AcDbEntity
  8
AM_4
100
AcDbLine
 10
-1.02
 20
0.2965080648373415
 30
0.0
 11
-0.9968000000000002
 21
0.3081683836311501
 31
0.0
  0
LINE
  5
1A7
330
155
100
AcDbEntity
  8
AM_4
100
AcDbLine
 10
-1.02
 20
0.7268000000000001
 30
0.0
 11
-1.02
 21
-0.7229199402423478
 31
0.0
  0
LINE
  5
1A8
330
155
100
AcDbEntity
  8
AM_4
100
AcDbLine
 10
-0.5282
 20
-0.7462405778299653
 30
0.0
 11
-0.9968000000000002
 21
-0.746240577829965
 31
0.0
  0
LINE
  5
1A9
330
155
100
AcDbEntity
  8
AM_4
100
AcDbLine
 10
-0.9968000000000002
 20
0.3081683836311501
 30
0.0
 11
-0.6173590910727392
 21
0.3081683836311501
 31
0.0
  0
LINE
  5
1AA
330
155
100
AcDbEntity
  8
AM_4
100
AcDbLine
 10
-0.9968000000000002
 20
0.3081683836311501
 30
0.0
 11
-0.9968000000000002
 21
-0.746240577829965
 31
0.0
  0
LINE
  5
1AB
330
155
100
AcDbEntity
  8
AM_4
100
AcDbLine
 10
-0.505
 20
-0.7229199402423482
 30
0.0
 11
-0.5282
 21
-0.7462405778299653
 31
0.0
  0
LINE
  5
1AC
330
155
100
AcDbEntity
  8
AM_4
100
AcDbLine
 10
-0.5050000000000001
 20
-0.4701861333557005
 30
0.0
 11
-0.505
 21
-0.7229199402423482
 31
0.0
  0
LINE
  5
1AD
330
155
100
AcDbEntity
  8
AM_4
100
AcDbLine
 10
-0.5281999999999999
 20
-0.4439648184259481
 30
0.0
 11
-0.5282
 21
-0.7462405778299653
 31
0.0
  0
ENDBLK
  5
158
330
155
100
AcDbEntity
  8
0
100
AcDbBlockEnd
  0
BLOCK
  5
1B0
330
1AE
100
AcDbEntity
  8
0
100
AcDbBlockBegin
  2
5_136110h_0_in_136110_2
 70
     2
 10
0.0
 20
0.0
 30
0.0
  3
5_136110h_0_in_136110_2
  1

  0
ATTDEF
  5
1B2
330
1AE
100
AcDbEntity
  8
AM_6
100
AcDbText
 10
5.759
 20
1.565
 30
0.0
 40
0.5
  1
NSTU-GT - Inch - Housing
100
AcDbAttributeDefinition
  3

  2
NN
 70
     8
280
     0
  0
ATTDEF
  5
1B3
330
1AE
100
AcDbEntity
  8
AM_6
100
AcDbText
 10
5.759
 20
1.065
 30
0.0
 40
0.5
  1
GT Normal Duty Narrow Slot Take-Up Bearings
100
AcDbAttributeDefinition
  3

  2
NT
 70
     8
280
     0
  0
ATTDEF
  5
1B4
330
1AE
100
AcDbEntity
  8
AM_6
100
AcDbText
 10
5.759
 20
0.5649999999999997
 30
0.0
 40
0.5
  1
136110h
100
AcDbAttributeDefinition
  3

  2
NB
 70
     8
280
     0
  0
ATTDEF
  5
1B5
330
1AE
100
AcDbEntity
  8
AM_6
100
AcDbText
 10
5.759
 20
0.0649999999999997
 30
0.0
 40
0.5
  1
$PN.h
100
AcDbAttributeDefinition
  3

  2
NBSYN
 70
     8
280
     0
  0
ATTDEF
  5
1B6
330
1AE
100
AcDbEntity
  8
AM_6
100
AcDbText
 10
5.759
 20
-0.4350000000000003
 30
0.0
 40
0.5
  1
136110I
100
AcDbAttributeDefinition
  3

  2
LINA
 70
     8
280
     0
  0
ATTDEF
  5
1B7
330
1AE
100
AcDbEntity
  8
AM_6
100
AcDbText
 10
5.759
 20
-0.9350000000000003
 30
0.0
 40
0.5
  1
204
100
AcDbAttributeDefinition
  3

  2
SERIES
 70
     8
280
     0
  0
ATTDEF
  5
1B8
330
1AE
100
AcDbEntity
  8
AM_6
100
AcDbText
 10
5.759
 20
-1.435
 30
0.0
 40
0.5
  1
3/4
100
AcDbAttributeDefinition
  3

  2
SS
 70
     8
280
     0
  0
ATTDEF
  5
1B9
330
1AE
100
AcDbEntity
  8
AM_6
100
AcDbText
 10
5.759
 20
-1.935
 30
0.0
 40
0.5
  1
136110
100
AcDbAttributeDefinition
  3

  2
PN
 70
     8
280
     0
  0
ATTDEF
  5
1BA
330
1AE
100
AcDbEntity
  8
AM_6
100
AcDbText
 10
5.759
 20
-2.435
 30
0.0
 40
0.5
  1
NSTU-GT-012
100
AcDbAttributeDefinition
  3

  2
DESCRIPTION
 70
     8
280
     0
  0
ATTDEF
  5
1BB
330
1AE
100
AcDbEntity
  8
AM_6
100
AcDbText
 10
5.759
 20
-2.935
 30
0.0
 40
0.5
  1
136210
100
AcDbAttributeDefinition
  3

  2
PNSL
 70
     8
280
     0
  0
ATTDEF
  5
1BC
330
1AE
100
AcDbEntity
  8
AM_6
100
AcDbText
 10
5.759
 20
-3.435
 30
0.0
 40
0.5
  1
NSTU-GT-04
100
AcDbAttributeDefinition
  3

  2
DESCRIPTIONSL
 70
     8
280
     0
  0
ATTDEF
  5
1BD
330
1AE
100
AcDbEntity
  8
AM_6
100
AcDbText
 10
5.759
 20
-3.935
 30
0.0
 40
0.5
  1
136522
100
AcDbAttributeDefinition
  3

  2
PNA
 70
     8
280
     0
  0
ATTDEF
  5
1BE
330
1AE
100
AcDbEntity
  8
AM_6
100
AcDbText
 10
5.759
 20
-4.435
 30
0.0
 40
0.5
  1
AN-GT-04-012-D
100
AcDbAttributeDefinition
  3

  2
DESCRIPTIONA
 70
     8
280
     0
  0
ATTDEF
  5
1BF
330
1AE
100
AcDbEntity
  8
AM_6
100
AcDbText
 10
5.759
 20
-4.935
 30
0.0
 40
0.5
  1
1.6
100
AcDbAttributeDefinition
  3

  2
W
 70
     8
280
     0
  0
ATTDEF
  5
1C0
330
1AE
100
AcDbEntity
  8
AM_6
100
AcDbText
 10
5.759
 20
-5.435
 30
0.0
 40
0.5
  1
NS210
100
AcDbAttributeDefinition
  3

  2
TUFS
 70
     8
280
     0
  0
ATTDEF
  5
1C1
330
1AE
100
AcDbEntity
  8
AM_6
100
AcDbText
 10
5.759
 20
-5.935
 30
0.0
 40
0.5
  1
1.48
100
AcDbAttributeDefinition
  3

  2
A
 70
     8
280
     0
  0
ATTDEF
  5
1C2
330
1AE
100
AcDbEntity
  8
AM_6
100
AcDbText
 10
5.759
 20
-6.435
 30
0.0
 40
0.5
  1
3.50
100
AcDbAttributeDefinition
  3

  2
B
 70
     8
280
     0
  0
ATTDEF
  5
1C3
330
1AE
100
AcDbEntity
  8
AM_6
100
AcDbText
 10
5.759
 20
-6.935
 30
0.0
 40
0.5
  1
0.250
100
AcDbAttributeDefinition
  3

  2
C
 70
     8
280
     0
  0
ATTDEF
  5
1C4
330
1AE
100
AcDbEntity
  8
AM_6
100
AcDbText
 10
5.759
 20
-7.435
 30
0.0
 40
0.5
  1
1.50
100
AcDbAttributeDefinition
  3

  2
D
 70
     8
280
     0
  0
ATTDEF
  5
1C5
330
1AE
100
AcDbEntity
  8
AM_6
100
AcDbText
 10
5.759
 20
-7.935
 30
0.0
 40
0.5
  1
2.00
100
AcDbAttributeDefinition
  3

  2
E
 70
     8
280
     0
  0
ATTDEF
  5
1C6
330
1AE
100
AcDbEntity
  8
AM_6
100
AcDbText
 10
5.759
 20
-8.435
 30
0.0
 40
0.5
  1
3/4
100
AcDbAttributeDefinition
  3

  2
F
 70
     8
280
     0
  0
ATTDEF
  5
1C7
330
1AE
100
AcDbEntity
  8
AM_6
100
AcDbText
 10
5.759
 20
-8.935
 30
0.0
 40
0.5
  1
0.44
100
AcDbAttributeDefinition
  3

  2
G
 70
     8
280
     0
  0
ATTDEF
  5
1C8
330
1AE
100
AcDbEntity
  8
AM_6
100
AcDbText
 10
5.759
 20
-9.435
 30
0.0
 40
0.5
  1
0.88
100
AcDbAttributeDefinition
  3

  2
H
 70
     8
280
     0
  0
ATTDEF
  5
1C9
330
1AE
100
AcDbEntity
  8
AM_6
100
AcDbText
 10
5.759
 20
-9.935
 30
0.0
 40
0.5
  1
1.38
100
AcDbAttributeDefinition
  3

  2
J
 70
     8
280
     0
  0
ATTDEF
  5
1CA
330
1AE
100
AcDbEntity
  8
AM_6
100
AcDbText
 10
5.759
 20
-10.435
 30
0.0
 40
0.5
  1
1.50
100
AcDbAttributeDefinition
  3

  2
L
 70
     8
280
     0
  0
ATTDEF
  5
1CB
330
1AE
100
AcDbEntity
  8
AM_6
100
AcDbText
 10
5.759
 20
-10.935
 30
0.0
 40
0.5
  1
2.635/2.605
100
AcDbAttributeDefinition
  3

  2
M
 70
     8
280
     0
  0
ATTDEF
  5
1CC
330
1AE
100
AcDbEntity
  8
AM_6
100
AcDbText
 10
5.759
 20
-11.435
 30
0.0
 40
0.5
  1
3.13
100
AcDbAttributeDefinition
  3

  2
N
 70
     8
280
     0
  0
ATTDEF
  5
1CD
330
1AE
100
AcDbEntity
  8
AM_6
100
AcDbText
 10
5.759
 20
-11.935
 30
0.0
 40
0.5
  1
0.32
100
AcDbAttributeDefinition
  3

  2
P
 70
     8
280
     0
  0
ATTDEF
  5
1CE
330
1AE
100
AcDbEntity
  8
AM_6
100
AcDbText
 10
5.759
 20
-12.435
 30
0.0
 40
0.5
  1
0.46
100
AcDbAttributeDefinition
  3

  2
R
 70
     8
280
     0
  0
ATTDEF
  5
1CF
330
1AE
100
AcDbEntity
  8
AM_6
100
AcDbText
 10
5.759
 20
-12.935
 30
0.0
 40
0.5
  1
1.02
100
AcDbAttributeDefinition
  3

  2
S
 70
     8
280
     0
  0
ATTDEF
  5
1D0
330
1AE
100
AcDbEntity
  8
AM_6
100
AcDbText
 10
5.759
 20
-13.435
 30
0.0
 40
0.5
  1
1.03
100
AcDbAttributeDefinition
  3

  2
Z
 70
     8
280
     0
  0
ATTDEF
  5
1D1
330
1AE
100
AcDbEntity
  8
AM_6
100
AcDbText
 10
5.759
 20
-13.935
 30
0.0
 40
0.5
  1
1390
100
AcDbAttributeDefinition
  3

  2
CAPS
 70
     8
280
     0
  0
ATTDEF
  5
1D2
330
1AE
100
AcDbEntity
  8
AM_6
100
AcDbText
 10
5.759
 20
-14.435
 30
0.0
 40
0.5
  1
2899
100
AcDbAttributeDefinition
  3

  2
CAPD
 70
     8
280
     0
  0
ATTDEF
  5
1D3
330
1AE
100
AcDbEntity
  8
AM_6
100
AcDbText
 10
5.759
 20
-14.935
 30
0.0
 40
0.5
  1
baldor
100
AcDbAttributeDefinition
  3

  2
COMPANY
 70
     8
280
     0
  0
LINE
  5
1D4
330
1AE
100
AcDbEntity
  8
AM_9
100
AcDbLine
 10
-0.15
 20
-0.9163824618487637
 30
0.0
 11
0.5
 21
-0.9163824618487637
 31
0.0
  0
LINE
  5
1D5
330
1AE
100
AcDbEntity
  8
AM_9
100
AcDbLine
 10
-0.15
 20
-0.949872
 30
0.0
 11
0.5
 21
-0.949872
 31
0.0
  0
LINE
  5
1D6
330
1AE
100
AcDbEntity
  8
AM_9
100
AcDbLine
 10
-0.15
 20
-0.949872
 30
0.0
 11
-0.15
 21
-0.8907833855657613
 31
0.0
  0
LINE
  5
1D7
330
1AE
100
AcDbEntity
  8
AM_9
100
AcDbLine
 10
-0.15
 20
0.916382461848763
 30
0.0
 11
0.5
 21
0.916382461848763
 31
0.0
  0
LINE
  5
1D8
330
1AE
100
AcDbEntity
  8
AM_9
100
AcDbLine
 10
-0.15
 20
0.8907833855657613
 30
0.0
 11
-0.15
 21
0.949872
 31
0.0
  0
LINE
  5
1D9
330
1AE
100
AcDbEntity
  8
AM_9
100
AcDbLine
 10
0.5
 20
0.949872
 30
0.0
 11
-0.15
 21
0.949872
 31
0.0
  0
LINE
  5
1DA
330
1AE
100
AcDbEntity
  8
AM_9
100
AcDbLine
 10
-0.15
 20
0.8907833855657613
 30
0.0
 11
0.5
 21
0.8907833855657613
 31
0.0
  0
LINE
  5
1DB
330
1AE
100
AcDbEntity
  8
AM_9
100
AcDbLine
 10
0.5
 20
-0.8907833855657613
 30
0.0
 11
-0.15
 21
-0.8907833855657613
 31
0.0
  0
LINE
  5
1DC
330
1AE
100
AcDbEntity
  8
AM_9
100
AcDbLine
 10
-0.5
 20
-0.9252
 30
0.0
 11
-0.15
 21
-0.9252
 31
0.0
  0
LINE
  5
1DD
330
1AE
100
AcDbEntity
  8
AM_9
100
AcDbLine
 10
-0.15
 20
0.9252
 30
0.0
 11
-0.5
 21
0.9252
 31
0.0
  0
LINE
  5
1DE
330
1AE
100
AcDbEntity
  8
AM_9
100
AcDbLine
 10
0.5000000000000001
 20
0.4754997371187449
 30
0.0
 11
0.5000000000000001
 21
-0.4754997371187478
 31
0.0
  0
LINE
  5
1DF
330
1AE
100
AcDbEntity
  8
AM_9
100
AcDbLine
 10
-0.4999999999999999
 20
-0.4754997371187437
 30
0.0
 11
-0.4999999999999999
 21
0.475499737118749
 31
0.0
  0
LINE
  5
1E0
330
1AE
100
AcDbEntity
  8
AM_9
100
AcDbLine
 10
-0.3133974596215561
 20
-0.6147211012343297
 30
0.0
 11
-0.3133974596215561
 21
0.6147211012343347
 31
0.0
  0
LINE
  5
1E1
330
1AE
100
AcDbEntity
  8
AM_9
100
AcDbLine
 10
0.313397459621556
 20
-0.6147211012343297
 30
0.0
 11
0.313397459621556
 21
0.6147211012343348
 31
0.0
  0
LINE
  5
1E2
330
1AE
100
AcDbEntity
  8
AM_9
100
AcDbLine
 10
0.3393323807048854
 20
-0.16
 30
0.0
 11
0.6712730744512513
 21
-0.16
 31
0.0
  0
LINE
  5
1E3
330
1AE
100
AcDbEntity
  8
AM_9
100
AcDbLine
 10
0.6713246106433554
 20
0.16
 30
0.0
 11
0.3394250865993074
 21
0.16
 31
0.0
  0
LINE
  5
1E4
330
1AE
100
AcDbEntity
  8
AM_9
100
AcDbLine
 10
-0.6713246106433532
 20
-0.16
 30
0.0
 11
-0.3394250865993072
 21
-0.16
 31
0.0
  0
LINE
  5
1E5
330
1AE
100
AcDbEntity
  8
AM_9
100
AcDbLine
 10
-0.3393323807048853
 20
0.16
 30
0.0
 11
-0.6712730744512528
 21
0.16
 31
0.0
  0
LINE
  5
1E6
330
1AE
100
AcDbEntity
  8
AM_7
100
AcDbLine
 10
0.759
 20
0.0
 30
0.0
 11
-1.0945
 21
0.0000000000000001
 31
0.0
  0
LINE
  5
1E7
330
1AE
100
AcDbEntity
  8
AM_7
100
AcDbLine
 10
0.0000000000000002
 20
-0.7244999999999864
 30
0.0
 11
0.0000000000000002
 21
0.7244999999999995
 31
0.0
  0
LINE
  5
1E8
330
1AE
100
AcDbEntity
  8
AM_4
100
AcDbLine
 10
-0.1249999999999999
 20
-1.3175
 30
0.0
 11
-0.125
 21
-1.565
 31
0.0
  0
LWPOLYLINE
  5
1E9
330
1AE
100
AcDbEntity
  8
AM_4
100
AcDbPolyline
 90
       19
 70
     0
 43
0.0
 10
-0.3249999999999997
 20
-1.565
 10
-0.3293577871373827
 20
-1.564809734904587
 10
-0.3336824088833462
 20
-1.56424038765061
 10
-0.3379409522551258
 20
-1.563296291314453
 10
-0.3421010071662832
 20
-1.561984631039296
 10
-0.3461309130870346
 20
-1.560315389351832
 10
-0.3499999999999997
 20
-1.558301270189222
 10
-0.353678821817552
 20
-1.55595760221445
 10
-0.3571393804843266
 20
-1.553302222155949
 10
-0.360355339059327
 20
-1.550355339059328
 10
-0.3633022221559485
 20
-1.547139380484327
 10
-0.3659576022144493
 20
-1.543678821817552
 10
-0.3683012701892216
 20
-1.54
 10
-0.3703153893518322
 20
-1.536130913087035
 10
-0.3719846310392951
 20
-1.532101007166284
 10
-0.3732962913144531
 20
-1.527940952255126
 10
-0.3742403876506101
 20
-1.523682408883347
 10
-0.374809734904587
 20
-1.519357787137383
 10
-0.3749999999999997
 20
-1.515
  0
LINE
  5
1EA
330
1AE
100
AcDbEntity
  8
AM_4
100
AcDbLine
 10
-0.3249999999999998
 20
-1.565
 30
0.0
 11
-0.125
 21
-1.565
 31
0.0
  0
LINE
  5
1EB
330
1AE
100
AcDbEntity
  8
AM_4
100
AcDbLine
 10
0.1250000000000001
 20
-1.565
 30
0.0
 11
0.1250000000000001
 21
-1.3175
 31
0.0
  0
LWPOLYLINE
  5
1EC
330
1AE
100
AcDbEntity
  8
AM_4
100
AcDbPolyline
 90
       19
 70
     0
 43
0.0
 10
0.3749999999999998
 20
-1.515
 10
0.374809734904587
 20
-1.519357787137383
 10
0.3742403876506101
 20
-1.523682408883346
 10
0.3732962913144532
 20
-1.527940952255126
 10
0.3719846310392952
 20
-1.532101007166283
 10
0.3703153893518323
 20
-1.536130913087035
 10
0.3683012701892218
 20
-1.54
 10
0.3659576022144494
 20
-1.543678821817552
 10
0.3633022221559488
 20
-1.547139380484327
 10
0.3603553390593273
 20
-1.550355339059327
 10
0.3571393804843269
 20
-1.553302222155949
 10
0.3536788218175522
 20
-1.555957602214449
 10
0.35
 20
-1.558301270189222
 10
0.3461309130870349
 20
-1.560315389351832
 10
0.3421010071662834
 20
-1.561984631039295
 10
0.337940952255126
 20
-1.563296291314453
 10
0.3336824088833465
 20
-1.56424038765061
 10
0.329357787137383
 20
-1.564809734904587
 10
0.3250000000000001
 20
-1.565
  0
LINE
  5
1ED
330
1AE
100
AcDbEntity
  8
AM_4
100
AcDbLine
 10
0.1250000000000001
 20
-1.565
 30
0.0
 11
0.325
 21
-1.565
 31
0.0
  0
LINE
  5
1EE
330
1AE
100
AcDbEntity
  8
AM_4
100
AcDbLine
 10
-0.1249999999999999
 20
1.3175
 30
0.0
 11
-0.125
 21
1.565
 31
0.0
  0
LINE
  5
1EF
330
1AE
100
AcDbEntity
  8
AM_4
100
AcDbLine
 10
0.125
 20
1.3175
 30
0.0
 11
-0.1249999999999999
 21
1.3175
 31
0.0
  0
LINE
  5
1F0
330
1AE
100
AcDbEntity
  8
AM_4
100
AcDbLine
 10
0.1250000000000001
 20
1.565
 30
0.0
 11
0.125
 21
1.3175
 31
0.0
  0
LINE
  5
1F1
330
1AE
100
AcDbEntity
  8
AM_4
100
AcDbLine
 10
0.3750000000000001
 20
1.279942735743762
 30
0.0
 11
0.3750000000000001
 21
1.515
 31
0.0
  0
LINE
  5
1F2
330
1AE
100
AcDbEntity
  8
AM_4
100
AcDbLine
 10
-0.3749999999999999
 20
1.515
 30
0.0
 11
-0.3749999999999999
 21
1.279942735743762
 31
0.0
  0
LINE
  5
1F3
330
1AE
100
AcDbEntity
  8
AM_4
100
AcDbLine
 10
-0.125
 20
-1.515
 30
0.0
 11
-0.3749999999999999
 21
-1.515
 31
0.0
  0
LINE
  5
1F4
330
1AE
100
AcDbEntity
  8
AM_4
100
AcDbLine
 10
-0.1249999999999999
 20
-1.3175
 30
0.0
 11
0.1250000000000001
 21
-1.3175
 31
0.0
  0
LINE
  5
1F5
330
1AE
100
AcDbEntity
  8
AM_4
100
AcDbLine
 10
0.3749999999999998
 20
-1.515
 30
0.0
 11
0.1250000000000001
 21
-1.515
 31
0.0
  0
LINE
  5
1F6
330
1AE
100
AcDbEntity
  8
AM_4
100
AcDbLine
 10
0.3749999999999998
 20
-1.515
 30
0.0
 11
0.3750000000000001
 21
-1.279942735743762
 31
0.0
  0
LINE
  5
1F7
330
1AE
100
AcDbEntity
  8
AM_4
100
AcDbLine
 10
-0.3749999999999999
 20
-1.279942735743762
 30
0.0
 11
-0.3749999999999999
 21
-1.515
 31
0.0
  0
LINE
  5
1F8
330
1AE
100
AcDbEntity
  8
AM_4
100
AcDbLine
 10
0.3750000000000001
 20
1.515
 30
0.0
 11
0.125
 21
1.515
 31
0.0
  0
LWPOLYLINE
  5
1F9
330
1AE
100
AcDbEntity
  8
AM_4
100
AcDbPolyline
 90
       19
 70
     0
 43
0.0
 10
0.3250000000000002
 20
1.565
 10
0.3293577871373831
 20
1.564809734904587
 10
0.3336824088833467
 20
1.56424038765061
 10
0.3379409522551261
 20
1.563296291314453
 10
0.3421010071662835
 20
1.561984631039295
 10
0.346130913087035
 20
1.560315389351832
 10
0.35
 20
1.558301270189222
 10
0.3536788218175523
 20
1.55595760221445
 10
0.357139380484327
 20
1.553302222155949
 10
0.3603553390593274
 20
1.550355339059327
 10
0.3633022221559489
 20
1.547139380484327
 10
0.3659576022144496
 20
1.543678821817552
 10
0.3683012701892219
 20
1.54
 10
0.3703153893518324
 20
1.536130913087035
 10
0.3719846310392954
 20
1.532101007166284
 10
0.3732962913144534
 20
1.527940952255126
 10
0.3742403876506104
 20
1.523682408883346
 10
0.3748097349045872
 20
1.519357787137383
 10
0.3749999999999999
 20
1.515
  0
LINE
  5
1FA
330
1AE
100
AcDbEntity
  8
AM_4
100
AcDbLine
 10
0.1250000000000001
 20
1.565
 30
0.0
 11
0.3250000000000002
 21
1.565
 31
0.0
  0
LINE
  5
1FB
330
1AE
100
AcDbEntity
  8
AM_4
100
AcDbLine
 10
-0.3250000000000001
 20
1.565
 30
0.0
 11
-0.125
 21
1.565
 31
0.0
  0
LWPOLYLINE
  5
1FC
330
1AE
100
AcDbEntity
  8
AM_4
100
AcDbPolyline
 90
       19
 70
     0
 43
0.0
 10
-0.3749999999999998
 20
1.515
 10
-0.374809734904587
 20
1.519357787137383
 10
-0.3742403876506101
 20
1.523682408883346
 10
-0.3732962913144532
 20
1.527940952255126
 10
-0.3719846310392952
 20
1.532101007166283
 10
-0.3703153893518323
 20
1.536130913087035
 10
-0.3683012701892218
 20
1.54
 10
-0.3659576022144494
 20
1.543678821817552
 10
-0.3633022221559488
 20
1.547139380484327
 10
-0.3603553390593272
 20
1.550355339059327
 10
-0.3571393804843268
 20
1.553302222155949
 10
-0.3536788218175522
 20
1.555957602214449
 10
-0.3499999999999999
 20
1.558301270189222
 10
-0.3461309130870349
 20
1.560315389351832
 10
-0.3421010071662833
 20
1.561984631039295
 10
-0.337940952255126
 20
1.563296291314453
 10
-0.3336824088833465
 20
1.56424038765061
 10
-0.329357787137383
 20
1.564809734904587
 10
-0.325
 20
1.565
  0
LINE
  5
1FD
330
1AE
100
AcDbEntity
  8
AM_4
100
AcDbLine
 10
-0.1249999999999999
 20
1.515
 30
0.0
 11
-0.3749999999999999
 21
1.515
 31
0.0
  0
LINE
  5
1FE
330
1AE
100
AcDbEntity
  8
AM_4
100
AcDbLine
 10
0.3133974596215561
 20
-1.299038105676658
 30
0.0
 11
-0.3133974596215559
 21
-1.299038105676658
 31
0.0
  0
LINE
  5
1FF
330
1AE
100
AcDbEntity
  8
AM_4
100
AcDbLine
 10
-0.3749999999999999
 20
1.279942735743762
 30
0.0
 11
-0.3133974596215559
 21
1.299038105676658
 31
0.0
  0
LINE
  5
200
330
1AE
100
AcDbEntity
  8
AM_4
100
AcDbLine
 10
-0.3133974596215559
 20
-1.299038105676658
 30
0.0
 11
-0.3749999999999999
 21
-1.279942735743762
 31
0.0
  0
LINE
  5
201
330
1AE
100
AcDbEntity
  8
AM_4
100
AcDbLine
 10
-0.313397459621556
 20
-0.6147211012343297
 30
0.0
 11
-0.3133974596215559
 21
-1.299038105676658
 31
0.0
  0
LINE
  5
202
330
1AE
100
AcDbEntity
  8
AM_4
100
AcDbLine
 10
-0.4999999999999999
 20
-0.4754997371187418
 30
0.0
 11
-0.5
 21
-1.45
 31
0.0
  0
LINE
  5
203
330
1AE
100
AcDbEntity
  8
AM_4
100
AcDbLine
 10
-0.5
 20
-1.45
 30
0.0
 11
-0.3749999999999999
 21
-1.48349364905389
 31
0.0
  0
LINE
  5
204
330
1AE
100
AcDbEntity
  8
AM_4
100
AcDbLine
 10
-0.3749999999999999
 20
1.48349364905389
 30
0.0
 11
-0.5
 21
1.45
 31
0.0
  0
LINE
  5
205
330
1AE
100
AcDbEntity
  8
AM_4
100
AcDbLine
 10
-0.5
 20
1.45
 30
0.0
 11
-0.4999999999999999
 21
0.4754997371187468
 31
0.0
  0
LINE
  5
206
330
1AE
100
AcDbEntity
  8
AM_4
100
AcDbLine
 10
0.5000000000000001
 20
-0.4754997371187418
 30
0.0
 11
0.5
 21
-1.45
 31
0.0
  0
LINE
  5
207
330
1AE
100
AcDbEntity
  8
AM_4
100
AcDbLine
 10
0.3133974596215561
 20
-0.6147211012343297
 30
0.0
 11
0.3133974596215561
 21
-1.299038105676658
 31
0.0
  0
LINE
  5
208
330
1AE
100
AcDbEntity
  8
AM_4
100
AcDbLine
 10
0.3750000000000001
 20
-1.279942735743762
 30
0.0
 11
0.3133974596215561
 21
-1.299038105676658
 31
0.0
  0
LINE
  5
209
330
1AE
100
AcDbEntity
  8
AM_4
100
AcDbLine
 10
0.3133974596215561
 20
1.299038105676658
 30
0.0
 11
0.3750000000000001
 21
1.279942735743762
 31
0.0
  0
LINE
  5
20A
330
1AE
100
AcDbEntity
  8
AM_4
100
AcDbLine
 10
0.5
 20
1.45
 30
0.0
 11
0.3749999999999999
 21
1.48349364905389
 31
0.0
  0
LINE
  5
20B
330
1AE
100
AcDbEntity
  8
AM_4
100
AcDbLine
 10
0.3749999999999999
 20
-1.48349364905389
 30
0.0
 11
0.5
 21
-1.45
 31
0.0
  0
LINE
  5
20C
330
1AE
100
AcDbEntity
  8
AM_4
100
AcDbLine
 10
0.5
 20
1.45
 30
0.0
 11
0.5000000000000001
 21
0.4754997371187468
 31
0.0
  0
LINE
  5
20D
330
1AE
100
AcDbEntity
  8
AM_4
100
AcDbLine
 10
-0.3045570244473904
 20
0.6191486242088805
 30
0.0
 11
-0.313397459621556
 21
0.6147211012343347
 31
0.0
  0
LWPOLYLINE
  5
20E
330
1AE
100
AcDbEntity
  8
AM_4
100
AcDbPolyline
 90
        3
 70
     0
 43
0.0
 10
0.3133974596215561
 20
0.6147211012343348
 10
0.294285738481742
 20
0.6240960696289105
 10
0.2784197930090255
 20
0.6313338410546433
  0
LINE
  5
20F
330
1AE
100
AcDbEntity
  8
AM_4
100
AcDbLine
 10
-0.3133974596215559
 20
1.299038105676658
 30
0.0
 11
-0.313397459621556
 21
0.6147211012343347
 31
0.0
  0
LINE
  5
210
330
1AE
100
AcDbEntity
  8
AM_4
100
AcDbLine
 10
0.3133974596215561
 20
1.299038105676658
 30
0.0
 11
0.3133974596215561
 21
0.6147211012343348
 31
0.0
  0
LINE
  5
211
330
1AE
100
AcDbEntity
  8
AM_4
100
AcDbLine
 10
-0.3133974596215559
 20
1.299038105676658
 30
0.0
 11
0.3133974596215561
 21
1.299038105676658
 31
0.0
  0
CIRCLE
  5
212
330
1AE
100
AcDbEntity
  8
AM_4
100
AcDbCircle
 10
0.0000000000000001
 20
0.0
 30
0.0
 40
0.3749999999999999
  0
CIRCLE
  5
213
330
1AE
100
AcDbEntity
  8
AM_4
100
AcDbCircle
 10
0.0000000000000001
 20
0.0000000000000071
 30
0.0
 40
0.6066666666666594
  0
CIRCLE
  5
214
330
1AE
100
AcDbEntity
  8
AM_4
100
AcDbCircle
 10
0.0000000000000002
 20
0.0000000000000065
 30
0.0
 40
0.6899999999999933
  0
ENDBLK
  5
1B1
330
1AE
100
AcDbEntity
  8
0
100
AcDbBlockEnd
  0
ENDSEC
  0
SECTION
  2
ENTITIES
  0
INSERT
  5
6F
330
1F
100
AcDbEntity
  8
0
100
AcDbBlockReference
  2
1_136110_2
 10
0.0
 20
0.0
 30
0.0
  0
POINT
  5
216
330
1F
100
AcDbEntity
  8
ConnectionPoints
100
AcDbPoint
 10
0.01
 20
0.0000000000000001
 30
0.0
  0
POINT
  5
217
330
1F
100
AcDbEntity
  8
ConnectionPoints
100
AcDbPoint
 10
0.01
 20
0.0000000000000001
 30
0.0
  0
POINT
  5
218
330
1F
100
AcDbEntity
  8
ConnectionPoints
100
AcDbPoint
 10
-1.02
 20
0.0000000000000001
 30
0.0000000000000001
  0
POINT
  5
219
330
1F
100
AcDbEntity
  8
ConnectionPoints
100
AcDbPoint
 10
0.0
 20
0.0
 30
0.0
  0
POINT
  5
21A
330
1F
100
AcDbEntity
  8
ConnectionPoints
100
AcDbPoint
 10
0.0
 20
0.0
 30
0.0
  0
POINT
  5
21B
330
1F
100
AcDbEntity
  8
ConnectionPoints
100
AcDbPoint
 10
-0.0000000000000001
 20
-0.7499999999999999
 30
-1.299038105676658
  0
POINT
  5
21C
330
1F
100
AcDbEntity
  8
ConnectionPoints
100
AcDbPoint
 10
-1.02
 20
0.0
 30
0.0000000000000001
  0
ENDSEC
  0
SECTION
  2
OBJECTS
  0
DICTIONARY
  5
C
330
0
100
AcDbDictionary
281
     1
  3
ACAD_DETAILVIEWSTYLE
350
224
  3
ACAD_GROUP
350
D
  3
ACAD_LAYOUT
350
1A
  3
ACAD_MATERIAL
350
43
  3
ACAD_MLEADERSTYLE
350
6B
  3
ACAD_MLINESTYLE
350
17
  3
ACAD_PLOTSETTINGS
350
19
  3
ACAD_PLOTSTYLENAME
350
E
  3
ACAD_SCALELIST
350
47
  3
ACAD_SECTIONVIEWSTYLE
350
225
  3
ACAD_TABLESTYLE
350
69
  3
ACAD_VISUALSTYLE
350
2A
  3
ACDB_RECOMPOSE_DATA
350
221
  3
AcDbVariableDictionary
350
21D
  0
SUN
  5
6D
330
29
100
AcDbSun
 90
        1
290
     0
 63
     7
421
 16777215
 40
1.0
291
     1
 91
  2455826
 92
 54000000
292
     0
 70
     2
 71
   256
280
     1
  0
DICTIONARY
  5
224
102
{ACAD_REACTORS
330
C
102
}
330
C
100
AcDbDictionary
281
     1
  0
DICTIONARY
  5
D
102
{ACAD_REACTORS
330
C
102
}
330
C
100
AcDbDictionary
281
     1
  0
DICTIONARY
  5
1A
102
{ACAD_REACTORS
330
C
102
}
330
C
100
AcDbDictionary
281
     1
  3
Layout1
350
1E
  3
Layout2
350
26
  3
Model
350
22
  0
DICTIONARY
  5
43
102
{ACAD_REACTORS
330
C
102
}
330
C
100
AcDbDictionary
281
     1
  3
ByBlock
350
45
  3
ByLayer
350
44
  3
Global
350
46
  0
DICTIONARY
  5
6B
102
{ACAD_REACTORS
330
C
102
}
330
C
100
AcDbDictionary
281
     1
  3
Standard
350
6C
  0
DICTIONARY
  5
17
102
{ACAD_REACTORS
330
C
102
}
330
C
100
AcDbDictionary
281
     1
  3
Standard
350
18
  0
DICTIONARY
  5
19
102
{ACAD_REACTORS
330
C
102
}
330
C
100
AcDbDictionary
281
     1
  0
ACDBDICTIONARYWDFLT
  5
E
102
{ACAD_REACTORS
330
C
102
}
330
C
100
AcDbDictionary
281
     1
  3
Normal
350
F
100
AcDbDictionaryWithDefault
340
F
  0
DICTIONARY
  5
47
102
{ACAD_REACTORS
330
C
102
}
330
C
100
AcDbDictionary
281
     1
  3
A0
350
48
  3
A1
350
49
  3
A2
350
4A
  3
A3
350
4B
  3
A4
350
4C
  3
A5
350
4D
  3
A6
350
4E
  3
A7
350
4F
  3
A8
350
50
  3
A9
350
51
  3
B0
350
52
  3
B1
350
53
  3
B2
350
54
  3
B3
350
55
  3
B4
350
56
  3
B5
350
57
  3
B6
350
58
  3
B7
350
59
  3
B8
350
5A
  3
B9
350
5B
  3
C0
350
5C
  3
C1
350
5D
  3
C2
350
5E
  3
C3
350
5F
  3
C4
350
60
  3
C5
350
61
  3
C6
350
62
  3
C7
350
63
  3
C8
350
64
  3
C9
350
65
  3
D0
350
66
  3
D1
350
67
  3
D2
350
68
  0
DICTIONARY
  5
225
102
{ACAD_REACTORS
330
C
102
}
330
C
100
AcDbDictionary
281
     1
  0
DICTIONARY
  5
69
102
{ACAD_REACTORS
330
C
102
}
330
C
100
AcDbDictionary
281
     1
  3
Standard
350
6A
  0
DICTIONARY
  5
2A
102
{ACAD_REACTORS
330
C
102
}
330
C
100
AcDbDictionary
281
     1
  3
2dWireframe
350
2F
  3
Basic
350
32
  3
Brighten
350
36
  3
ColorChange
350
3A
  3
Conceptual
350
34
  3
Dim
350
35
  3
EdgeColorOff
350
3D
  3
Facepattern
350
39
  3
Flat
350
2B
  3
FlatWithEdges
350
2C
  3
Gouraud
350
2D
  3
GouraudWithEdges
350
2E
  3
Hidden
350
31
  3
JitterOff
350
3B
  3
Linepattern
350
38
  3
OverhangOff
350
3C
  3
Realistic
350
33
  3
Shaded
350
42
  3
Shaded with edges
350
41
  3
Shades of Gray
350
3E
  3
Sketchy
350
3F
  3
Thicken
350
37
  3
Wireframe
350
30
  3
X-Ray
350
40
  0
XRECORD
  5
221
102
{ACAD_REACTORS
330
C
102
}
330
C
100
AcDbXrecord
280
     1
 90
        1
330
6A
  0
DICTIONARY
  5
21D
102
{ACAD_REACTORS
330
C
102
}
330
C
100
AcDbDictionary
281
     1
  3
CANNOSCALE
350
21E
  3
CMLEADERSTYLE
350
223
  3
CTABLESTYLE
350
222
  0
LAYOUT
  5
1E
102
{ACAD_REACTORS
330
1A
102
}
330
1A
100
AcDbPlotSettings
  1

  2
none_device
  4

  6

 40
0.0
 41
0.0
 42
0.0
 43
0.0
 44
0.0
 45
0.0
 46
0.0
 47
0.0
 48
0.0
 49
0.0
140
0.0
141
0.0
142
1.0
143
1.0
 70
   688
 72
     0
 73
     0
 74
     5
  7

 75
    16
 76
     0
 77
     2
 78
   300
147
1.0
148
0.0
149
0.0
100
AcDbLayout
  1
Layout1
 70
     1
 71
     1
 10
0.0
 20
0.0
 11
12.0
 21
9.0
 12
0.0
 22
0.0
 32
0.0
 14
1.000000000000000E+20
 24
1.000000000000000E+20
 34
1.000000000000000E+20
 15
-1.000000000000000E+20
 25
-1.000000000000000E+20
 35
-1.000000000000000E+20
146
0.0
 13
0.0
 23
0.0
 33
0.0
 16
1.0
 26
0.0
 36
0.0
 17
0.0
 27
1.0
 37
0.0
 76
     0
330
1B
  0
LAYOUT
  5
26
102
{ACAD_REACTORS
330
1A
102
}
330
1A
100
AcDbPlotSettings
  1

  2
none_device
  4

  6

 40
0.0
 41
0.0
 42
0.0
 43
0.0
 44
0.0
 45
0.0
 46
0.0
 47
0.0
 48
0.0
 49
0.0
140
0.0
141
0.0
142
1.0
143
1.0
 70
   688
 72
     0
 73
     0
 74
     5
  7

 75
    16
 76
     0
 77
     2
 78
   300
147
1.0
148
0.0
149
0.0
100
AcDbLayout
  1
Layout2
 70
     1
 71
     2
 10
0.0
 20
0.0
 11
0.0
 21
0.0
 12
0.0
 22
0.0
 32
0.0
 14
0.0
 24
0.0
 34
0.0
 15
0.0
 25
0.0
 35
0.0
146
0.0
 13
0.0
 23
0.0
 33
0.0
 16
1.0
 26
0.0
 36
0.0
 17
0.0
 27
1.0
 37
0.0
 76
     0
330
23
  0
LAYOUT
  5
22
102
{ACAD_REACTORS
330
1A
102
}
330
1A
100
AcDbPlotSettings
  1

  2
none_device
  4
Letter_(8.50_x_11.00_Inches)
  6

 40
6.35
 41
6.35
 42
6.35000508
 43
6.35000508
 44
215.9
 45
279.4
 46
0.0
 47
0.0
 48
0.0
 49
0.0
140
0.0
141
0.0
142
1.0
143
1.0
 70
  1712
 72
     0
 73
     0
 74
     0
  7

 75
     0
 76
     0
 77
     2
 78
   300
147
1.0
148
0.0
149
0.0
100
AcDbLayout
  1
Model
 70
     1
 71
     0
 10
0.0
 20
0.0
 11
12.0
 21
9.0
 12
0.0
 22
0.0
 32
0.0
 14
1.000000000000000E+20
 24
1.000000000000000E+20
 34
1.000000000000000E+20
 15
-1.000000000000000E+20
 25
-1.000000000000000E+20
 35
-1.000000000000000E+20
146
0.0
 13
0.0
 23
0.0
 33
0.0
 16
1.0
 26
0.0
 36
0.0
 17
0.0
 27
1.0
 37
0.0
 76
     0
330
1F
331
29
  0
MATERIAL
  5
45
102
{ACAD_REACTORS
330
43
102
}
330
43
100
AcDbMaterial
  1
ByBlock
 72
     1
 94
      127
  0
MATERIAL
  5
44
102
{ACAD_REACTORS
330
43
102
}
330
43
100
AcDbMaterial
  1
ByLayer
 72
     1
 94
      127
  0
MATERIAL
  5
46
102
{ACAD_REACTORS
330
43
102
}
330
43
100
AcDbMaterial
  1
Global
 72
     1
 94
      127
  0
MLEADERSTYLE
  5
6C
102
{ACAD_REACTORS
330
6B
102
}
330
6B
100
AcDbMLeaderStyle
179
     2
170
     2
171
     1
172
     0
 90
        2
 40
0.0
 41
0.0
173
     1
 91
-1056964608
340
14
 92
       -2
290
     1
 42
0.09
291
     1
 43
0.36
  3
Standard
341
0
 44
0.18
300

342
11
174
     1
178
     6
175
     1
176
     0
 93
-1056964608
 45
0.18
292
     0
297
     0
 46
0.18
343
0
 94
-1056964608
 47
1.0
 49
1.0
140
1.0
293
     1
141
0.0
294
     1
177
     0
142
1.0
295
     0
296
     0
143
0.125
271
     0
272
     9
273
     9
298
     0
  0
MLINESTYLE
  5
18
102
{ACAD_REACTORS
330
17
102
}
330
17
100
AcDbMlineStyle
  2
Standard
 70
     0
  3

 62
   256
 51
90.0
 52
90.0
 71
     2
 49
0.5
 62
   256
  6
BYLAYER
 49
-0.5
 62
   256
  6
BYLAYER
  0
ACDBPLACEHOLDER
  5
F
102
{ACAD_REACTORS
330
E
102
}
330
E
  0
SCALE
  5
48
102
{ACAD_REACTORS
330
47
102
}
330
47
100
AcDbScale
 70
     0
300
1:1
140
1.0
141
1.0
290
     1
  0
SCALE
  5
49
102
{ACAD_REACTORS
330
47
102
}
330
47
100
AcDbScale
 70
     0
300
1:2
140
1.0
141
2.0
290
     0
  0
SCALE
  5
4A
102
{ACAD_REACTORS
330
47
102
}
330
47
100
AcDbScale
 70
     0
300
1:4
140
1.0
141
4.0
290
     0
  0
SCALE
  5
4B
102
{ACAD_REACTORS
330
47
102
}
330
47
100
AcDbScale
 70
     0
300
1:5
140
1.0
141
5.0
290
     0
  0
SCALE
  5
4C
102
{ACAD_REACTORS
330
47
102
}
330
47
100
AcDbScale
 70
     0
300
1:8
140
1.0
141
8.0
290
     0
  0
SCALE
  5
4D
102
{ACAD_REACTORS
330
47
102
}
330
47
100
AcDbScale
 70
     0
300
1:10
140
1.0
141
10.0
290
     0
  0
SCALE
  5
4E
102
{ACAD_REACTORS
330
47
102
}
330
47
100
AcDbScale
 70
     0
300
1:16
140
1.0
141
16.0
290
     0
  0
SCALE
  5
4F
102
{ACAD_REACTORS
330
47
102
}
330
47
100
AcDbScale
 70
     0
300
1:20
140
1.0
141
20.0
290
     0
  0
SCALE
  5
50
102
{ACAD_REACTORS
330
47
102
}
330
47
100
AcDbScale
 70
     0
300
1:30
140
1.0
141
30.0
290
     0
  0
SCALE
  5
51
102
{ACAD_REACTORS
330
47
102
}
330
47
100
AcDbScale
 70
     0
300
1:40
140
1.0
141
40.0
290
     0
  0
SCALE
  5
52
102
{ACAD_REACTORS
330
47
102
}
330
47
100
AcDbScale
 70
     0
300
1:50
140
1.0
141
50.0
290
     0
  0
SCALE
  5
53
102
{ACAD_REACTORS
330
47
102
}
330
47
100
AcDbScale
 70
     0
300
1:100
140
1.0
141
100.0
290
     0
  0
SCALE
  5
54
102
{ACAD_REACTORS
330
47
102
}
330
47
100
AcDbScale
 70
     0
300
2:1
140
2.0
141
1.0
290
     0
  0
SCALE
  5
55
102
{ACAD_REACTORS
330
47
102
}
330
47
100
AcDbScale
 70
     0
300
4:1
140
4.0
141
1.0
290
     0
  0
SCALE
  5
56
102
{ACAD_REACTORS
330
47
102
}
330
47
100
AcDbScale
 70
     0
300
8:1
140
8.0
141
1.0
290
     0
  0
SCALE
  5
57
102
{ACAD_REACTORS
330
47
102
}
330
47
100
AcDbScale
 70
     0
300
10:1
140
10.0
141
1.0
290
     0
  0
SCALE
  5
58
102
{ACAD_REACTORS
330
47
102
}
330
47
100
AcDbScale
 70
     0
300
100:1
140
100.0
141
1.0
290
     0
  0
SCALE
  5
59
102
{ACAD_REACTORS
330
47
102
}
330
47
100
AcDbScale
 70
     0
300
1/128" = 1'-0"
140
0.0078125
141
12.0
290
     0
  0
SCALE
  5
5A
102
{ACAD_REACTORS
330
47
102
}
330
47
100
AcDbScale
 70
     0
300
1/64" = 1'-0"
140
0.015625
141
12.0
290
     0
  0
SCALE
  5
5B
102
{ACAD_REACTORS
330
47
102
}
330
47
100
AcDbScale
 70
     0
300
1/32" = 1'-0"
140
0.03125
141
12.0
290
     0
  0
SCALE
  5
5C
102
{ACAD_REACTORS
330
47
102
}
330
47
100
AcDbScale
 70
     0
300
1/16" = 1'-0"
140
0.0625
141
12.0
290
     0
  0
SCALE
  5
5D
102
{ACAD_REACTORS
330
47
102
}
330
47
100
AcDbScale
 70
     0
300
3/32" = 1'-0"
140
0.09375
141
12.0
290
     0
  0
SCALE
  5
5E
102
{ACAD_REACTORS
330
47
102
}
330
47
100
AcDbScale
 70
     0
300
1/8" = 1'-0"
140
0.125
141
12.0
290
     0
  0
SCALE
  5
5F
102
{ACAD_REACTORS
330
47
102
}
330
47
100
AcDbScale
 70
     0
300
3/16" = 1'-0"
140
0.1875
141
12.0
290
     0
  0
SCALE
  5
60
102
{ACAD_REACTORS
330
47
102
}
330
47
100
AcDbScale
 70
     0
300
1/4" = 1'-0"
140
0.25
141
12.0
290
     0
  0
SCALE
  5
61
102
{ACAD_REACTORS
330
47
102
}
330
47
100
AcDbScale
 70
     0
300
3/8" = 1'-0"
140
0.375
141
12.0
290
     0
  0
SCALE
  5
62
102
{ACAD_REACTORS
330
47
102
}
330
47
100
AcDbScale
 70
     0
300
1/2" = 1'-0"
140
0.5
141
12.0
290
     0
  0
SCALE
  5
63
102
{ACAD_REACTORS
330
47
102
}
330
47
100
AcDbScale
 70
     0
300
3/4" = 1'-0"
140
0.75
141
12.0
290
     0
  0
SCALE
  5
64
102
{ACAD_REACTORS
330
47
102
}
330
47
100
AcDbScale
 70
     0
300
1" = 1'-0"
140
1.0
141
12.0
290
     0
  0
SCALE
  5
65
102
{ACAD_REACTORS
330
47
102
}
330
47
100
AcDbScale
 70
     0
300
1-1/2" = 1'-0"
140
1.5
141
12.0
290
     0
  0
SCALE
  5
66
102
{ACAD_REACTORS
330
47
102
}
330
47
100
AcDbScale
 70
     0
300
3" = 1'-0"
140
3.0
141
12.0
290
     0
  0
SCALE
  5
67
102
{ACAD_REACTORS
330
47
102
}
330
47
100
AcDbScale
 70
     0
300
6" = 1'-0"
140
6.0
141
12.0
290
     0
  0
SCALE
  5
68
102
{ACAD_REACTORS
330
47
102
}
330
47
100
AcDbScale
 70
     0
300
1'-0" = 1'-0"
140
12.0
141
12.0
290
     0
  0
TABLESTYLE
  5
6A
102
{ACAD_REACTORS
330
69
102
}
102
{ACAD_XDICTIONARY
360
21F
102
}
330
69
100
AcDbTableStyle
  3
Standard
 70
     0
 71
     0
 40
0.06
 41
0.06
280
     0
281
     0
  7
Standard
140
0.18
170
     2
 62
     0
 63
   257
283
     0
 90
        4
 91
        0
  1

274
    -2
284
     1
 64
     0
275
    -2
285
     1
 65
     0
276
    -2
286
     1
 66
     0
277
    -2
287
     1
 67
     0
278
    -2
288
     1
 68
     0
279
    -2
289
     1
 69
     0
  7
Standard
140
0.25
170
     5
 62
     0
 63
   257
283
     0
 90
        4
 91
        0
  1

274
    -2
284
     1
 64
     0
275
    -2
285
     1
 65
     0
276
    -2
286
     1
 66
     0
277
    -2
287
     1
 67
     0
278
    -2
288
     1
 68
     0
279
    -2
289
     1
 69
     0
  7
Standard
140
0.18
170
     5
 62
     0
 63
   257
283
     0
 90
        4
 91
        0
  1

274
    -2
284
     1
 64
     0
275
    -2
285
     1
 65
     0
276
    -2
286
     1
 66
     0
277
    -2
287
     1
 67
     0
278
    -2
288
     1
 68
     0
279
    -2
289
     1
 69
     0
  0
VISUALSTYLE
  5
2F
102
{ACAD_REACTORS
330
2A
102
}
330
2A
100
AcDbVisualStyle
  2
2dWireframe
 70
     4
177
     3
291
     0
 70
    58
 90
        0
176
     1
 90
        2
176
     1
 90
        0
176
     1
 90
        0
176
     1
 40
0.6
176
     1
 40
30.0
176
     1
 62
     7
420
 16777215
176
     1
 90
        1
176
     1
 90
        4
176
     1
 62
     7
176
     1
 62
   257
176
     1
 90
        1
176
     1
 90
        1
176
     1
 40
1.0
176
     1
 90
        0
176
     1
 62
   257
176
     1
 40
1.0
176
     1
 90
        1
176
     1
 90
        6
176
     1
 90
        2
176
     1
 62
     7
176
     1
 90
        5
176
     1
 90
        0
176
     1
 90
        0
176
     1
290
     0
176
     1
 90
        1
176
     1
 40
0.0
176
     1
 90
        0
176
     1
290
     1
176
     1
290
     1
176
     1
290
     0
176
     1
290
     0
176
     1
290
     0
176
     1
290
     0
176
     1
290
     0
176
     1
290
     0
176
     1
290
     0
176
     1
 90
       50
176
     1
 40
0.0
176
     1
 40
1.0
176
     1
 90
        0
176
     1
 62
    18
420
        0
176
     1
 90
       50
176
     1
 90
        3
176
     1
 62
     5
420
      255
176
     1
290
     0
176
     1
 90
       50
176
     1
 90
       50
176
     1
 90
       50
176
     1
290
     0
176
     1
 90
       50
176
     1
 62
   256
176
     0
 40
1.0
176
     0
 90
        2
176
     1
  1
strokes_ogs.tif
176
     1
290
     0
176
     1
 40
1.0
176
     1
 40
1.0
176
     1
  0
VISUALSTYLE
  5
32
102
{ACAD_REACTORS
330
2A
102
}
330
2A
100
AcDbVisualStyle
  2
Basic
 70
     7
177
     3
291
     1
 70
    58
 90
        1
176
     1
 90
        0
176
     1
 90
        1
176
     1
 90
        0
176
     1
 40
0.6
176
     1
 40
30.0
176
     1
 62
     7
420
 16777215
176
     1
 90
        0
176
     1
 90
        4
176
     1
 62
     7
176
     1
 62
   257
176
     1
 90
        1
176
     1
 90
        1
176
     1
 40
1.0
176
     1
 90
        8
176
     1
 62
     7
176
     1
 40
1.0
176
     1
 90
        1
176
     1
 90
        6
176
     1
 90
        2
176
     1
 62
     7
176
     1
 90
        5
176
     1
 90
        0
176
     1
 90
        0
176
     1
290
     0
176
     1
 90
        1
176
     1
 40
0.0
176
     1
 90
        0
176
     1
290
     0
176
     1
290
     1
176
     1
290
     1
176
     1
290
     0
176
     1
290
     0
176
     1
290
     0
176
     1
290
     0
176
     1
290
     0
176
     1
290
     0
176
     1
 90
       50
176
     1
 40
0.0
176
     1
 40
1.0
176
     1
 90
        0
176
     1
 62
    18
420
        0
176
     1
 90
       50
176
     1
 90
        3
176
     1
 62
     5
420
      255
176
     1
290
     0
176
     1
 90
       50
176
     1
 90
       50
176
     1
 90
       50
176
     1
290
     0
176
     1
 90
       50
176
     1
 62
   256
176
     0
 40
1.0
176
     0
 90
        2
176
     1
  1
strokes_ogs.tif
176
     1
290
     0
176
     1
 40
1.0
176
     1
 40
1.0
176
     1
  0
VISUALSTYLE
  5
36
102
{ACAD_REACTORS
330
2A
102
}
330
2A
100
AcDbVisualStyle
  2
Brighten
 70
    12
177
     3
291
     1
 70
    58
 90
        2
176
     1
 90
        2
176
     1
 90
        0
176
     1
 90
        0
176
     1
 40
0.6
176
     1
 40
30.0
176
     1
 62
     7
420
 16777215
176
     1
 90
        1
176
     1
 90
        4
176
     1
 62
     7
176
     1
 62
   257
176
     1
 90
        1
176
     1
 90
        1
176
     1
 40
1.0
176
     1
 90
        8
176
     1
 62
     7
176
     1
 40
1.0
176
     1
 90
        1
176
     1
 90
        6
176
     1
 90
        2
176
     1
 62
     7
176
     1
 90
        5
176
     1
 90
        0
176
     1
 90
        0
176
     1
290
     0
176
     1
 90
        1
176
     1
 40
50.0
176
     1
 90
        0
176
     1
290
     0
176
     1
290
     1
176
     1
290
     1
176
     1
290
     0
176
     1
290
     0
176
     1
290
     0
176
     1
290
     0
176
     1
290
     0
176
     1
290
     0
176
     1
 90
       50
176
     1
 40
0.0
176
     1
 40
1.0
176
     1
 90
        0
176
     1
 62
    18
420
        0
176
     1
 90
       50
176
     1
 90
        3
176
     1
 62
     5
420
      255
176
     1
290
     0
176
     1
 90
       50
176
     1
 90
       50
176
     1
 90
       50
176
     1
290
     0
176
     1
 90
       50
176
     1
 62
   256
176
     0
 40
1.0
176
     0
 90
        2
176
     1
  1
strokes_ogs.tif
176
     1
290
     0
176
     1
 40
1.0
176
     1
 40
1.0
176
     1
  0
VISUALSTYLE
  5
3A
102
{ACAD_REACTORS
330
2A
102
}
330
2A
100
AcDbVisualStyle
  2
ColorChange
 70
    16
177
     3
291
     1
 70
    58
 90
        2
176
     1
 90
        2
176
     1
 90
        3
176
     1
 90
        0
176
     1
 40
0.6
176
     1
 40
30.0
176
     1
 62
     8
420
  8421504
176
     1
 90
        1
176
     1
 90
        4
176
     1
 62
     7
176
     1
 62
   257
176
     1
 90
        1
176
     1
 90
        1
176
     1
 40
1.0
176
     1
 90
        8
176
     1
 62
     8
420
  8421504
176
     1
 40
1.0
176
     1
 90
        1
176
     1
 90
        6
176
     1
 90
        2
176
     1
 62
     7
176
     1
 90
        5
176
     1
 90
        0
176
     1
 90
        0
176
     1
290
     0
176
     1
 90
        1
176
     1
 40
0.0
176
     1
 90
        0
176
     1
290
     0
176
     1
290
     1
176
     1
290
     1
176
     1
290
     0
176
     1
290
     0
176
     1
290
     0
176
     1
290
     0
176
     1
290
     0
176
     1
290
     0
176
     1
 90
       50
176
     1
 40
0.0
176
     1
 40
1.0
176
     1
 90
        0
176
     1
 62
    18
420
        0
176
     1
 90
       50
176
     1
 90
        3
176
     1
 62
     5
420
      255
176
     1
290
     0
176
     1
 90
       50
176
     1
 90
       50
176
     1
 90
       50
176
     1
290
     0
176
     1
 90
       50
176
     1
 62
   256
176
     0
 40
1.0
176
     0
 90
        2
176
     1
  1
strokes_ogs.tif
176
     1
290
     0
176
     1
 40
1.0
176
     1
 40
1.0
176
     1
  0
VISUALSTYLE
  5
34
102
{ACAD_REACTORS
330
2A
102
}
330
2A
100
AcDbVisualStyle
  2
Conceptual
 70
     9
177
     3
291
     0
 70
    58
 90
        3
176
     1
 90
        2
176
     1
 90
        0
176
     1
 90
        0
176
     1
 40
0.6
176
     1
 40
30.0
176
     1
 62
     7
420
 16777215
176
     1
 90
        2
176
     1
 90
        2
176
     1
 62
     7
176
     1
 62
   257
176
     1
 90
        1
176
     1
 90
        1
176
     1
 40
179.0
176
     1
 90
        8
176
     1
 62
     7
176
     1
 40
1.0
176
     1
 90
        1
176
     1
 90
        6
176
     1
 90
        2
176
     1
 62
     7
176
     1
 90
        3
176
     1
 90
        0
176
     1
 90
        0
176
     1
290
     0
176
     1
 90
        1
176
     1
 40
0.0
176
     1
 90
        0
176
     1
290
     0
176
     1
290
     1
176
     1
290
     1
176
     1
290
     0
176
     1
290
     0
176
     1
290
     0
176
     1
290
     0
176
     1
290
     0
176
     1
290
     0
176
     1
 90
       50
176
     1
 40
0.0
176
     1
 40
1.0
176
     1
 90
        0
176
     1
 62
    18
420
        0
176
     1
 90
       50
176
     1
 90
        3
176
     1
 62
     5
420
      255
176
     1
290
     0
176
     1
 90
       50
176
     1
 90
       50
176
     1
 90
       50
176
     1
290
     0
176
     1
 90
       50
176
     1
 62
   256
176
     0
 40
1.0
176
     0
 90
        2
176
     1
  1
strokes_ogs.tif
176
     1
290
     0
176
     1
 40
1.0
176
     1
 40
1.0
176
     1
  0
VISUALSTYLE
  5
35
102
{ACAD_REACTORS
330
2A
102
}
330
2A
100
AcDbVisualStyle
  2
Dim
 70
    11
177
     3
291
     1
 70
    58
 90
        2
176
     1
 90
        2
176
     1
 90
        0
176
     1
 90
        0
176
     1
 40
0.6
176
     1
 40
30.0
176
     1
 62
     7
420
 16777215
176
     1
 90
        1
176
     1
 90
        4
176
     1
 62
     7
176
     1
 62
   257
176
     1
 90
        1
176
     1
 90
        1
176
     1
 40
1.0
176
     1
 90
        8
176
     1
 62
     7
176
     1
 40
1.0
176
     1
 90
        1
176
     1
 90
        6
176
     1
 90
        2
176
     1
 62
     7
176
     1
 90
        5
176
     1
 90
        0
176
     1
 90
        0
176
     1
290
     0
176
     1
 90
        1
176
     1
 40
-50.0
176
     1
 90
        0
176
     1
290
     0
176
     1
290
     1
176
     1
290
     1
176
     1
290
     0
176
     1
290
     0
176
     1
290
     0
176
     1
290
     0
176
     1
290
     0
176
     1
290
     0
176
     1
 90
       50
176
     1
 40
0.0
176
     1
 40
1.0
176
     1
 90
        0
176
     1
 62
    18
420
        0
176
     1
 90
       50
176
     1
 90
        3
176
     1
 62
     5
420
      255
176
     1
290
     0
176
     1
 90
       50
176
     1
 90
       50
176
     1
 90
       50
176
     1
290
     0
176
     1
 90
       50
176
     1
 62
   256
176
     0
 40
1.0
176
     0
 90
        2
176
     1
  1
strokes_ogs.tif
176
     1
290
     0
176
     1
 40
1.0
176
     1
 40
1.0
176
     1
  0
VISUALSTYLE
  5
3D
102
{ACAD_REACTORS
330
2A
102
}
330
2A
100
AcDbVisualStyle
  2
EdgeColorOff
 70
    22
177
     3
291
     1
 70
    58
 90
        2
176
     0
 90
        2
176
     0
 90
        0
176
     0
 90
        0
176
     0
 40
0.6
176
     0
 40
30.0
176
     0
 62
     7
420
 16777215
176
     0
 90
        1
176
     0
 90
        4
176
     0
 62
     7
176
     0
 62
   257
176
     0
 90
        1
176
     0
 90
        1
176
     0
 40
1.0
176
     0
 90
        8
176
     2
 62
     7
176
     0
 40
1.0
176
     0
 90
        1
176
     0
 90
        6
176
     0
 90
        2
176
     0
 62
     7
176
     0
 90
        5
176
     0
 90
        0
176
     0
 90
        0
176
     0
290
     0
176
     0
 90
        1
176
     0
 40
0.0
176
     0
 90
        0
176
     0
290
     0
176
     0
290
     1
176
     0
290
     1
176
     0
290
     0
176
     0
290
     0
176
     0
290
     0
176
     0
290
     0
176
     0
290
     0
176
     0
290
     0
176
     0
 90
       50
176
     0
 40
0.0
176
     0
 40
1.0
176
     0
 90
        0
176
     0
 62
    18
420
        0
176
     0
 90
       50
176
     0
 90
        3
176
     0
 62
     5
420
      255
176
     0
290
     0
176
     0
 90
       50
176
     0
 90
       50
176
     0
 90
       50
176
     0
290
     0
176
     0
 90
       50
176
     0
 62
   256
176
     0
 40
1.0
176
     0
 90
        2
176
     0
  1
strokes_ogs.tif
176
     0
290
     0
176
     0
 40
1.0
176
     0
 40
1.0
176
     0
  0
VISUALSTYLE
  5
39
102
{ACAD_REACTORS
330
2A
102
}
330
2A
100
AcDbVisualStyle
  2
Facepattern
 70
    15
177
     3
291
     1
 70
    58
 90
        2
176
     1
 90
        2
176
     1
 90
        0
176
     1
 90
        0
176
     1
 40
0.6
176
     1
 40
30.0
176
     1
 62
     7
420
 16777215
176
     1
 90
        1
176
     1
 90
        4
176
     1
 62
     7
176
     1
 62
   257
176
     1
 90
        1
176
     1
 90
        1
176
     1
 40
1.0
176
     1
 90
        8
176
     1
 62
     7
176
     1
 40
1.0
176
     1
 90
        1
176
     1
 90
        6
176
     1
 90
        2
176
     1
 62
     7
176
     1
 90
        5
176
     1
 90
        0
176
     1
 90
        0
176
     1
290
     0
176
     1
 90
        1
176
     1
 40
0.0
176
     1
 90
        0
176
     1
290
     0
176
     1
290
     1
176
     1
290
     1
176
     1
290
     0
176
     1
290
     0
176
     1
290
     0
176
     1
290
     0
176
     1
290
     0
176
     1
290
     0
176
     1
 90
       50
176
     1
 40
0.0
176
     1
 40
1.0
176
     1
 90
        0
176
     1
 62
    18
420
        0
176
     1
 90
       50
176
     1
 90
        3
176
     1
 62
     5
420
      255
176
     1
290
     0
176
     1
 90
       50
176
     1
 90
       50
176
     1
 90
       50
176
     1
290
     0
176
     1
 90
       50
176
     1
 62
   256
176
     0
 40
1.0
176
     0
 90
        2
176
     1
  1
strokes_ogs.tif
176
     1
290
     0
176
     1
 40
1.0
176
     1
 40
1.0
176
     1
  0
VISUALSTYLE
  5
2B
102
{ACAD_REACTORS
330
2A
102
}
330
2A
100
AcDbVisualStyle
  2
Flat
 70
     0
177
     3
291
     1
 70
    58
 90
        2
176
     1
 90
        1
176
     1
 90
        1
176
     1
 90
        2
176
     1
 40
0.6
176
     1
 40
30.0
176
     1
 62
     7
420
 16777215
176
     1
 90
        0
176
     1
 90
        0
176
     1
 62
     7
176
     1
 62
   257
176
     1
 90
        1
176
     1
 90
        1
176
     1
 40
1.0
176
     1
 90
        8
176
     1
 62
     7
176
     1
 40
1.0
176
     1
 90
        1
176
     1
 90
        6
176
     1
 90
        2
176
     1
 62
     7
176
     1
 90
        5
176
     1
 90
        0
176
     1
 90
        0
176
     1
290
     0
176
     1
 90
       13
176
     1
 40
0.0
176
     1
 90
        0
176
     1
290
     0
176
     1
290
     1
176
     1
290
     1
176
     1
290
     0
176
     1
290
     0
176
     1
290
     0
176
     1
290
     0
176
     1
290
     0
176
     1
290
     0
176
     1
 90
       50
176
     1
 40
0.0
176
     1
 40
1.0
176
     1
 90
        0
176
     1
 62
    18
420
        0
176
     1
 90
       50
176
     1
 90
        3
176
     1
 62
     5
420
      255
176
     1
290
     0
176
     1
 90
       50
176
     1
 90
       50
176
     1
 90
       50
176
     1
290
     0
176
     1
 90
       50
176
     1
 62
   256
176
     0
 40
1.0
176
     0
 90
        2
176
     1
  1
strokes_ogs.tif
176
     1
290
     0
176
     1
 40
1.0
176
     1
 40
1.0
176
     1
  0
VISUALSTYLE
  5
2C
102
{ACAD_REACTORS
330
2A
102
}
330
2A
100
AcDbVisualStyle
  2
FlatWithEdges
 70
     1
177
     3
291
     1
 70
    58
 90
        2
176
     1
 90
        1
176
     1
 90
        1
176
     1
 90
        2
176
     1
 40
0.6
176
     1
 40
30.0
176
     1
 62
     7
420
 16777215
176
     1
 90
        1
176
     1
 90
        0
176
     1
 62
     7
176
     1
 62
   257
176
     1
 90
        1
176
     1
 90
        1
176
     1
 40
1.0
176
     1
 90
        0
176
     1
 62
   257
176
     1
 40
1.0
176
     1
 90
        1
176
     1
 90
        6
176
     1
 90
        2
176
     1
 62
     7
176
     1
 90
        5
176
     1
 90
        0
176
     1
 90
        0
176
     1
290
     0
176
     1
 90
       13
176
     1
 40
0.0
176
     1
 90
        0
176
     1
290
     0
176
     1
290
     1
176
     1
290
     1
176
     1
290
     0
176
     1
290
     0
176
     1
290
     0
176
     1
290
     0
176
     1
290
     0
176
     1
290
     0
176
     1
 90
       50
176
     1
 40
0.0
176
     1
 40
1.0
176
     1
 90
        0
176
     1
 62
    18
420
        0
176
     1
 90
       50
176
     1
 90
        3
176
     1
 62
     5
420
      255
176
     1
290
     0
176
     1
 90
       50
176
     1
 90
       50
176
     1
 90
       50
176
     1
290
     0
176
     1
 90
       50
176
     1
 62
   256
176
     0
 40
1.0
176
     0
 90
        2
176
     1
  1
strokes_ogs.tif
176
     1
290
     0
176
     1
 40
1.0
176
     1
 40
1.0
176
     1
  0
VISUALSTYLE
  5
2D
102
{ACAD_REACTORS
330
2A
102
}
330
2A
100
AcDbVisualStyle
  2
Gouraud
 70
     2
177
     3
291
     1
 70
    58
 90
        2
176
     1
 90
        2
176
     1
 90
        1
176
     1
 90
        2
176
     1
 40
0.6
176
     1
 40
30.0
176
     1
 62
     7
420
 16777215
176
     1
 90
        0
176
     1
 90
        0
176
     1
 62
     7
176
     1
 62
   257
176
     1
 90
        1
176
     1
 90
        1
176
     1
 40
1.0
176
     1
 90
        0
176
     1
 62
     7
176
     1
 40
1.0
176
     1
 90
        1
176
     1
 90
        6
176
     1
 90
        2
176
     1
 62
     7
176
     1
 90
        5
176
     1
 90
        0
176
     1
 90
        0
176
     1
290
     0
176
     1
 90
       13
176
     1
 40
0.0
176
     1
 90
        0
176
     1
290
     0
176
     1
290
     1
176
     1
290
     1
176
     1
290
     0
176
     1
290
     0
176
     1
290
     0
176
     1
290
     0
176
     1
290
     0
176
     1
290
     0
176
     1
 90
       50
176
     1
 40
0.0
176
     1
 40
1.0
176
     1
 90
        0
176
     1
 62
    18
420
        0
176
     1
 90
       50
176
     1
 90
        3
176
     1
 62
     5
420
      255
176
     1
290
     0
176
     1
 90
       50
176
     1
 90
       50
176
     1
 90
       50
176
     1
290
     0
176
     1
 90
       50
176
     1
 62
   256
176
     0
 40
1.0
176
     0
 90
        2
176
     1
  1
strokes_ogs.tif
176
     1
290
     0
176
     1
 40
1.0
176
     1
 40
1.0
176
     1
  0
VISUALSTYLE
  5
2E
102
{ACAD_REACTORS
330
2A
102
}
330
2A
100
AcDbVisualStyle
  2
GouraudWithEdges
 70
     3
177
     3
291
     1
 70
    58
 90
        2
176
     1
 90
        2
176
     1
 90
        1
176
     1
 90
        2
176
     1
 40
0.6
176
     1
 40
30.0
176
     1
 62
     7
420
 16777215
176
     1
 90
        1
176
     1
 90
        0
176
     1
 62
     7
176
     1
 62
   257
176
     1
 90
        1
176
     1
 90
        1
176
     1
 40
1.0
176
     1
 90
        0
176
     1
 62
   257
176
     1
 40
1.0
176
     1
 90
        1
176
     1
 90
        6
176
     1
 90
        2
176
     1
 62
     7
176
     1
 90
        5
176
     1
 90
        0
176
     1
 90
        0
176
     1
290
     0
176
     1
 90
       13
176
     1
 40
0.0
176
     1
 90
        0
176
     1
290
     0
176
     1
290
     1
176
     1
290
     1
176
     1
290
     0
176
     1
290
     0
176
     1
290
     0
176
     1
290
     0
176
     1
290
     0
176
     1
290
     0
176
     1
 90
       50
176
     1
 40
0.0
176
     1
 40
1.0
176
     1
 90
        0
176
     1
 62
    18
420
        0
176
     1
 90
       50
176
     1
 90
        3
176
     1
 62
     5
420
      255
176
     1
290
     0
176
     1
 90
       50
176
     1
 90
       50
176
     1
 90
       50
176
     1
290
     0
176
     1
 90
       50
176
     1
 62
   256
176
     0
 40
1.0
176
     0
 90
        2
176
     1
  1
strokes_ogs.tif
176
     1
290
     0
176
     1
 40
1.0
176
     1
 40
1.0
176
     1
  0
VISUALSTYLE
  5
31
102
{ACAD_REACTORS
330
2A
102
}
330
2A
100
AcDbVisualStyle
  2
Hidden
 70
     6
177
     3
291
     0
 70
    58
 90
        1
176
     1
 90
        2
176
     1
 90
        2
176
     1
 90
        0
176
     1
 40
0.6
176
     1
 40
30.0
176
     1
 62
     7
420
 16777215
176
     1
 90
        2
176
     1
 90
        2
176
     1
 62
     7
176
     1
 62
   257
176
     1
 90
        2
176
     1
 90
        1
176
     1
 40
40.0
176
     1
 90
        0
176
     1
 62
   257
176
     1
 40
1.0
176
     1
 90
        1
176
     1
 90
        6
176
     1
 90
        2
176
     1
 62
     7
176
     1
 90
        3
176
     1
 90
        0
176
     1
 90
        0
176
     1
290
     0
176
     1
 90
        1
176
     1
 40
0.0
176
     1
 90
        0
176
     1
290
     0
176
     1
290
     1
176
     1
290
     1
176
     1
290
     0
176
     1
290
     0
176
     1
290
     0
176
     1
290
     0
176
     1
290
     0
176
     1
290
     0
176
     1
 90
       50
176
     1
 40
0.0
176
     1
 40
1.0
176
     1
 90
        0
176
     1
 62
    18
420
        0
176
     1
 90
       50
176
     1
 90
        3
176
     1
 62
     5
420
      255
176
     1
290
     0
176
     1
 90
       50
176
     1
 90
       50
176
     1
 90
       50
176
     1
290
     0
176
     1
 90
       50
176
     1
 62
   256
176
     0
 40
1.0
176
     0
 90
        2
176
     1
  1
strokes_ogs.tif
176
     1
290
     0
176
     1
 40
1.0
176
     1
 40
1.0
176
     1
  0
VISUALSTYLE
  5
3B
102
{ACAD_REACTORS
330
2A
102
}
330
2A
100
AcDbVisualStyle
  2
JitterOff
 70
    20
177
     3
291
     1
 70
    58
 90
        2
176
     0
 90
        2
176
     0
 90
        0
176
     0
 90
        0
176
     0
 40
0.6
176
     0
 40
30.0
176
     0
 62
     7
420
 16777215
176
     0
 90
        1
176
     0
 90
        4
176
     0
 62
     7
176
     0
 62
   257
176
     0
 90
        1
176
     0
 90
        1
176
     0
 40
1.0
176
     0
 90
       10
176
     2
 62
     7
176
     0
 40
1.0
176
     0
 90
        1
176
     0
 90
        6
176
     0
 90
        2
176
     0
 62
     7
176
     0
 90
        5
176
     0
 90
        0
176
     0
 90
        0
176
     0
290
     0
176
     0
 90
        1
176
     0
 40
0.0
176
     0
 90
        0
176
     0
290
     0
176
     0
290
     1
176
     0
290
     1
176
     0
290
     0
176
     0
290
     0
176
     0
290
     0
176
     0
290
     0
176
     0
290
     0
176
     0
290
     0
176
     0
 90
       50
176
     0
 40
0.0
176
     0
 40
1.0
176
     0
 90
        0
176
     0
 62
    18
420
        0
176
     0
 90
       50
176
     0
 90
        3
176
     0
 62
     5
420
      255
176
     0
290
     0
176
     0
 90
       50
176
     0
 90
       50
176
     0
 90
       50
176
     0
290
     0
176
     0
 90
       50
176
     0
 62
   256
176
     0
 40
1.0
176
     0
 90
        2
176
     0
  1
strokes_ogs.tif
176
     0
290
     0
176
     0
 40
1.0
176
     0
 40
1.0
176
     0
  0
VISUALSTYLE
  5
38
102
{ACAD_REACTORS
330
2A
102
}
330
2A
100
AcDbVisualStyle
  2
Linepattern
 70
    14
177
     3
291
     1
 70
    58
 90
        2
176
     1
 90
        2
176
     1
 90
        0
176
     1
 90
        0
176
     1
 40
0.6
176
     1
 40
30.0
176
     1
 62
     7
420
 16777215
176
     1
 90
        1
176
     1
 90
        4
176
     1
 62
     7
176
     1
 62
   257
176
     1
 90
        7
176
     1
 90
        7
176
     1
 40
1.0
176
     1
 90
        8
176
     1
 62
     7
176
     1
 40
1.0
176
     1
 90
        1
176
     1
 90
        6
176
     1
 90
        2
176
     1
 62
     7
176
     1
 90
        5
176
     1
 90
        0
176
     1
 90
        0
176
     1
290
     0
176
     1
 90
        1
176
     1
 40
0.0
176
     1
 90
        0
176
     1
290
     0
176
     1
290
     1
176
     1
290
     1
176
     1
290
     0
176
     1
290
     0
176
     1
290
     0
176
     1
290
     0
176
     1
290
     0
176
     1
290
     0
176
     1
 90
       50
176
     1
 40
0.0
176
     1
 40
1.0
176
     1
 90
        0
176
     1
 62
    18
420
        0
176
     1
 90
       50
176
     1
 90
        3
176
     1
 62
     5
420
      255
176
     1
290
     0
176
     1
 90
       50
176
     1
 90
       50
176
     1
 90
       50
176
     1
290
     0
176
     1
 90
       50
176
     1
 62
   256
176
     0
 40
1.0
176
     0
 90
        2
176
     1
  1
strokes_ogs.tif
176
     1
290
     0
176
     1
 40
1.0
176
     1
 40
1.0
176
     1
  0
VISUALSTYLE
  5
3C
102
{ACAD_REACTORS
330
2A
102
}
330
2A
100
AcDbVisualStyle
  2
OverhangOff
 70
    21
177
     3
291
     1
 70
    58
 90
        2
176
     0
 90
        2
176
     0
 90
        0
176
     0
 90
        0
176
     0
 40
0.6
176
     0
 40
30.0
176
     0
 62
     7
420
 16777215
176
     0
 90
        1
176
     0
 90
        4
176
     0
 62
     7
176
     0
 62
   257
176
     0
 90
        1
176
     0
 90
        1
176
     0
 40
1.0
176
     0
 90
        9
176
     2
 62
     7
176
     0
 40
1.0
176
     0
 90
        1
176
     0
 90
        6
176
     0
 90
        2
176
     0
 62
     7
176
     0
 90
        5
176
     0
 90
        0
176
     0
 90
        0
176
     0
290
     0
176
     0
 90
        1
176
     0
 40
0.0
176
     0
 90
        0
176
     0
290
     0
176
     0
290
     1
176
     0
290
     1
176
     0
290
     0
176
     0
290
     0
176
     0
290
     0
176
     0
290
     0
176
     0
290
     0
176
     0
290
     0
176
     0
 90
       50
176
     0
 40
0.0
176
     0
 40
1.0
176
     0
 90
        0
176
     0
 62
    18
420
        0
176
     0
 90
       50
176
     0
 90
        3
176
     0
 62
     5
420
      255
176
     0
290
     0
176
     0
 90
       50
176
     0
 90
       50
176
     0
 90
       50
176
     0
290
     0
176
     0
 90
       50
176
     0
 62
   256
176
     0
 40
1.0
176
     0
 90
        2
176
     0
  1
strokes_ogs.tif
176
     0
290
     0
176
     0
 40
1.0
176
     0
 40
1.0
176
     0
  0
VISUALSTYLE
  5
33
102
{ACAD_REACTORS
330
2A
102
}
330
2A
100
AcDbVisualStyle
  2
Realistic
 70
     8
177
     3
291
     0
 70
    58
 90
        2
176
     1
 90
        3
176
     1
 90
        0
176
     1
 90
        2
176
     1
 40
0.6
176
     1
 40
30.0
176
     1
 62
     7
420
 16777215
176
     1
 90
        0
176
     1
 90
        0
176
     1
 62
     7
176
     1
 62
   257
176
     1
 90
        1
176
     1
 90
        1
176
     1
 40
1.0
176
     1
 90
        8
176
     1
 62
   257
176
     1
 40
1.0
176
     1
 90
        1
176
     1
 90
        6
176
     1
 90
        2
176
     1
 62
     7
176
     1
 90
        3
176
     1
 90
        0
176
     1
 90
        0
176
     1
290
     0
176
     1
 90
       13
176
     1
 40
0.0
176
     1
 90
        0
176
     1
290
     0
176
     1
290
     1
176
     1
290
     1
176
     1
290
     0
176
     1
290
     0
176
     1
290
     0
176
     1
290
     0
176
     1
290
     0
176
     1
290
     0
176
     1
 90
       50
176
     1
 40
0.0
176
     1
 40
1.0
176
     1
 90
        0
176
     1
 62
    18
420
        0
176
     1
 90
       50
176
     1
 90
        3
176
     1
 62
     5
420
      255
176
     1
290
     0
176
     1
 90
       50
176
     1
 90
       50
176
     1
 90
       50
176
     1
290
     0
176
     1
 90
       50
176
     1
 62
   256
176
     0
 40
1.0
176
     0
 90
        2
176
     1
  1
strokes_ogs.tif
176
     1
290
     0
176
     1
 40
1.0
176
     1
 40
1.0
176
     1
  0
VISUALSTYLE
  5
42
102
{ACAD_REACTORS
330
2A
102
}
330
2A
100
AcDbVisualStyle
  2
Shaded
 70
    27
177
     3
291
     0
 70
    58
 90
        2
176
     1
 90
        2
176
     1
 90
        1
176
     1
 90
        2
176
     1
 40
0.6
176
     1
 40
30.0
176
     1
 62
     7
420
 16777215
176
     1
 90
        0
176
     1
 90
        4
176
     1
 62
     7
176
     1
 62
   257
176
     1
 90
        1
176
     1
 90
        1
176
     1
 40
1.0
176
     1
 90
        8
176
     1
 62
   257
176
     1
 40
1.0
176
     1
 90
        1
176
     1
 90
        6
176
     1
 90
        2
176
     1
 62
     8
420
  7895160
176
     1
 90
        3
176
     1
 90
        0
176
     1
 90
        0
176
     1
290
     0
176
     1
 90
        5
176
     1
 40
0.0
176
     1
 90
        0
176
     1
290
     0
176
     1
290
     1
176
     1
290
     1
176
     1
290
     0
176
     1
290
     0
176
     1
290
     0
176
     1
290
     0
176
     1
290
     0
176
     1
290
     0
176
     1
 90
       50
176
     1
 40
0.0
176
     1
 40
1.0
176
     1
 90
        0
176
     1
 62
    18
420
        0
176
     1
 90
       50
176
     1
 90
        3
176
     1
 62
     5
420
      255
176
     1
290
     0
176
     1
 90
       50
176
     1
 90
       50
176
     1
 90
       50
176
     1
290
     0
176
     1
 90
       50
176
     1
 62
   256
176
     0
 40
1.0
176
     0
 90
        2
176
     1
  1
strokes_ogs.tif
176
     1
290
     0
176
     1
 40
1.0
176
     1
 40
1.0
176
     1
  0
VISUALSTYLE
  5
41
102
{ACAD_REACTORS
330
2A
102
}
330
2A
100
AcDbVisualStyle
  2
Shaded with edges
 70
    26
177
     3
291
     0
 70
    58
 90
        2
176
     1
 90
        2
176
     1
 90
        1
176
     1
 90
        2
176
     1
 40
0.6
176
     1
 40
30.0
176
     1
 62
     7
420
 16777215
176
     1
 90
        1
176
     1
 90
       10
176
     1
 62
     7
176
     1
 62
   257
176
     1
 90
        2
176
     1
 90
        1
176
     1
 40
1.0
176
     1
 90
        8
176
     1
 62
   257
176
     1
 40
1.0
176
     1
 90
        1
176
     1
 90
        6
176
     1
 90
        2
176
     1
 62
     7
176
     1
 90
        3
176
     1
 90
        0
176
     1
 90
        0
176
     1
290
     0
176
     1
 90
        5
176
     1
 40
0.0
176
     1
 90
        0
176
     1
290
     0
176
     1
290
     1
176
     1
290
     1
176
     1
290
     0
176
     1
290
     0
176
     1
290
     0
176
     1
290
     0
176
     1
290
     0
176
     1
290
     0
176
     1
 90
       50
176
     1
 40
0.0
176
     1
 40
1.0
176
     1
 90
        0
176
     1
 62
    18
420
        0
176
     1
 90
       50
176
     1
 90
        3
176
     1
 62
     5
420
      255
176
     1
290
     0
176
     1
 90
       50
176
     1
 90
       50
176
     1
 90
       50
176
     1
290
     0
176
     1
 90
       50
176
     1
 62
   256
176
     0
 40
1.0
176
     0
 90
        2
176
     1
  1
strokes_ogs.tif
176
     1
290
     0
176
     1
 40
1.0
176
     1
 40
1.0
176
     1
  0
VISUALSTYLE
  5
3E
102
{ACAD_REACTORS
330
2A
102
}
330
2A
100
AcDbVisualStyle
  2
Shades of Gray
 70
    23
177
     3
291
     0
 70
    58
 90
        2
176
     1
 90
        2
176
     1
 90
        3
176
     1
 90
        0
176
     1
 40
0.6
176
     1
 40
30.0
176
     1
 62
     7
420
 16777215
176
     1
 90
        2
176
     1
 90
        2
176
     1
 62
     7
176
     1
 62
     7
176
     1
 90
        1
176
     1
 90
        1
176
     1
 40
40.0
176
     1
 90
        8
176
     1
 62
     7
176
     1
 40
1.0
176
     1
 90
        1
176
     1
 90
        6
176
     1
 90
        2
176
     1
 62
     7
176
     1
 90
        3
176
     1
 90
        0
176
     1
 90
        0
176
     1
290
     0
176
     1
 90
        1
176
     1
 40
0.0
176
     1
 90
        0
176
     1
290
     0
176
     1
290
     1
176
     1
290
     1
176
     1
290
     0
176
     1
290
     0
176
     1
290
     0
176
     1
290
     0
176
     1
290
     0
176
     1
290
     0
176
     1
 90
       50
176
     1
 40
0.0
176
     1
 40
1.0
176
     1
 90
        0
176
     1
 62
    18
420
        0
176
     1
 90
       50
176
     1
 90
        3
176
     1
 62
     5
420
      255
176
     1
290
     0
176
     1
 90
       50
176
     1
 90
       50
176
     1
 90
       50
176
     1
290
     0
176
     1
 90
       50
176
     1
 62
   256
176
     0
 40
1.0
176
     0
 90
        2
176
     1
  1
strokes_ogs.tif
176
     1
290
     0
176
     1
 40
1.0
176
     1
 40
1.0
176
     1
  0
VISUALSTYLE
  5
3F
102
{ACAD_REACTORS
330
2A
102
}
330
2A
100
AcDbVisualStyle
  2
Sketchy
 70
    24
177
     3
291
     0
 70
    58
 90
        1
176
     1
 90
        2
176
     1
 90
        2
176
     1
 90
        0
176
     1
 40
0.6
176
     1
 40
30.0
176
     1
 62
     7
420
 16777215
176
     1
 90
        2
176
     1
 90
        2
176
     1
 62
     7
176
     1
 62
     7
176
     1
 90
        1
176
     1
 90
        1
176
     1
 40
40.0
176
     1
 90
       11
176
     1
 62
     7
176
     1
 40
1.0
176
     1
 90
        1
176
     1
 90
        6
176
     1
 90
        2
176
     1
 62
     7
176
     1
 90
        6
176
     1
 90
        0
176
     1
 90
        0
176
     1
290
     0
176
     1
 90
        1
176
     1
 40
0.0
176
     1
 90
        0
176
     1
290
     0
176
     1
290
     1
176
     1
290
     1
176
     1
290
     0
176
     1
290
     0
176
     1
290
     0
176
     1
290
     0
176
     1
290
     0
176
     1
290
     0
176
     1
 90
       50
176
     1
 40
0.0
176
     1
 40
1.0
176
     1
 90
        0
176
     1
 62
    18
420
        0
176
     1
 90
       50
176
     1
 90
        3
176
     1
 62
     5
420
      255
176
     1
290
     0
176
     1
 90
       50
176
     1
 90
       50
176
     1
 90
       50
176
     1
290
     0
176
     1
 90
       50
176
     1
 62
   256
176
     0
 40
1.0
176
     0
 90
        2
176
     1
  1
strokes_ogs.tif
176
     1
290
     0
176
     1
 40
1.0
176
     1
 40
1.0
176
     1
  0
VISUALSTYLE
  5
37
102
{ACAD_REACTORS
330
2A
102
}
330
2A
100
AcDbVisualStyle
  2
Thicken
 70
    13
177
     3
291
     1
 70
    58
 90
        2
176
     1
 90
        2
176
     1
 90
        0
176
     1
 90
        0
176
     1
 40
0.6
176
     1
 40
30.0
176
     1
 62
     7
420
 16777215
176
     1
 90
        1
176
     1
 90
        4
176
     1
 62
     7
176
     1
 62
   257
176
     1
 90
        1
176
     1
 90
        1
176
     1
 40
1.0
176
     1
 90
       12
176
     1
 62
     7
176
     1
 40
1.0
176
     1
 90
        1
176
     1
 90
        6
176
     1
 90
        2
176
     1
 62
     7
176
     1
 90
        5
176
     1
 90
        0
176
     1
 90
        0
176
     1
290
     0
176
     1
 90
        1
176
     1
 40
0.0
176
     1
 90
        0
176
     1
290
     0
176
     1
290
     1
176
     1
290
     1
176
     1
290
     0
176
     1
290
     0
176
     1
290
     0
176
     1
290
     0
176
     1
290
     0
176
     1
290
     0
176
     1
 90
       50
176
     1
 40
0.0
176
     1
 40
1.0
176
     1
 90
        0
176
     1
 62
    18
420
        0
176
     1
 90
       50
176
     1
 90
        3
176
     1
 62
     5
420
      255
176
     1
290
     0
176
     1
 90
       50
176
     1
 90
       50
176
     1
 90
       50
176
     1
290
     0
176
     1
 90
       50
176
     1
 62
   256
176
     0
 40
1.0
176
     0
 90
        2
176
     1
  1
strokes_ogs.tif
176
     1
290
     0
176
     1
 40
1.0
176
     1
 40
1.0
176
     1
  0
VISUALSTYLE
  5
30
102
{ACAD_REACTORS
330
2A
102
}
330
2A
100
AcDbVisualStyle
  2
Wireframe
 70
     5
177
     3
291
     0
 70
    58
 90
        0
176
     1
 90
        2
176
     1
 90
        0
176
     1
 90
        0
176
     1
 40
0.6
176
     1
 40
30.0
176
     1
 62
     7
420
 16777215
176
     1
 90
        1
176
     1
 90
        4
176
     1
 62
     7
176
     1
 62
   257
176
     1
 90
        1
176
     1
 90
        1
176
     1
 40
1.0
176
     1
 90
        0
176
     1
 62
   257
176
     1
 40
1.0
176
     1
 90
        1
176
     1
 90
        6
176
     1
 90
        2
176
     1
 62
     7
176
     1
 90
        3
176
     1
 90
        0
176
     1
 90
        0
176
     1
290
     0
176
     1
 90
        1
176
     1
 40
0.0
176
     1
 90
        0
176
     1
290
     0
176
     1
290
     1
176
     1
290
     1
176
     1
290
     0
176
     1
290
     0
176
     1
290
     0
176
     1
290
     0
176
     1
290
     0
176
     1
290
     0
176
     1
 90
       50
176
     1
 40
0.0
176
     1
 40
1.0
176
     1
 90
        0
176
     1
 62
    18
420
        0
176
     1
 90
       50
176
     1
 90
        3
176
     1
 62
     5
420
      255
176
     1
290
     0
176
     1
 90
       50
176
     1
 90
       50
176
     1
 90
       50
176
     1
290
     0
176
     1
 90
       50
176
     1
 62
   256
176
     0
 40
1.0
176
     0
 90
        2
176
     1
  1
strokes_ogs.tif
176
     1
290
     0
176
     1
 40
1.0
176
     1
 40
1.0
176
     1
  0
VISUALSTYLE
  5
40
102
{ACAD_REACTORS
330
2A
102
}
330
2A
100
AcDbVisualStyle
  2
X-Ray
 70
    25
177
     3
291
     0
 70
    58
 90
        2
176
     1
 90
        2
176
     1
 90
        1
176
     1
 90
        1
176
     1
 40
0.5
176
     1
 40
30.0
176
     1
 62
     7
420
 16777215
176
     1
 90
        1
176
     1
 90
        0
176
     1
 62
     7
176
     1
 62
   257
176
     1
 90
        1
176
     1
 90
        1
176
     1
 40
1.0
176
     1
 90
        8
176
     1
 62
     7
176
     1
 40
1.0
176
     1
 90
        1
176
     1
 90
        6
176
     1
 90
        2
176
     1
 62
     7
176
     1
 90
        3
176
     1
 90
        0
176
     1
 90
        0
176
     1
290
     0
176
     1
 90
       13
176
     1
 40
0.0
176
     1
 90
        0
176
     1
290
     0
176
     1
290
     1
176
     1
290
     1
176
     1
290
     0
176
     1
290
     0
176
     1
290
     0
176
     1
290
     0
176
     1
290
     0
176
     1
290
     0
176
     1
 90
       50
176
     1
 40
0.0
176
     1
 40
1.0
176
     1
 90
        0
176
     1
 62
    18
420
        0
176
     1
 90
       50
176
     1
 90
        3
176
     1
 62
     5
420
      255
176
     1
290
     0
176
     1
 90
       50
176
     1
 90
       50
176
     1
 90
       50
176
     1
290
     0
176
     1
 90
       50
176
     1
 62
   256
176
     0
 40
1.0
176
     0
 90
        2
176
     1
  1
strokes_ogs.tif
176
     1
290
     0
176
     1
 40
1.0
176
     1
 40
1.0
176
     1
  0
DICTIONARYVAR
  5
21E
102
{ACAD_REACTORS
330
21D
102
}
330
21D
100
DictionaryVariables
280
     0
  1
1:1
  0
DICTIONARYVAR
  5
223
102
{ACAD_REACTORS
330
21D
102
}
330
21D
100
DictionaryVariables
280
     0
  1
Standard
  0
DICTIONARYVAR
  5
222
102
{ACAD_REACTORS
330
21D
102
}
330
21D
100
DictionaryVariables
280
     0
  1
Standard
  0
DICTIONARY
  5
21F
330
6A
100
AcDbDictionary
280
     1
281
     1
  3
ACAD_ROUNDTRIP_2008_TABLESTYLE_CELLSTYLEMAP
360
220
  0
CELLSTYLEMAP
  5
220
102
{ACAD_REACTORS
330
21F
102
}
330
21F
100
AcDbCellStyleMap
 90
        3
300
CELLSTYLE
  1
TABLEFORMAT_BEGIN
 90
        5
170
     1
 91
        0
 92
    32768
 62
   257
 93
        1
300
CONTENTFORMAT
  1
CONTENTFORMAT_BEGIN
 90
        0
 91
        0
 92
        4
 93
        0
300

 40
0.0
140
1.0
 94
        5
 62
     0
340
11
144
0.25
309
CONTENTFORMAT_END
171
     1
301
MARGIN
  1
CELLMARGIN_BEGIN
 40
0.06
 40
0.06
 40
0.06
 40
0.06
 40
0.06
 40
0.06
309
CELLMARGIN_END
 94
        6
 95
        1
302
GRIDFORMAT
  1
GRIDFORMAT_BEGIN
 90
        0
 91
        1
 62
     0
 92
       -2
340
14
 93
        0
 40
0.045
309
GRIDFORMAT_END
 95
        2
302
GRIDFORMAT
  1
GRIDFORMAT_BEGIN
 90
        0
 91
        1
 62
     0
 92
       -2
340
14
 93
        0
 40
0.045
309
GRIDFORMAT_END
 95
        4
302
GRIDFORMAT
  1
GRIDFORMAT_BEGIN
 90
        0
 91
        1
 62
     0
 92
       -2
340
14
 93
        0
 40
0.045
309
GRIDFORMAT_END
 95
        8
302
GRIDFORMAT
  1
GRIDFORMAT_BEGIN
 90
        0
 91
        1
 62
     0
 92
       -2
340
14
 93
        0
 40
0.045
309
GRIDFORMAT_END
 95
       16
302
GRIDFORMAT
  1
GRIDFORMAT_BEGIN
 90
        0
 91
        1
 62
     0
 92
       -2
340
14
 93
        0
 40
0.045
309
GRIDFORMAT_END
 95
       32
302
GRIDFORMAT
  1
GRIDFORMAT_BEGIN
 90
        0
 91
        1
 62
     0
 92
       -2
340
14
 93
        0
 40
0.045
309
GRIDFORMAT_END
309
TABLEFORMAT_END
  1
CELLSTYLE_BEGIN
 90
        1
 91
        1
300
_TITLE
309
CELLSTYLE_END
300
CELLSTYLE
  1
TABLEFORMAT_BEGIN
 90
        5
170
     1
 91
        0
 92
        0
 62
   257
 93
        1
300
CONTENTFORMAT
  1
CONTENTFORMAT_BEGIN
 90
        0
 91
        0
 92
        4
 93
        0
300

 40
0.0
140
1.0
 94
        5
 62
     0
340
11
144
0.18
309
CONTENTFORMAT_END
171
     1
301
MARGIN
  1
CELLMARGIN_BEGIN
 40
0.06
 40
0.06
 40
0.06
 40
0.06
 40
0.06
 40
0.06
309
CELLMARGIN_END
 94
        6
 95
        1
302
GRIDFORMAT
  1
GRIDFORMAT_BEGIN
 90
        0
 91
        1
 62
     0
 92
       -2
340
14
 93
        0
 40
0.045
309
GRIDFORMAT_END
 95
        2
302
GRIDFORMAT
  1
GRIDFORMAT_BEGIN
 90
        0
 91
        1
 62
     0
 92
       -2
340
14
 93
        0
 40
0.045
309
GRIDFORMAT_END
 95
        4
302
GRIDFORMAT
  1
GRIDFORMAT_BEGIN
 90
        0
 91
        1
 62
     0
 92
       -2
340
14
 93
        0
 40
0.045
309
GRIDFORMAT_END
 95
        8
302
GRIDFORMAT
  1
GRIDFORMAT_BEGIN
 90
        0
 91
        1
 62
     0
 92
       -2
340
14
 93
        0
 40
0.045
309
GRIDFORMAT_END
 95
       16
302
GRIDFORMAT
  1
GRIDFORMAT_BEGIN
 90
        0
 91
        1
 62
     0
 92
       -2
340
14
 93
        0
 40
0.045
309
GRIDFORMAT_END
 95
       32
302
GRIDFORMAT
  1
GRIDFORMAT_BEGIN
 90
        0
 91
        1
 62
     0
 92
       -2
340
14
 93
        0
 40
0.045
309
GRIDFORMAT_END
309
TABLEFORMAT_END
  1
CELLSTYLE_BEGIN
 90
        2
 91
        1
300
_HEADER
309
CELLSTYLE_END
300
CELLSTYLE
  1
TABLEFORMAT_BEGIN
 90
        5
170
     1
 91
        0
 92
        0
 62
   257
 93
        1
300
CONTENTFORMAT
  1
CONTENTFORMAT_BEGIN
 90
        0
 91
        0
 92
        4
 93
        0
300

 40
0.0
140
1.0
 94
        2
 62
     0
340
11
144
0.18
309
CONTENTFORMAT_END
171
     1
301
MARGIN
  1
CELLMARGIN_BEGIN
 40
0.06
 40
0.06
 40
0.06
 40
0.06
 40
0.06
 40
0.06
309
CELLMARGIN_END
 94
        6
 95
        1
302
GRIDFORMAT
  1
GRIDFORMAT_BEGIN
 90
        0
 91
        1
 62
     0
 92
       -2
340
14
 93
        0
 40
0.045
309
GRIDFORMAT_END
 95
        2
302
GRIDFORMAT
  1
GRIDFORMAT_BEGIN
 90
        0
 91
        1
 62
     0
 92
       -2
340
14
 93
        0
 40
0.045
309
GRIDFORMAT_END
 95
        4
302
GRIDFORMAT
  1
GRIDFORMAT_BEGIN
 90
        0
 91
        1
 62
     0
 92
       -2
340
14
 93
        0
 40
0.045
309
GRIDFORMAT_END
 95
        8
302
GRIDFORMAT
  1
GRIDFORMAT_BEGIN
 90
        0
 91
        1
 62
     0
 92
       -2
340
14
 93
        0
 40
0.045
309
GRIDFORMAT_END
 95
       16
302
GRIDFORMAT
  1
GRIDFORMAT_BEGIN
 90
        0
 91
        1
 62
     0
 92
       -2
340
14
 93
        0
 40
0.045
309
GRIDFORMAT_END
 95
       32
302
GRIDFORMAT
  1
GRIDFORMAT_BEGIN
 90
        0
 91
        1
 62
     0
 92
       -2
340
14
 93
        0
 40
0.045
309
GRIDFORMAT_END
309
TABLEFORMAT_END
  1
CELLSTYLE_BEGIN
 90
        3
 91
        2
300
_DATA
309
CELLSTYLE_END
  0
ENDSEC
  0
EOF