0
SECTION
  2
HEADER
  9
$ACADVER
  1
AC1027
  9
$ACADMAINTVER
 70
     8
  9
$DWGCODEPAGE
  3
ANSI_1252
  9
$REQUIREDVERSIONS
160
                 0
  9
$COMMENTS
  1
File was created by Cadenas
  9
$CUSTOMPROPERTYTAG
  1
NN
  9
$CUSTOMPROPERTY
  1
Set Screw Medium Duty Wide Slot Take Up Inch Bore
  9
$CUSTOMPROPERTYTAG
  1
NT
  9
$CUSTOMPROPERTY
  1
SC Take-Up Bearings -Wide Slot -(Medium Duty)
  9
$CUSTOMPROPERTYTAG
  1
NB
  9
$CUSTOMPROPERTY
  1
135118
  9
$CUSTOMPROPERTYTAG
  1
NBSYN
  9
$CUSTOMPROPERTY
  1
$PN.
  9
$CUSTOMPROPERTYTAG
  1
LINA
  9
$CUSTOMPROPERTY
  1
135118
  9
$CUSTOMPROPERTYTAG
  1
SERIES
  9
$CUSTOMPROPERTY
  1
207
  9
$CUSTOMPROPERTYTAG
  1
SS
  9
$CUSTOMPROPERTY
  1
1-3/16
  9
$CUSTOMPROPERTYTAG
  1
PN
  9
$CUSTOMPROPERTY
  1
135118
  9
$CUSTOMPROPERTYTAG
  1
DESCRIPTION
  9
$CUSTOMPROPERTY
  1
WSTU-SCM-103
  9
$CUSTOMPROPERTYTAG
  1
W
  9
$CUSTOMPROPERTY
  1
3.9
  9
$CUSTOMPROPERTYTAG
  1
FS
  9
$CUSTOMPROPERTY
  1
WS308
  9
$CUSTOMPROPERTYTAG
  1
LF
  9
$CUSTOMPROPERTY
  1
RE-LUBE
  9
$CUSTOMPROPERTYTAG
  1
A
  9
$CUSTOMPROPERTY
  1
1.71
  9
$CUSTOMPROPERTYTAG
  1
B
  9
$CUSTOMPROPERTY
  1
4.87
  9
$CUSTOMPROPERTYTAG
  1
C
  9
$CUSTOMPROPERTY
  1
0.531
  9
$CUSTOMPROPERTYTAG
  1
D
  9
$CUSTOMPROPERTY
  1
2.50
  9
$CUSTOMPROPERTYTAG
  1
E
  9
$CUSTOMPROPERTY
  1
3.06
  9
$CUSTOMPROPERTYTAG
  1
F
  9
$CUSTOMPROPERTY
  1
3/4
  9
$CUSTOMPROPERTYTAG
  1
G
  9
$CUSTOMPROPERTY
  1
0.50
  9
$CUSTOMPROPERTYTAG
  1
H
  9
$CUSTOMPROPERTY
  1
0.63
  9
$CUSTOMPROPERTYTAG
  1
J
  9
$CUSTOMPROPERTY
  1
2.50
  9
$CUSTOMPROPERTYTAG
  1
K
  9
$CUSTOMPROPERTY
  1
1.44
  9
$CUSTOMPROPERTYTAG
  1
L
  9
$CUSTOMPROPERTY
  1
1.84
  9
$CUSTOMPROPERTYTAG
  1
M
  9
$CUSTOMPROPERTY
  1
3.480 / 3.510
  9
$CUSTOMPROPERTYTAG
  1
N
  9
$CUSTOMPROPERTY
  1
4.13
  9
$CUSTOMPROPERTYTAG
  1
R
  9
$CUSTOMPROPERTY
  1
0.67
  9
$CUSTOMPROPERTYTAG
  1
S
  9
$CUSTOMPROPERTY
  1
1.04
  9
$CUSTOMPROPERTYTAG
  1
T
  9
$CUSTOMPROPERTY
  1
1.63
  9
$CUSTOMPROPERTYTAG
  1
COMPANY
  9
$CUSTOMPROPERTY
  1
baldor
  9
$INSBASE
 10
0.0
 20
0.0
 30
0.0
  9
$EXTMIN
 10
1.000000000000000E+20
 20
1.000000000000000E+20
 30
1.000000000000000E+20
  9
$EXTMAX
 10
-1.000000000000000E+20
 20
-1.000000000000000E+20
 30
-1.000000000000000E+20
  9
$LIMMIN
 10
0.0
 20
0.0
  9
$LIMMAX
 10
12.0
 20
9.0
  9
$ORTHOMODE
 70
     0
  9
$REGENMODE
 70
     1
  9
$FILLMODE
 70
     1
  9
$QTEXTMODE
 70
     0
  9
$MIRRTEXT
 70
     1
  9
$LTSCALE
 40
1.0
  9
$ATTMODE
 70
     1
  9
$TEXTSIZE
 40
0.2
  9
$TRACEWID
 40
0.05
  9
$TEXTSTYLE
  7
Standard
  9
$CLAYER
  8
0
  9
$CELTYPE
  6
ByLayer
  9
$CECOLOR
 62
   256
  9
$CELTSCALE
 40
1.0
  9
$DISPSILH
 70
     0
  9
$DIMSCALE
 40
1.0
  9
$DIMASZ
 40
0.18
  9
$DIMEXO
 40
0.0625
  9
$DIMDLI
 40
0.38
  9
$DIMRND
 40
0.0
  9
$DIMDLE
 40
0.0
  9
$DIMEXE
 40
0.18
  9
$DIMTP
 40
0.0
  9
$DIMTM
 40
0.0
  9
$DIMTXT
 40
0.18
  9
$DIMCEN
 40
0.09
  9
$DIMTSZ
 40
0.0
  9
$DIMTOL
 70
     0
  9
$DIMLIM
 70
     0
  9
$DIMTIH
 70
     1
  9
$DIMTOH
 70
     1
  9
$DIMSE1
 70
     0
  9
$DIMSE2
 70
     0
  9
$DIMTAD
 70
     0
  9
$DIMZIN
 70
     0
  9
$DIMBLK
  1

  9
$DIMASO
 70
     1
  9
$DIMSHO
 70
     1
  9
$DIMPOST
  1

  9
$DIMAPOST
  1

  9
$DIMALT
 70
     0
  9
$DIMALTD
 70
     2
  9
$DIMALTF
 40
25.4
  9
$DIMLFAC
 40
1.0
  9
$DIMTOFL
 70
     0
  9
$DIMTVP
 40
0.0
  9
$DIMTIX
 70
     0
  9
$DIMSOXD
 70
     0
  9
$DIMSAH
 70
     0
  9
$DIMBLK1
  1

  9
$DIMBLK2
  1

  9
$DIMSTYLE
  2
Standard
  9
$DIMCLRD
 70
     0
  9
$DIMCLRE
 70
     0
  9
$DIMCLRT
 70
     0
  9
$DIMTFAC
 40
1.0
  9
$DIMGAP
 40
0.09
  9
$DIMJUST
 70
     0
  9
$DIMSD1
 70
     0
  9
$DIMSD2
 70
     0
  9
$DIMTOLJ
 70
     1
  9
$DIMTZIN
 70
     0
  9
$DIMALTZ
 70
     0
  9
$DIMALTTZ
 70
     0
  9
$DIMUPT
 70
     0
  9
$DIMDEC
 70
     4
  9
$DIMTDEC
 70
     4
  9
$DIMALTU
 70
     2
  9
$DIMALTTD
 70
     2
  9
$DIMTXSTY
  7
Standard
  9
$DIMAUNIT
 70
     0
  9
$DIMADEC
 70
     0
  9
$DIMALTRND
 40
0.0
  9
$DIMAZIN
 70
     0
  9
$DIMDSEP
 70
    46
  9
$DIMATFIT
 70
     3
  9
$DIMFRAC
 70
     0
  9
$DIMLDRBLK
  1

  9
$DIMLUNIT
 70
     2
  9
$DIMLWD
 70
    -2
  9
$DIMLWE
 70
    -2
  9
$DIMTMOVE
 70
     0
  9
$DIMFXL
 40
1.0
  9
$DIMFXLON
 70
     0
  9
$DIMJOGANG
 40
0.7853981633974483
  9
$DIMTFILL
 70
     0
  9
$DIMTFILLCLR
 70
     0
  9
$DIMARCSYM
 70
     0
  9
$DIMLTYPE
  6

  9
$DIMLTEX1
  6

  9
$DIMLTEX2
  6

  9
$DIMTXTDIRECTION
 70
     0
  9
$LUNITS
 70
     2
  9
$LUPREC
 70
     4
  9
$SKETCHINC
 40
0.1
  9
$FILLETRAD
 40
0.5
  9
$AUNITS
 70
     0
  9
$AUPREC
 70
     0
  9
$MENU
  1
.
  9
$ELEVATION
 40
0.0
  9
$PELEVATION
 40
0.0
  9
$THICKNESS
 40
0.0
  9
$LIMCHECK
 70
     0
  9
$CHAMFERA
 40
0.0
  9
$CHAMFERB
 40
0.0
  9
$CHAMFERC
 40
0.0
  9
$CHAMFERD
 40
0.0
  9
$SKPOLY
 70
     0
  9
$TDCREATE
 40
2458168.968819201
  9
$TDUCREATE
 40
2458168.927152535
  9
$TDUPDATE
 40
2458168.968819387
  9
$TDUUPDATE
 40
2458168.92715272
  9
$TDINDWG
 40
0.0000000116
  9
$TDUSRTIMER
 40
0.0000000116
  9
$USRTIMER
 70
     1
  9
$ANGBASE
 50
0.0
  9
$ANGDIR
 70
     0
  9
$PDMODE
 70
     0
  9
$PDSIZE
 40
0.0
  9
$PLINEWID
 40
0.0
  9
$SPLFRAME
 70
     0
  9
$SPLINETYPE
 70
     6
  9
$SPLINESEGS
 70
     8
  9
$HANDSEED
  5
1F2
  9
$SURFTAB1
 70
     6
  9
$SURFTAB2
 70
     6
  9
$SURFTYPE
 70
     6
  9
$SURFU
 70
     6
  9
$SURFV
 70
     6
  9
$UCSBASE
  2

  9
$UCSNAME
  2

  9
$UCSORG
 10
0.0
 20
0.0
 30
0.0
  9
$UCSXDIR
 10
1.0
 20
0.0
 30
0.0
  9
$UCSYDIR
 10
0.0
 20
1.0
 30
0.0
  9
$UCSORTHOREF
  2

  9
$UCSORTHOVIEW
 70
     0
  9
$UCSORGTOP
 10
0.0
 20
0.0
 30
0.0
  9
$UCSORGBOTTOM
 10
0.0
 20
0.0
 30
0.0
  9
$UCSORGLEFT
 10
0.0
 20
0.0
 30
0.0
  9
$UCSORGRIGHT
 10
0.0
 20
0.0
 30
0.0
  9
$UCSORGFRONT
 10
0.0
 20
0.0
 30
0.0
  9
$UCSORGBACK
 10
0.0
 20
0.0
 30
0.0
  9
$PUCSBASE
  2

  9
$PUCSNAME
  2

  9
$PUCSORG
 10
0.0
 20
0.0
 30
0.0
  9
$PUCSXDIR
 10
1.0
 20
0.0
 30
0.0
  9
$PUCSYDIR
 10
0.0
 20
1.0
 30
0.0
  9
$PUCSORTHOREF
  2

  9
$PUCSORTHOVIEW
 70
     0
  9
$PUCSORGTOP
 10
0.0
 20
0.0
 30
0.0
  9
$PUCSORGBOTTOM
 10
0.0
 20
0.0
 30
0.0
  9
$PUCSORGLEFT
 10
0.0
 20
0.0
 30
0.0
  9
$PUCSORGRIGHT
 10
0.0
 20
0.0
 30
0.0
  9
$PUCSORGFRONT
 10
0.0
 20
0.0
 30
0.0
  9
$PUCSORGBACK
 10
0.0
 20
0.0
 30
0.0
  9
$USERI1
 70
     0
  9
$USERI2
 70
     0
  9
$USERI3
 70
     0
  9
$USERI4
 70
     0
  9
$USERI5
 70
     0
  9
$USERR1
 40
0.0
  9
$USERR2
 40
0.0
  9
$USERR3
 40
0.0
  9
$USERR4
 40
0.0
  9
$USERR5
 40
0.0
  9
$WORLDVIEW
 70
     1
  9
$SHADEDGE
 70
     3
  9
$SHADEDIF
 70
    70
  9
$TILEMODE
 70
     1
  9
$MAXACTVP
 70
    64
  9
$PINSBASE
 10
0.0
 20
0.0
 30
0.0
  9
$PLIMCHECK
 70
     0
  9
$PEXTMIN
 10
1.000000000000000E+20
 20
1.000000000000000E+20
 30
1.000000000000000E+20
  9
$PEXTMAX
 10
-1.000000000000000E+20
 20
-1.000000000000000E+20
 30
-1.000000000000000E+20
  9
$PLIMMIN
 10
0.0
 20
0.0
  9
$PLIMMAX
 10
12.0
 20
9.0
  9
$UNITMODE
 70
     0
  9
$VISRETAIN
 70
     1
  9
$PLINEGEN
 70
     0
  9
$PSLTSCALE
 70
     1
  9
$TREEDEPTH
 70
  3020
  9
$CMLSTYLE
  2
Standard
  9
$CMLJUST
 70
     0
  9
$CMLSCALE
 40
1.0
  9
$PROXYGRAPHICS
 70
     1
  9
$MEASUREMENT
 70
     0
  9
$CELWEIGHT
370
    -1
  9
$ENDCAPS
280
     0
  9
$JOINSTYLE
280
     0
  9
$LWDISPLAY
290
     0
  9
$INSUNITS
 70
     1
  9
$HYPERLINKBASE
  1

  9
$STYLESHEET
  1

  9
$XEDIT
290
     1
  9
$CEPSNTYPE
380
     0
  9
$PSTYLEMODE
290
     1
  9
$FINGERPRINTGUID
  2
{421490E9-6AEF-43AB-BC56-8AF3B087E25A}
  9
$VERSIONGUID
  2
{FAEB1C32-E019-11D5-929B-00C0DF256EC4}
  9
$EXTNAMES
290
     1
  9
$PSVPSCALE
 40
0.0
  9
$OLESTARTUP
290
     0
  9
$SORTENTS
280
   127
  9
$INDEXCTL
280
     0
  9
$HIDETEXT
280
     1
  9
$XCLIPFRAME
280
     2
  9
$HALOGAP
280
     0
  9
$OBSCOLOR
 70
   257
  9
$OBSLTYPE
280
     0
  9
$INTERSECTIONDISPLAY
280
     0
  9
$INTERSECTIONCOLOR
 70
   257
  9
$DIMASSOC
280
     2
  9
$PROJECTNAME
  1

  9
$CAMERADISPLAY
290
     0
  9
$LENSLENGTH
 40
50.0
  9
$CAMERAHEIGHT
 40
0.0
  9
$STEPSPERSEC
 40
2.0
  9
$STEPSIZE
 40
6.0
  9
$3DDWFPREC
 40
2.0
  9
$PSOLWIDTH
 40
0.25
  9
$PSOLHEIGHT
 40
4.0
  9
$LOFTANG1
 40
1.570796326794897
  9
$LOFTANG2
 40
1.570796326794897
  9
$LOFTMAG1
 40
0.0
  9
$LOFTMAG2
 40
0.0
  9
$LOFTPARAM
 70
     7
  9
$LOFTNORMALS
280
     1
  9
$LATITUDE
 40
37.795
  9
$LONGITUDE
 40
-122.394
  9
$NORTHDIRECTION
 40
0.0
  9
$TIMEZONE
 70
 -8000
  9
$LIGHTGLYPHDISPLAY
280
     1
  9
$TILEMODELIGHTSYNCH
280
     1
  9
$CMATERIAL
347
44
  9
$SOLIDHIST
280
     0
  9
$SHOWHIST
280
     1
  9
$DWFFRAME
280
     2
  9
$DGNFRAME
280
     2
  9
$REALWORLDSCALE
290
     1
  9
$INTERFERECOLOR
 62
   256
  9
$CSHADOW
280
     0
  9
$SHADOWPLANELOCATION
 40
0.0
  0
ENDSEC
  0
SECTION
  2
CLASSES
  0
CLASS
  1
ACDBDICTIONARYWDFLT
  2
AcDbDictionaryWithDefault
  3
ObjectDBX Classes
 90
        0
 91
        4
280
     0
281
     0
  0
CLASS
  1
VISUALSTYLE
  2
AcDbVisualStyle
  3
ObjectDBX Classes
 90
     4095
 91
        4
280
     0
281
     0
  0
CLASS
  1
MATERIAL
  2
AcDbMaterial
  3
ObjectDBX Classes
 90
     1153
 91
        4
280
     0
281
     0
  0
CLASS
  1
SCALE
  2
AcDbScale
  3
ObjectDBX Classes
 90
     1153
 91
        4
280
     0
281
     0
  0
CLASS
  1
TABLESTYLE
  2
AcDbTableStyle
  3
ObjectDBX Classes
 90
     4095
 91
        4
280
     0
281
     0
  0
CLASS
  1
MLEADERSTYLE
  2
AcDbMLeaderStyle
  3
ACDB_MLEADERSTYLE_CLASS
 90
     4095
 91
        4
280
     0
281
     0
  0
CLASS
  1
SUN
  2
AcDbSun
  3
SCENEOE
 90
     1153
 91
        4
280
     0
281
     0
  0
CLASS
  1
DICTIONARYVAR
  2
AcDbDictionaryVar
  3
ObjectDBX Classes
 90
        0
 91
        4
280
     0
281
     0
  0
CLASS
  1
CELLSTYLEMAP
  2
AcDbCellStyleMap
  3
ObjectDBX Classes
 90
     1152
 91
        4
280
     0
281
     0
  0
ENDSEC
  0
SECTION
  2
TABLES
  0
TABLE
  2
VPORT
  5
8
330
0
100
AcDbSymbolTable
 70
     1
  0
VPORT
  5
29
330
8
100
AcDbSymbolTableRecord
100
AcDbViewportTableRecord
  2
*Active
 70
     0
 10
0.0
 20
0.0
 11
1.0
 21
1.0
 12
0.4346746697184152
 22
-0.1552499999999997
 13
0.0
 23
0.0
 14
0.5
 24
0.5
 15
0.5
 25
0.5
 16
0.0
 26
0.0
 36
1.0
 17
0.0
 27
0.0
 37
0.0
 40
1.97931
 41
2.731590136852959
 42
50.0
 43
0.0
 44
0.0
 50
0.0
 51
0.0
 71
     0
 72
   100
 73
     1
 74
     3
 75
     0
 76
     0
 77
     0
 78
     0
281
     0
 65
     1
110
0.0
120
0.0
130
0.0
111
1.0
121
0.0
131
0.0
112
0.0
122
1.0
132
0.0
 79
     0
146
0.0
348
2F
 60
     3
 61
     5
292
     1
282
     1
141
0.0
142
0.0
 63
   250
361
6D
  0
ENDTAB
  0
TABLE
  2
LTYPE
  5
5
330
0
100
AcDbSymbolTable
 70
     3
  0
LTYPE
  5
14
330
5
100
AcDbSymbolTableRecord
100
AcDbLinetypeTableRecord
  2
ByBlock
 70
     0
  3

 72
    65
 73
     0
 40
0.0
  0
LTYPE
  5
15
330
5
100
AcDbSymbolTableRecord
100
AcDbLinetypeTableRecord
  2
ByLayer
 70
     0
  3

 72
    65
 73
     0
 40
0.0
  0
LTYPE
  5
16
330
5
100
AcDbSymbolTableRecord
100
AcDbLinetypeTableRecord
  2
Continuous
 70
     0
  3
Solid line
 72
    65
 73
     0
 40
0.0
  0
LTYPE
  5
A7
330
5
100
AcDbSymbolTableRecord
100
AcDbLinetypeTableRecord
  2
Dashed
 70
     0
  3

 72
    65
 73
     2
 40
2.0
 49
1.0
 74
     0
 49
-1.0
 74
     0
  0
LTYPE
  5
E0
330
5
100
AcDbSymbolTableRecord
100
AcDbLinetypeTableRecord
  2
Center
 70
     0
  3

 72
    65
 73
     4
 40
1.5
 49
0.45
 74
     0
 49
-0.5
 74
     0
 49
0.05
 74
     0
 49
-0.5
 74
     0
  0
ENDTAB
  0
TABLE
  2
LAYER
  5
2
330
0
100
AcDbSymbolTable
 70
     7
  0
LAYER
  5
10
330
2
100
AcDbSymbolTableRecord
100
AcDbLayerTableRecord
  2
0
 70
     0
 62
     7
  6
Continuous
370
    -3
390
F
347
46
348
0
  0
LAYER
  5
72
330
2
100
AcDbSymbolTableRecord
100
AcDbLayerTableRecord
  2
AM_6
 70
     0
 62
    -2
  6
Continuous
370
    35
390
F
347
46
348
0
  0
LAYER
  5
A8
330
2
100
AcDbSymbolTableRecord
100
AcDbLayerTableRecord
  2
AM_9
 70
     0
 62
     6
  6
Dashed
370
    25
390
F
347
46
348
0
  0
LAYER
  5
DC
330
2
100
AcDbSymbolTableRecord
100
AcDbLayerTableRecord
  2
AM_5
 70
     0
 62
     3
  6
Continuous
370
    25
390
F
347
46
348
0
  0
LAYER
  5
E1
330
2
100
AcDbSymbolTableRecord
100
AcDbLayerTableRecord
  2
AM_7
 70
     0
 62
     7
  6
Center
370
    25
390
F
347
46
348
0
  0
LAYER
  5
E5
330
2
100
AcDbSymbolTableRecord
100
AcDbLayerTableRecord
  2
AM_4
 70
     0
 62
     7
  6
Continuous
370
    50
390
F
347
46
348
0
  0
LAYER
  5
1E5
330
2
100
AcDbSymbolTableRecord
100
AcDbLayerTableRecord
  2
ConnectionPoints
 70
     0
 62
     7
  6
Continuous
370
    50
390
F
347
46
348
0
  0
ENDTAB
  0
TABLE
  2
STYLE
  5
3
330
0
100
AcDbSymbolTable
 70
     1
  0
STYLE
  5
11
330
3
100
AcDbSymbolTableRecord
100
AcDbTextStyleTableRecord
  2
Standard
 70
     0
 40
0.0
 41
1.0
 50
0.0
 71
     0
 42
0.2
  3
txt
  4

  0
ENDTAB
  0
TABLE
  2
VIEW
  5
6
330
0
100
AcDbSymbolTable
 70
     0
  0
ENDTAB
  0
TABLE
  2
UCS
  5
7
330
0
100
AcDbSymbolTable
 70
     0
  0
ENDTAB
  0
TABLE
  2
APPID
  5
9
330
0
100
AcDbSymbolTable
 70
     1
  0
APPID
  5
12
330
9
100
AcDbSymbolTableRecord
100
AcDbRegAppTableRecord
  2
ACAD
 70
     0
  0
ENDTAB
  0
TABLE
  2
DIMSTYLE
  5
A
330
0
100
AcDbSymbolTable
 70
     1
100
AcDbDimStyleTable
  0
DIMSTYLE
105
27
330
A
100
AcDbSymbolTableRecord
100
AcDbDimStyleTableRecord
  2
Standard
 70
     0
178
     0
340
11
  0
ENDTAB
  0
TABLE
  2
BLOCK_RECORD
  5
1
330
0
100
AcDbSymbolTable
 70
     5
  0
BLOCK_RECORD
  5
1F
330
1
100
AcDbSymbolTableRecord
100
AcDbBlockTableRecord
  2
*Model_Space
340
22
 70
     0
280
     1
281
     0
  0
BLOCK_RECORD
  5
1B
330
1
100
AcDbSymbolTableRecord
100
AcDbBlockTableRecord
  2
*Paper_Space
340
1E
 70
     0
280
     1
281
     0
  0
BLOCK_RECORD
  5
23
330
1
100
AcDbSymbolTableRecord
100
AcDbBlockTableRecord
  2
*Paper_Space0
340
26
 70
     0
280
     1
281
     0
  0
BLOCK_RECORD
  5
6E
330
1
100
AcDbSymbolTableRecord
100
AcDbBlockTableRecord
  2
1_135118_4
340
0
102
{BLKREFS
331
6F
102
}
 70
     0
280
     1
281
     0
  0
BLOCK_RECORD
  5
90
330
1
100
AcDbSymbolTableRecord
100
AcDbBlockTableRecord
  2
2_123420_0_in_135118_4
340
0
102
{BLKREFS
331
91
102
}
 70
     0
280
     1
281
     0
  0
BLOCK_RECORD
  5
F5
330
1
100
AcDbSymbolTableRecord
100
AcDbBlockTableRecord
  2
3_405016_Inch_0_in_135118_4
340
0
102
{BLKREFS
331
F6
102
}
 70
     0
280
     1
281
     0
  0
BLOCK_RECORD
  5
180
330
1
100
AcDbSymbolTableRecord
100
AcDbBlockTableRecord
  2
4_135118H_0_in_135118_4
340
0
102
{BLKREFS
331
181
102
}
 70
     0
280
     1
281
     0
  0
ENDTAB
  0
ENDSEC
  0
SECTION
  2
BLOCKS
  0
BLOCK
  5
20
330
1F
100
AcDbEntity
  8
0
100
AcDbBlockBegin
  2
*Model_Space
 70
     0
 10
0.0
 20
0.0
 30
0.0
  3
*Model_Space
  1

  0
ENDBLK
  5
21
330
1F
100
AcDbEntity
  8
0
100
AcDbBlockEnd
  0
BLOCK
  5
1C
330
1B
100
AcDbEntity
 67
     1
  8
0
100
AcDbBlockBegin
  2
*Paper_Space
 70
     0
 10
0.0
 20
0.0
 30
0.0
  3
*Paper_Space
  1

  0
ENDBLK
  5
1D
330
1B
100
AcDbEntity
 67
     1
  8
0
100
AcDbBlockEnd
  0
BLOCK
  5
24
330
23
100
AcDbEntity
  8
0
100
AcDbBlockBegin
  2
*Paper_Space0
 70
     0
 10
0.0
 20
0.0
 30
0.0
  3
*Paper_Space0
  1

  0
ENDBLK
  5
25
330
23
100
AcDbEntity
  8
0
100
AcDbBlockEnd
  0
BLOCK
  5
70
330
6E
100
AcDbEntity
  8
0
100
AcDbBlockBegin
  2
1_135118_4
 70
     2
 10
0.0
 20
0.0
 30
0.0
  3
1_135118_4
  1

  0
ATTDEF
  5
73
330
6E
100
AcDbEntity
  8
AM_6
100
AcDbText
 10
8.085
 20
0.815
 30
0.0
 40
0.5
  1
Set Screw Medium Duty Wide Slot Take Up Inch Bore
100
AcDbAttributeDefinition
  3

  2
NN
 70
     8
280
     0
  0
ATTDEF
  5
74
330
6E
100
AcDbEntity
  8
AM_6
100
AcDbText
 10
8.085
 20
0.3149999999999999
 30
0.0
 40
0.5
  1
SC Take-Up Bearings -Wide Slot -(Medium Duty)
100
AcDbAttributeDefinition
  3

  2
NT
 70
     8
280
     0
  0
ATTDEF
  5
75
330
6E
100
AcDbEntity
  8
AM_6
100
AcDbText
 10
8.085
 20
-0.1850000000000001
 30
0.0
 40
0.5
  1
135118
100
AcDbAttributeDefinition
  3

  2
NB
 70
     8
280
     0
  0
ATTDEF
  5
76
330
6E
100
AcDbEntity
  8
AM_6
100
AcDbText
 10
8.085
 20
-0.685
 30
0.0
 40
0.5
  1
$PN.
100
AcDbAttributeDefinition
  3

  2
NBSYN
 70
     8
280
     0
  0
ATTDEF
  5
77
330
6E
100
AcDbEntity
  8
AM_6
100
AcDbText
 10
8.085
 20
-1.185
 30
0.0
 40
0.5
  1
135118
100
AcDbAttributeDefinition
  3

  2
LINA
 70
     8
280
     0
  0
ATTDEF
  5
78
330
6E
100
AcDbEntity
  8
AM_6
100
AcDbText
 10
8.085
 20
-1.685
 30
0.0
 40
0.5
  1
207
100
AcDbAttributeDefinition
  3

  2
SERIES
 70
     8
280
     0
  0
ATTDEF
  5
79
330
6E
100
AcDbEntity
  8
AM_6
100
AcDbText
 10
8.085
 20
-2.185
 30
0.0
 40
0.5
  1
1-3/16
100
AcDbAttributeDefinition
  3

  2
SS
 70
     8
280
     0
  0
ATTDEF
  5
7A
330
6E
100
AcDbEntity
  8
AM_6
100
AcDbText
 10
8.085
 20
-2.685
 30
0.0
 40
0.5
  1
135118
100
AcDbAttributeDefinition
  3

  2
PN
 70
     8
280
     0
  0
ATTDEF
  5
7B
330
6E
100
AcDbEntity
  8
AM_6
100
AcDbText
 10
8.085
 20
-3.185
 30
0.0
 40
0.5
  1
WSTU-SCM-103
100
AcDbAttributeDefinition
  3

  2
DESCRIPTION
 70
     8
280
     0
  0
ATTDEF
  5
7C
330
6E
100
AcDbEntity
  8
AM_6
100
AcDbText
 10
8.085
 20
-3.685
 30
0.0
 40
0.5
  1
3.9
100
AcDbAttributeDefinition
  3

  2
W
 70
     8
280
     0
  0
ATTDEF
  5
7D
330
6E
100
AcDbEntity
  8
AM_6
100
AcDbText
 10
8.085
 20
-4.185
 30
0.0
 40
0.5
  1
WS308
100
AcDbAttributeDefinition
  3

  2
FS
 70
     8
280
     0
  0
ATTDEF
  5
7E
330
6E
100
AcDbEntity
  8
AM_6
100
AcDbText
 10
8.085
 20
-4.685
 30
0.0
 40
0.5
  1
RE-LUBE
100
AcDbAttributeDefinition
  3

  2
LF
 70
     8
280
     0
  0
ATTDEF
  5
7F
330
6E
100
AcDbEntity
  8
AM_6
100
AcDbText
 10
8.085
 20
-5.185
 30
0.0
 40
0.5
  1
1.71
100
AcDbAttributeDefinition
  3

  2
A
 70
     8
280
     0
  0
ATTDEF
  5
80
330
6E
100
AcDbEntity
  8
AM_6
100
AcDbText
 10
8.085
 20
-5.685
 30
0.0
 40
0.5
  1
4.87
100
AcDbAttributeDefinition
  3

  2
B
 70
     8
280
     0
  0
ATTDEF
  5
81
330
6E
100
AcDbEntity
  8
AM_6
100
AcDbText
 10
8.085
 20
-6.185
 30
0.0
 40
0.5
  1
0.531
100
AcDbAttributeDefinition
  3

  2
C
 70
     8
280
     0
  0
ATTDEF
  5
82
330
6E
100
AcDbEntity
  8
AM_6
100
AcDbText
 10
8.085
 20
-6.685
 30
0.0
 40
0.5
  1
2.50
100
AcDbAttributeDefinition
  3

  2
D
 70
     8
280
     0
  0
ATTDEF
  5
83
330
6E
100
AcDbEntity
  8
AM_6
100
AcDbText
 10
8.085
 20
-7.185
 30
0.0
 40
0.5
  1
3.06
100
AcDbAttributeDefinition
  3

  2
E
 70
     8
280
     0
  0
ATTDEF
  5
84
330
6E
100
AcDbEntity
  8
AM_6
100
AcDbText
 10
8.085
 20
-7.685
 30
0.0
 40
0.5
  1
3/4
100
AcDbAttributeDefinition
  3

  2
F
 70
     8
280
     0
  0
ATTDEF
  5
85
330
6E
100
AcDbEntity
  8
AM_6
100
AcDbText
 10
8.085
 20
-8.185
 30
0.0
 40
0.5
  1
0.50
100
AcDbAttributeDefinition
  3

  2
G
 70
     8
280
     0
  0
ATTDEF
  5
86
330
6E
100
AcDbEntity
  8
AM_6
100
AcDbText
 10
8.085
 20
-8.685
 30
0.0
 40
0.5
  1
0.63
100
AcDbAttributeDefinition
  3

  2
H
 70
     8
280
     0
  0
ATTDEF
  5
87
330
6E
100
AcDbEntity
  8
AM_6
100
AcDbText
 10
8.085
 20
-9.185
 30
0.0
 40
0.5
  1
2.50
100
AcDbAttributeDefinition
  3

  2
J
 70
     8
280
     0
  0
ATTDEF
  5
88
330
6E
100
AcDbEntity
  8
AM_6
100
AcDbText
 10
8.085
 20
-9.685
 30
0.0
 40
0.5
  1
1.44
100
AcDbAttributeDefinition
  3

  2
K
 70
     8
280
     0
  0
ATTDEF
  5
89
330
6E
100
AcDbEntity
  8
AM_6
100
AcDbText
 10
8.085
 20
-10.185
 30
0.0
 40
0.5
  1
1.84
100
AcDbAttributeDefinition
  3

  2
L
 70
     8
280
     0
  0
ATTDEF
  5
8A
330
6E
100
AcDbEntity
  8
AM_6
100
AcDbText
 10
8.085
 20
-10.685
 30
0.0
 40
0.5
  1
3.480 / 3.510
100
AcDbAttributeDefinition
  3

  2
M
 70
     8
280
     0
  0
ATTDEF
  5
8B
330
6E
100
AcDbEntity
  8
AM_6
100
AcDbText
 10
8.085
 20
-11.185
 30
0.0
 40
0.5
  1
4.13
100
AcDbAttributeDefinition
  3

  2
N
 70
     8
280
     0
  0
ATTDEF
  5
8C
330
6E
100
AcDbEntity
  8
AM_6
100
AcDbText
 10
8.085
 20
-11.685
 30
0.0
 40
0.5
  1
0.67
100
AcDbAttributeDefinition
  3

  2
R
 70
     8
280
     0
  0
ATTDEF
  5
8D
330
6E
100
AcDbEntity
  8
AM_6
100
AcDbText
 10
8.085
 20
-12.185
 30
0.0
 40
0.5
  1
1.04
100
AcDbAttributeDefinition
  3

  2
S
 70
     8
280
     0
  0
ATTDEF
  5
8E
330
6E
100
AcDbEntity
  8
AM_6
100
AcDbText
 10
8.085
 20
-12.685
 30
0.0
 40
0.5
  1
1.63
100
AcDbAttributeDefinition
  3

  2
T
 70
     8
280
     0
  0
ATTDEF
  5
8F
330
6E
100
AcDbEntity
  8
AM_6
100
AcDbText
 10
8.085
 20
-13.185
 30
0.0
 40
0.5
  1
baldor
100
AcDbAttributeDefinition
  3

  2
COMPANY
 70
     8
280
     0
  0
INSERT
  5
91
330
6E
100
AcDbEntity
  8
0
100
AcDbBlockReference
  2
2_123420_0_in_135118_4
 10
0.0
 20
0.0
 30
0.0
  0
INSERT
  5
F6
330
6E
100
AcDbEntity
  8
0
100
AcDbBlockReference
  2
3_405016_Inch_0_in_135118_4
 10
0.0
 20
0.0
 30
0.0
  0
INSERT
  5
181
330
6E
100
AcDbEntity
  8
0
100
AcDbBlockReference
  2
4_135118H_0_in_135118_4
 10
0.0
 20
0.0
 30
0.0
  0
ENDBLK
  5
71
330
6E
100
AcDbEntity
  8
0
100
AcDbBlockEnd
  0
BLOCK
  5
92
330
90
100
AcDbEntity
  8
0
100
AcDbBlockBegin
  2
2_123420_0_in_135118_4
 70
     2
 10
0.0
 20
0.0
 30
0.0
  3
2_123420_0_in_135118_4
  1

  0
ATTDEF
  5
94
330
90
100
AcDbEntity
  8
AM_6
100
AcDbText
 10
6.416645210840088
 20
0.7554999999999996
 30
0.0
 40
0.5
  1
Set Screw Medium Duty Insert Inch Bore
100
AcDbAttributeDefinition
  3

  2
NN
 70
     8
280
     0
  0
ATTDEF
  5
95
330
90
100
AcDbEntity
  8
AM_6
100
AcDbText
 10
6.416645210840088
 20
0.2554999999999996
 30
0.0
 40
0.5
  1
SC Medium Duty Bearing Inserts (Standard Insert)
100
AcDbAttributeDefinition
  3

  2
NT
 70
     8
280
     0
  0
ATTDEF
  5
96
330
90
100
AcDbEntity
  8
AM_6
100
AcDbText
 10
6.416645210840088
 20
-0.2445000000000004
 30
0.0
 40
0.5
  1
123420
100
AcDbAttributeDefinition
  3

  2
NB
 70
     8
280
     0
  0
ATTDEF
  5
97
330
90
100
AcDbEntity
  8
AM_6
100
AcDbText
 10
6.416645210840088
 20
-0.7445000000000004
 30
0.0
 40
0.5
  1
$PN.
100
AcDbAttributeDefinition
  3

  2
NBSYN
 70
     8
280
     0
  0
ATTDEF
  5
98
330
90
100
AcDbEntity
  8
AM_6
100
AcDbText
 10
6.416645210840088
 20
-1.2445
 30
0.0
 40
0.5
  1
123420
100
AcDbAttributeDefinition
  3

  2
LINA
 70
     8
280
     0
  0
ATTDEF
  5
99
330
90
100
AcDbEntity
  8
AM_6
100
AcDbText
 10
6.416645210840088
 20
-1.7445
 30
0.0
 40
0.5
  1
207
100
AcDbAttributeDefinition
  3

  2
SERIES
 70
     8
280
     0
  0
ATTDEF
  5
9A
330
90
100
AcDbEntity
  8
AM_6
100
AcDbText
 10
6.416645210840088
 20
-2.2445
 30
0.0
 40
0.5
  1
1-3/16
100
AcDbAttributeDefinition
  3

  2
SS
 70
     8
280
     0
  0
ATTDEF
  5
9B
330
90
100
AcDbEntity
  8
AM_6
100
AcDbText
 10
6.416645210840088
 20
-2.7445
 30
0.0
 40
0.5
  1
123420
100
AcDbAttributeDefinition
  3

  2
PN
 70
     8
280
     0
  0
ATTDEF
  5
9C
330
90
100
AcDbEntity
  8
AM_6
100
AcDbText
 10
6.416645210840088
 20
-3.2445
 30
0.0
 40
0.5
  1
INS-SCM-103
100
AcDbAttributeDefinition
  3

  2
DESCRIPTION
 70
     8
280
     0
  0
ATTDEF
  5
9D
330
90
100
AcDbEntity
  8
AM_6
100
AcDbText
 10
6.416645210840088
 20
-3.7445
 30
0.0
 40
0.5
  1
1.07
100
AcDbAttributeDefinition
  3

  2
WEIGHT
 70
     8
280
     0
  0
ATTDEF
  5
9E
330
90
100
AcDbEntity
  8
AM_6
100
AcDbText
 10
6.416645210840088
 20
-4.2445
 30
0.0
 40
0.5
  1
1.71
100
AcDbAttributeDefinition
  3

  2
A
 70
     8
280
     0
  0
ATTDEF
  5
9F
330
90
100
AcDbEntity
  8
AM_6
100
AcDbText
 10
6.416645210840088
 20
-4.7445
 30
0.0
 40
0.5
  1
0.75
100
AcDbAttributeDefinition
  3

  2
C
 70
     8
280
     0
  0
ATTDEF
  5
A0
330
90
100
AcDbEntity
  8
AM_6
100
AcDbText
 10
6.416645210840088
 20
-5.2445
 30
0.0
 40
0.5
  1
2.8346
100
AcDbAttributeDefinition
  3

  2
D
 70
     8
280
     0
  0
ATTDEF
  5
A1
330
90
100
AcDbEntity
  8
AM_6
100
AcDbText
 10
6.416645210840088
 20
-5.7445
 30
0.0
 40
0.5
  1
0.20
100
AcDbAttributeDefinition
  3

  2
J
 70
     8
280
     0
  0
ATTDEF
  5
A2
330
90
100
AcDbEntity
  8
AM_6
100
AcDbText
 10
6.416645210840088
 20
-6.2445
 30
0.0
 40
0.5
  1
1.84
100
AcDbAttributeDefinition
  3

  2
L
 70
     8
280
     0
  0
ATTDEF
  5
A3
330
90
100
AcDbEntity
  8
AM_6
100
AcDbText
 10
6.416645210840088
 20
-6.7445
 30
0.0
 40
0.5
  1
5/16 - 24
100
AcDbAttributeDefinition
  3

  2
N
 70
     8
280
     0
  0
ATTDEF
  5
A4
330
90
100
AcDbEntity
  8
AM_6
100
AcDbText
 10
6.416645210840088
 20
-7.2445
 30
0.0
 40
0.5
  1
0.67
100
AcDbAttributeDefinition
  3

  2
W
 70
     8
280
     0
  0
ATTDEF
  5
A5
330
90
100
AcDbEntity
  8
AM_6
100
AcDbText
 10
6.416645210840088
 20
-7.7445
 30
0.0
 40
0.5
  1
1.04
100
AcDbAttributeDefinition
  3

  2
Y
 70
     8
280
     0
  0
ATTDEF
  5
A6
330
90
100
AcDbEntity
  8
AM_6
100
AcDbText
 10
6.416645210840088
 20
-8.2445
 30
0.0
 40
0.5
  1
baldor
100
AcDbAttributeDefinition
  3

  2
COMPANY
 70
     8
280
     0
  0
ELLIPSE
  5
A9
330
90
100
AcDbEntity
  8
AM_9
100
AcDbEllipse
 10
0.2452546587752364
 20
-0.7075
 30
0.0
 11
-2.318256390785829E-17
 21
-0.126199999999994
 31
0.0
210
0.0
220
0.0
230
1.0
 40
0.9063077870366595
 41
1.470096267866015
 42
1.671496385723778
  0
LINE
  5
AA
330
90
100
AcDbEntity
  8
AM_9
100
AcDbLine
 10
0.2508985153991942
 20
-0.8337
 30
0.0
 11
0.3799906177205599
 21
-0.8337
 31
0.0
  0
LINE
  5
AB
330
90
100
AcDbEntity
  8
AM_9
100
AcDbLine
 10
0.3799906177205599
 20
-0.5813000000000001
 30
0.0
 11
0.2508985153991942
 21
-0.5813
 31
0.0
  0
LWPOLYLINE
  5
AC
330
90
100
AcDbEntity
  8
AM_9
100
AcDbPolyline
 90
       11
 70
     0
 43
0.0
 10
0.2509169345790018
 20
-0.8336999992271286
 10
0.2461548712500388
 20
-0.8335773302203854
 10
0.2270178231036487
 20
-0.8309682414683668
 10
0.2084647463782824
 20
-0.8249973427447872
 10
0.1908406805674209
 20
-0.815880108087368
 10
0.1744744880769873
 20
-0.8036506681195432
 10
0.1601001125185313
 20
-0.7887857408623962
 10
0.1480238047985228
 20
-0.7713323874740047
 10
0.1388989151351449
 20
-0.7520326249117911
 10
0.1341595487074028
 20
-0.7363611780191613
 10
0.1314580414016586
 20
-0.7201868801540121
  0
LWPOLYLINE
  5
AD
330
90
100
AcDbEntity
  8
AM_9
100
AcDbPolyline
 90
       11
 70
     0
 43
0.0
 10
0.2509422510992304
 20
-0.5813000007728715
 10
0.2556802407458148
 20
-0.5814226697796147
 10
0.274355671273
 20
-0.5840317585316332
 10
0.2918814163173433
 20
-0.590002657255213
 10
0.3080342631953011
 20
-0.599119891912632
 10
0.3226066097902221
 20
-0.6113493318804568
 10
0.3350815400494169
 20
-0.6262142591376039
 10
0.3453300635278854
 20
-0.6436676125259954
 10
0.3529356239469733
 20
-0.6629673750882091
 10
0.3568404821245836
 20
-0.6786388219808389
 10
0.3590512761488058
 20
-0.6948131198459879
  0
LINE
  5
AE
330
90
100
AcDbEntity
  8
AM_9
100
AcDbLine
 10
0.5803219618694802
 20
-0.6948131198459837
 30
0.0
 11
0.5803219618694802
 21
-0.7201868801540163
 31
0.0
  0
LINE
  5
AF
330
90
100
AcDbEntity
  8
AM_9
100
AcDbLine
 10
0.59375
 20
-0.8336999999999999
 30
0.0
 11
0.8991344012334845
 21
-0.8337
 31
0.0
  0
LINE
  5
B0
330
90
100
AcDbEntity
  8
AM_9
100
AcDbLine
 10
0.8991344012334845
 20
-0.5813
 30
0.0
 11
0.59375
 21
-0.5813
 31
0.0
  0
LINE
  5
B1
330
90
100
AcDbEntity
  8
AM_9
100
AcDbLine
 10
0.8991344012334845
 20
-0.8337
 30
0.0
 11
0.92
 21
-0.8545655987665156
 31
0.0
  0
LINE
  5
B2
330
90
100
AcDbEntity
  8
AM_9
100
AcDbLine
 10
0.92
 20
-0.5604344012334844
 30
0.0
 11
0.8991344012334845
 21
-0.5813
 31
0.0
  0
LINE
  5
B3
330
90
100
AcDbEntity
  8
AM_9
100
AcDbLine
 10
0.8991344012334845
 20
-0.5813
 30
0.0
 11
0.8991344012334845
 21
-0.8337
 31
0.0
  0
LWPOLYLINE
  5
B4
330
90
100
AcDbEntity
  8
AM_9
100
AcDbPolyline
 90
        3
 70
     0
 43
0.0
 10
0.5803219618694802
 20
-0.6948131198459837
 10
0.5801446883524786
 20
-0.70738961347237
 10
0.5803219618694802
 20
-0.7201868801540163
  0
LWPOLYLINE
  5
B5
330
90
100
AcDbEntity
  8
AM_9
100
AcDbPolyline
 90
       10
 70
     0
 43
0.0
 10
0.5803219618694802
 20
-0.7201868801540163
 10
0.5811283798916649
 20
-0.7406296153842917
 10
0.5826171560647969
 20
-0.760698947743652
 10
0.5845361259446992
 20
-0.7787029496189384
 10
0.5867730197255691
 20
-0.7951923838076204
 10
0.588997345208728
 20
-0.8090147780519147
 10
0.5910500553117922
 20
-0.8203164233791894
 10
0.5925955840431955
 20
-0.8281519942955601
 10
0.5935408988038295
 20
-0.8327125235463999
 10
0.5937499999996977
 20
-0.8336999999985772
  0
LINE
  5
B6
330
90
100
AcDbEntity
  8
AM_9
100
AcDbLine
 10
0.1314580414016585
 20
-0.7201868801540123
 30
0.0
 11
0.1314580414016585
 21
-0.6948131198459878
 31
0.0
  0
LWPOLYLINE
  5
B7
330
90
100
AcDbEntity
  8
AM_9
100
AcDbPolyline
 90
       10
 70
     0
 43
0.0
 10
0.1314580414016586
 20
-0.6948131198459879
 10
0.1353243765617039
 20
-0.6740785845070962
 10
0.1425075850592698
 20
-0.654301052256352
 10
0.1527743270052394
 20
-0.6360625593074891
 10
0.1657289515427117
 20
-0.6198076161923829
 10
0.1812122612948559
 20
-0.6058142981755598
 10
0.1985288920834408
 20
-0.5946835766208127
 10
0.2171884856196689
 20
-0.5867676406711576
 10
0.2365610804830162
 20
-0.5822874764536007
 10
0.2509422510992304
 20
-0.5813000007728715
  0
LWPOLYLINE
  5
B8
330
90
100
AcDbEntity
  8
AM_9
100
AcDbPolyline
 90
        3
 70
     0
 43
0.0
 10
0.3590512761488057
 20
-0.6948131198459878
 10
0.3596265718440442
 20
-0.7028295757847299
 10
0.3590512761488057
 20
-0.7201868801540123
  0
LWPOLYLINE
  5
B9
330
90
100
AcDbEntity
  8
AM_9
100
AcDbPolyline
 90
       10
 70
     0
 43
0.0
 10
0.3590512761488057
 20
-0.7201868801540121
 10
0.3558847818015615
 20
-0.7409214154929038
 10
0.3499417144535585
 20
-0.7606989477436481
 10
0.3413231848129151
 20
-0.7789374406925108
 10
0.3302330357228102
 20
-0.795192383807617
 10
0.316654726702124
 20
-0.8091857018244404
 10
0.3010482018717865
 20
-0.8203164233791874
 10
0.2837071248696438
 20
-0.8282323593288424
 10
0.2651213653659573
 20
-0.8327125235463994
 10
0.2509169345790018
 20
-0.8336999992271286
  0
LINE
  5
BA
330
90
100
AcDbEntity
  8
AM_9
100
AcDbLine
 10
0.59375
 20
-1.0032
 30
0.0
 11
0.59375
 21
-0.8337
 31
0.0
  0
LINE
  5
BB
330
90
100
AcDbEntity
  8
AM_9
100
AcDbLine
 10
0.59375
 20
-0.5813
 30
0.0
 11
0.59375
 21
0.6332
 31
0.0
  0
LINE
  5
BC
330
90
100
AcDbEntity
  8
AM_9
100
AcDbLine
 10
-0.59375
 20
0.6332
 30
0.0
 11
-0.59375
 21
-1.0032
 31
0.0
  0
LWPOLYLINE
  5
BD
330
90
100
AcDbEntity
  8
AM_9
100
AcDbPolyline
 90
       11
 70
     0
 43
0.0
 10
0.5937499999996977
 20
-0.5813000000014228
 10
0.593729382345369
 20
-0.5813970382575679
 10
0.593175378072363
 20
-0.5840317585316341
 10
0.591984408251148
 20
-0.5898865776687804
 10
0.5902193408632329
 20
-0.5991198919126343
 10
0.5881287419803497
 20
-0.6111527393052159
 10
0.5858498051271743
 20
-0.6262142591376071
 10
0.5837142164045238
 20
-0.6433933394041835
 10
0.5818898325125933
 20
-0.6629673750882134
 10
0.58090770729204
 20
-0.6784975537015534
 10
0.5803219618694803
 20
-0.6948131198459837
  0
LINE
  5
BE
330
90
100
AcDbEntity
  8
AM_9
100
AcDbLine
 10
0.59375
 20
0.6332
 30
0.0
 11
0.6305499999999999
 21
0.67
 31
0.0
  0
LINE
  5
BF
330
90
100
AcDbEntity
  8
AM_9
100
AcDbLine
 10
-0.6305499999999999
 20
0.67
 30
0.0
 11
-0.59375
 21
0.6332
 31
0.0
  0
LINE
  5
C0
330
90
100
AcDbEntity
  8
AM_9
100
AcDbLine
 10
-0.5937500000000001
 20
-1.0032
 30
0.0
 11
-0.6305500000000002
 21
-1.04
 31
0.0
  0
LINE
  5
C1
330
90
100
AcDbEntity
  8
AM_9
100
AcDbLine
 10
0.6305500000000002
 20
-1.04
 30
0.0
 11
0.5937500000000001
 21
-1.0032
 31
0.0
  0
LWPOLYLINE
  5
C2
330
90
100
AcDbEntity
  8
AM_9
100
AcDbPolyline
 90
       39
 70
     0
 43
0.0
 10
0.3831468696165903
 20
-0.5605879082788799
 10
0.3632781926959329
 20
-0.56356803566994
 10
0.343960939814216
 20
-0.5701729415079199
 10
0.326166467104551
 20
-0.5799237393696522
 10
0.3098848853577553
 20
-0.5925453381619384
 10
0.2947371385201888
 20
-0.6086345461053658
 10
0.2820561800758905
 20
-0.6270200470031391
 10
0.2715409242079176
 20
-0.648751955752624
 10
0.26441667002172
 20
-0.6719593141783387
 10
0.2608037887576973
 20
-0.6973312168221053
 10
0.2612115006936287
 20
-0.7229788291470501
 10
0.2658199659526827
 20
-0.7487221663299638
 10
0.2744889513719075
 20
-0.7732870748661603
 10
0.2869406238376951
 20
-0.795751488410156
 10
0.3028337006592151
 20
-0.8155921006122825
 10
0.3209293106371522
 20
-0.8314358019562612
 10
0.3412258141340101
 20
-0.8435713129913822
 10
0.3614455537922163
 20
-0.8509628016037893
 10
0.382335105480213
 20
-0.8543649951509522
 10
0.4018250662339457
 20
-0.8537283405896985
 10
0.4207350632430683
 20
-0.849496834881177
 10
0.43829961330239
 20
-0.8419214843032236
 10
0.4544069053250741
 20
-0.8312955586635274
 10
0.46931470387109
 20
-0.8172836347978099
 10
0.4820388056805551
 20
-0.8007671272814006
 10
0.4930258231171736
 20
-0.7807722420046174
 10
0.5011537245140449
 20
-0.758988278381379
 10
0.5065163990145239
 20
-0.7345136270465198
 10
0.5084882361952608
 20
-0.7093232214294111
 10
0.5069073389414688
 20
-0.6832999742100652
 10
0.5017163786486234
 20
-0.6579578724397033
 10
0.4929165459099835
 20
-0.6339984893613346
 10
0.4806806880771297
 20
-0.6121991277220695
 10
0.4656486804273736
 20
-0.5938345460575527
 10
0.4478496842383148
 20
-0.5788877308662342
 10
0.4290304935181859
 20
-0.5686260742809275
 10
0.4086554104226284
 20
-0.5623590487133964
 10
0.3959919728227247
 20
-0.5606862680881517
 10
0.38314685826005
 20
-0.5605878957403025
  0
LINE
  5
C3
330
90
100
AcDbEntity
  8
AM_9
100
AcDbLine
 10
0.92
 20
-0.5310000000000002
 30
0.0
 11
0.92
 21
-0.3749999999999999
 31
0.0
  0
LINE
  5
C4
330
90
100
AcDbEntity
  8
AM_9
100
AcDbLine
 10
-0.92
 20
-0.3749999999999999
 30
0.0
 11
-0.92
 21
-0.5310000000000002
 31
0.0
  0
LINE
  5
C5
330
90
100
AcDbEntity
  8
AM_9
100
AcDbLine
 10
0.9148954822733086
 20
-0.6036409993592
 30
0.0
 11
0.9140481732314665
 21
-0.6126466414128132
 31
0.0
  0
LINE
  5
C6
330
90
100
AcDbEntity
  8
AM_9
100
AcDbLine
 10
0.9199999999999997
 20
0.3749999999999999
 30
0.0
 11
0.9199999999999997
 21
0.5309999999999997
 31
0.0
  0
LINE
  5
C7
330
90
100
AcDbEntity
  8
AM_9
100
AcDbLine
 10
-0.9199999999999997
 20
0.5309999999999997
 30
0.0
 11
-0.9199999999999997
 21
0.3749999999999999
 31
0.0
  0
LINE
  5
C8
330
90
100
AcDbEntity
  8
AM_9
100
AcDbLine
 10
1.350633333333333
 20
-0.2399999999999999
 30
0.0
 11
1.350633333333333
 21
-0.1599999999999999
 31
0.0
  0
LINE
  5
C9
330
90
100
AcDbEntity
  8
AM_9
100
AcDbLine
 10
-1.350633333333333
 20
-0.1599999999999999
 30
0.0
 11
-1.350633333333333
 21
-0.2399999999999999
 31
0.0
  0
LINE
  5
CA
330
90
100
AcDbEntity
  8
AM_9
100
AcDbLine
 10
-1.335937981344943
 20
0.3749999999999999
 30
0.0
 11
1.335937981344943
 21
0.3749999999999999
 31
0.0
  0
ARC
  5
CB
330
90
100
AcDbEntity
  8
AM_9
100
AcDbCircle
 10
1.335937981344943
 20
0.335
 30
0.0
 40
0.0399999999999997
100
AcDbArc
 50
14.07723026334036
 51
90.0
  0
ARC
  5
CC
330
90
100
AcDbEntity
  8
AM_9
100
AcDbCircle
 10
-1.335937981344943
 20
0.335
 30
0.0
 40
0.0399999999999999
100
AcDbArc
 50
90.0
 51
165.9227697366597
  0
LINE
  5
CD
330
90
100
AcDbEntity
  8
AM_9
100
AcDbLine
 10
-1.335937981344943
 20
-0.3749999999999999
 30
0.0
 11
1.335937981344943
 21
-0.3749999999999999
 31
0.0
  0
ARC
  5
CE
330
90
100
AcDbEntity
  8
AM_9
100
AcDbCircle
 10
1.335937981344942
 20
-0.3349999999999994
 30
0.0
 40
0.0400000000000005
100
AcDbArc
 50
270.0
 51
345.9227727932858
  0
ARC
  5
CF
330
90
100
AcDbEntity
  8
AM_9
100
AcDbCircle
 10
-1.335937981344942
 20
-0.3349999999999995
 30
0.0
 40
0.0400000000000003
100
AcDbArc
 50
194.0772272067141
 51
270.0
  0
ARC
  5
D0
330
90
100
AcDbEntity
  8
AM_9
100
AcDbCircle
 10
-0.0000000000000646
 20
0.0000000000000094
 30
0.0
 40
1.417300000000065
100
AcDbArc
 50
345.922772793287
 51
350.2507814750861
  0
ARC
  5
D1
330
90
100
AcDbEntity
  8
AM_9
100
AcDbCircle
 10
0.0000000000842424
 20
0.000000000017756
 30
0.0
 40
1.41730000008597
100
AcDbArc
 50
189.7492185250452
 51
194.0772272065818
  0
LINE
  5
D2
330
90
100
AcDbEntity
  8
AM_9
100
AcDbLine
 10
-1.374736731982938
 20
-0.3447291802802586
 30
0.0
 11
1.374736731983001
 21
-0.3447291802802586
 31
0.0
  0
LINE
  5
D3
330
90
100
AcDbEntity
  8
AM_9
100
AcDbLine
 10
-1.396831876068063
 20
-0.24
 30
0.0
 11
1.396831876068126
 21
-0.24
 31
0.0
  0
ARC
  5
D4
330
90
100
AcDbEntity
  8
AM_9
100
AcDbCircle
 10
-0.0000000000000002
 20
0.0000000000000002
 30
0.0
 40
1.4173
100
AcDbArc
 50
353.518020799482
 51
14.0772272929794
  0
ARC
  5
D5
330
90
100
AcDbEntity
  8
AM_9
100
AcDbCircle
 10
-0.0000000000004139
 20
0.0000000000000284
 30
0.0
 40
1.417299999999591
100
AcDbArc
 50
165.9227727070176
 51
186.4819792005211
  0
LINE
  5
D6
330
90
100
AcDbEntity
  8
AM_9
100
AcDbLine
 10
-1.408239784269709
 20
-0.1599999999999999
 30
0.0
 11
1.40823978426971
 21
-0.1599999999999999
 31
0.0
  0
LINE
  5
D7
330
90
100
AcDbEntity
  8
AM_9
100
AcDbLine
 10
-1.374736731463966
 20
0.3447291823501021
 30
0.0
 11
1.374736731463966
 21
0.3447291823501021
 31
0.0
  0
ARC
  5
D8
330
90
100
AcDbEntity
  8
AM_9
100
AcDbCircle
 10
-0.0000000000000001
 20
0.2000000000000001
 30
0.0
 40
0.1041666666666619
100
AcDbArc
 50
321.4537076917622
 51
218.5462923082367
  0
LINE
  5
D9
330
90
100
AcDbEntity
  8
AM_9
100
AcDbLine
 10
-0.0814692644559858
 20
0.135088880818121
 30
0.0
 11
-0.0792184131074364
 21
0.1323619310814861
 31
0.0
  0
LWPOLYLINE
  5
DA
330
90
100
AcDbEntity
  8
AM_9
100
AcDbPolyline
 90
       12
 70
     0
 43
0.0
 10
-0.0792184131074364
 20
0.1323619310814861
 10
-0.0698246947616775
 20
0.1227309975583412
 10
-0.0558709818197496
 20
0.1121766908676996
 10
-0.0406812332660426
 20
0.1042587151212202
 10
-0.0238998877917412
 20
0.0988127769259907
 10
-0.0068452071840651
 20
0.0962824713319483
 10
0.0108942506888093
 20
0.0966253536238643
 10
0.0278744855002388
 20
0.0998236154452219
 10
0.0445407915850457
 20
0.1059752498324682
 10
0.059474316070725
 20
0.1145570472198377
 10
0.0731204519781926
 20
0.125828234483291
 10
0.0814692644559844
 20
0.1350888808181195
  0
CIRCLE
  5
DB
330
90
100
AcDbEntity
  8
AM_9
100
AcDbCircle
 10
-0.0000000000000001
 20
0.2000000000000001
 30
0.0
 40
0.0359848484848541
  0
LINE
  5
DD
330
90
100
AcDbEntity
  8
AM_5
100
AcDbLine
 10
0.59375
 20
-0.55125
 30
0.0
 11
0.92
 21
-0.55125
 31
0.0
  0
LINE
  5
DE
330
90
100
AcDbEntity
  8
AM_5
100
AcDbLine
 10
0.59375
 20
-0.86375
 30
0.0
 11
0.92
 21
-0.86375
 31
0.0
  0
ELLIPSE
  5
DF
330
90
100
AcDbEntity
  8
AM_9
100
AcDbEllipse
 10
0.3799906177205593
 20
-0.7074999999999984
 30
0.0
 11
-2.318256390785907E-17
 21
-0.1261999999999982
 31
0.0
210
0.0
220
0.0
230
1.0
 40
0.9063077870366507
 41
0.0
 42
6.283185307179586
  0
LINE
  5
E2
330
90
100
AcDbEntity
  8
AM_7
100
AcDbLine
 10
-0.0377840909090969
 20
0.2000000000000001
 30
0.0
 11
0.0377840909090967
 21
0.2000000000000001
 31
0.0
  0
LINE
  5
E3
330
90
100
AcDbEntity
  8
AM_7
100
AcDbLine
 10
0.0
 20
-1.1255
 30
0.0
 11
0.0
 21
0.7554999999999996
 31
0.0
  0
LINE
  5
E4
330
90
100
AcDbEntity
  8
AM_7
100
AcDbLine
 10
0.9481300232016853
 20
-0.7075
 30
0.0
 11
0.5313263399012798
 21
-0.7075
 31
0.0
  0
LWPOLYLINE
  5
E6
330
90
100
AcDbEntity
  8
AM_4
100
AcDbPolyline
 90
        7
 70
     0
 43
0.0
 10
0.9146488251145424
 20
-0.6061814369458752
 10
0.9161363454500667
 20
-0.591687218831369
 10
0.9175594080024728
 20
-0.5793139641116155
 10
0.918840703194673
 20
-0.5690915941885357
 10
0.9197095976311065
 20
-0.5625562100249474
 10
0.9199986644278962
 20
-0.5604440920669009
 10
0.9199999999999817
 20
-0.5604344012336172
  0
LINE
  5
E7
330
90
100
AcDbEntity
  8
AM_4
100
AcDbLine
 10
0.92
 20
-1.0032
 30
0.0
 11
0.92
 21
-0.8545655987665156
 31
0.0
  0
LINE
  5
E8
330
90
100
AcDbEntity
  8
AM_4
100
AcDbLine
 10
0.9199999999999999
 20
-0.5604344012334843
 30
0.0
 11
0.92
 21
-0.5310000000000002
 31
0.0
  0
LINE
  5
E9
330
90
100
AcDbEntity
  8
AM_4
100
AcDbLine
 10
-0.92
 20
-0.5310000000000002
 30
0.0
 11
-0.92
 21
-1.0032
 31
0.0
  0
LWPOLYLINE
  5
EA
330
90
100
AcDbEntity
  8
AM_4
100
AcDbPolyline
 90
       16
 70
     0
 43
0.0
 10
0.9199999999999463
 20
-0.854565598766126
 10
0.919977712150823
 20
-0.8544037989290798
 10
0.9195969793371659
 20
-0.851612859322334
 10
0.9187538115600371
 20
-0.8452383994537459
 10
0.9175731174413001
 20
-0.8357995872058472
 10
0.9161210509255192
 20
-0.8231727997366157
 10
0.9145192344080746
 20
-0.8074584668120088
 10
0.9129305687885105
 20
-0.7889932534545554
 10
0.9114947051838159
 20
-0.7676793603234505
 10
0.9104132068399031
 20
-0.7442781073396043
 10
0.9098340725472865
 20
-0.7193135335022269
 10
0.9098632539843213
 20
-0.6933348432201434
 10
0.9105152435642478
 20
-0.6679210038113121
 10
0.9117562171353165
 20
-0.6429175251698679
 10
0.9130986721286982
 20
-0.6238626406515675
 10
0.9146488251145424
 20
-0.6061814369458752
  0
LINE
  5
EB
330
90
100
AcDbEntity
  8
AM_4
100
AcDbLine
 10
-0.8832
 20
-1.04
 30
0.0
 11
0.8832
 21
-1.04
 31
0.0
  0
LINE
  5
EC
330
90
100
AcDbEntity
  8
AM_4
100
AcDbLine
 10
-0.92
 20
-1.0032
 30
0.0
 11
0.92
 21
-1.0032
 31
0.0
  0
LINE
  5
ED
330
90
100
AcDbEntity
  8
AM_4
100
AcDbLine
 10
0.8832
 20
-1.04
 30
0.0
 11
0.92
 21
-1.0032
 31
0.0
  0
LINE
  5
EE
330
90
100
AcDbEntity
  8
AM_4
100
AcDbLine
 10
-0.92
 20
-1.0032
 30
0.0
 11
-0.8832
 21
-1.04
 31
0.0
  0
LINE
  5
EF
330
90
100
AcDbEntity
  8
AM_4
100
AcDbLine
 10
-0.8832000000000002
 20
0.67
 30
0.0
 11
0.8832000000000002
 21
0.67
 31
0.0
  0
LINE
  5
F0
330
90
100
AcDbEntity
  8
AM_4
100
AcDbLine
 10
-0.8832000000000002
 20
0.67
 30
0.0
 11
-0.9200000000000002
 21
0.6332
 31
0.0
  0
LINE
  5
F1
330
90
100
AcDbEntity
  8
AM_4
100
AcDbLine
 10
0.9200000000000002
 20
0.6332
 30
0.0
 11
0.8832000000000002
 21
0.67
 31
0.0
  0
LINE
  5
F2
330
90
100
AcDbEntity
  8
AM_4
100
AcDbLine
 10
-0.9199999999999997
 20
0.6332
 30
0.0
 11
0.9199999999999997
 21
0.6332
 31
0.0
  0
LINE
  5
F3
330
90
100
AcDbEntity
  8
AM_4
100
AcDbLine
 10
0.9199999999999997
 20
0.5309999999999997
 30
0.0
 11
0.9199999999999997
 21
0.6332
 31
0.0
  0
LINE
  5
F4
330
90
100
AcDbEntity
  8
AM_4
100
AcDbLine
 10
-0.9199999999999997
 20
0.6332
 30
0.0
 11
-0.9199999999999997
 21
0.5309999999999997
 31
0.0
  0
ENDBLK
  5
93
330
90
100
AcDbEntity
  8
0
100
AcDbBlockEnd
  0
BLOCK
  5
F7
330
F5
100
AcDbEntity
  8
0
100
AcDbBlockBegin
  2
3_405016_Inch_0_in_135118_4
 70
     2
 10
0.0
 20
0.0
 30
0.0
  3
3_405016_Inch_0_in_135118_4
  1

  0
ATTDEF
  5
F9
330
F5
100
AcDbEntity
  8
AM_6
100
AcDbText
 10
3.616166398788183
 20
0.2187500000000001
 30
0.0
 40
0.5
  1
405016 -Inch
100
AcDbAttributeDefinition
  3

  2
NN
 70
     8
280
     0
  0
ATTDEF
  5
FA
330
F5
100
AcDbEntity
  8
AM_6
100
AcDbText
 10
3.616166398788183
 20
-0.2812499999999999
 30
0.0
 40
0.5
  1
Grease Fitting
100
AcDbAttributeDefinition
  3

  2
NT
 70
     8
280
     0
  0
ATTDEF
  5
FB
330
F5
100
AcDbEntity
  8
AM_6
100
AcDbText
 10
3.616166398788183
 20
-0.7812499999999999
 30
0.0
 40
0.5
  1
405016-Inch
100
AcDbAttributeDefinition
  3

  2
NB
 70
     8
280
     0
  0
ATTDEF
  5
FC
330
F5
100
AcDbEntity
  8
AM_6
100
AcDbText
 10
3.616166398788183
 20
-1.28125
 30
0.0
 40
0.5
  1
$MN.-Inch
100
AcDbAttributeDefinition
  3

  2
NBSYN
 70
     8
280
     0
  0
ATTDEF
  5
FD
330
F5
100
AcDbEntity
  8
AM_6
100
AcDbText
 10
3.616166398788183
 20
-1.78125
 30
0.0
 40
0.5
  1
405016
100
AcDbAttributeDefinition
  3

  2
LINA
 70
     8
280
     0
  0
ATTDEF
  5
FE
330
F5
100
AcDbEntity
  8
AM_6
100
AcDbText
 10
3.616166398788183
 20
-2.28125
 30
0.0
 40
0.5
  1
405016
100
AcDbAttributeDefinition
  3

  2
MN
 70
     8
280
     0
  0
ATTDEF
  5
FF
330
F5
100
AcDbEntity
  8
AM_6
100
AcDbText
 10
3.616166398788183
 20
-2.78125
 30
0.0
 40
0.5
  1
7/16 HEX
100
AcDbAttributeDefinition
  3

  2
H
 70
     8
280
     0
  0
ATTDEF
  5
100
330
F5
100
AcDbEntity
  8
AM_6
100
AcDbText
 10
3.616166398788183
 20
-3.28125
 30
0.0
 40
0.5
  1
0.383
100
AcDbAttributeDefinition
  3

  2
NDR
 70
     8
280
     0
  0
ATTDEF
  5
101
330
F5
100
AcDbEntity
  8
AM_6
100
AcDbText
 10
3.616166398788183
 20
-3.78125
 30
0.0
 40
0.5
  1
0.337
100
AcDbAttributeDefinition
  3

  2
KDR
 70
     8
280
     0
  0
ATTDEF
  5
102
330
F5
100
AcDbEntity
  8
AM_6
100
AcDbText
 10
3.616166398788183
 20
-4.28125
 30
0.0
 40
0.5
  1
0.1575
100
AcDbAttributeDefinition
  3

  2
BZE
 70
     8
280
     0
  0
ATTDEF
  5
103
330
F5
100
AcDbEntity
  8
AM_6
100
AcDbText
 10
3.616166398788183
 20
-4.78125
 30
0.0
 40
0.5
  1
0.4375
100
AcDbAttributeDefinition
  3

  2
HEX
 70
     8
280
     0
  0
ATTDEF
  5
104
330
F5
100
AcDbEntity
  8
AM_6
100
AcDbText
 10
3.616166398788183
 20
-5.28125
 30
0.0
 40
0.5
  1
0.281250
100
AcDbAttributeDefinition
  3

  2
HEX2
 70
     8
280
     0
  0
ATTDEF
  5
105
330
F5
100
AcDbEntity
  8
AM_6
100
AcDbText
 10
3.616166398788183
 20
-5.78125
 30
0.0
 40
0.5
  1
baldor
100
AcDbAttributeDefinition
  3

  2
COMPANY
 70
     8
280
     0
  0
LINE
  5
106
330
F5
100
AcDbEntity
  8
AM_9
100
AcDbLine
 10
-2.080976419042361
 20
-0.151074129835757
 30
0.0
 11
-2.092297992266238
 21
-0.1791093260592887
 31
0.0
  0
LINE
  5
107
330
F5
100
AcDbEntity
  8
AM_9
100
AcDbLine
 10
-1.929801573003864
 20
-0.2099962668917053
 30
0.0
 11
-1.941488819223409
 21
-0.2389369657326276
 31
0.0
  0
LWPOLYLINE
  5
108
330
F5
100
AcDbEntity
  8
AM_9
100
AcDbPolyline
 90
        3
 70
     0
 43
0.0
 10
-1.713647767738458
 20
0.1093749999999999
 10
-1.695788117754535
 20
0.0546874999999999
 10
-1.674221153203534
 20
-0.0000000000000001
  0
LWPOLYLINE
  5
109
330
F5
100
AcDbEntity
  8
AM_9
100
AcDbPolyline
 90
        3
 70
     0
 43
0.0
 10
-1.674221153203534
 20
-0.0000000000000001
 10
-1.695698824121157
 20
-0.0544416102741496
 10
-1.713647767738458
 20
-0.109375
  0
LWPOLYLINE
  5
10A
330
F5
100
AcDbEntity
  8
AM_9
100
AcDbPolyline
 90
        3
 70
     0
 43
0.0
 10
-1.871870724581774
 20
-0.2987675689889718
 10
-1.88775800914487
 20
-0.2912216284034024
 10
-1.902968010842884
 20
-0.2813919000363599
  0
LWPOLYLINE
  5
10B
330
F5
100
AcDbEntity
  8
AM_9
100
AcDbPolyline
 90
        3
 70
     0
 43
0.0
 10
-1.603324156202323
 20
-0.0000000000000001
 10
-1.613278363631597
 20
0.0544416102741495
 10
-1.627045227360014
 20
0.1093749999999999
  0
LWPOLYLINE
  5
10C
330
F5
100
AcDbEntity
  8
AM_9
100
AcDbPolyline
 90
        3
 70
     0
 43
0.0
 10
-1.622730307455259
 20
-0.093837228759079
 10
-1.61333103449763
 20
-0.0546875000000001
 10
-1.603324156202323
 20
-0.0000000000000001
  0
LWPOLYLINE
  5
10D
330
F5
100
AcDbEntity
  8
AM_9
100
AcDbPolyline
 90
        3
 70
     0
 43
0.0
 10
-1.713647767738458
 20
-0.109375
 10
-1.727361960600842
 20
-0.1640625
 10
-1.737368838896149
 20
-0.2187500000000001
  0
LINE
  5
10E
330
F5
100
AcDbEntity
  8
AM_9
100
AcDbLine
 10
-1.674221153203534
 20
-0.0000000000000001
 30
0.0
 11
-1.603324156202323
 21
-0.0000000000000001
 31
0.0
  0
LWPOLYLINE
  5
10F
330
F5
100
AcDbEntity
  8
AM_9
100
AcDbPolyline
 90
        3
 70
     0
 43
0.0
 10
-1.737368838896149
 20
0.2187499999999999
 10
-1.727414631466875
 20
0.1643083897258503
 10
-1.713647767738458
 20
0.1093749999999999
  0
ELLIPSE
  5
110
330
F5
100
AcDbEntity
  8
AM_9
100
AcDbEllipse
 10
-2.114152367430864
 20
-0.4687500000000001
 30
0.0
 11
-0.0959538295573177
 21
0.03874944547499708
 31
0.0
210
0.0
220
0.0
230
1.0
 40
0.211309130870352
 41
3.040609649696539
 42
6.384168311072839
  0
ELLIPSE
  5
111
330
F5
100
AcDbEntity
  8
AM_9
100
AcDbEllipse
 10
-2.086158705233381
 20
-0.3994303217889759
 30
0.0
 11
-0.1290248947933268
 21
0.05210467522533593
 31
0.0
210
0.0
220
0.0
230
1.0
 40
0.2113091308703454
 41
3.037441878456053
 42
5.801105639492176
  0
ELLIPSE
  5
112
330
F5
100
AcDbEntity
  8
AM_9
100
AcDbEllipse
 10
-2.075483723756057
 20
-0.3729962569746378
 30
0.0
 11
-0.1235034625625713
 21
0.0498749316272112
 31
0.0
210
0.0
220
0.0
230
1.0
 40
0.2113091308703093
 41
3.396607561834637
 42
6.028206365739499
  0
LWPOLYLINE
  5
113
330
F5
100
AcDbEntity
  8
AM_9
100
AcDbPolyline
 90
        5
 70
     0
 43
0.0
 10
-2.092297992266238
 20
-0.1791093260592887
 10
-2.114160380764864
 20
-0.1842540823997054
 10
-2.135056467694857
 20
-0.1862220679364951
 10
-2.154974087249766
 20
-0.1844124966919381
 10
-2.173487873871029
 20
-0.1791093260592887
  0
LWPOLYLINE
  5
114
330
F5
100
AcDbEntity
  8
AM_9
100
AcDbPolyline
 90
        5
 70
     0
 43
0.0
 10
-1.941488819223409
 20
-0.2389369657326276
 10
-1.980330107910838
 20
-0.2295338871417796
 10
-2.018465154622756
 20
-0.216687117104632
 10
-2.05608394898394
 20
-0.1996402057054678
 10
-2.092297992266238
 20
-0.1791093260592887
  0
LWPOLYLINE
  5
115
330
F5
100
AcDbEntity
  8
AM_9
100
AcDbPolyline
 90
        3
 70
     0
 43
0.0
 10
-1.914989541024691
 20
-0.2711532636537956
 10
-1.928724718789264
 20
-0.2561815527589921
 10
-1.941488819223409
 20
-0.2389369657326276
  0
ELLIPSE
  5
116
330
F5
100
AcDbEntity
  8
AM_9
100
AcDbEllipse
 10
-2.024482820492065
 20
-0.2467045921760147
 30
0.0
 11
-0.1303939210191594
 21
0.05265753494272574
 31
0.0
210
0.0
220
0.0
230
1.0
 40
0.2113091308703555
 41
3.806340372002699
 42
6.919181903097289
  0
LINE
  5
117
330
F5
100
AcDbEntity
  8
AM_9
100
AcDbLine
 10
-1.658732323888253
 20
0.2000413016192557
 30
0.0
 11
-1.666471841894938
 21
0.2187499999999999
 31
0.0
  0
LWPOLYLINE
  5
118
330
F5
100
AcDbEntity
  8
AM_9
100
AcDbPolyline
 90
        3
 70
     0
 43
0.0
 10
-1.638663338751799
 20
0.146310387277265
 10
-1.644904877343937
 20
0.1640624999999999
 10
-1.658732323888253
 20
0.2000413016192557
  0
LINE
  5
119
330
F5
100
AcDbEntity
  8
AM_9
100
AcDbLine
 10
-1.627045227360014
 20
0.1093749999999999
 30
0.0
 11
-1.638663338751799
 21
0.146310387277265
 31
0.0
  0
LINE
  5
11A
330
F5
100
AcDbEntity
  8
AM_9
100
AcDbLine
 10
-1.638819973815756
 20
-0.1467707280479976
 30
0.0
 11
-1.627045227360014
 21
-0.109375
 31
0.0
  0
LWPOLYLINE
  5
11B
330
F5
100
AcDbEntity
  8
AM_9
100
AcDbPolyline
 90
        3
 70
     0
 43
0.0
 10
-1.658732201806288
 20
-0.2000409996967266
 10
-1.644994170977315
 20
-0.1643083897258505
 10
-1.638819973815756
 20
-0.1467707280479976
  0
LINE
  5
11C
330
F5
100
AcDbEntity
  8
AM_9
100
AcDbLine
 10
-1.666471841894938
 20
-0.2187500000000001
 30
0.0
 11
-1.658732201806288
 21
-0.2000409996967266
 31
0.0
  0
LINE
  5
11D
330
F5
100
AcDbEntity
  8
AM_9
100
AcDbLine
 10
-2.092111219894251
 20
-0.1204089378707286
 30
0.0
 11
-2.093196664883963
 21
-0.1230967854582223
 31
0.0
  0
LINE
  5
11E
330
F5
100
AcDbEntity
  8
AM_9
100
AcDbLine
 10
-1.886990991468376
 20
-0.2
 30
0.0
 11
-1.884322512123672
 21
-0.193392142543456
 31
0.0
  0
ELLIPSE
  5
11F
330
F5
100
AcDbEntity
  8
AM_9
100
AcDbEllipse
 10
-2.006182912953514
 20
-0.2013892028241913
 30
0.0
 11
-0.1019970226638906
 21
0.04118989399965287
 31
0.0
210
0.0
220
0.0
230
1.0
 40
0.2113091308703512
 41
3.141592653589793
 42
6.283185307179586
  0
LWPOLYLINE
  5
120
330
F5
100
AcDbEntity
  8
AM_9
100
AcDbPolyline
 90
        4
 70
     0
 43
0.0
 10
-2.09211594954927
 20
-0.1204206514110939
 10
-2.0922551155338
 20
-0.1208367673933812
 10
-2.091677531576673
 20
-0.1245107513506023
 10
-2.089767940696954
 20
-0.1273655731214822
  0
LWPOLYLINE
  5
121
330
F5
100
AcDbEntity
  8
AM_9
100
AcDbPolyline
 90
        5
 70
     0
 43
0.0
 10
-1.884321567922184
 20
-0.1933898041312626
 10
-1.884414904053336
 20
-0.1936098952159724
 10
-1.887630441005974
 20
-0.1971856748420371
 10
-1.893648804248756
 20
-0.1994144431868155
 10
-1.900512774829199
 20
-0.1999999999699529
  0
LWPOLYLINE
  5
122
330
F5
100
AcDbEntity
  8
AM_9
100
AcDbPolyline
 90
        3
 70
     0
 43
0.0
 10
-1.993809906041637
 20
-0.1745741884610188
 10
-1.966420830668207
 20
-0.1876759562813858
 10
-1.929801573003864
 20
-0.2099962668917053
  0
LWPOLYLINE
  5
123
330
F5
100
AcDbEntity
  8
AM_9
100
AcDbPolyline
 90
        3
 70
     0
 43
0.0
 10
-2.080976419042361
 20
-0.151074129835757
 10
-2.051771811542837
 20
-0.1564222384464442
 10
-2.023101312600543
 20
-0.1639312493177431
  0
LWPOLYLINE
  5
124
330
F5
100
AcDbEntity
  8
AM_9
100
AcDbPolyline
 90
        3
 70
     0
 43
0.0
 10
-1.929801573003864
 20
-0.2099962668917053
 10
-1.912827890670341
 20
-0.2163479371246913
 10
-1.896689633486158
 20
-0.2258378743019629
  0
LWPOLYLINE
  5
125
330
F5
100
AcDbEntity
  8
AM_9
100
AcDbPolyline
 90
        4
 70
     0
 43
0.0
 10
-2.117887299386856
 20
-0.141958509815605
 10
-2.114012179940807
 20
-0.1420496512545706
 10
-2.099523264826057
 20
-0.1441228263802214
 10
-2.080976419042361
 20
-0.151074129835757
  0
ELLIPSE
  5
126
330
F5
100
AcDbEntity
  8
AM_9
100
AcDbEllipse
 10
-2.006182912953517
 20
-0.201389202824187
 30
0.0
 11
-0.130393921019174
 21
0.0526575349427344
 31
0.0
210
0.0
220
0.0
230
1.0
 40
0.2113091308703413
 41
3.814164134970078
 42
4.685972195439001
  0
ELLIPSE
  5
127
330
F5
100
AcDbEntity
  8
AM_9
100
AcDbEllipse
 10
-2.006182912953516
 20
-0.2013892028241877
 30
0.0
 11
-0.1303939210191767
 21
0.05265753494273399
 31
0.0
210
0.0
220
0.0
230
1.0
 40
0.2113091308703436
 41
-1.281014045997027
 42
-0.6725714813802774
  0
LINE
  5
128
330
F5
100
AcDbEntity
  8
AM_9
100
AcDbLine
 10
-1.902968010842884
 20
-0.2813919000363599
 30
0.0
 11
-1.914989541024691
 21
-0.2711532636537956
 31
0.0
  0
ELLIPSE
  5
129
330
F5
100
AcDbEntity
  8
AM_9
100
AcDbEllipse
 10
-2.024482820492054
 20
-0.2467045921760196
 30
0.0
 11
-0.1303939210191771
 21
0.05265753494273497
 31
0.0
210
0.0
220
0.0
230
1.0
 40
0.2113091308703496
 41
2.800469246484378
 42
3.607080702195127
  0
ELLIPSE
  5
12A
330
F5
100
AcDbEntity
  8
AM_9
100
AcDbEllipse
 10
-2.02448282049557
 20
-0.2467045921705658
 30
0.0
 11
-0.1303939210243299
 21
0.05265753494748737
 31
0.0
210
0.0
220
0.0
230
1.0
 40
0.2113091308825718
 41
-3.777589249503418
 42
-3.764628581855735
  0
LINE
  5
12B
330
F5
100
AcDbEntity
  8
AM_9
100
AcDbLine
 10
-2.152153245037855
 20
-0.2048209813445354
 30
0.0
 11
-2.151163200628155
 21
-0.2063541990713325
 31
0.0
  0
LWPOLYLINE
  5
12C
330
F5
100
AcDbEntity
  8
AM_9
100
AcDbPolyline
 90
       17
 70
     0
 43
0.0
 10
-1.89099767727426
 20
-0.1790373738501779
 10
-1.898965142350453
 20
-0.1733931390117467
 10
-1.909721215784635
 20
-0.1670729780242511
 10
-1.922364267307078
 20
-0.1606047421316795
 10
-1.937254690452919
 20
-0.1538031670974777
 10
-1.9531565672598
 20
-0.1472336073736393
 10
-1.970517537081519
 20
-0.1407130262602576
 10
-1.987873014211763
 20
-0.1347930597680667
 10
-2.005730725796052
 20
-0.1293028157827817
 10
-2.022560487296126
 20
-0.1247141396218192
 10
-2.038877231196831
 20
-0.1208880884981781
 10
-2.053276282056665
 20
-0.1181545989145989
 10
-2.066208634922412
 20
-0.1164278875396128
 10
-2.076568363082112
 20
-0.1158549073091554
 10
-2.08467853789881
 20
-0.1164156227038167
 10
-2.089855179089651
 20
-0.1180609686233501
 10
-2.09211594954927
 20
-0.1204206514110939
  0
LWPOLYLINE
  5
12D
330
F5
100
AcDbEntity
  8
AM_9
100
AcDbPolyline
 90
        4
 70
     0
 43
0.0
 10
-1.89099767727426
 20
-0.1790373738501784
 10
-1.886043016802192
 20
-0.1842628795203941
 10
-1.88393513233545
 20
-0.1891729979031393
 10
-1.884321567922184
 20
-0.1933898041312626
  0
LINE
  5
12E
330
F5
100
AcDbEntity
  8
AM_9
100
AcDbLine
 10
-1.808369296277381
 20
0.1999999999999999
 30
0.0
 11
-1.871058598127437
 21
0.1999999999999999
 31
0.0
  0
LINE
  5
12F
330
F5
100
AcDbEntity
  8
AM_9
100
AcDbLine
 10
-1.871061242214814
 20
-0.2
 30
0.0
 11
-1.808369296277381
 21
-0.2
 31
0.0
  0
ELLIPSE
  5
130
330
F5
100
AcDbEntity
  8
AM_9
100
AcDbEllipse
 10
-1.72176675589894
 20
-0.0000000000000001
 30
0.0
 11
1.339457436567419E-17
 21
0.2187500000000002
 31
0.0
210
0.0
220
0.0
230
1.0
 40
0.5000000000000066
 41
1.957625667140846
 42
7.4723846773591
  0
LINE
  5
131
330
F5
100
AcDbEntity
  8
AM_9
100
AcDbLine
 10
-1.654108521228278
 20
0.1999999999999999
 30
0.0
 11
-1.721766755898937
 21
0.1999999999999999
 31
0.0
  0
LINE
  5
132
330
F5
100
AcDbEntity
  8
AM_9
100
AcDbLine
 10
-1.721766755898937
 20
-0.2
 30
0.0
 11
-1.654108521228278
 21
-0.2
 31
0.0
  0
LINE
  5
133
330
F5
100
AcDbEntity
  8
AM_9
100
AcDbLine
 10
-1.81
 20
0.2187499999999999
 30
0.0
 11
-1.666471841894938
 21
0.2187499999999999
 31
0.0
  0
LINE
  5
134
330
F5
100
AcDbEntity
  8
AM_9
100
AcDbLine
 10
-1.809481635661459
 20
0.1352835783769625
 30
0.0
 11
-1.81648828443786
 21
0.1093749999999999
 31
0.0
  0
LWPOLYLINE
  5
135
330
F5
100
AcDbEntity
  8
AM_9
100
AcDbPolyline
 90
        3
 70
     0
 43
0.0
 10
-1.793380829516708
 20
0.2148295685357332
 10
-1.802721420709443
 20
0.1643083897258503
 10
-1.809481635661459
 20
0.1352835783769625
  0
LINE
  5
136
330
F5
100
AcDbEntity
  8
AM_9
100
AcDbLine
 10
-1.792767213280169
 20
0.2187499999999999
 30
0.0
 11
-1.793380829516708
 21
0.2148295685357332
 31
0.0
  0
LINE
  5
137
330
F5
100
AcDbEntity
  8
AM_9
100
AcDbLine
 10
-1.81648828443786
 20
0.1093749999999999
 30
0.0
 11
-1.82085807544519
 21
0.0947600943471902
 31
0.0
  0
LINE
  5
138
330
F5
100
AcDbEntity
  8
AM_9
100
AcDbLine
 10
-1.81
 20
-0.2187500000000001
 30
0.0
 11
-1.666471841894938
 21
-0.2187500000000001
 31
0.0
  0
LINE
  5
139
330
F5
100
AcDbEntity
  8
AM_9
100
AcDbLine
 10
-1.793306928210295
 20
-0.2152969123641332
 30
0.0
 11
-1.792767213280169
 21
-0.2187500000000001
 31
0.0
  0
LWPOLYLINE
  5
13A
330
F5
100
AcDbEntity
  8
AM_9
100
AcDbPolyline
 90
        3
 70
     0
 43
0.0
 10
-1.8094859426657
 20
-0.1352665127984073
 10
-1.802774091575476
 20
-0.1640625
 10
-1.793306928210295
 20
-0.2152969123641332
  0
LINE
  5
13B
330
F5
100
AcDbEntity
  8
AM_9
100
AcDbLine
 10
-1.81648828443786
 20
-0.109375
 30
0.0
 11
-1.8094859426657
 21
-0.1352665127984073
 31
0.0
  0
LINE
  5
13C
330
F5
100
AcDbEntity
  8
AM_9
100
AcDbLine
 10
-1.820839210841277
 20
-0.0948210969654816
 30
0.0
 11
-1.81648828443786
 21
-0.109375
 31
0.0
  0
LINE
  5
13D
330
F5
100
AcDbEntity
  8
AM_9
100
AcDbLine
 10
-1.483563903605875
 20
0.1853871066562612
 30
0.0
 11
-1.652380793289943
 21
0.1914800577488989
 31
0.0
  0
LINE
  5
13E
330
F5
100
AcDbEntity
  8
AM_9
100
AcDbLine
 10
-1.652380793289943
 20
-0.191480057748899
 30
0.0
 11
-1.483563903605875
 21
-0.1853871066562613
 31
0.0
  0
LINE
  5
13F
330
F5
100
AcDbEntity
  8
AM_9
100
AcDbLine
 10
-1.417997166323725
 20
0.1319978794387896
 30
0.0
 11
-1.431711293382793
 21
0.1513925839218323
 31
0.0
  0
LINE
  5
140
330
F5
100
AcDbEntity
  8
AM_9
100
AcDbLine
 10
-1.431711293382793
 20
-0.1513925839218324
 30
0.0
 11
-1.417997166323725
 21
-0.1319978794387897
 31
0.0
  0
ELLIPSE
  5
141
330
F5
100
AcDbEntity
  8
AM_9
100
AcDbEllipse
 10
-1.808369296277381
 20
0.0
 30
0.0
 11
1.339457436567418E-17
 21
0.2187500000000001
 31
0.0
210
0.0
220
0.0
230
1.0
 40
0.4999999999999988
 41
0.0
 42
6.283185307179586
  0
ELLIPSE
  5
142
330
F5
100
AcDbEntity
  8
AM_9
100
AcDbEllipse
 10
-1.808369296277381
 20
0.0
 30
0.0
 11
1.224646799147354E-17
 21
0.2000000000000001
 31
0.0
210
0.0
220
0.0
230
1.0
 40
0.4999999999999979
 41
0.0
 42
6.283185307179586
  0
ELLIPSE
  5
143
330
F5
100
AcDbEntity
  8
AM_9
100
AcDbEllipse
 10
-1.654108521228271
 20
-0.0000000000000035
 30
0.0
 11
1.224646799147374E-17
 21
0.2000000000000034
 31
0.0
210
0.0
220
0.0
230
1.0
 40
0.499999999999992
 41
0.0
 42
6.283185307179586
  0
ELLIPSE
  5
144
330
F5
100
AcDbEntity
  8
AM_9
100
AcDbEllipse
 10
-1.721766755898937
 20
0.0
 30
0.0
 11
1.224646799147352E-17
 21
0.1999999999999998
 31
0.0
210
0.0
220
0.0
230
1.0
 40
0.4999999999999987
 41
0.0
 42
6.283185307179586
  0
ELLIPSE
  5
145
330
F5
100
AcDbEntity
  8
AM_9
100
AcDbEllipse
 10
-1.654108521228278
 20
0.0000000000000001
 30
0.0
 11
1.172668097677219E-17
 21
0.1915112338502296
 31
0.0
210
0.0
220
0.0
230
1.0
 40
0.5000000000000012
 41
0.0
 42
6.283185307179586
  0
ELLIPSE
  5
146
330
F5
100
AcDbEntity
  8
AM_9
100
AcDbEllipse
 10
-1.485236654739035
 20
0.0000000000000001
 30
0.0
 11
1.135353457964645E-17
 21
0.1854172907249865
 31
0.0
210
0.0
220
0.0
230
1.0
 40
0.4999999999999974
 41
0.0
 42
6.283185307179586
  0
ELLIPSE
  5
147
330
F5
100
AcDbEntity
  8
AM_9
100
AcDbEllipse
 10
-1.464665464150439
 20
-0.0000000000000113
 30
0.0
 11
9.899048221689780E-18
 21
0.1616637258772388
 31
0.0
210
0.0
220
0.0
230
1.0
 40
0.5000000000000134
 41
0.0
 42
6.283185307179586
  0
LWPOLYLINE
  5
148
330
F5
100
AcDbEntity
  8
AM_4
100
AcDbPolyline
 90
        3
 70
     0
 43
0.0
 10
-1.884668103304351
 20
-0.2360765106845277
 10
-1.875503116727793
 20
-0.2462091938631851
 10
-1.859815075270795
 20
-0.2689146070947222
  0
LWPOLYLINE
  5
149
330
F5
100
AcDbEntity
  8
AM_4
100
AcDbPolyline
 90
        3
 70
     0
 43
0.0
 10
-1.859815075270795
 20
-0.2689146070947222
 10
-1.872810963120407
 20
-0.2634308483997528
 10
-1.887024863234647
 20
-0.2602304684431305
  0
LWPOLYLINE
  5
14A
330
F5
100
AcDbEntity
  8
AM_4
100
AcDbPolyline
 90
        3
 70
     0
 43
0.0
 10
-1.90532477077318
 20
-0.3055458577949631
 10
-1.888942816154203
 20
-0.3030753670497808
 10
-1.871870724581774
 20
-0.2987675689889718
  0
LINE
  5
14B
330
F5
100
AcDbEntity
  8
AM_4
100
AcDbLine
 10
-1.859815075270795
 20
-0.2689146070947222
 30
0.0
 11
-1.871870724581774
 21
-0.2987675689889718
 31
0.0
  0
LINE
  5
14C
330
F5
100
AcDbEntity
  8
AM_4
100
AcDbLine
 10
-2.019512825559518
 20
-0.5093460834378319
 30
0.0
 11
-1.958901075292255
 21
-0.4540180898723598
 31
0.0
  0
LINE
  5
14D
330
F5
100
AcDbEntity
  8
AM_4
100
AcDbLine
 10
-2.215636242592129
 20
-0.3503396289636352
 30
0.0
 11
-2.210442820301399
 21
-0.4322420068738781
 31
0.0
  0
ELLIPSE
  5
14E
330
F5
100
AcDbEntity
  8
AM_4
100
AcDbEllipse
 10
-2.114152367430865
 20
-0.4687500000000002
 30
0.0
 11
-0.09595382955731808
 21
0.03874944547499724
 31
0.0
210
0.0
220
0.0
230
1.0
 40
0.2113091308703446
 41
0.1009830038932478
 42
3.040609649696546
  0
LINE
  5
14F
330
F5
100
AcDbEntity
  8
AM_4
100
AcDbLine
 10
-2.162166300647152
 20
-0.151074129835757
 30
0.0
 11
-2.173487873871029
 21
-0.1791093260592887
 31
0.0
  0
LWPOLYLINE
  5
150
330
F5
100
AcDbEntity
  8
AM_4
100
AcDbPolyline
 90
       10
 70
     0
 43
0.0
 10
-2.191798140704609
 20
-0.3179796423354091
 10
-2.192561680596996
 20
-0.3182210124272047
 10
-2.19805740762575
 20
-0.3204737779838306
 10
-2.203021482650612
 20
-0.3235101059334982
 10
-2.207413252498607
 20
-0.3273972268033069
 10
-2.21105363106294
 20
-0.332107877055796
 10
-2.213943374355521
 20
-0.3380719536024162
 10
-2.215421730750879
 20
-0.3441778849601215
 10
-2.215650660563168
 20
-0.3500977367277949
 10
-2.215598749272612
 20
-0.350863015196281
  0
LWPOLYLINE
  5
151
330
F5
100
AcDbEntity
  8
AM_4
100
AcDbPolyline
 90
        9
 70
     0
 43
0.0
 10
-1.959203625109113
 20
-0.4542907588954057
 10
-1.956148766936425
 20
-0.4511699964107201
 10
-1.952737706302723
 20
-0.4462655881454801
 10
-1.950181527968361
 20
-0.4402396419845021
 10
-1.949007066521244
 20
-0.4341522769860206
 10
-1.949033128931502
 20
-0.4282998880637196
 10
-1.95004664046164
 20
-0.4227828043639699
 10
-1.951893404381396
 20
-0.4175786201429949
 10
-1.953587421247832
 20
-0.414170805702311
  0
ELLIPSE
  5
152
330
F5
100
AcDbEntity
  8
AM_4
100
AcDbEllipse
 10
-2.086158705233381
 20
-0.3994303217889759
 30
0.0
 11
-0.1290248947933268
 21
0.05210467522533579
 31
0.0
210
0.0
220
0.0
230
1.0
 40
0.2113091308703563
 41
0.1051399343630184
 42
3.037441878456052
  0
LWPOLYLINE
  5
153
330
F5
100
AcDbEntity
  8
AM_4
100
AcDbPolyline
 90
        3
 70
     0
 43
0.0
 10
-1.953060606186565
 20
-0.2987675689889718
 10
-1.939527340686175
 20
-0.3030606061861223
 10
-1.92596805606119
 20
-0.305456396233367
  0
ELLIPSE
  5
154
330
F5
100
AcDbEntity
  8
AM_4
100
AcDbEllipse
 10
-2.024482820492052
 20
-0.2467045921760188
 30
0.0
 11
-0.1303939210191767
 21
0.05265753494273546
 31
0.0
210
0.0
220
0.0
230
1.0
 40
0.2113091308703557
 41
1.711945269609646
 42
2.505596057672107
  0
LWPOLYLINE
  5
155
330
F5
100
AcDbEntity
  8
AM_4
100
AcDbPolyline
 90
        4
 70
     0
 43
0.0
 10
-2.173487873871029
 20
-0.1791093260592887
 10
-2.158610755827953
 20
-0.1988355121406939
 10
-2.142181483585279
 20
-0.2156330920108724
 10
-2.136684464973936
 20
-0.2201680623457971
  0
LWPOLYLINE
  5
156
330
F5
100
AcDbEntity
  8
AM_4
100
AcDbPolyline
 90
        3
 70
     0
 43
0.0
 10
-2.136684464973936
 20
-0.2201680623457971
 10
-2.123743943375308
 20
-0.2290462109660021
 10
-2.103868582432992
 20
-0.2389369657326275
  0
LWPOLYLINE
  5
157
330
F5
100
AcDbEntity
  8
AM_4
100
AcDbPolyline
 90
        4
 70
     0
 43
0.0
 10
-1.906781263187915
 20
-0.2602304684431209
 10
-1.916029898601809
 20
-0.2616913382589203
 10
-1.928327416051443
 20
-0.2647402074337707
 10
-1.941004956875586
 20
-0.2689146070947222
  0
LINE
  5
158
330
F5
100
AcDbEntity
  8
AM_4
100
AcDbLine
 10
-2.093196664883963
 20
-0.1230967854582223
 30
0.0
 11
-2.108179935617405
 21
-0.1601993088245384
 31
0.0
  0
LINE
  5
159
330
F5
100
AcDbEntity
  8
AM_4
100
AcDbLine
 10
-1.90418589028963
 20
-0.2425790968238377
 30
0.0
 11
-1.886990991468376
 21
-0.2
 31
0.0
  0
ELLIPSE
  5
15A
330
F5
100
AcDbEntity
  8
AM_4
100
AcDbEllipse
 10
-2.006182912953517
 20
-0.2013892028241881
 30
0.0
 11
-0.1019970226638876
 21
0.04118989399964963
 31
0.0
210
0.0
220
0.0
230
1.0
 40
0.2113091308703499
 41
0.0
 42
3.141592653589793
  0
LWPOLYLINE
  5
15B
330
F5
100
AcDbEntity
  8
AM_4
100
AcDbPolyline
 90
        4
 70
     0
 43
0.0
 10
-2.162166300647152
 20
-0.151074129835757
 10
-2.145550458659624
 20
-0.145877822676052
 10
-2.12949584600449
 20
-0.1427138007556462
 10
-2.117887299386856
 20
-0.141958509815605
  0
LWPOLYLINE
  5
15C
330
F5
100
AcDbEntity
  8
AM_4
100
AcDbPolyline
 90
        6
 70
     0
 43
0.0
 10
-2.092181336213446
 20
-0.2099962668917053
 10
-2.102490472570775
 20
-0.1943573015029059
 10
-2.113834299404985
 20
-0.1805491420332303
 10
-2.126548273981792
 20
-0.1688997677199809
 10
-2.140444200171484
 20
-0.1598729403210871
 10
-2.162166300647152
 20
-0.151074129835757
  0
LINE
  5
15D
330
F5
100
AcDbEntity
  8
AM_4
100
AcDbLine
 10
-2.116557445844026
 20
-0.1419585097669023
 30
0.0
 11
-2.11799592249218
 21
-0.1419585097669023
 31
0.0
  0
ELLIPSE
  5
15E
330
F5
100
AcDbEntity
  8
AM_4
100
AcDbEllipse
 10
-2.00618291295352
 20
-0.2013892028241692
 30
0.0
 11
-0.1303939210191696
 21
0.05265753494271745
 31
0.0
210
0.0
220
0.0
230
1.0
 40
0.2113091308702863
 41
5.610613825799279
 42
7.795870906981607
  0
ELLIPSE
  5
15F
330
F5
100
AcDbEntity
  8
AM_4
100
AcDbEllipse
 10
-2.02448282049205
 20
-0.2467045921760201
 30
0.0
 11
-0.1303939210191754
 21
0.05265753494273366
 31
0.0
210
0.0
220
0.0
230
1.0
 40
0.2113091308703541
 41
0.6359965959176863
 42
1.512685599801933
  0
LWPOLYLINE
  5
160
330
F5
100
AcDbEntity
  8
AM_4
100
AcDbPolyline
 90
        3
 70
     0
 43
0.0
 10
-1.92508117072645
 20
-0.3055458577949631
 10
-1.915630971840141
 20
-0.3064767622622302
 10
-1.90532477077318
 20
-0.3055458577949631
  0
LWPOLYLINE
  5
161
330
F5
100
AcDbEntity
  8
AM_4
100
AcDbPolyline
 90
       19
 70
     0
 43
0.0
 10
-1.953198488209924
 20
-0.4148847432022874
 10
-1.954453590554265
 20
-0.4123135894728973
 10
-1.956744894276204
 20
-0.406675544746582
 10
-1.958806336603846
 20
-0.3998021352362944
 10
-1.960325067421454
 20
-0.3918119419503268
 10
-1.961007000432387
 20
-0.3829691976979105
 10
-1.960641237114796
 20
-0.373610553181536
 10
-1.958871091737014
 20
-0.3629886884731723
 10
-1.955721454261859
 20
-0.3527485051597726
 10
-1.95137346307641
 20
-0.3432476332153497
 10
-1.946046059210452
 20
-0.3346807915031412
 10
-1.939984942416161
 20
-0.3271760700647737
 10
-1.93346553768589
 20
-0.3208168561703837
 10
-1.926806376842097
 20
-0.3156498164740306
 10
-1.920360979516481
 20
-0.3116675872831073
 10
-1.914470060785226
 20
-0.3087854234884754
 10
-1.909390414412337
 20
-0.3068403356302232
 10
-1.905263789115914
 20
-0.305628195347424
 10
-1.903499005714902
 20
-0.3052167629107484
  0
LWPOLYLINE
  5
162
330
F5
100
AcDbEntity
  8
AM_4
100
AcDbPolyline
 90
       19
 70
     0
 43
0.0
 10
-2.151163200628155
 20
-0.2063541990713325
 10
-2.150275229729454
 20
-0.2078377901544512
 10
-2.148047563231315
 20
-0.2120844171443499
 10
-2.145746567236352
 20
-0.2175381548561499
 10
-2.143631787021613
 20
-0.2242318594044154
 10
-2.142012598495725
 20
-0.2320700161049775
 10
-2.141190683778729
 20
-0.2408068386114605
 10
-2.141391676098746
 20
-0.2501104972475448
 10
-2.142739935267645
 20
-0.25964748866197
 10
-2.145568374899406
 20
-0.2699925326603997
 10
-2.149648710647583
 20
-0.279690667330227
 10
-2.154763972386953
 20
-0.288495038203076
 10
-2.160673433540028
 20
-0.2962622670242687
 10
-2.167110623404684
 20
-0.3029008794578571
 10
-2.173767677259318
 20
-0.3083544456962497
 10
-2.180296766576469
 20
-0.3126151677647643
 10
-2.186347652169331
 20
-0.3157478401145842
 10
-2.191638116035442
 20
-0.3178988872508692
 10
-2.192529013087546
 20
-0.3182084296736508
  0
ELLIPSE
  5
163
330
F5
100
AcDbEntity
  8
AM_4
100
AcDbEllipse
 10
-2.075483723756036
 20
-0.3729962569746642
 30
0.0
 11
-0.1235034625625957
 21
0.04987493162723568
 31
0.0
210
0.0
220
0.0
230
1.0
 40
0.2113091308703492
 41
6.042191569353569
 42
9.666215309998913
  0
ELLIPSE
  5
164
330
F5
100
AcDbEntity
  8
AM_4
100
AcDbEllipse
 10
-2.006182912953518
 20
-0.2013892028241883
 30
0.0
 11
-0.1303939210191811
 21
0.05265753494272017
 31
0.0
210
0.0
220
0.0
230
1.0
 40
0.2113091308703609
 41
1.71194526960961
 42
2.518556725320336
  0
LINE
  5
165
330
F5
100
AcDbEntity
  8
AM_4
100
AcDbLine
 10
-1.887024863234647
 20
-0.2602304684431305
 30
0.0
 11
-1.906781263187915
 21
-0.2602304684431209
 31
0.0
  0
ELLIPSE
  5
166
330
F5
100
AcDbEntity
  8
AM_4
100
AcDbEllipse
 10
-2.006182912953515
 20
-0.2013892028241898
 30
0.0
 11
-0.1303939210191722
 21
0.05265753494273239
 31
0.0
210
0.0
220
0.0
230
1.0
 40
0.2113091308703489
 41
2.800469246484364
 42
3.607080702195137
  0
LINE
  5
167
330
F5
100
AcDbEntity
  8
AM_4
100
AcDbLine
 10
-1.896689633486158
 20
-0.2258378743019629
 30
0.0
 11
-1.884668103304351
 21
-0.2360765106845277
 31
0.0
  0
LWPOLYLINE
  5
168
330
F5
100
AcDbEntity
  8
AM_4
100
AcDbPolyline
 90
        3
 70
     0
 43
0.0
 10
-1.941004956875586
 20
-0.2689146070947222
 10
-1.969067256844431
 20
-0.251275593729576
 10
-1.998855361682417
 20
-0.2360765106845275
  0
LINE
  5
169
330
F5
100
AcDbEntity
  8
AM_4
100
AcDbLine
 10
-1.998855361682417
 20
-0.2360765106845275
 30
0.0
 11
-2.024864170708401
 21
-0.2258378743019627
 31
0.0
  0
LWPOLYLINE
  5
16A
330
F5
100
AcDbEntity
  8
AM_4
100
AcDbPolyline
 90
        4
 70
     0
 43
0.0
 10
-2.024864170708401
 20
-0.2258378743019627
 10
-2.047854205400641
 20
-0.2189176876709014
 10
-2.069860075261326
 20
-0.2138633349839127
 10
-2.092181336213446
 20
-0.2099962668917053
  0
LINE
  5
16B
330
F5
100
AcDbEntity
  8
AM_4
100
AcDbLine
 10
-2.092181336213446
 20
-0.2099962668917053
 30
0.0
 11
-2.103868582432991
 21
-0.2389369657326276
 31
0.0
  0
LWPOLYLINE
  5
16C
330
F5
100
AcDbEntity
  8
AM_4
100
AcDbPolyline
 90
        3
 70
     0
 43
0.0
 10
-2.103868582432991
 20
-0.2389369657326276
 10
-2.074188761199189
 20
-0.2560939713202353
 10
-2.043164078246933
 20
-0.2711532636537956
  0
LINE
  5
16D
330
F5
100
AcDbEntity
  8
AM_4
100
AcDbLine
 10
-2.043164078246933
 20
-0.2711532636537956
 30
0.0
 11
-2.01715526922095
 21
-0.2813919000363599
 31
0.0
  0
LWPOLYLINE
  5
16E
330
F5
100
AcDbEntity
  8
AM_4
100
AcDbPolyline
 90
        3
 70
     0
 43
0.0
 10
-2.01715526922095
 20
-0.2813919000363599
 10
-1.985504718366926
 20
-0.2911775952746243
 10
-1.953060606186565
 20
-0.2987675689889718
  0
LINE
  5
16F
330
F5
100
AcDbEntity
  8
AM_4
100
AcDbLine
 10
-1.941004956875586
 20
-0.2689146070947222
 30
0.0
 11
-1.953060606186565
 21
-0.2987675689889718
 31
0.0
  0
ARC
  5
170
330
F5
100
AcDbEntity
  8
AM_4
100
AcDbCircle
 10
-1.93556677745822
 20
-0.0000000000000001
 30
0.0
 40
0.2
100
AcDbArc
 50
90.0
 51
219.6445471721137
  0
LWPOLYLINE
  5
171
330
F5
100
AcDbEntity
  8
AM_4
100
AcDbPolyline
 90
       10
 70
     0
 43
0.0
 10
-2.089767940696954
 20
-0.1273655731214822
 10
-2.088105827767549
 20
-0.1291842652280562
 10
-2.081828280499886
 20
-0.1344729790611519
 10
-2.072670681437165
 20
-0.1405186270901959
 10
-2.061374492275154
 20
-0.146827078301712
 10
-2.047633341134404
 20
-0.1535654953592165
 10
-2.032571851394922
 20
-0.1601799433259583
 10
-2.015778428575262
 20
-0.1668493358980661
 10
-1.998379092421267
 20
-0.1731116383367606
 10
-1.980135877642163
 20
-0.1790373738502115
  0
ELLIPSE
  5
172
330
F5
100
AcDbEntity
  8
AM_4
100
AcDbEllipse
 10
-1.93556677745822
 20
-0.0000000000000001
 30
0.0
 11
1.224646799147354E-17
 21
0.2000000000000001
 31
0.0
210
0.0
220
0.0
230
1.0
 40
0.4999999999999991
 41
0.0
 42
2.679646633022824
  0
LINE
  5
173
330
F5
100
AcDbEntity
  8
AM_4
100
AcDbLine
 10
-1.871058598127437
 20
0.1999999999999999
 30
0.0
 11
-1.93556677745822
 21
0.1999999999999999
 31
0.0
  0
LINE
  5
174
330
F5
100
AcDbEntity
  8
AM_4
100
AcDbLine
 10
-1.900660559056107
 20
-0.2
 30
0.0
 11
-1.871061242214814
 21
-0.2
 31
0.0
  0
LWPOLYLINE
  5
175
330
F5
100
AcDbEntity
  8
AM_4
100
AcDbPolyline
 90
        8
 70
     0
 43
0.0
 10
-1.900512774829199
 20
-0.1999999999699529
 10
-1.901999892068503
 20
-0.1999786710855128
 10
-1.912873492545252
 20
-0.1988321115509053
 10
-1.925271814259234
 20
-0.1961649429984259
 10
-1.939695244625226
 20
-0.1920694300574958
 10
-1.955208224486044
 20
-0.1870948030566195
 10
-1.972301628273015
 20
-0.181500594761393
 10
-1.98013587764218
 20
-0.1790373738501784
  0
LINE
  5
176
330
F5
100
AcDbEntity
  8
AM_4
100
AcDbLine
 10
-1.86366421028138
 20
0.2187499999999999
 30
0.0
 11
-1.81
 21
0.2187499999999999
 31
0.0
  0
LWPOLYLINE
  5
177
330
F5
100
AcDbEntity
  8
AM_4
100
AcDbPolyline
 90
        3
 70
     0
 43
0.0
 10
-1.903090824816304
 20
0.1093749999999999
 10
-1.885231174832381
 20
0.1640624999999999
 10
-1.86366421028138
 20
0.2187499999999999
  0
LWPOLYLINE
  5
178
330
F5
100
AcDbEntity
  8
AM_4
100
AcDbPolyline
 90
        3
 70
     0
 43
0.0
 10
-1.926811895973995
 20
-0.0000000000000001
 10
-1.916857688544721
 20
0.0544416102741495
 10
-1.903090824816304
 20
0.1093749999999999
  0
ELLIPSE
  5
179
330
F5
100
AcDbEntity
  8
AM_4
100
AcDbEllipse
 10
-1.721766755898936
 20
-0.0000000000000001
 30
0.0
 11
1.339457436567424E-17
 21
0.2187500000000011
 31
0.0
210
0.0
220
0.0
230
1.0
 40
0.5000000000000006
 41
1.189199370179528
 42
1.957625667140832
  0
LWPOLYLINE
  5
17A
330
F5
100
AcDbEntity
  8
AM_4
100
AcDbPolyline
 90
        3
 70
     0
 43
0.0
 10
-1.82085807544519
 20
0.0947600943471902
 10
-1.834347934421783
 20
0.0546875
 10
-1.855914898972784
 20
0.0
  0
LINE
  5
17B
330
F5
100
AcDbEntity
  8
AM_4
100
AcDbLine
 10
-1.926811895973995
 20
-0.0000000000000001
 30
0.0
 11
-1.855914898972784
 21
0.0
 31
0.0
  0
LWPOLYLINE
  5
17C
330
F5
100
AcDbEntity
  8
AM_4
100
AcDbPolyline
 90
        3
 70
     0
 43
0.0
 10
-1.903090824816304
 20
-0.1093749999999999
 10
-1.916805017678688
 20
-0.0546875
 10
-1.926811895973995
 20
-0.0000000000000001
  0
LWPOLYLINE
  5
17D
330
F5
100
AcDbEntity
  8
AM_4
100
AcDbPolyline
 90
        3
 70
     0
 43
0.0
 10
-1.86366421028138
 20
-0.2187500000000001
 10
-1.885141881199003
 20
-0.1643083897258504
 10
-1.903090824816304
 20
-0.1093749999999999
  0
LINE
  5
17E
330
F5
100
AcDbEntity
  8
AM_4
100
AcDbLine
 10
-1.86366421028138
 20
-0.2187500000000001
 30
0.0
 11
-1.81
 21
-0.2187500000000001
 31
0.0
  0
LWPOLYLINE
  5
17F
330
F5
100
AcDbEntity
  8
AM_4
100
AcDbPolyline
 90
        3
 70
     0
 43
0.0
 10
-1.855914898972784
 20
0.0
 10
-1.834437228055162
 20
-0.0544416102741496
 10
-1.820839210841277
 20
-0.0948210969654816
  0
ENDBLK
  5
F8
330
F5
100
AcDbEntity
  8
0
100
AcDbBlockEnd
  0
BLOCK
  5
182
330
180
100
AcDbEntity
  8
0
100
AcDbBlockBegin
  2
4_135118H_0_in_135118_4
 70
     2
 10
0.0
 20
0.0
 30
0.0
  3
4_135118H_0_in_135118_4
  1

  0
ATTDEF
  5
184
330
180
100
AcDbEntity
  8
AM_6
100
AcDbText
 10
8.085
 20
0.815
 30
0.0
 40
0.5
  1
WSTU-SCM -Inch - housing
100
AcDbAttributeDefinition
  3

  2
NN
 70
     8
280
     0
  0
ATTDEF
  5
185
330
180
100
AcDbEntity
  8
AM_6
100
AcDbText
 10
8.085
 20
0.3149999999999999
 30
0.0
 40
0.5
  1
SC Take-Up Bearings -Wide Slot -(Medium Duty)
100
AcDbAttributeDefinition
  3

  2
NT
 70
     8
280
     0
  0
ATTDEF
  5
186
330
180
100
AcDbEntity
  8
AM_6
100
AcDbText
 10
8.085
 20
-0.1850000000000001
 30
0.0
 40
0.5
  1
135118H
100
AcDbAttributeDefinition
  3

  2
NB
 70
     8
280
     0
  0
ATTDEF
  5
187
330
180
100
AcDbEntity
  8
AM_6
100
AcDbText
 10
8.085
 20
-0.685
 30
0.0
 40
0.5
  1
$PN.H
100
AcDbAttributeDefinition
  3

  2
NBSYN
 70
     8
280
     0
  0
ATTDEF
  5
188
330
180
100
AcDbEntity
  8
AM_6
100
AcDbText
 10
8.085
 20
-1.185
 30
0.0
 40
0.5
  1
135118
100
AcDbAttributeDefinition
  3

  2
LINA
 70
     8
280
     0
  0
ATTDEF
  5
189
330
180
100
AcDbEntity
  8
AM_6
100
AcDbText
 10
8.085
 20
-1.685
 30
0.0
 40
0.5
  1
207
100
AcDbAttributeDefinition
  3

  2
SERIES
 70
     8
280
     0
  0
ATTDEF
  5
18A
330
180
100
AcDbEntity
  8
AM_6
100
AcDbText
 10
8.085
 20
-2.185
 30
0.0
 40
0.5
  1
1-3/16
100
AcDbAttributeDefinition
  3

  2
SS
 70
     8
280
     0
  0
ATTDEF
  5
18B
330
180
100
AcDbEntity
  8
AM_6
100
AcDbText
 10
8.085
 20
-2.685
 30
0.0
 40
0.5
  1
135118
100
AcDbAttributeDefinition
  3

  2
PN
 70
     8
280
     0
  0
ATTDEF
  5
18C
330
180
100
AcDbEntity
  8
AM_6
100
AcDbText
 10
8.085
 20
-3.185
 30
0.0
 40
0.5
  1
WSTU-SCM-103
100
AcDbAttributeDefinition
  3

  2
DESCRIPTION
 70
     8
280
     0
  0
ATTDEF
  5
18D
330
180
100
AcDbEntity
  8
AM_6
100
AcDbText
 10
8.085
 20
-3.685
 30
0.0
 40
0.5
  1
3.9
100
AcDbAttributeDefinition
  3

  2
W
 70
     8
280
     0
  0
ATTDEF
  5
18E
330
180
100
AcDbEntity
  8
AM_6
100
AcDbText
 10
8.085
 20
-4.185
 30
0.0
 40
0.5
  1
WS308
100
AcDbAttributeDefinition
  3

  2
FS
 70
     8
280
     0
  0
ATTDEF
  5
18F
330
180
100
AcDbEntity
  8
AM_6
100
AcDbText
 10
8.085
 20
-4.685
 30
0.0
 40
0.5
  1
1.71
100
AcDbAttributeDefinition
  3

  2
A
 70
     8
280
     0
  0
ATTDEF
  5
190
330
180
100
AcDbEntity
  8
AM_6
100
AcDbText
 10
8.085
 20
-5.185
 30
0.0
 40
0.5
  1
4.87
100
AcDbAttributeDefinition
  3

  2
B
 70
     8
280
     0
  0
ATTDEF
  5
191
330
180
100
AcDbEntity
  8
AM_6
100
AcDbText
 10
8.085
 20
-5.685
 30
0.0
 40
0.5
  1
0.531
100
AcDbAttributeDefinition
  3

  2
C
 70
     8
280
     0
  0
ATTDEF
  5
192
330
180
100
AcDbEntity
  8
AM_6
100
AcDbText
 10
8.085
 20
-6.185
 30
0.0
 40
0.5
  1
2.50
100
AcDbAttributeDefinition
  3

  2
D
 70
     8
280
     0
  0
ATTDEF
  5
193
330
180
100
AcDbEntity
  8
AM_6
100
AcDbText
 10
8.085
 20
-6.685
 30
0.0
 40
0.5
  1
3.06
100
AcDbAttributeDefinition
  3

  2
E
 70
     8
280
     0
  0
ATTDEF
  5
194
330
180
100
AcDbEntity
  8
AM_6
100
AcDbText
 10
8.085
 20
-7.185
 30
0.0
 40
0.5
  1
3/4
100
AcDbAttributeDefinition
  3

  2
F
 70
     8
280
     0
  0
ATTDEF
  5
195
330
180
100
AcDbEntity
  8
AM_6
100
AcDbText
 10
8.085
 20
-7.685
 30
0.0
 40
0.5
  1
0.50
100
AcDbAttributeDefinition
  3

  2
G
 70
     8
280
     0
  0
ATTDEF
  5
196
330
180
100
AcDbEntity
  8
AM_6
100
AcDbText
 10
8.085
 20
-8.185
 30
0.0
 40
0.5
  1
0.63
100
AcDbAttributeDefinition
  3

  2
H
 70
     8
280
     0
  0
ATTDEF
  5
197
330
180
100
AcDbEntity
  8
AM_6
100
AcDbText
 10
8.085
 20
-8.685
 30
0.0
 40
0.5
  1
2.50
100
AcDbAttributeDefinition
  3

  2
J
 70
     8
280
     0
  0
ATTDEF
  5
198
330
180
100
AcDbEntity
  8
AM_6
100
AcDbText
 10
8.085
 20
-9.185
 30
0.0
 40
0.5
  1
1.44
100
AcDbAttributeDefinition
  3

  2
K
 70
     8
280
     0
  0
ATTDEF
  5
199
330
180
100
AcDbEntity
  8
AM_6
100
AcDbText
 10
8.085
 20
-9.685
 30
0.0
 40
0.5
  1
1.84
100
AcDbAttributeDefinition
  3

  2
L
 70
     8
280
     0
  0
ATTDEF
  5
19A
330
180
100
AcDbEntity
  8
AM_6
100
AcDbText
 10
8.085
 20
-10.185
 30
0.0
 40
0.5
  1
3.480 / 3.510
100
AcDbAttributeDefinition
  3

  2
M
 70
     8
280
     0
  0
ATTDEF
  5
19B
330
180
100
AcDbEntity
  8
AM_6
100
AcDbText
 10
8.085
 20
-10.685
 30
0.0
 40
0.5
  1
4.13
100
AcDbAttributeDefinition
  3

  2
N
 70
     8
280
     0
  0
ATTDEF
  5
19C
330
180
100
AcDbEntity
  8
AM_6
100
AcDbText
 10
8.085
 20
-11.185
 30
0.0
 40
0.5
  1
0.67
100
AcDbAttributeDefinition
  3

  2
R
 70
     8
280
     0
  0
ATTDEF
  5
19D
330
180
100
AcDbEntity
  8
AM_6
100
AcDbText
 10
8.085
 20
-11.685
 30
0.0
 40
0.5
  1
1.04
100
AcDbAttributeDefinition
  3

  2
S
 70
     8
280
     0
  0
ATTDEF
  5
19E
330
180
100
AcDbEntity
  8
AM_6
100
AcDbText
 10
8.085
 20
-12.185
 30
0.0
 40
0.5
  1
1.63
100
AcDbAttributeDefinition
  3

  2
T
 70
     8
280
     0
  0
ATTDEF
  5
19F
330
180
100
AcDbEntity
  8
AM_6
100
AcDbText
 10
8.085
 20
-12.685
 30
0.0
 40
0.5
  1
3065
100
AcDbAttributeDefinition
  3

  2
CAPS
 70
     8
280
     0
  0
ATTDEF
  5
1A0
330
180
100
AcDbEntity
  8
AM_6
100
AcDbText
 10
8.085
 20
-13.185
 30
0.0
 40
0.5
  1
5759
100
AcDbAttributeDefinition
  3

  2
CAPD
 70
     8
280
     0
  0
ATTDEF
  5
1A1
330
180
100
AcDbEntity
  8
AM_6
100
AcDbText
 10
8.085
 20
-13.685
 30
0.0
 40
0.5
  1
baldor
100
AcDbAttributeDefinition
  3

  2
COMPANY
 70
     8
280
     0
  0
LWPOLYLINE
  5
1A2
330
180
100
AcDbEntity
  8
AM_9
100
AcDbPolyline
 90
       11
 70
     0
 43
0.0
 10
-1.637113952309498
 20
0.0
 10
-1.636231069233392
 20
-0.0247770871733314
 10
-1.633492429517205
 20
-0.0495541743466627
 10
-1.629093357247075
 20
-0.0722491900294254
 10
-1.622850754804404
 20
-0.0935202536247026
 10
-1.615199667617266
 20
-0.1116292667160458
 10
-1.605853752601433
 20
-0.1270497800805067
 10
-1.595507502706547
 20
-0.138503975639908
 10
-1.583809508572029
 20
-0.1462950724025525
 10
-1.571731323261947
 20
-0.1497598160738645
 10
-1.567513012918581
 20
-0.1499999993406581
  0
LINE
  5
1A3
330
180
100
AcDbEntity
  8
AM_9
100
AcDbLine
 10
-1.654108521228278
 20
-0.1500000000000002
 30
0.0
 11
-1.567471255495598
 21
-0.1500000000000002
 31
0.0
  0
LINE
  5
1A4
330
180
100
AcDbEntity
  8
AM_9
100
AcDbLine
 10
-1.567501249989755
 20
0.1500000000000001
 30
0.0
 11
-1.654108521228278
 21
0.1500000000000001
 31
0.0
  0
LWPOLYLINE
  5
1A5
330
180
100
AcDbEntity
  8
AM_9
100
AcDbPolyline
 90
       20
 70
     0
 43
0.0
 10
-1.567513012918581
 20
-0.1499999993406581
 10
-1.558875521507413
 20
-0.1490197393218892
 10
-1.546360250628837
 20
-0.1441539402238341
 10
-1.533822699228095
 20
-0.1350287153179321
 10
-1.522346304455595
 20
-0.1223919730923842
 10
-1.511683494905647
 20
-0.1058918537454943
 10
-1.502771773680035
 20
-0.0868441680963073
 10
-1.495465710647154
 20
-0.0647430027886495
 10
-1.490445016900663
 20
-0.0414396823619897
 10
-1.487619373457731
 20
-0.0162600900296785
 10
-1.487254952238122
 20
0.0085962574743315
 10
-1.489333188264136
 20
0.0339221386665099
 10
-1.493649913547498
 20
0.0575562040765735
 10
-1.500283349485192
 20
0.0802163923870955
 10
-1.508639409911077
 20
0.1000573392514283
 10
-1.518869922571108
 20
0.1175950418596671
 10
-1.530074818346085
 20
0.131394674018718
 10
-1.542483692119235
 20
0.1418053818766732
 10
-1.55498112312464
 20
0.1479429545404569
 10
-1.567508649275856
 20
0.1499999999050613
  0
LWPOLYLINE
  5
1A6
330
180
100
AcDbEntity
  8
AM_9
100
AcDbPolyline
 90
       12
 70
     0
 43
0.0
 10
-1.567508649275856
 20
0.1499999999050613
 10
-1.567907780948445
 20
0.149997845750032
 10
-1.580124896521461
 20
0.1478079411734522
 10
-1.592037884440175
 20
0.141324425168536
 10
-1.602684161474214
 20
0.1310937236234828
 10
-1.612429251745063
 20
0.11682489453472
 10
-1.620552032038743
 20
0.0996541725470952
 10
-1.627333081275748
 20
0.0791240131803267
 10
-1.632281931419258
 20
0.0569199884142483
 10
-1.635593103775608
 20
0.0324245554702277
 10
-1.63672857838779
 20
0.0164068866318492
 10
-1.637113952309498
 20
0.0
  0
LWPOLYLINE
  5
1A7
330
180
100
AcDbEntity
  8
AM_9
100
AcDbPolyline
 90
        3
 70
     0
 43
0.0
 10
-1.588351112541208
 20
-0.4187902951655664
 10
-1.573698516446165
 20
-0.4198934581566067
 10
-1.568438276000023
 20
-0.4199975856162968
  0
LWPOLYLINE
  5
1A8
330
180
100
AcDbEntity
  8
AM_9
100
AcDbPolyline
 90
       21
 70
     0
 43
0.0
 10
-1.810079762076854
 20
-0.1571848399698318
 10
-1.806333586115666
 20
-0.1724471081532351
 10
-1.800304489207239
 20
-0.1939821333363079
 10
-1.793496478234205
 20
-0.21502819658999
 10
-1.785894588211129
 20
-0.2355292562696497
 10
-1.777481180358498
 20
-0.2554248782698056
 10
-1.768237556122005
 20
-0.2746467481177943
 10
-1.758147435275901
 20
-0.2931142568612402
 10
-1.747202975143303
 20
-0.310729981453136
 10
-1.735431558705717
 20
-0.3273530054734343
 10
-1.722878470171924
 20
-0.3428476950924791
 10
-1.709617759506906
 20
-0.357080327522125
 10
-1.695745921790011
 20
-0.369937371821035
 10
-1.681368149672297
 20
-0.3813406805997095
 10
-1.666584730228452
 20
-0.3912513089580172
 10
-1.651483953074639
 20
-0.3996621591969591
 10
-1.636142290617429
 20
-0.4065859758148815
 10
-1.620628418806515
 20
-0.412045016526309
 10
-1.605007394326693
 20
-0.4160649101325688
 10
-1.589343076895053
 20
-0.4186721320923956
 10
-1.588351112541208
 20
-0.4187902951655664
  0
LWPOLYLINE
  5
1A9
330
180
100
AcDbEntity
  8
AM_9
100
AcDbPolyline
 90
       21
 70
     0
 43
0.0
 10
-1.58746192287292
 20
0.4188915062675074
 10
-1.597889053206343
 20
0.4174234902713833
 10
-1.613012662667385
 20
0.4141854270931518
 10
-1.627869162001013
 20
0.409683836333039
 10
-1.642427577198664
 20
0.4039387578322876
 10
-1.65666468338322
 20
0.3969617038112127
 10
-1.670563103598679
 20
0.3887541961263544
 10
-1.684108039495807
 20
0.3793078419989199
 10
-1.697282730612878
 20
0.3686069494443144
 10
-1.710063154362873
 20
0.3566345972600458
 10
-1.722413163760893
 20
0.3433823577297002
 10
-1.734282022690891
 20
0.3288621605355867
 10
-1.745606443808483
 20
0.3131164171072295
 10
-1.756317810950198
 20
0.2962212974921406
 10
-1.766352370148959
 20
0.2782803260830746
 10
-1.77565998831657
 20
0.2594108111570193
 10
-1.784200796319079
 20
0.2397472144668901
 10
-1.791961788109526
 20
0.2193937495929656
 10
-1.798941858173499
 20
0.1984378009001243
 10
-1.805145308198228
 20
0.176955610145205
 10
-1.810036158005302
 20
0.1573728003862752
  0
LWPOLYLINE
  5
1AA
330
180
100
AcDbEntity
  8
AM_9
100
AcDbPolyline
 90
        3
 70
     0
 43
0.0
 10
-1.567675716677423
 20
0.4199999199715127
 10
-1.582537689972661
 20
0.4193716240964897
 10
-1.58746192287292
 20
0.4188915062675074
  0
LWPOLYLINE
  5
1AB
330
180
100
AcDbEntity
  8
AM_9
100
AcDbPolyline
 90
       37
 70
     0
 43
0.0
 10
-1.551065347059134
 20
0.41875
 10
-1.533168417920836
 20
0.4146931771314137
 10
-1.51483797732978
 20
0.4077987446058907
 10
-1.495946341619106
 20
0.3978960342432242
 10
-1.476933472676025
 20
0.3850821712126152
 10
-1.458792754850155
 20
0.3701245321295182
 10
-1.440894295231008
 20
0.3525933052183906
 10
-1.423179795082214
 20
0.3322598603988331
 10
-1.406101645703816
 20
0.3094418736064832
 10
-1.390259224475021
 20
0.2849039175098338
 10
-1.375413098733192
 20
0.2582235479713886
 10
-1.3615716386879
 20
0.2291048407106101
 10
-1.349157520144148
 20
0.1980668216525648
 10
-1.33874221045704
 20
0.1665392558428623
 10
-1.330007628388865
 20
0.1335789658597578
 10
-1.323022791054338
 20
0.098856207307069
 10
-1.318082389400314
 20
0.0630871162000956
 10
-1.315425753563393
 20
0.0289272080551981
 10
-1.31474845632392
 20
-0.0056832245028699
 10
-1.316139517486517
 20
-0.041026879715675
 10
-1.319650369292898
 20
-0.0763274513229017
 10
-1.324898626034804
 20
-0.1093334668729959
 10
-1.331993107582433
 20
-0.1418156867704486
 10
-1.341014239380538
 20
-0.1739859764619335
 10
-1.351791903237568
 20
-0.2051460421577939
 10
-1.363886218344581
 20
-0.2343207648188668
 10
-1.377431528035518
 20
-0.2620967887929015
 10
-1.392512736189366
 20
-0.2886196536128489
 10
-1.408802485297286
 20
-0.3132829250369318
 10
-1.425784221745845
 20
-0.3354499115419382
 10
-1.44360687398323
 20
-0.3554366408073765
 10
-1.462375171986076
 20
-0.3732960239788656
 10
-1.481649992809577
 20
-0.3885297196349728
 10
-1.498881464532992
 20
-0.3996190857276924
 10
-1.516210064335744
 20
-0.4084081379330785
 10
-1.533724229584102
 20
-0.4148596226975544
 10
-1.551065347059133
 20
-0.41875
  0
LINE
  5
1AC
330
180
100
AcDbEntity
  8
AM_9
100
AcDbLine
 10
-1.567505980849834
 20
-0.4200000000000001
 30
0.0
 11
-1.566427392140815
 21
-0.4200000000000001
 31
0.0
  0
LINE
  5
1AD
330
180
100
AcDbEntity
  8
AM_9
100
AcDbLine
 10
-1.566427392140816
 20
0.42
 30
0.0
 11
-1.567505980849834
 21
0.42
 31
0.0
  0
LINE
  5
1AE
330
180
100
AcDbEntity
  8
AM_9
100
AcDbLine
 10
2.56
 20
-0.3749999999999999
 30
0.0
 11
3.06
 21
-0.3749999999999999
 31
0.0
  0
LINE
  5
1AF
330
180
100
AcDbEntity
  8
AM_9
100
AcDbLine
 10
3.06
 20
0.3749999999999999
 30
0.0
 11
2.56
 21
0.3749999999999999
 31
0.0
  0
LINE
  5
1B0
330
180
100
AcDbEntity
  8
AM_9
100
AcDbLine
 10
1.9831
 20
-0.45135
 30
0.0
 11
1.9831
 21
0.4513500000000001
 31
0.0
  0
LINE
  5
1B1
330
180
100
AcDbEntity
  8
AM_9
100
AcDbLine
 10
1.93
 20
-0.45135
 30
0.0
 11
1.93
 21
0.4513500000000001
 31
0.0
  0
LINE
  5
1B2
330
180
100
AcDbEntity
  8
AM_9
100
AcDbLine
 10
2.5069
 20
-0.45135
 30
0.0
 11
2.5069
 21
0.45135
 31
0.0
  0
LINE
  5
1B3
330
180
100
AcDbEntity
  8
AM_9
100
AcDbLine
 10
2.56
 20
-0.45135
 30
0.0
 11
2.56
 21
0.45135
 31
0.0
  0
LWPOLYLINE
  5
1B4
330
180
100
AcDbEntity
  8
AM_9
100
AcDbPolyline
 90
       37
 70
     0
 43
0.0
 10
-1.583444931676606
 20
-0.4187500000000001
 10
-1.599778868979558
 20
-0.4146711826300439
 10
-1.615337648462873
 20
-0.4077987446058901
 10
-1.630456147424673
 20
-0.397851570016115
 10
-1.644598977220575
 20
-0.3850821712126142
 10
-1.657347191664972
 20
-0.3700675101688685
 10
-1.66910025728102
 20
-0.3525933052183892
 10
-1.680126794792639
 20
-0.3321822058840671
 10
-1.690083558611856
 20
-0.3094418736064813
 10
-1.698879855502484
 20
-0.2848149477743788
 10
-1.706654097513639
 20
-0.2582235479713865
 10
-1.71360433615974
 20
-0.2289933379278013
 10
-1.719521576392121
 20
-0.1980668216525622
 10
-1.724327813646011
 20
-0.1664228198331072
 10
-1.728199365972454
 20
-0.133578965859755
 10
-1.731232615693328
 20
-0.0987178790461871
 10
-1.733317281683652
 20
-0.0630871162000926
 10
-1.734430618819271
 20
-0.02880421865098
 10
-1.734710003324654
 20
0.0056832245028728
 10
-1.73412672472448
 20
0.0411601802871134
 10
-1.732656568004914
 20
0.0763274513229045
 10
-1.730408923741754
 20
0.1094441527361147
 10
-1.72732627212321
 20
0.1418156867704513
 10
-1.723266034087225
 20
0.1740957978416179
 10
-1.718282150566187
 20
0.2051460421577964
 10
-1.712424083051877
 20
0.2344146083050391
 10
-1.705616343809266
 20
0.2620967887929039
 10
-1.69760291046664
 20
0.2887073601518
 10
-1.688541307916357
 20
0.3132829250369337
 10
-1.678478266807084
 20
0.3355211969123446
 10
-1.667358509444443
 20
0.355436640807378
 10
-1.65480864157231
 20
0.373355715034112
 10
-1.641163807134134
 20
0.3885297196349738
 10
-1.628085444436261
 20
0.3996477649667185
 10
-1.614203905315856
 20
0.408408137933079
 10
-1.599182146497394
 20
0.414874440929373
 10
-1.583444931676605
 20
0.4187500000000001
  0
LINE
  5
1B5
330
180
100
AcDbEntity
  8
AM_9
100
AcDbLine
 10
1.4173
 20
-0.4513500000000001
 30
0.0
 11
1.4173
 21
0.4513500000000001
 31
0.0
  0
LINE
  5
1B6
330
180
100
AcDbEntity
  8
AM_9
100
AcDbLine
 10
-1.4173
 20
0.4513500000000001
 30
0.0
 11
-1.4173
 21
-0.4513500000000001
 31
0.0
  0
LINE
  5
1B7
330
180
100
AcDbEntity
  8
AM_9
100
AcDbLine
 10
0.3958333333333333
 20
-0.2389499999999998
 30
0.0
 11
0.3958333333333333
 21
0.45135
 31
0.0
  0
LINE
  5
1B8
330
180
100
AcDbEntity
  8
AM_9
100
AcDbLine
 10
-0.3958333333333333
 20
-0.2389499999999998
 30
0.0
 11
-0.3958333333333333
 21
0.45135
 31
0.0
  0
LINE
  5
1B9
330
180
100
AcDbEntity
  8
AM_9
100
AcDbLine
 10
0.3958333333333333
 20
-0.2389499999999998
 30
0.0
 11
-0.3958333333333333
 21
-0.2389499999999998
 31
0.0
  0
LINE
  5
1BA
330
180
100
AcDbEntity
  8
AM_9
100
AcDbLine
 10
1.25
 20
0.4513500000000001
 30
0.0
 11
-1.25
 21
0.4513500000000001
 31
0.0
  0
LINE
  5
1BB
330
180
100
AcDbEntity
  8
AM_9
100
AcDbLine
 10
1.25
 20
-0.45135
 30
0.0
 11
-1.25
 21
-0.45135
 31
0.0
  0
ELLIPSE
  5
1BC
330
180
100
AcDbEntity
  8
AM_9
100
AcDbEllipse
 10
-1.654108521228278
 20
0.0000000000000001
 30
0.0
 11
-2.755455298081551E-17
 21
-0.1500000000000004
 31
0.0
210
0.0
220
0.0
230
1.0
 40
0.5
 41
0.0
 42
6.283185307179586
  0
ELLIPSE
  5
1BD
330
180
100
AcDbEntity
  8
AM_9
100
AcDbEllipse
 10
-1.654108521228278
 20
-0.0000000000000002
 30
0.0
 11
-5.878304635907305E-17
 21
-0.3200000000000005
 31
0.0
210
0.0
220
0.0
230
1.0
 40
0.5000000000000011
 41
0.0
 42
6.283185307179586
  0
ELLIPSE
  5
1BE
330
180
100
AcDbEntity
  8
AM_9
100
AcDbEllipse
 10
-1.567505980849834
 20
-0.0000000000000004
 30
0.0
 11
-7.715274834628320E-17
 21
-0.4199999999999998
 31
0.0
210
0.0
220
0.0
230
1.0
 40
0.5000000000000002
 41
0.0
 42
6.283185307179586
  0
LINE
  5
1BF
330
180
100
AcDbEntity
  8
AM_7
100
AcDbLine
 10
3.085
 20
0.0
 30
0.0
 11
2.535
 21
0.0
 31
0.0
  0
LWPOLYLINE
  5
1C0
330
180
100
AcDbEntity
  8
AM_4
100
AcDbPolyline
 90
        9
 70
     0
 43
0.0
 10
-1.827505980849834
 20
0.0
 10
-1.827398863855238
 20
-0.0125893569807927
 10
-1.826627946849368
 20
-0.0360099993738184
 10
-1.825113416809993
 20
-0.0593332756517545
 10
-1.822854893446211
 20
-0.0824984457814053
 10
-1.819851046106409
 20
-0.1054481724604536
 10
-1.816099331142254
 20
-0.1281261597504976
 10
-1.811595591962232
 20
-0.150477214302782
 10
-1.810079762076854
 20
-0.1571848399698318
  0
LWPOLYLINE
  5
1C1
330
180
100
AcDbEntity
  8
AM_4
100
AcDbPolyline
 90
        9
 70
     0
 43
0.0
 10
-1.810036158005302
 20
0.1573728003862752
 10
-1.81057856268164
 20
0.1550154209847577
 10
-1.815248215176601
 20
0.1326804191782031
 10
-1.819160068375521
 20
0.1100109777127262
 10
-1.822318794134298
 20
0.087066169539583
 10
-1.824727927694402
 20
0.0639046773499991
 10
-1.826390009261309
 20
0.0405852590306283
 10
-1.827306761050531
 20
0.0171669056630364
 10
-1.827505980849834
 20
0.0
  0
LINE
  5
1C2
330
180
100
AcDbEntity
  8
AM_4
100
AcDbLine
 10
2.56
 20
-0.45135
 30
0.0
 11
2.56
 21
-0.815
 31
0.0
  0
LINE
  5
1C3
330
180
100
AcDbEntity
  8
AM_4
100
AcDbLine
 10
2.56
 20
-0.815
 30
0.0
 11
3.06
 21
-0.815
 31
0.0
  0
LINE
  5
1C4
330
180
100
AcDbEntity
  8
AM_4
100
AcDbLine
 10
3.06
 20
0.815
 30
0.0
 11
2.56
 21
0.815
 31
0.0
  0
LINE
  5
1C5
330
180
100
AcDbEntity
  8
AM_4
100
AcDbLine
 10
2.56
 20
0.815
 30
0.0
 11
2.56
 21
0.45135
 31
0.0
  0
LINE
  5
1C6
330
180
100
AcDbEntity
  8
AM_4
100
AcDbLine
 10
3.06
 20
0.815
 30
0.0
 11
3.06
 21
-0.815
 31
0.0
  0
LINE
  5
1C7
330
180
100
AcDbEntity
  8
AM_4
100
AcDbLine
 10
3.06
 20
-0.4513499999999999
 30
0.0
 11
1.250000000000001
 21
-0.4513499999999999
 31
0.0
  0
LINE
  5
1C8
330
180
100
AcDbEntity
  8
AM_4
100
AcDbLine
 10
3.0069
 20
-0.3982499999999992
 30
0.0
 11
1.25
 21
-0.3982500000000001
 31
0.0
  0
LINE
  5
1C9
330
180
100
AcDbEntity
  8
AM_4
100
AcDbLine
 10
3.06
 20
0.4513500000000001
 30
0.0
 11
1.250000000000001
 21
0.4513500000000001
 31
0.0
  0
LINE
  5
1CA
330
180
100
AcDbEntity
  8
AM_4
100
AcDbLine
 10
3.0069
 20
0.3982499999999997
 30
0.0
 11
1.250000000000001
 21
0.3982499999999997
 31
0.0
  0
LINE
  5
1CB
330
180
100
AcDbEntity
  8
AM_4
100
AcDbLine
 10
3.0069
 20
-0.3982499999999992
 30
0.0
 11
3.0069
 21
0.3982499999999997
 31
0.0
  0
LINE
  5
1CC
330
180
100
AcDbEntity
  8
AM_4
100
AcDbLine
 10
3.06
 20
-0.4513499999999995
 30
0.0
 11
3.006900000000001
 21
-0.3982499999999998
 31
0.0
  0
LINE
  5
1CD
330
180
100
AcDbEntity
  8
AM_4
100
AcDbLine
 10
3.0069
 20
0.3982499999999994
 30
0.0
 11
3.06
 21
0.4513499999999995
 31
0.0
  0
LINE
  5
1CE
330
180
100
AcDbEntity
  8
AM_4
100
AcDbLine
 10
-1.7774
 20
0.4513500000000003
 30
0.0
 11
-1.81
 21
0.4187500000000002
 31
0.0
  0
LINE
  5
1CF
330
180
100
AcDbEntity
  8
AM_4
100
AcDbLine
 10
-1.7774
 20
0.4513500000000003
 30
0.0
 11
-1.25
 21
0.4513500000000001
 31
0.0
  0
LINE
  5
1D0
330
180
100
AcDbEntity
  8
AM_4
100
AcDbLine
 10
-1.81
 20
-0.4187499999999998
 30
0.0
 11
-1.7774
 21
-0.4513499999999998
 31
0.0
  0
LINE
  5
1D1
330
180
100
AcDbEntity
  8
AM_4
100
AcDbLine
 10
-1.7774
 20
-0.4513499999999998
 30
0.0
 11
-1.25
 21
-0.4513499999999998
 31
0.0
  0
LINE
  5
1D2
330
180
100
AcDbEntity
  8
AM_4
100
AcDbLine
 10
-1.81
 20
0.4187500000000002
 30
0.0
 11
-1.81
 21
-0.4187499999999998
 31
0.0
  0
LINE
  5
1D3
330
180
100
AcDbEntity
  8
AM_4
100
AcDbLine
 10
-1.81
 20
-0.4187499999999998
 30
0.0
 11
-1.25
 21
-0.4187499999999998
 31
0.0
  0
LINE
  5
1D4
330
180
100
AcDbEntity
  8
AM_4
100
AcDbLine
 10
-1.81
 20
0.4187500000000002
 30
0.0
 11
-1.25
 21
0.4187500000000002
 31
0.0
  0
LINE
  5
1D5
330
180
100
AcDbEntity
  8
AM_4
100
AcDbLine
 10
1.25
 20
-0.5309999999999999
 30
0.0
 11
-1.25
 21
-0.5309999999999999
 31
0.0
  0
LINE
  5
1D6
330
180
100
AcDbEntity
  8
AM_4
100
AcDbLine
 10
-1.1969
 20
-0.4779000000000001
 30
0.0
 11
-1.25
 21
-0.5309999999999997
 31
0.0
  0
LINE
  5
1D7
330
180
100
AcDbEntity
  8
AM_4
100
AcDbLine
 10
1.25
 20
0.531
 30
0.0
 11
-1.25
 21
0.5310000000000001
 31
0.0
  0
LINE
  5
1D8
330
180
100
AcDbEntity
  8
AM_4
100
AcDbLine
 10
1.196900000000001
 20
0.477900000000001
 30
0.0
 11
-1.1969
 21
0.477900000000001
 31
0.0
  0
LINE
  5
1D9
330
180
100
AcDbEntity
  8
AM_4
100
AcDbLine
 10
-1.1969
 20
-0.4779000000000007
 30
0.0
 11
-1.196900000000001
 21
-0.2654999999999998
 31
0.0
  0
LINE
  5
1DA
330
180
100
AcDbEntity
  8
AM_4
100
AcDbLine
 10
1.196900000000001
 20
-0.4779000000000007
 30
0.0
 11
-1.1969
 21
-0.4779000000000007
 31
0.0
  0
LINE
  5
1DB
330
180
100
AcDbEntity
  8
AM_4
100
AcDbLine
 10
1.25
 20
0.2655000000000001
 30
0.0
 11
-1.25
 21
0.2655000000000001
 31
0.0
  0
LINE
  5
1DC
330
180
100
AcDbEntity
  8
AM_4
100
AcDbLine
 10
-1.196900000000001
 20
0.2655000000000001
 30
0.0
 11
-1.1969
 21
0.477900000000001
 31
0.0
  0
LINE
  5
1DD
330
180
100
AcDbEntity
  8
AM_4
100
AcDbLine
 10
-1.25
 20
0.5310000000000001
 30
0.0
 11
-1.196900000000001
 21
0.4779000000000012
 31
0.0
  0
LINE
  5
1DE
330
180
100
AcDbEntity
  8
AM_4
100
AcDbLine
 10
-1.25
 20
0.5310000000000001
 30
0.0
 11
-1.25
 21
-0.5309999999999999
 31
0.0
  0
LINE
  5
1DF
330
180
100
AcDbEntity
  8
AM_4
100
AcDbLine
 10
1.25
 20
0.531
 30
0.0
 11
1.25
 21
-0.5309999999999999
 31
0.0
  0
LINE
  5
1E0
330
180
100
AcDbEntity
  8
AM_4
100
AcDbLine
 10
1.196900000000001
 20
0.477900000000001
 30
0.0
 11
1.25
 21
0.5310000000000002
 31
0.0
  0
LINE
  5
1E1
330
180
100
AcDbEntity
  8
AM_4
100
AcDbLine
 10
1.196900000000001
 20
0.2655000000000001
 30
0.0
 11
1.196900000000001
 21
0.477900000000001
 31
0.0
  0
LINE
  5
1E2
330
180
100
AcDbEntity
  8
AM_4
100
AcDbLine
 10
-1.25
 20
-0.2654999999999998
 30
0.0
 11
1.25
 21
-0.2654999999999998
 31
0.0
  0
LINE
  5
1E3
330
180
100
AcDbEntity
  8
AM_4
100
AcDbLine
 10
1.196900000000001
 20
-0.4779000000000007
 30
0.0
 11
1.196900000000001
 21
-0.2654999999999998
 31
0.0
  0
LINE
  5
1E4
330
180
100
AcDbEntity
  8
AM_4
100
AcDbLine
 10
1.25
 20
-0.5309999999999999
 30
0.0
 11
1.196900000000001
 21
-0.4779000000000008
 31
0.0
  0
ENDBLK
  5
183
330
180
100
AcDbEntity
  8
0
100
AcDbBlockEnd
  0
ENDSEC
  0
SECTION
  2
ENTITIES
  0
INSERT
  5
6F
330
1F
100
AcDbEntity
  8
0
100
AcDbBlockReference
  2
1_135118_4
 10
0.0
 20
0.0
 30
0.0
  0
POINT
  5
1E6
330
1F
100
AcDbEntity
  8
ConnectionPoints
100
AcDbPoint
 10
-1.654108521228278
 20
-0.0000000000000001
 30
-0.955
  0
POINT
  5
1E7
330
1F
100
AcDbEntity
  8
ConnectionPoints
100
AcDbPoint
 10
-1.654108521228278
 20
-0.0000000000000001
 30
-0.955
  0
POINT
  5
1E8
330
1F
100
AcDbEntity
  8
ConnectionPoints
100
AcDbPoint
 10
0.0
 20
-1.04
 30
0.0000000000000001
  0
ENDSEC
  0
SECTION
  2
OBJECTS
  0
DICTIONARY
  5
C
330
0
100
AcDbDictionary
281
     1
  3
ACAD_DETAILVIEWSTYLE
350
1F0
  3
ACAD_GROUP
350
D
  3
ACAD_LAYOUT
350
1A
  3
ACAD_MATERIAL
350
43
  3
ACAD_MLEADERSTYLE
350
6B
  3
ACAD_MLINESTYLE
350
17
  3
ACAD_PLOTSETTINGS
350
19
  3
ACAD_PLOTSTYLENAME
350
E
  3
ACAD_SCALELIST
350
47
  3
ACAD_SECTIONVIEWSTYLE
350
1F1
  3
ACAD_TABLESTYLE
350
69
  3
ACAD_VISUALSTYLE
350
2A
  3
ACDB_RECOMPOSE_DATA
350
1ED
  3
AcDbVariableDictionary
350
1E9
  0
SUN
  5
6D
330
29
100
AcDbSun
 90
        1
290
     0
 63
     7
421
 16777215
 40
1.0
291
     1
 91
  2455826
 92
 54000000
292
     0
 70
     2
 71
   256
280
     1
  0
DICTIONARY
  5
1F0
102
{ACAD_REACTORS
330
C
102
}
330
C
100
AcDbDictionary
281
     1
  0
DICTIONARY
  5
D
102
{ACAD_REACTORS
330
C
102
}
330
C
100
AcDbDictionary
281
     1
  0
DICTIONARY
  5
1A
102
{ACAD_REACTORS
330
C
102
}
330
C
100
AcDbDictionary
281
     1
  3
Layout1
350
1E
  3
Layout2
350
26
  3
Model
350
22
  0
DICTIONARY
  5
43
102
{ACAD_REACTORS
330
C
102
}
330
C
100
AcDbDictionary
281
     1
  3
ByBlock
350
45
  3
ByLayer
350
44
  3
Global
350
46
  0
DICTIONARY
  5
6B
102
{ACAD_REACTORS
330
C
102
}
330
C
100
AcDbDictionary
281
     1
  3
Standard
350
6C
  0
DICTIONARY
  5
17
102
{ACAD_REACTORS
330
C
102
}
330
C
100
AcDbDictionary
281
     1
  3
Standard
350
18
  0
DICTIONARY
  5
19
102
{ACAD_REACTORS
330
C
102
}
330
C
100
AcDbDictionary
281
     1
  0
ACDBDICTIONARYWDFLT
  5
E
102
{ACAD_REACTORS
330
C
102
}
330
C
100
AcDbDictionary
281
     1
  3
Normal
350
F
100
AcDbDictionaryWithDefault
340
F
  0
DICTIONARY
  5
47
102
{ACAD_REACTORS
330
C
102
}
330
C
100
AcDbDictionary
281
     1
  3
A0
350
48
  3
A1
350
49
  3
A2
350
4A
  3
A3
350
4B
  3
A4
350
4C
  3
A5
350
4D
  3
A6
350
4E
  3
A7
350
4F
  3
A8
350
50
  3
A9
350
51
  3
B0
350
52
  3
B1
350
53
  3
B2
350
54
  3
B3
350
55
  3
B4
350
56
  3
B5
350
57
  3
B6
350
58
  3
B7
350
59
  3
B8
350
5A
  3
B9
350
5B
  3
C0
350
5C
  3
C1
350
5D
  3
C2
350
5E
  3
C3
350
5F
  3
C4
350
60
  3
C5
350
61
  3
C6
350
62
  3
C7
350
63
  3
C8
350
64
  3
C9
350
65
  3
D0
350
66
  3
D1
350
67
  3
D2
350
68
  0
DICTIONARY
  5
1F1
102
{ACAD_REACTORS
330
C
102
}
330
C
100
AcDbDictionary
281
     1
  0
DICTIONARY
  5
69
102
{ACAD_REACTORS
330
C
102
}
330
C
100
AcDbDictionary
281
     1
  3
Standard
350
6A
  0
DICTIONARY
  5
2A
102
{ACAD_REACTORS
330
C
102
}
330
C
100
AcDbDictionary
281
     1
  3
2dWireframe
350
2F
  3
Basic
350
32
  3
Brighten
350
36
  3
ColorChange
350
3A
  3
Conceptual
350
34
  3
Dim
350
35
  3
EdgeColorOff
350
3D
  3
Facepattern
350
39
  3
Flat
350
2B
  3
FlatWithEdges
350
2C
  3
Gouraud
350
2D
  3
GouraudWithEdges
350
2E
  3
Hidden
350
31
  3
JitterOff
350
3B
  3
Linepattern
350
38
  3
OverhangOff
350
3C
  3
Realistic
350
33
  3
Shaded
350
42
  3
Shaded with edges
350
41
  3
Shades of Gray
350
3E
  3
Sketchy
350
3F
  3
Thicken
350
37
  3
Wireframe
350
30
  3
X-Ray
350
40
  0
XRECORD
  5
1ED
102
{ACAD_REACTORS
330
C
102
}
330
C
100
AcDbXrecord
280
     1
 90
        1
330
6A
  0
DICTIONARY
  5
1E9
102
{ACAD_REACTORS
330
C
102
}
330
C
100
AcDbDictionary
281
     1
  3
CANNOSCALE
350
1EA
  3
CMLEADERSTYLE
350
1EF
  3
CTABLESTYLE
350
1EE
  0
LAYOUT
  5
1E
102
{ACAD_REACTORS
330
1A
102
}
330
1A
100
AcDbPlotSettings
  1

  2
none_device
  4

  6

 40
0.0
 41
0.0
 42
0.0
 43
0.0
 44
0.0
 45
0.0
 46
0.0
 47
0.0
 48
0.0
 49
0.0
140
0.0
141
0.0
142
1.0
143
1.0
 70
   688
 72
     0
 73
     0
 74
     5
  7

 75
    16
 76
     0
 77
     2
 78
   300
147
1.0
148
0.0
149
0.0
100
AcDbLayout
  1
Layout1
 70
     1
 71
     1
 10
0.0
 20
0.0
 11
12.0
 21
9.0
 12
0.0
 22
0.0
 32
0.0
 14
1.000000000000000E+20
 24
1.000000000000000E+20
 34
1.000000000000000E+20
 15
-1.000000000000000E+20
 25
-1.000000000000000E+20
 35
-1.000000000000000E+20
146
0.0
 13
0.0
 23
0.0
 33
0.0
 16
1.0
 26
0.0
 36
0.0
 17
0.0
 27
1.0
 37
0.0
 76
     0
330
1B
  0
LAYOUT
  5
26
102
{ACAD_REACTORS
330
1A
102
}
330
1A
100
AcDbPlotSettings
  1

  2
none_device
  4

  6

 40
0.0
 41
0.0
 42
0.0
 43
0.0
 44
0.0
 45
0.0
 46
0.0
 47
0.0
 48
0.0
 49
0.0
140
0.0
141
0.0
142
1.0
143
1.0
 70
   688
 72
     0
 73
     0
 74
     5
  7

 75
    16
 76
     0
 77
     2
 78
   300
147
1.0
148
0.0
149
0.0
100
AcDbLayout
  1
Layout2
 70
     1
 71
     2
 10
0.0
 20
0.0
 11
0.0
 21
0.0
 12
0.0
 22
0.0
 32
0.0
 14
0.0
 24
0.0
 34
0.0
 15
0.0
 25
0.0
 35
0.0
146
0.0
 13
0.0
 23
0.0
 33
0.0
 16
1.0
 26
0.0
 36
0.0
 17
0.0
 27
1.0
 37
0.0
 76
     0
330
23
  0
LAYOUT
  5
22
102
{ACAD_REACTORS
330
1A
102
}
330
1A
100
AcDbPlotSettings
  1

  2
none_device
  4
Letter_(8.50_x_11.00_Inches)
  6

 40
6.35
 41
6.35
 42
6.35000508
 43
6.35000508
 44
215.9
 45
279.4
 46
0.0
 47
0.0
 48
0.0
 49
0.0
140
0.0
141
0.0
142
1.0
143
1.0
 70
  1712
 72
     0
 73
     0
 74
     0
  7

 75
     0
 76
     0
 77
     2
 78
   300
147
1.0
148
0.0
149
0.0
100
AcDbLayout
  1
Model
 70
     1
 71
     0
 10
0.0
 20
0.0
 11
12.0
 21
9.0
 12
0.0
 22
0.0
 32
0.0
 14
1.000000000000000E+20
 24
1.000000000000000E+20
 34
1.000000000000000E+20
 15
-1.000000000000000E+20
 25
-1.000000000000000E+20
 35
-1.000000000000000E+20
146
0.0
 13
0.0
 23
0.0
 33
0.0
 16
1.0
 26
0.0
 36
0.0
 17
0.0
 27
1.0
 37
0.0
 76
     0
330
1F
331
29
  0
MATERIAL
  5
45
102
{ACAD_REACTORS
330
43
102
}
330
43
100
AcDbMaterial
  1
ByBlock
 72
     1
 94
      127
  0
MATERIAL
  5
44
102
{ACAD_REACTORS
330
43
102
}
330
43
100
AcDbMaterial
  1
ByLayer
 72
     1
 94
      127
  0
MATERIAL
  5
46
102
{ACAD_REACTORS
330
43
102
}
330
43
100
AcDbMaterial
  1
Global
 72
     1
 94
      127
  0
MLEADERSTYLE
  5
6C
102
{ACAD_REACTORS
330
6B
102
}
330
6B
100
AcDbMLeaderStyle
179
     2
170
     2
171
     1
172
     0
 90
        2
 40
0.0
 41
0.0
173
     1
 91
-1056964608
340
14
 92
       -2
290
     1
 42
0.09
291
     1
 43
0.36
  3
Standard
341
0
 44
0.18
300

342
11
174
     1
178
     6
175
     1
176
     0
 93
-1056964608
 45
0.18
292
     0
297
     0
 46
0.18
343
0
 94
-1056964608
 47
1.0
 49
1.0
140
1.0
293
     1
141
0.0
294
     1
177
     0
142
1.0
295
     0
296
     0
143
0.125
271
     0
272
     9
273
     9
298
     0
  0
MLINESTYLE
  5
18
102
{ACAD_REACTORS
330
17
102
}
330
17
100
AcDbMlineStyle
  2
Standard
 70
     0
  3

 62
   256
 51
90.0
 52
90.0
 71
     2
 49
0.5
 62
   256
  6
BYLAYER
 49
-0.5
 62
   256
  6
BYLAYER
  0
ACDBPLACEHOLDER
  5
F
102
{ACAD_REACTORS
330
E
102
}
330
E
  0
SCALE
  5
48
102
{ACAD_REACTORS
330
47
102
}
330
47
100
AcDbScale
 70
     0
300
1:1
140
1.0
141
1.0
290
     1
  0
SCALE
  5
49
102
{ACAD_REACTORS
330
47
102
}
330
47
100
AcDbScale
 70
     0
300
1:2
140
1.0
141
2.0
290
     0
  0
SCALE
  5
4A
102
{ACAD_REACTORS
330
47
102
}
330
47
100
AcDbScale
 70
     0
300
1:4
140
1.0
141
4.0
290
     0
  0
SCALE
  5
4B
102
{ACAD_REACTORS
330
47
102
}
330
47
100
AcDbScale
 70
     0
300
1:5
140
1.0
141
5.0
290
     0
  0
SCALE
  5
4C
102
{ACAD_REACTORS
330
47
102
}
330
47
100
AcDbScale
 70
     0
300
1:8
140
1.0
141
8.0
290
     0
  0
SCALE
  5
4D
102
{ACAD_REACTORS
330
47
102
}
330
47
100
AcDbScale
 70
     0
300
1:10
140
1.0
141
10.0
290
     0
  0
SCALE
  5
4E
102
{ACAD_REACTORS
330
47
102
}
330
47
100
AcDbScale
 70
     0
300
1:16
140
1.0
141
16.0
290
     0
  0
SCALE
  5
4F
102
{ACAD_REACTORS
330
47
102
}
330
47
100
AcDbScale
 70
     0
300
1:20
140
1.0
141
20.0
290
     0
  0
SCALE
  5
50
102
{ACAD_REACTORS
330
47
102
}
330
47
100
AcDbScale
 70
     0
300
1:30
140
1.0
141
30.0
290
     0
  0
SCALE
  5
51
102
{ACAD_REACTORS
330
47
102
}
330
47
100
AcDbScale
 70
     0
300
1:40
140
1.0
141
40.0
290
     0
  0
SCALE
  5
52
102
{ACAD_REACTORS
330
47
102
}
330
47
100
AcDbScale
 70
     0
300
1:50
140
1.0
141
50.0
290
     0
  0
SCALE
  5
53
102
{ACAD_REACTORS
330
47
102
}
330
47
100
AcDbScale
 70
     0
300
1:100
140
1.0
141
100.0
290
     0
  0
SCALE
  5
54
102
{ACAD_REACTORS
330
47
102
}
330
47
100
AcDbScale
 70
     0
300
2:1
140
2.0
141
1.0
290
     0
  0
SCALE
  5
55
102
{ACAD_REACTORS
330
47
102
}
330
47
100
AcDbScale
 70
     0
300
4:1
140
4.0
141
1.0
290
     0
  0
SCALE
  5
56
102
{ACAD_REACTORS
330
47
102
}
330
47
100
AcDbScale
 70
     0
300
8:1
140
8.0
141
1.0
290
     0
  0
SCALE
  5
57
102
{ACAD_REACTORS
330
47
102
}
330
47
100
AcDbScale
 70
     0
300
10:1
140
10.0
141
1.0
290
     0
  0
SCALE
  5
58
102
{ACAD_REACTORS
330
47
102
}
330
47
100
AcDbScale
 70
     0
300
100:1
140
100.0
141
1.0
290
     0
  0
SCALE
  5
59
102
{ACAD_REACTORS
330
47
102
}
330
47
100
AcDbScale
 70
     0
300
1/128" = 1'-0"
140
0.0078125
141
12.0
290
     0
  0
SCALE
  5
5A
102
{ACAD_REACTORS
330
47
102
}
330
47
100
AcDbScale
 70
     0
300
1/64" = 1'-0"
140
0.015625
141
12.0
290
     0
  0
SCALE
  5
5B
102
{ACAD_REACTORS
330
47
102
}
330
47
100
AcDbScale
 70
     0
300
1/32" = 1'-0"
140
0.03125
141
12.0
290
     0
  0
SCALE
  5
5C
102
{ACAD_REACTORS
330
47
102
}
330
47
100
AcDbScale
 70
     0
300
1/16" = 1'-0"
140
0.0625
141
12.0
290
     0
  0
SCALE
  5
5D
102
{ACAD_REACTORS
330
47
102
}
330
47
100
AcDbScale
 70
     0
300
3/32" = 1'-0"
140
0.09375
141
12.0
290
     0
  0
SCALE
  5
5E
102
{ACAD_REACTORS
330
47
102
}
330
47
100
AcDbScale
 70
     0
300
1/8" = 1'-0"
140
0.125
141
12.0
290
     0
  0
SCALE
  5
5F
102
{ACAD_REACTORS
330
47
102
}
330
47
100
AcDbScale
 70
     0
300
3/16" = 1'-0"
140
0.1875
141
12.0
290
     0
  0
SCALE
  5
60
102
{ACAD_REACTORS
330
47
102
}
330
47
100
AcDbScale
 70
     0
300
1/4" = 1'-0"
140
0.25
141
12.0
290
     0
  0
SCALE
  5
61
102
{ACAD_REACTORS
330
47
102
}
330
47
100
AcDbScale
 70
     0
300
3/8" = 1'-0"
140
0.375
141
12.0
290
     0
  0
SCALE
  5
62
102
{ACAD_REACTORS
330
47
102
}
330
47
100
AcDbScale
 70
     0
300
1/2" = 1'-0"
140
0.5
141
12.0
290
     0
  0
SCALE
  5
63
102
{ACAD_REACTORS
330
47
102
}
330
47
100
AcDbScale
 70
     0
300
3/4" = 1'-0"
140
0.75
141
12.0
290
     0
  0
SCALE
  5
64
102
{ACAD_REACTORS
330
47
102
}
330
47
100
AcDbScale
 70
     0
300
1" = 1'-0"
140
1.0
141
12.0
290
     0
  0
SCALE
  5
65
102
{ACAD_REACTORS
330
47
102
}
330
47
100
AcDbScale
 70
     0
300
1-1/2" = 1'-0"
140
1.5
141
12.0
290
     0
  0
SCALE
  5
66
102
{ACAD_REACTORS
330
47
102
}
330
47
100
AcDbScale
 70
     0
300
3" = 1'-0"
140
3.0
141
12.0
290
     0
  0
SCALE
  5
67
102
{ACAD_REACTORS
330
47
102
}
330
47
100
AcDbScale
 70
     0
300
6" = 1'-0"
140
6.0
141
12.0
290
     0
  0
SCALE
  5
68
102
{ACAD_REACTORS
330
47
102
}
330
47
100
AcDbScale
 70
     0
300
1'-0" = 1'-0"
140
12.0
141
12.0
290
     0
  0
TABLESTYLE
  5
6A
102
{ACAD_REACTORS
330
69
102
}
102
{ACAD_XDICTIONARY
360
1EB
102
}
330
69
100
AcDbTableStyle
  3
Standard
 70
     0
 71
     0
 40
0.06
 41
0.06
280
     0
281
     0
  7
Standard
140
0.18
170
     2
 62
     0
 63
   257
283
     0
 90
        4
 91
        0
  1

274
    -2
284
     1
 64
     0
275
    -2
285
     1
 65
     0
276
    -2
286
     1
 66
     0
277
    -2
287
     1
 67
     0
278
    -2
288
     1
 68
     0
279
    -2
289
     1
 69
     0
  7
Standard
140
0.25
170
     5
 62
     0
 63
   257
283
     0
 90
        4
 91
        0
  1

274
    -2
284
     1
 64
     0
275
    -2
285
     1
 65
     0
276
    -2
286
     1
 66
     0
277
    -2
287
     1
 67
     0
278
    -2
288
     1
 68
     0
279
    -2
289
     1
 69
     0
  7
Standard
140
0.18
170
     5
 62
     0
 63
   257
283
     0
 90
        4
 91
        0
  1

274
    -2
284
     1
 64
     0
275
    -2
285
     1
 65
     0
276
    -2
286
     1
 66
     0
277
    -2
287
     1
 67
     0
278
    -2
288
     1
 68
     0
279
    -2
289
     1
 69
     0
  0
VISUALSTYLE
  5
2F
102
{ACAD_REACTORS
330
2A
102
}
330
2A
100
AcDbVisualStyle
  2
2dWireframe
 70
     4
177
     3
291
     0
 70
    58
 90
        0
176
     1
 90
        2
176
     1
 90
        0
176
     1
 90
        0
176
     1
 40
0.6
176
     1
 40
30.0
176
     1
 62
     7
420
 16777215
176
     1
 90
        1
176
     1
 90
        4
176
     1
 62
     7
176
     1
 62
   257
176
     1
 90
        1
176
     1
 90
        1
176
     1
 40
1.0
176
     1
 90
        0
176
     1
 62
   257
176
     1
 40
1.0
176
     1
 90
        1
176
     1
 90
        6
176
     1
 90
        2
176
     1
 62
     7
176
     1
 90
        5
176
     1
 90
        0
176
     1
 90
        0
176
     1
290
     0
176
     1
 90
        1
176
     1
 40
0.0
176
     1
 90
        0
176
     1
290
     1
176
     1
290
     1
176
     1
290
     0
176
     1
290
     0
176
     1
290
     0
176
     1
290
     0
176
     1
290
     0
176
     1
290
     0
176
     1
290
     0
176
     1
 90
       50
176
     1
 40
0.0
176
     1
 40
1.0
176
     1
 90
        0
176
     1
 62
    18
420
        0
176
     1
 90
       50
176
     1
 90
        3
176
     1
 62
     5
420
      255
176
     1
290
     0
176
     1
 90
       50
176
     1
 90
       50
176
     1
 90
       50
176
     1
290
     0
176
     1
 90
       50
176
     1
 62
   256
176
     0
 40
1.0
176
     0
 90
        2
176
     1
  1
strokes_ogs.tif
176
     1
290
     0
176
     1
 40
1.0
176
     1
 40
1.0
176
     1
  0
VISUALSTYLE
  5
32
102
{ACAD_REACTORS
330
2A
102
}
330
2A
100
AcDbVisualStyle
  2
Basic
 70
     7
177
     3
291
     1
 70
    58
 90
        1
176
     1
 90
        0
176
     1
 90
        1
176
     1
 90
        0
176
     1
 40
0.6
176
     1
 40
30.0
176
     1
 62
     7
420
 16777215
176
     1
 90
        0
176
     1
 90
        4
176
     1
 62
     7
176
     1
 62
   257
176
     1
 90
        1
176
     1
 90
        1
176
     1
 40
1.0
176
     1
 90
        8
176
     1
 62
     7
176
     1
 40
1.0
176
     1
 90
        1
176
     1
 90
        6
176
     1
 90
        2
176
     1
 62
     7
176
     1
 90
        5
176
     1
 90
        0
176
     1
 90
        0
176
     1
290
     0
176
     1
 90
        1
176
     1
 40
0.0
176
     1
 90
        0
176
     1
290
     0
176
     1
290
     1
176
     1
290
     1
176
     1
290
     0
176
     1
290
     0
176
     1
290
     0
176
     1
290
     0
176
     1
290
     0
176
     1
290
     0
176
     1
 90
       50
176
     1
 40
0.0
176
     1
 40
1.0
176
     1
 90
        0
176
     1
 62
    18
420
        0
176
     1
 90
       50
176
     1
 90
        3
176
     1
 62
     5
420
      255
176
     1
290
     0
176
     1
 90
       50
176
     1
 90
       50
176
     1
 90
       50
176
     1
290
     0
176
     1
 90
       50
176
     1
 62
   256
176
     0
 40
1.0
176
     0
 90
        2
176
     1
  1
strokes_ogs.tif
176
     1
290
     0
176
     1
 40
1.0
176
     1
 40
1.0
176
     1
  0
VISUALSTYLE
  5
36
102
{ACAD_REACTORS
330
2A
102
}
330
2A
100
AcDbVisualStyle
  2
Brighten
 70
    12
177
     3
291
     1
 70
    58
 90
        2
176
     1
 90
        2
176
     1
 90
        0
176
     1
 90
        0
176
     1
 40
0.6
176
     1
 40
30.0
176
     1
 62
     7
420
 16777215
176
     1
 90
        1
176
     1
 90
        4
176
     1
 62
     7
176
     1
 62
   257
176
     1
 90
        1
176
     1
 90
        1
176
     1
 40
1.0
176
     1
 90
        8
176
     1
 62
     7
176
     1
 40
1.0
176
     1
 90
        1
176
     1
 90
        6
176
     1
 90
        2
176
     1
 62
     7
176
     1
 90
        5
176
     1
 90
        0
176
     1
 90
        0
176
     1
290
     0
176
     1
 90
        1
176
     1
 40
50.0
176
     1
 90
        0
176
     1
290
     0
176
     1
290
     1
176
     1
290
     1
176
     1
290
     0
176
     1
290
     0
176
     1
290
     0
176
     1
290
     0
176
     1
290
     0
176
     1
290
     0
176
     1
 90
       50
176
     1
 40
0.0
176
     1
 40
1.0
176
     1
 90
        0
176
     1
 62
    18
420
        0
176
     1
 90
       50
176
     1
 90
        3
176
     1
 62
     5
420
      255
176
     1
290
     0
176
     1
 90
       50
176
     1
 90
       50
176
     1
 90
       50
176
     1
290
     0
176
     1
 90
       50
176
     1
 62
   256
176
     0
 40
1.0
176
     0
 90
        2
176
     1
  1
strokes_ogs.tif
176
     1
290
     0
176
     1
 40
1.0
176
     1
 40
1.0
176
     1
  0
VISUALSTYLE
  5
3A
102
{ACAD_REACTORS
330
2A
102
}
330
2A
100
AcDbVisualStyle
  2
ColorChange
 70
    16
177
     3
291
     1
 70
    58
 90
        2
176
     1
 90
        2
176
     1
 90
        3
176
     1
 90
        0
176
     1
 40
0.6
176
     1
 40
30.0
176
     1
 62
     8
420
  8421504
176
     1
 90
        1
176
     1
 90
        4
176
     1
 62
     7
176
     1
 62
   257
176
     1
 90
        1
176
     1
 90
        1
176
     1
 40
1.0
176
     1
 90
        8
176
     1
 62
     8
420
  8421504
176
     1
 40
1.0
176
     1
 90
        1
176
     1
 90
        6
176
     1
 90
        2
176
     1
 62
     7
176
     1
 90
        5
176
     1
 90
        0
176
     1
 90
        0
176
     1
290
     0
176
     1
 90
        1
176
     1
 40
0.0
176
     1
 90
        0
176
     1
290
     0
176
     1
290
     1
176
     1
290
     1
176
     1
290
     0
176
     1
290
     0
176
     1
290
     0
176
     1
290
     0
176
     1
290
     0
176
     1
290
     0
176
     1
 90
       50
176
     1
 40
0.0
176
     1
 40
1.0
176
     1
 90
        0
176
     1
 62
    18
420
        0
176
     1
 90
       50
176
     1
 90
        3
176
     1
 62
     5
420
      255
176
     1
290
     0
176
     1
 90
       50
176
     1
 90
       50
176
     1
 90
       50
176
     1
290
     0
176
     1
 90
       50
176
     1
 62
   256
176
     0
 40
1.0
176
     0
 90
        2
176
     1
  1
strokes_ogs.tif
176
     1
290
     0
176
     1
 40
1.0
176
     1
 40
1.0
176
     1
  0
VISUALSTYLE
  5
34
102
{ACAD_REACTORS
330
2A
102
}
330
2A
100
AcDbVisualStyle
  2
Conceptual
 70
     9
177
     3
291
     0
 70
    58
 90
        3
176
     1
 90
        2
176
     1
 90
        0
176
     1
 90
        0
176
     1
 40
0.6
176
     1
 40
30.0
176
     1
 62
     7
420
 16777215
176
     1
 90
        2
176
     1
 90
        2
176
     1
 62
     7
176
     1
 62
   257
176
     1
 90
        1
176
     1
 90
        1
176
     1
 40
179.0
176
     1
 90
        8
176
     1
 62
     7
176
     1
 40
1.0
176
     1
 90
        1
176
     1
 90
        6
176
     1
 90
        2
176
     1
 62
     7
176
     1
 90
        3
176
     1
 90
        0
176
     1
 90
        0
176
     1
290
     0
176
     1
 90
        1
176
     1
 40
0.0
176
     1
 90
        0
176
     1
290
     0
176
     1
290
     1
176
     1
290
     1
176
     1
290
     0
176
     1
290
     0
176
     1
290
     0
176
     1
290
     0
176
     1
290
     0
176
     1
290
     0
176
     1
 90
       50
176
     1
 40
0.0
176
     1
 40
1.0
176
     1
 90
        0
176
     1
 62
    18
420
        0
176
     1
 90
       50
176
     1
 90
        3
176
     1
 62
     5
420
      255
176
     1
290
     0
176
     1
 90
       50
176
     1
 90
       50
176
     1
 90
       50
176
     1
290
     0
176
     1
 90
       50
176
     1
 62
   256
176
     0
 40
1.0
176
     0
 90
        2
176
     1
  1
strokes_ogs.tif
176
     1
290
     0
176
     1
 40
1.0
176
     1
 40
1.0
176
     1
  0
VISUALSTYLE
  5
35
102
{ACAD_REACTORS
330
2A
102
}
330
2A
100
AcDbVisualStyle
  2
Dim
 70
    11
177
     3
291
     1
 70
    58
 90
        2
176
     1
 90
        2
176
     1
 90
        0
176
     1
 90
        0
176
     1
 40
0.6
176
     1
 40
30.0
176
     1
 62
     7
420
 16777215
176
     1
 90
        1
176
     1
 90
        4
176
     1
 62
     7
176
     1
 62
   257
176
     1
 90
        1
176
     1
 90
        1
176
     1
 40
1.0
176
     1
 90
        8
176
     1
 62
     7
176
     1
 40
1.0
176
     1
 90
        1
176
     1
 90
        6
176
     1
 90
        2
176
     1
 62
     7
176
     1
 90
        5
176
     1
 90
        0
176
     1
 90
        0
176
     1
290
     0
176
     1
 90
        1
176
     1
 40
-50.0
176
     1
 90
        0
176
     1
290
     0
176
     1
290
     1
176
     1
290
     1
176
     1
290
     0
176
     1
290
     0
176
     1
290
     0
176
     1
290
     0
176
     1
290
     0
176
     1
290
     0
176
     1
 90
       50
176
     1
 40
0.0
176
     1
 40
1.0
176
     1
 90
        0
176
     1
 62
    18
420
        0
176
     1
 90
       50
176
     1
 90
        3
176
     1
 62
     5
420
      255
176
     1
290
     0
176
     1
 90
       50
176
     1
 90
       50
176
     1
 90
       50
176
     1
290
     0
176
     1
 90
       50
176
     1
 62
   256
176
     0
 40
1.0
176
     0
 90
        2
176
     1
  1
strokes_ogs.tif
176
     1
290
     0
176
     1
 40
1.0
176
     1
 40
1.0
176
     1
  0
VISUALSTYLE
  5
3D
102
{ACAD_REACTORS
330
2A
102
}
330
2A
100
AcDbVisualStyle
  2
EdgeColorOff
 70
    22
177
     3
291
     1
 70
    58
 90
        2
176
     0
 90
        2
176
     0
 90
        0
176
     0
 90
        0
176
     0
 40
0.6
176
     0
 40
30.0
176
     0
 62
     7
420
 16777215
176
     0
 90
        1
176
     0
 90
        4
176
     0
 62
     7
176
     0
 62
   257
176
     0
 90
        1
176
     0
 90
        1
176
     0
 40
1.0
176
     0
 90
        8
176
     2
 62
     7
176
     0
 40
1.0
176
     0
 90
        1
176
     0
 90
        6
176
     0
 90
        2
176
     0
 62
     7
176
     0
 90
        5
176
     0
 90
        0
176
     0
 90
        0
176
     0
290
     0
176
     0
 90
        1
176
     0
 40
0.0
176
     0
 90
        0
176
     0
290
     0
176
     0
290
     1
176
     0
290
     1
176
     0
290
     0
176
     0
290
     0
176
     0
290
     0
176
     0
290
     0
176
     0
290
     0
176
     0
290
     0
176
     0
 90
       50
176
     0
 40
0.0
176
     0
 40
1.0
176
     0
 90
        0
176
     0
 62
    18
420
        0
176
     0
 90
       50
176
     0
 90
        3
176
     0
 62
     5
420
      255
176
     0
290
     0
176
     0
 90
       50
176
     0
 90
       50
176
     0
 90
       50
176
     0
290
     0
176
     0
 90
       50
176
     0
 62
   256
176
     0
 40
1.0
176
     0
 90
        2
176
     0
  1
strokes_ogs.tif
176
     0
290
     0
176
     0
 40
1.0
176
     0
 40
1.0
176
     0
  0
VISUALSTYLE
  5
39
102
{ACAD_REACTORS
330
2A
102
}
330
2A
100
AcDbVisualStyle
  2
Facepattern
 70
    15
177
     3
291
     1
 70
    58
 90
        2
176
     1
 90
        2
176
     1
 90
        0
176
     1
 90
        0
176
     1
 40
0.6
176
     1
 40
30.0
176
     1
 62
     7
420
 16777215
176
     1
 90
        1
176
     1
 90
        4
176
     1
 62
     7
176
     1
 62
   257
176
     1
 90
        1
176
     1
 90
        1
176
     1
 40
1.0
176
     1
 90
        8
176
     1
 62
     7
176
     1
 40
1.0
176
     1
 90
        1
176
     1
 90
        6
176
     1
 90
        2
176
     1
 62
     7
176
     1
 90
        5
176
     1
 90
        0
176
     1
 90
        0
176
     1
290
     0
176
     1
 90
        1
176
     1
 40
0.0
176
     1
 90
        0
176
     1
290
     0
176
     1
290
     1
176
     1
290
     1
176
     1
290
     0
176
     1
290
     0
176
     1
290
     0
176
     1
290
     0
176
     1
290
     0
176
     1
290
     0
176
     1
 90
       50
176
     1
 40
0.0
176
     1
 40
1.0
176
     1
 90
        0
176
     1
 62
    18
420
        0
176
     1
 90
       50
176
     1
 90
        3
176
     1
 62
     5
420
      255
176
     1
290
     0
176
     1
 90
       50
176
     1
 90
       50
176
     1
 90
       50
176
     1
290
     0
176
     1
 90
       50
176
     1
 62
   256
176
     0
 40
1.0
176
     0
 90
        2
176
     1
  1
strokes_ogs.tif
176
     1
290
     0
176
     1
 40
1.0
176
     1
 40
1.0
176
     1
  0
VISUALSTYLE
  5
2B
102
{ACAD_REACTORS
330
2A
102
}
330
2A
100
AcDbVisualStyle
  2
Flat
 70
     0
177
     3
291
     1
 70
    58
 90
        2
176
     1
 90
        1
176
     1
 90
        1
176
     1
 90
        2
176
     1
 40
0.6
176
     1
 40
30.0
176
     1
 62
     7
420
 16777215
176
     1
 90
        0
176
     1
 90
        0
176
     1
 62
     7
176
     1
 62
   257
176
     1
 90
        1
176
     1
 90
        1
176
     1
 40
1.0
176
     1
 90
        8
176
     1
 62
     7
176
     1
 40
1.0
176
     1
 90
        1
176
     1
 90
        6
176
     1
 90
        2
176
     1
 62
     7
176
     1
 90
        5
176
     1
 90
        0
176
     1
 90
        0
176
     1
290
     0
176
     1
 90
       13
176
     1
 40
0.0
176
     1
 90
        0
176
     1
290
     0
176
     1
290
     1
176
     1
290
     1
176
     1
290
     0
176
     1
290
     0
176
     1
290
     0
176
     1
290
     0
176
     1
290
     0
176
     1
290
     0
176
     1
 90
       50
176
     1
 40
0.0
176
     1
 40
1.0
176
     1
 90
        0
176
     1
 62
    18
420
        0
176
     1
 90
       50
176
     1
 90
        3
176
     1
 62
     5
420
      255
176
     1
290
     0
176
     1
 90
       50
176
     1
 90
       50
176
     1
 90
       50
176
     1
290
     0
176
     1
 90
       50
176
     1
 62
   256
176
     0
 40
1.0
176
     0
 90
        2
176
     1
  1
strokes_ogs.tif
176
     1
290
     0
176
     1
 40
1.0
176
     1
 40
1.0
176
     1
  0
VISUALSTYLE
  5
2C
102
{ACAD_REACTORS
330
2A
102
}
330
2A
100
AcDbVisualStyle
  2
FlatWithEdges
 70
     1
177
     3
291
     1
 70
    58
 90
        2
176
     1
 90
        1
176
     1
 90
        1
176
     1
 90
        2
176
     1
 40
0.6
176
     1
 40
30.0
176
     1
 62
     7
420
 16777215
176
     1
 90
        1
176
     1
 90
        0
176
     1
 62
     7
176
     1
 62
   257
176
     1
 90
        1
176
     1
 90
        1
176
     1
 40
1.0
176
     1
 90
        0
176
     1
 62
   257
176
     1
 40
1.0
176
     1
 90
        1
176
     1
 90
        6
176
     1
 90
        2
176
     1
 62
     7
176
     1
 90
        5
176
     1
 90
        0
176
     1
 90
        0
176
     1
290
     0
176
     1
 90
       13
176
     1
 40
0.0
176
     1
 90
        0
176
     1
290
     0
176
     1
290
     1
176
     1
290
     1
176
     1
290
     0
176
     1
290
     0
176
     1
290
     0
176
     1
290
     0
176
     1
290
     0
176
     1
290
     0
176
     1
 90
       50
176
     1
 40
0.0
176
     1
 40
1.0
176
     1
 90
        0
176
     1
 62
    18
420
        0
176
     1
 90
       50
176
     1
 90
        3
176
     1
 62
     5
420
      255
176
     1
290
     0
176
     1
 90
       50
176
     1
 90
       50
176
     1
 90
       50
176
     1
290
     0
176
     1
 90
       50
176
     1
 62
   256
176
     0
 40
1.0
176
     0
 90
        2
176
     1
  1
strokes_ogs.tif
176
     1
290
     0
176
     1
 40
1.0
176
     1
 40
1.0
176
     1
  0
VISUALSTYLE
  5
2D
102
{ACAD_REACTORS
330
2A
102
}
330
2A
100
AcDbVisualStyle
  2
Gouraud
 70
     2
177
     3
291
     1
 70
    58
 90
        2
176
     1
 90
        2
176
     1
 90
        1
176
     1
 90
        2
176
     1
 40
0.6
176
     1
 40
30.0
176
     1
 62
     7
420
 16777215
176
     1
 90
        0
176
     1
 90
        0
176
     1
 62
     7
176
     1
 62
   257
176
     1
 90
        1
176
     1
 90
        1
176
     1
 40
1.0
176
     1
 90
        0
176
     1
 62
     7
176
     1
 40
1.0
176
     1
 90
        1
176
     1
 90
        6
176
     1
 90
        2
176
     1
 62
     7
176
     1
 90
        5
176
     1
 90
        0
176
     1
 90
        0
176
     1
290
     0
176
     1
 90
       13
176
     1
 40
0.0
176
     1
 90
        0
176
     1
290
     0
176
     1
290
     1
176
     1
290
     1
176
     1
290
     0
176
     1
290
     0
176
     1
290
     0
176
     1
290
     0
176
     1
290
     0
176
     1
290
     0
176
     1
 90
       50
176
     1
 40
0.0
176
     1
 40
1.0
176
     1
 90
        0
176
     1
 62
    18
420
        0
176
     1
 90
       50
176
     1
 90
        3
176
     1
 62
     5
420
      255
176
     1
290
     0
176
     1
 90
       50
176
     1
 90
       50
176
     1
 90
       50
176
     1
290
     0
176
     1
 90
       50
176
     1
 62
   256
176
     0
 40
1.0
176
     0
 90
        2
176
     1
  1
strokes_ogs.tif
176
     1
290
     0
176
     1
 40
1.0
176
     1
 40
1.0
176
     1
  0
VISUALSTYLE
  5
2E
102
{ACAD_REACTORS
330
2A
102
}
330
2A
100
AcDbVisualStyle
  2
GouraudWithEdges
 70
     3
177
     3
291
     1
 70
    58
 90
        2
176
     1
 90
        2
176
     1
 90
        1
176
     1
 90
        2
176
     1
 40
0.6
176
     1
 40
30.0
176
     1
 62
     7
420
 16777215
176
     1
 90
        1
176
     1
 90
        0
176
     1
 62
     7
176
     1
 62
   257
176
     1
 90
        1
176
     1
 90
        1
176
     1
 40
1.0
176
     1
 90
        0
176
     1
 62
   257
176
     1
 40
1.0
176
     1
 90
        1
176
     1
 90
        6
176
     1
 90
        2
176
     1
 62
     7
176
     1
 90
        5
176
     1
 90
        0
176
     1
 90
        0
176
     1
290
     0
176
     1
 90
       13
176
     1
 40
0.0
176
     1
 90
        0
176
     1
290
     0
176
     1
290
     1
176
     1
290
     1
176
     1
290
     0
176
     1
290
     0
176
     1
290
     0
176
     1
290
     0
176
     1
290
     0
176
     1
290
     0
176
     1
 90
       50
176
     1
 40
0.0
176
     1
 40
1.0
176
     1
 90
        0
176
     1
 62
    18
420
        0
176
     1
 90
       50
176
     1
 90
        3
176
     1
 62
     5
420
      255
176
     1
290
     0
176
     1
 90
       50
176
     1
 90
       50
176
     1
 90
       50
176
     1
290
     0
176
     1
 90
       50
176
     1
 62
   256
176
     0
 40
1.0
176
     0
 90
        2
176
     1
  1
strokes_ogs.tif
176
     1
290
     0
176
     1
 40
1.0
176
     1
 40
1.0
176
     1
  0
VISUALSTYLE
  5
31
102
{ACAD_REACTORS
330
2A
102
}
330
2A
100
AcDbVisualStyle
  2
Hidden
 70
     6
177
     3
291
     0
 70
    58
 90
        1
176
     1
 90
        2
176
     1
 90
        2
176
     1
 90
        0
176
     1
 40
0.6
176
     1
 40
30.0
176
     1
 62
     7
420
 16777215
176
     1
 90
        2
176
     1
 90
        2
176
     1
 62
     7
176
     1
 62
   257
176
     1
 90
        2
176
     1
 90
        1
176
     1
 40
40.0
176
     1
 90
        0
176
     1
 62
   257
176
     1
 40
1.0
176
     1
 90
        1
176
     1
 90
        6
176
     1
 90
        2
176
     1
 62
     7
176
     1
 90
        3
176
     1
 90
        0
176
     1
 90
        0
176
     1
290
     0
176
     1
 90
        1
176
     1
 40
0.0
176
     1
 90
        0
176
     1
290
     0
176
     1
290
     1
176
     1
290
     1
176
     1
290
     0
176
     1
290
     0
176
     1
290
     0
176
     1
290
     0
176
     1
290
     0
176
     1
290
     0
176
     1
 90
       50
176
     1
 40
0.0
176
     1
 40
1.0
176
     1
 90
        0
176
     1
 62
    18
420
        0
176
     1
 90
       50
176
     1
 90
        3
176
     1
 62
     5
420
      255
176
     1
290
     0
176
     1
 90
       50
176
     1
 90
       50
176
     1
 90
       50
176
     1
290
     0
176
     1
 90
       50
176
     1
 62
   256
176
     0
 40
1.0
176
     0
 90
        2
176
     1
  1
strokes_ogs.tif
176
     1
290
     0
176
     1
 40
1.0
176
     1
 40
1.0
176
     1
  0
VISUALSTYLE
  5
3B
102
{ACAD_REACTORS
330
2A
102
}
330
2A
100
AcDbVisualStyle
  2
JitterOff
 70
    20
177
     3
291
     1
 70
    58
 90
        2
176
     0
 90
        2
176
     0
 90
        0
176
     0
 90
        0
176
     0
 40
0.6
176
     0
 40
30.0
176
     0
 62
     7
420
 16777215
176
     0
 90
        1
176
     0
 90
        4
176
     0
 62
     7
176
     0
 62
   257
176
     0
 90
        1
176
     0
 90
        1
176
     0
 40
1.0
176
     0
 90
       10
176
     2
 62
     7
176
     0
 40
1.0
176
     0
 90
        1
176
     0
 90
        6
176
     0
 90
        2
176
     0
 62
     7
176
     0
 90
        5
176
     0
 90
        0
176
     0
 90
        0
176
     0
290
     0
176
     0
 90
        1
176
     0
 40
0.0
176
     0
 90
        0
176
     0
290
     0
176
     0
290
     1
176
     0
290
     1
176
     0
290
     0
176
     0
290
     0
176
     0
290
     0
176
     0
290
     0
176
     0
290
     0
176
     0
290
     0
176
     0
 90
       50
176
     0
 40
0.0
176
     0
 40
1.0
176
     0
 90
        0
176
     0
 62
    18
420
        0
176
     0
 90
       50
176
     0
 90
        3
176
     0
 62
     5
420
      255
176
     0
290
     0
176
     0
 90
       50
176
     0
 90
       50
176
     0
 90
       50
176
     0
290
     0
176
     0
 90
       50
176
     0
 62
   256
176
     0
 40
1.0
176
     0
 90
        2
176
     0
  1
strokes_ogs.tif
176
     0
290
     0
176
     0
 40
1.0
176
     0
 40
1.0
176
     0
  0
VISUALSTYLE
  5
38
102
{ACAD_REACTORS
330
2A
102
}
330
2A
100
AcDbVisualStyle
  2
Linepattern
 70
    14
177
     3
291
     1
 70
    58
 90
        2
176
     1
 90
        2
176
     1
 90
        0
176
     1
 90
        0
176
     1
 40
0.6
176
     1
 40
30.0
176
     1
 62
     7
420
 16777215
176
     1
 90
        1
176
     1
 90
        4
176
     1
 62
     7
176
     1
 62
   257
176
     1
 90
        7
176
     1
 90
        7
176
     1
 40
1.0
176
     1
 90
        8
176
     1
 62
     7
176
     1
 40
1.0
176
     1
 90
        1
176
     1
 90
        6
176
     1
 90
        2
176
     1
 62
     7
176
     1
 90
        5
176
     1
 90
        0
176
     1
 90
        0
176
     1
290
     0
176
     1
 90
        1
176
     1
 40
0.0
176
     1
 90
        0
176
     1
290
     0
176
     1
290
     1
176
     1
290
     1
176
     1
290
     0
176
     1
290
     0
176
     1
290
     0
176
     1
290
     0
176
     1
290
     0
176
     1
290
     0
176
     1
 90
       50
176
     1
 40
0.0
176
     1
 40
1.0
176
     1
 90
        0
176
     1
 62
    18
420
        0
176
     1
 90
       50
176
     1
 90
        3
176
     1
 62
     5
420
      255
176
     1
290
     0
176
     1
 90
       50
176
     1
 90
       50
176
     1
 90
       50
176
     1
290
     0
176
     1
 90
       50
176
     1
 62
   256
176
     0
 40
1.0
176
     0
 90
        2
176
     1
  1
strokes_ogs.tif
176
     1
290
     0
176
     1
 40
1.0
176
     1
 40
1.0
176
     1
  0
VISUALSTYLE
  5
3C
102
{ACAD_REACTORS
330
2A
102
}
330
2A
100
AcDbVisualStyle
  2
OverhangOff
 70
    21
177
     3
291
     1
 70
    58
 90
        2
176
     0
 90
        2
176
     0
 90
        0
176
     0
 90
        0
176
     0
 40
0.6
176
     0
 40
30.0
176
     0
 62
     7
420
 16777215
176
     0
 90
        1
176
     0
 90
        4
176
     0
 62
     7
176
     0
 62
   257
176
     0
 90
        1
176
     0
 90
        1
176
     0
 40
1.0
176
     0
 90
        9
176
     2
 62
     7
176
     0
 40
1.0
176
     0
 90
        1
176
     0
 90
        6
176
     0
 90
        2
176
     0
 62
     7
176
     0
 90
        5
176
     0
 90
        0
176
     0
 90
        0
176
     0
290
     0
176
     0
 90
        1
176
     0
 40
0.0
176
     0
 90
        0
176
     0
290
     0
176
     0
290
     1
176
     0
290
     1
176
     0
290
     0
176
     0
290
     0
176
     0
290
     0
176
     0
290
     0
176
     0
290
     0
176
     0
290
     0
176
     0
 90
       50
176
     0
 40
0.0
176
     0
 40
1.0
176
     0
 90
        0
176
     0
 62
    18
420
        0
176
     0
 90
       50
176
     0
 90
        3
176
     0
 62
     5
420
      255
176
     0
290
     0
176
     0
 90
       50
176
     0
 90
       50
176
     0
 90
       50
176
     0
290
     0
176
     0
 90
       50
176
     0
 62
   256
176
     0
 40
1.0
176
     0
 90
        2
176
     0
  1
strokes_ogs.tif
176
     0
290
     0
176
     0
 40
1.0
176
     0
 40
1.0
176
     0
  0
VISUALSTYLE
  5
33
102
{ACAD_REACTORS
330
2A
102
}
330
2A
100
AcDbVisualStyle
  2
Realistic
 70
     8
177
     3
291
     0
 70
    58
 90
        2
176
     1
 90
        3
176
     1
 90
        0
176
     1
 90
        2
176
     1
 40
0.6
176
     1
 40
30.0
176
     1
 62
     7
420
 16777215
176
     1
 90
        0
176
     1
 90
        0
176
     1
 62
     7
176
     1
 62
   257
176
     1
 90
        1
176
     1
 90
        1
176
     1
 40
1.0
176
     1
 90
        8
176
     1
 62
   257
176
     1
 40
1.0
176
     1
 90
        1
176
     1
 90
        6
176
     1
 90
        2
176
     1
 62
     7
176
     1
 90
        3
176
     1
 90
        0
176
     1
 90
        0
176
     1
290
     0
176
     1
 90
       13
176
     1
 40
0.0
176
     1
 90
        0
176
     1
290
     0
176
     1
290
     1
176
     1
290
     1
176
     1
290
     0
176
     1
290
     0
176
     1
290
     0
176
     1
290
     0
176
     1
290
     0
176
     1
290
     0
176
     1
 90
       50
176
     1
 40
0.0
176
     1
 40
1.0
176
     1
 90
        0
176
     1
 62
    18
420
        0
176
     1
 90
       50
176
     1
 90
        3
176
     1
 62
     5
420
      255
176
     1
290
     0
176
     1
 90
       50
176
     1
 90
       50
176
     1
 90
       50
176
     1
290
     0
176
     1
 90
       50
176
     1
 62
   256
176
     0
 40
1.0
176
     0
 90
        2
176
     1
  1
strokes_ogs.tif
176
     1
290
     0
176
     1
 40
1.0
176
     1
 40
1.0
176
     1
  0
VISUALSTYLE
  5
42
102
{ACAD_REACTORS
330
2A
102
}
330
2A
100
AcDbVisualStyle
  2
Shaded
 70
    27
177
     3
291
     0
 70
    58
 90
        2
176
     1
 90
        2
176
     1
 90
        1
176
     1
 90
        2
176
     1
 40
0.6
176
     1
 40
30.0
176
     1
 62
     7
420
 16777215
176
     1
 90
        0
176
     1
 90
        4
176
     1
 62
     7
176
     1
 62
   257
176
     1
 90
        1
176
     1
 90
        1
176
     1
 40
1.0
176
     1
 90
        8
176
     1
 62
   257
176
     1
 40
1.0
176
     1
 90
        1
176
     1
 90
        6
176
     1
 90
        2
176
     1
 62
     8
420
  7895160
176
     1
 90
        3
176
     1
 90
        0
176
     1
 90
        0
176
     1
290
     0
176
     1
 90
        5
176
     1
 40
0.0
176
     1
 90
        0
176
     1
290
     0
176
     1
290
     1
176
     1
290
     1
176
     1
290
     0
176
     1
290
     0
176
     1
290
     0
176
     1
290
     0
176
     1
290
     0
176
     1
290
     0
176
     1
 90
       50
176
     1
 40
0.0
176
     1
 40
1.0
176
     1
 90
        0
176
     1
 62
    18
420
        0
176
     1
 90
       50
176
     1
 90
        3
176
     1
 62
     5
420
      255
176
     1
290
     0
176
     1
 90
       50
176
     1
 90
       50
176
     1
 90
       50
176
     1
290
     0
176
     1
 90
       50
176
     1
 62
   256
176
     0
 40
1.0
176
     0
 90
        2
176
     1
  1
strokes_ogs.tif
176
     1
290
     0
176
     1
 40
1.0
176
     1
 40
1.0
176
     1
  0
VISUALSTYLE
  5
41
102
{ACAD_REACTORS
330
2A
102
}
330
2A
100
AcDbVisualStyle
  2
Shaded with edges
 70
    26
177
     3
291
     0
 70
    58
 90
        2
176
     1
 90
        2
176
     1
 90
        1
176
     1
 90
        2
176
     1
 40
0.6
176
     1
 40
30.0
176
     1
 62
     7
420
 16777215
176
     1
 90
        1
176
     1
 90
       10
176
     1
 62
     7
176
     1
 62
   257
176
     1
 90
        2
176
     1
 90
        1
176
     1
 40
1.0
176
     1
 90
        8
176
     1
 62
   257
176
     1
 40
1.0
176
     1
 90
        1
176
     1
 90
        6
176
     1
 90
        2
176
     1
 62
     7
176
     1
 90
        3
176
     1
 90
        0
176
     1
 90
        0
176
     1
290
     0
176
     1
 90
        5
176
     1
 40
0.0
176
     1
 90
        0
176
     1
290
     0
176
     1
290
     1
176
     1
290
     1
176
     1
290
     0
176
     1
290
     0
176
     1
290
     0
176
     1
290
     0
176
     1
290
     0
176
     1
290
     0
176
     1
 90
       50
176
     1
 40
0.0
176
     1
 40
1.0
176
     1
 90
        0
176
     1
 62
    18
420
        0
176
     1
 90
       50
176
     1
 90
        3
176
     1
 62
     5
420
      255
176
     1
290
     0
176
     1
 90
       50
176
     1
 90
       50
176
     1
 90
       50
176
     1
290
     0
176
     1
 90
       50
176
     1
 62
   256
176
     0
 40
1.0
176
     0
 90
        2
176
     1
  1
strokes_ogs.tif
176
     1
290
     0
176
     1
 40
1.0
176
     1
 40
1.0
176
     1
  0
VISUALSTYLE
  5
3E
102
{ACAD_REACTORS
330
2A
102
}
330
2A
100
AcDbVisualStyle
  2
Shades of Gray
 70
    23
177
     3
291
     0
 70
    58
 90
        2
176
     1
 90
        2
176
     1
 90
        3
176
     1
 90
        0
176
     1
 40
0.6
176
     1
 40
30.0
176
     1
 62
     7
420
 16777215
176
     1
 90
        2
176
     1
 90
        2
176
     1
 62
     7
176
     1
 62
     7
176
     1
 90
        1
176
     1
 90
        1
176
     1
 40
40.0
176
     1
 90
        8
176
     1
 62
     7
176
     1
 40
1.0
176
     1
 90
        1
176
     1
 90
        6
176
     1
 90
        2
176
     1
 62
     7
176
     1
 90
        3
176
     1
 90
        0
176
     1
 90
        0
176
     1
290
     0
176
     1
 90
        1
176
     1
 40
0.0
176
     1
 90
        0
176
     1
290
     0
176
     1
290
     1
176
     1
290
     1
176
     1
290
     0
176
     1
290
     0
176
     1
290
     0
176
     1
290
     0
176
     1
290
     0
176
     1
290
     0
176
     1
 90
       50
176
     1
 40
0.0
176
     1
 40
1.0
176
     1
 90
        0
176
     1
 62
    18
420
        0
176
     1
 90
       50
176
     1
 90
        3
176
     1
 62
     5
420
      255
176
     1
290
     0
176
     1
 90
       50
176
     1
 90
       50
176
     1
 90
       50
176
     1
290
     0
176
     1
 90
       50
176
     1
 62
   256
176
     0
 40
1.0
176
     0
 90
        2
176
     1
  1
strokes_ogs.tif
176
     1
290
     0
176
     1
 40
1.0
176
     1
 40
1.0
176
     1
  0
VISUALSTYLE
  5
3F
102
{ACAD_REACTORS
330
2A
102
}
330
2A
100
AcDbVisualStyle
  2
Sketchy
 70
    24
177
     3
291
     0
 70
    58
 90
        1
176
     1
 90
        2
176
     1
 90
        2
176
     1
 90
        0
176
     1
 40
0.6
176
     1
 40
30.0
176
     1
 62
     7
420
 16777215
176
     1
 90
        2
176
     1
 90
        2
176
     1
 62
     7
176
     1
 62
     7
176
     1
 90
        1
176
     1
 90
        1
176
     1
 40
40.0
176
     1
 90
       11
176
     1
 62
     7
176
     1
 40
1.0
176
     1
 90
        1
176
     1
 90
        6
176
     1
 90
        2
176
     1
 62
     7
176
     1
 90
        6
176
     1
 90
        0
176
     1
 90
        0
176
     1
290
     0
176
     1
 90
        1
176
     1
 40
0.0
176
     1
 90
        0
176
     1
290
     0
176
     1
290
     1
176
     1
290
     1
176
     1
290
     0
176
     1
290
     0
176
     1
290
     0
176
     1
290
     0
176
     1
290
     0
176
     1
290
     0
176
     1
 90
       50
176
     1
 40
0.0
176
     1
 40
1.0
176
     1
 90
        0
176
     1
 62
    18
420
        0
176
     1
 90
       50
176
     1
 90
        3
176
     1
 62
     5
420
      255
176
     1
290
     0
176
     1
 90
       50
176
     1
 90
       50
176
     1
 90
       50
176
     1
290
     0
176
     1
 90
       50
176
     1
 62
   256
176
     0
 40
1.0
176
     0
 90
        2
176
     1
  1
strokes_ogs.tif
176
     1
290
     0
176
     1
 40
1.0
176
     1
 40
1.0
176
     1
  0
VISUALSTYLE
  5
37
102
{ACAD_REACTORS
330
2A
102
}
330
2A
100
AcDbVisualStyle
  2
Thicken
 70
    13
177
     3
291
     1
 70
    58
 90
        2
176
     1
 90
        2
176
     1
 90
        0
176
     1
 90
        0
176
     1
 40
0.6
176
     1
 40
30.0
176
     1
 62
     7
420
 16777215
176
     1
 90
        1
176
     1
 90
        4
176
     1
 62
     7
176
     1
 62
   257
176
     1
 90
        1
176
     1
 90
        1
176
     1
 40
1.0
176
     1
 90
       12
176
     1
 62
     7
176
     1
 40
1.0
176
     1
 90
        1
176
     1
 90
        6
176
     1
 90
        2
176
     1
 62
     7
176
     1
 90
        5
176
     1
 90
        0
176
     1
 90
        0
176
     1
290
     0
176
     1
 90
        1
176
     1
 40
0.0
176
     1
 90
        0
176
     1
290
     0
176
     1
290
     1
176
     1
290
     1
176
     1
290
     0
176
     1
290
     0
176
     1
290
     0
176
     1
290
     0
176
     1
290
     0
176
     1
290
     0
176
     1
 90
       50
176
     1
 40
0.0
176
     1
 40
1.0
176
     1
 90
        0
176
     1
 62
    18
420
        0
176
     1
 90
       50
176
     1
 90
        3
176
     1
 62
     5
420
      255
176
     1
290
     0
176
     1
 90
       50
176
     1
 90
       50
176
     1
 90
       50
176
     1
290
     0
176
     1
 90
       50
176
     1
 62
   256
176
     0
 40
1.0
176
     0
 90
        2
176
     1
  1
strokes_ogs.tif
176
     1
290
     0
176
     1
 40
1.0
176
     1
 40
1.0
176
     1
  0
VISUALSTYLE
  5
30
102
{ACAD_REACTORS
330
2A
102
}
330
2A
100
AcDbVisualStyle
  2
Wireframe
 70
     5
177
     3
291
     0
 70
    58
 90
        0
176
     1
 90
        2
176
     1
 90
        0
176
     1
 90
        0
176
     1
 40
0.6
176
     1
 40
30.0
176
     1
 62
     7
420
 16777215
176
     1
 90
        1
176
     1
 90
        4
176
     1
 62
     7
176
     1
 62
   257
176
     1
 90
        1
176
     1
 90
        1
176
     1
 40
1.0
176
     1
 90
        0
176
     1
 62
   257
176
     1
 40
1.0
176
     1
 90
        1
176
     1
 90
        6
176
     1
 90
        2
176
     1
 62
     7
176
     1
 90
        3
176
     1
 90
        0
176
     1
 90
        0
176
     1
290
     0
176
     1
 90
        1
176
     1
 40
0.0
176
     1
 90
        0
176
     1
290
     0
176
     1
290
     1
176
     1
290
     1
176
     1
290
     0
176
     1
290
     0
176
     1
290
     0
176
     1
290
     0
176
     1
290
     0
176
     1
290
     0
176
     1
 90
       50
176
     1
 40
0.0
176
     1
 40
1.0
176
     1
 90
        0
176
     1
 62
    18
420
        0
176
     1
 90
       50
176
     1
 90
        3
176
     1
 62
     5
420
      255
176
     1
290
     0
176
     1
 90
       50
176
     1
 90
       50
176
     1
 90
       50
176
     1
290
     0
176
     1
 90
       50
176
     1
 62
   256
176
     0
 40
1.0
176
     0
 90
        2
176
     1
  1
strokes_ogs.tif
176
     1
290
     0
176
     1
 40
1.0
176
     1
 40
1.0
176
     1
  0
VISUALSTYLE
  5
40
102
{ACAD_REACTORS
330
2A
102
}
330
2A
100
AcDbVisualStyle
  2
X-Ray
 70
    25
177
     3
291
     0
 70
    58
 90
        2
176
     1
 90
        2
176
     1
 90
        1
176
     1
 90
        1
176
     1
 40
0.5
176
     1
 40
30.0
176
     1
 62
     7
420
 16777215
176
     1
 90
        1
176
     1
 90
        0
176
     1
 62
     7
176
     1
 62
   257
176
     1
 90
        1
176
     1
 90
        1
176
     1
 40
1.0
176
     1
 90
        8
176
     1
 62
     7
176
     1
 40
1.0
176
     1
 90
        1
176
     1
 90
        6
176
     1
 90
        2
176
     1
 62
     7
176
     1
 90
        3
176
     1
 90
        0
176
     1
 90
        0
176
     1
290
     0
176
     1
 90
       13
176
     1
 40
0.0
176
     1
 90
        0
176
     1
290
     0
176
     1
290
     1
176
     1
290
     1
176
     1
290
     0
176
     1
290
     0
176
     1
290
     0
176
     1
290
     0
176
     1
290
     0
176
     1
290
     0
176
     1
 90
       50
176
     1
 40
0.0
176
     1
 40
1.0
176
     1
 90
        0
176
     1
 62
    18
420
        0
176
     1
 90
       50
176
     1
 90
        3
176
     1
 62
     5
420
      255
176
     1
290
     0
176
     1
 90
       50
176
     1
 90
       50
176
     1
 90
       50
176
     1
290
     0
176
     1
 90
       50
176
     1
 62
   256
176
     0
 40
1.0
176
     0
 90
        2
176
     1
  1
strokes_ogs.tif
176
     1
290
     0
176
     1
 40
1.0
176
     1
 40
1.0
176
     1
  0
DICTIONARYVAR
  5
1EA
102
{ACAD_REACTORS
330
1E9
102
}
330
1E9
100
DictionaryVariables
280
     0
  1
1:1
  0
DICTIONARYVAR
  5
1EF
102
{ACAD_REACTORS
330
1E9
102
}
330
1E9
100
DictionaryVariables
280
     0
  1
Standard
  0
DICTIONARYVAR
  5
1EE
102
{ACAD_REACTORS
330
1E9
102
}
330
1E9
100
DictionaryVariables
280
     0
  1
Standard
  0
DICTIONARY
  5
1EB
330
6A
100
AcDbDictionary
280
     1
281
     1
  3
ACAD_ROUNDTRIP_2008_TABLESTYLE_CELLSTYLEMAP
360
1EC
  0
CELLSTYLEMAP
  5
1EC
102
{ACAD_REACTORS
330
1EB
102
}
330
1EB
100
AcDbCellStyleMap
 90
        3
300
CELLSTYLE
  1
TABLEFORMAT_BEGIN
 90
        5
170
     1
 91
        0
 92
    32768
 62
   257
 93
        1
300
CONTENTFORMAT
  1
CONTENTFORMAT_BEGIN
 90
        0
 91
        0
 92
        4
 93
        0
300

 40
0.0
140
1.0
 94
        5
 62
     0
340
11
144
0.25
309
CONTENTFORMAT_END
171
     1
301
MARGIN
  1
CELLMARGIN_BEGIN
 40
0.06
 40
0.06
 40
0.06
 40
0.06
 40
0.06
 40
0.06
309
CELLMARGIN_END
 94
        6
 95
        1
302
GRIDFORMAT
  1
GRIDFORMAT_BEGIN
 90
        0
 91
        1
 62
     0
 92
       -2
340
14
 93
        0
 40
0.045
309
GRIDFORMAT_END
 95
        2
302
GRIDFORMAT
  1
GRIDFORMAT_BEGIN
 90
        0
 91
        1
 62
     0
 92
       -2
340
14
 93
        0
 40
0.045
309
GRIDFORMAT_END
 95
        4
302
GRIDFORMAT
  1
GRIDFORMAT_BEGIN
 90
        0
 91
        1
 62
     0
 92
       -2
340
14
 93
        0
 40
0.045
309
GRIDFORMAT_END
 95
        8
302
GRIDFORMAT
  1
GRIDFORMAT_BEGIN
 90
        0
 91
        1
 62
     0
 92
       -2
340
14
 93
        0
 40
0.045
309
GRIDFORMAT_END
 95
       16
302
GRIDFORMAT
  1
GRIDFORMAT_BEGIN
 90
        0
 91
        1
 62
     0
 92
       -2
340
14
 93
        0
 40
0.045
309
GRIDFORMAT_END
 95
       32
302
GRIDFORMAT
  1
GRIDFORMAT_BEGIN
 90
        0
 91
        1
 62
     0
 92
       -2
340
14
 93
        0
 40
0.045
309
GRIDFORMAT_END
309
TABLEFORMAT_END
  1
CELLSTYLE_BEGIN
 90
        1
 91
        1
300
_TITLE
309
CELLSTYLE_END
300
CELLSTYLE
  1
TABLEFORMAT_BEGIN
 90
        5
170
     1
 91
        0
 92
        0
 62
   257
 93
        1
300
CONTENTFORMAT
  1
CONTENTFORMAT_BEGIN
 90
        0
 91
        0
 92
        4
 93
        0
300

 40
0.0
140
1.0
 94
        5
 62
     0
340
11
144
0.18
309
CONTENTFORMAT_END
171
     1
301
MARGIN
  1
CELLMARGIN_BEGIN
 40
0.06
 40
0.06
 40
0.06
 40
0.06
 40
0.06
 40
0.06
309
CELLMARGIN_END
 94
        6
 95
        1
302
GRIDFORMAT
  1
GRIDFORMAT_BEGIN
 90
        0
 91
        1
 62
     0
 92
       -2
340
14
 93
        0
 40
0.045
309
GRIDFORMAT_END
 95
        2
302
GRIDFORMAT
  1
GRIDFORMAT_BEGIN
 90
        0
 91
        1
 62
     0
 92
       -2
340
14
 93
        0
 40
0.045
309
GRIDFORMAT_END
 95
        4
302
GRIDFORMAT
  1
GRIDFORMAT_BEGIN
 90
        0
 91
        1
 62
     0
 92
       -2
340
14
 93
        0
 40
0.045
309
GRIDFORMAT_END
 95
        8
302
GRIDFORMAT
  1
GRIDFORMAT_BEGIN
 90
        0
 91
        1
 62
     0
 92
       -2
340
14
 93
        0
 40
0.045
309
GRIDFORMAT_END
 95
       16
302
GRIDFORMAT
  1
GRIDFORMAT_BEGIN
 90
        0
 91
        1
 62
     0
 92
       -2
340
14
 93
        0
 40
0.045
309
GRIDFORMAT_END
 95
       32
302
GRIDFORMAT
  1
GRIDFORMAT_BEGIN
 90
        0
 91
        1
 62
     0
 92
       -2
340
14
 93
        0
 40
0.045
309
GRIDFORMAT_END
309
TABLEFORMAT_END
  1
CELLSTYLE_BEGIN
 90
        2
 91
        1
300
_HEADER
309
CELLSTYLE_END
300
CELLSTYLE
  1
TABLEFORMAT_BEGIN
 90
        5
170
     1
 91
        0
 92
        0
 62
   257
 93
        1
300
CONTENTFORMAT
  1
CONTENTFORMAT_BEGIN
 90
        0
 91
        0
 92
        4
 93
        0
300

 40
0.0
140
1.0
 94
        2
 62
     0
340
11
144
0.18
309
CONTENTFORMAT_END
171
     1
301
MARGIN
  1
CELLMARGIN_BEGIN
 40
0.06
 40
0.06
 40
0.06
 40
0.06
 40
0.06
 40
0.06
309
CELLMARGIN_END
 94
        6
 95
        1
302
GRIDFORMAT
  1
GRIDFORMAT_BEGIN
 90
        0
 91
        1
 62
     0
 92
       -2
340
14
 93
        0
 40
0.045
309
GRIDFORMAT_END
 95
        2
302
GRIDFORMAT
  1
GRIDFORMAT_BEGIN
 90
        0
 91
        1
 62
     0
 92
       -2
340
14
 93
        0
 40
0.045
309
GRIDFORMAT_END
 95
        4
302
GRIDFORMAT
  1
GRIDFORMAT_BEGIN
 90
        0
 91
        1
 62
     0
 92
       -2
340
14
 93
        0
 40
0.045
309
GRIDFORMAT_END
 95
        8
302
GRIDFORMAT
  1
GRIDFORMAT_BEGIN
 90
        0
 91
        1
 62
     0
 92
       -2
340
14
 93
        0
 40
0.045
309
GRIDFORMAT_END
 95
       16
302
GRIDFORMAT
  1
GRIDFORMAT_BEGIN
 90
        0
 91
        1
 62
     0
 92
       -2
340
14
 93
        0
 40
0.045
309
GRIDFORMAT_END
 95
       32
302
GRIDFORMAT
  1
GRIDFORMAT_BEGIN
 90
        0
 91
        1
 62
     0
 92
       -2
340
14
 93
        0
 40
0.045
309
GRIDFORMAT_END
309
TABLEFORMAT_END
  1
CELLSTYLE_BEGIN
 90
        3
 91
        2
300
_DATA
309
CELLSTYLE_END
  0
ENDSEC
  0
EOF