0
SECTION
  2
HEADER
  9
$ACADVER
  1
AC1027
  9
$ACADMAINTVER
 70
     8
  9
$DWGCODEPAGE
  3
ANSI_1252
  9
$REQUIREDVERSIONS
160
                 0
  9
$COMMENTS
  1
File was created by Cadenas
  9
$CUSTOMPROPERTYTAG
  1
NN
  9
$CUSTOMPROPERTY
  1
Set Screw Medium Duty Wide Slot Take Up Inch Bore
  9
$CUSTOMPROPERTYTAG
  1
NT
  9
$CUSTOMPROPERTY
  1
SC Take-Up Bearings -Wide Slot -(Medium Duty)
  9
$CUSTOMPROPERTYTAG
  1
NB
  9
$CUSTOMPROPERTY
  1
135118
  9
$CUSTOMPROPERTYTAG
  1
NBSYN
  9
$CUSTOMPROPERTY
  1
$PN.
  9
$CUSTOMPROPERTYTAG
  1
LINA
  9
$CUSTOMPROPERTY
  1
135118
  9
$CUSTOMPROPERTYTAG
  1
SERIES
  9
$CUSTOMPROPERTY
  1
207
  9
$CUSTOMPROPERTYTAG
  1
SS
  9
$CUSTOMPROPERTY
  1
1-3/16
  9
$CUSTOMPROPERTYTAG
  1
PN
  9
$CUSTOMPROPERTY
  1
135118
  9
$CUSTOMPROPERTYTAG
  1
DESCRIPTION
  9
$CUSTOMPROPERTY
  1
WSTU-SCM-103
  9
$CUSTOMPROPERTYTAG
  1
W
  9
$CUSTOMPROPERTY
  1
3.9
  9
$CUSTOMPROPERTYTAG
  1
FS
  9
$CUSTOMPROPERTY
  1
WS308
  9
$CUSTOMPROPERTYTAG
  1
LF
  9
$CUSTOMPROPERTY
  1
RE-LUBE
  9
$CUSTOMPROPERTYTAG
  1
A
  9
$CUSTOMPROPERTY
  1
1.71
  9
$CUSTOMPROPERTYTAG
  1
B
  9
$CUSTOMPROPERTY
  1
4.87
  9
$CUSTOMPROPERTYTAG
  1
C
  9
$CUSTOMPROPERTY
  1
0.531
  9
$CUSTOMPROPERTYTAG
  1
D
  9
$CUSTOMPROPERTY
  1
2.50
  9
$CUSTOMPROPERTYTAG
  1
E
  9
$CUSTOMPROPERTY
  1
3.06
  9
$CUSTOMPROPERTYTAG
  1
F
  9
$CUSTOMPROPERTY
  1
3/4
  9
$CUSTOMPROPERTYTAG
  1
G
  9
$CUSTOMPROPERTY
  1
0.50
  9
$CUSTOMPROPERTYTAG
  1
H
  9
$CUSTOMPROPERTY
  1
0.63
  9
$CUSTOMPROPERTYTAG
  1
J
  9
$CUSTOMPROPERTY
  1
2.50
  9
$CUSTOMPROPERTYTAG
  1
K
  9
$CUSTOMPROPERTY
  1
1.44
  9
$CUSTOMPROPERTYTAG
  1
L
  9
$CUSTOMPROPERTY
  1
1.84
  9
$CUSTOMPROPERTYTAG
  1
M
  9
$CUSTOMPROPERTY
  1
3.480 / 3.510
  9
$CUSTOMPROPERTYTAG
  1
N
  9
$CUSTOMPROPERTY
  1
4.13
  9
$CUSTOMPROPERTYTAG
  1
R
  9
$CUSTOMPROPERTY
  1
0.67
  9
$CUSTOMPROPERTYTAG
  1
S
  9
$CUSTOMPROPERTY
  1
1.04
  9
$CUSTOMPROPERTYTAG
  1
T
  9
$CUSTOMPROPERTY
  1
1.63
  9
$CUSTOMPROPERTYTAG
  1
COMPANY
  9
$CUSTOMPROPERTY
  1
baldor
  9
$INSBASE
 10
0.0
 20
0.0
 30
0.0
  9
$EXTMIN
 10
1.000000000000000E+20
 20
1.000000000000000E+20
 30
1.000000000000000E+20
  9
$EXTMAX
 10
-1.000000000000000E+20
 20
-1.000000000000000E+20
 30
-1.000000000000000E+20
  9
$LIMMIN
 10
0.0
 20
0.0
  9
$LIMMAX
 10
12.0
 20
9.0
  9
$ORTHOMODE
 70
     0
  9
$REGENMODE
 70
     1
  9
$FILLMODE
 70
     1
  9
$QTEXTMODE
 70
     0
  9
$MIRRTEXT
 70
     1
  9
$LTSCALE
 40
1.0
  9
$ATTMODE
 70
     1
  9
$TEXTSIZE
 40
0.2
  9
$TRACEWID
 40
0.05
  9
$TEXTSTYLE
  7
Standard
  9
$CLAYER
  8
0
  9
$CELTYPE
  6
ByLayer
  9
$CECOLOR
 62
   256
  9
$CELTSCALE
 40
1.0
  9
$DISPSILH
 70
     0
  9
$DIMSCALE
 40
1.0
  9
$DIMASZ
 40
0.18
  9
$DIMEXO
 40
0.0625
  9
$DIMDLI
 40
0.38
  9
$DIMRND
 40
0.0
  9
$DIMDLE
 40
0.0
  9
$DIMEXE
 40
0.18
  9
$DIMTP
 40
0.0
  9
$DIMTM
 40
0.0
  9
$DIMTXT
 40
0.18
  9
$DIMCEN
 40
0.09
  9
$DIMTSZ
 40
0.0
  9
$DIMTOL
 70
     0
  9
$DIMLIM
 70
     0
  9
$DIMTIH
 70
     1
  9
$DIMTOH
 70
     1
  9
$DIMSE1
 70
     0
  9
$DIMSE2
 70
     0
  9
$DIMTAD
 70
     0
  9
$DIMZIN
 70
     0
  9
$DIMBLK
  1

  9
$DIMASO
 70
     1
  9
$DIMSHO
 70
     1
  9
$DIMPOST
  1

  9
$DIMAPOST
  1

  9
$DIMALT
 70
     0
  9
$DIMALTD
 70
     2
  9
$DIMALTF
 40
25.4
  9
$DIMLFAC
 40
1.0
  9
$DIMTOFL
 70
     0
  9
$DIMTVP
 40
0.0
  9
$DIMTIX
 70
     0
  9
$DIMSOXD
 70
     0
  9
$DIMSAH
 70
     0
  9
$DIMBLK1
  1

  9
$DIMBLK2
  1

  9
$DIMSTYLE
  2
Standard
  9
$DIMCLRD
 70
     0
  9
$DIMCLRE
 70
     0
  9
$DIMCLRT
 70
     0
  9
$DIMTFAC
 40
1.0
  9
$DIMGAP
 40
0.09
  9
$DIMJUST
 70
     0
  9
$DIMSD1
 70
     0
  9
$DIMSD2
 70
     0
  9
$DIMTOLJ
 70
     1
  9
$DIMTZIN
 70
     0
  9
$DIMALTZ
 70
     0
  9
$DIMALTTZ
 70
     0
  9
$DIMUPT
 70
     0
  9
$DIMDEC
 70
     4
  9
$DIMTDEC
 70
     4
  9
$DIMALTU
 70
     2
  9
$DIMALTTD
 70
     2
  9
$DIMTXSTY
  7
Standard
  9
$DIMAUNIT
 70
     0
  9
$DIMADEC
 70
     0
  9
$DIMALTRND
 40
0.0
  9
$DIMAZIN
 70
     0
  9
$DIMDSEP
 70
    46
  9
$DIMATFIT
 70
     3
  9
$DIMFRAC
 70
     0
  9
$DIMLDRBLK
  1

  9
$DIMLUNIT
 70
     2
  9
$DIMLWD
 70
    -2
  9
$DIMLWE
 70
    -2
  9
$DIMTMOVE
 70
     0
  9
$DIMFXL
 40
1.0
  9
$DIMFXLON
 70
     0
  9
$DIMJOGANG
 40
0.7853981633974483
  9
$DIMTFILL
 70
     0
  9
$DIMTFILLCLR
 70
     0
  9
$DIMARCSYM
 70
     0
  9
$DIMLTYPE
  6

  9
$DIMLTEX1
  6

  9
$DIMLTEX2
  6

  9
$DIMTXTDIRECTION
 70
     0
  9
$LUNITS
 70
     2
  9
$LUPREC
 70
     4
  9
$SKETCHINC
 40
0.1
  9
$FILLETRAD
 40
0.5
  9
$AUNITS
 70
     0
  9
$AUPREC
 70
     0
  9
$MENU
  1
.
  9
$ELEVATION
 40
0.0
  9
$PELEVATION
 40
0.0
  9
$THICKNESS
 40
0.0
  9
$LIMCHECK
 70
     0
  9
$CHAMFERA
 40
0.0
  9
$CHAMFERB
 40
0.0
  9
$CHAMFERC
 40
0.0
  9
$CHAMFERD
 40
0.0
  9
$SKPOLY
 70
     0
  9
$TDCREATE
 40
2458168.968813958
  9
$TDUCREATE
 40
2458168.927147292
  9
$TDUPDATE
 40
2458168.968814317
  9
$TDUUPDATE
 40
2458168.927147651
  9
$TDINDWG
 40
0.0000000116
  9
$TDUSRTIMER
 40
0.0000000116
  9
$USRTIMER
 70
     1
  9
$ANGBASE
 50
0.0
  9
$ANGDIR
 70
     0
  9
$PDMODE
 70
     0
  9
$PDSIZE
 40
0.0
  9
$PLINEWID
 40
0.0
  9
$SPLFRAME
 70
     0
  9
$SPLINETYPE
 70
     6
  9
$SPLINESEGS
 70
     8
  9
$HANDSEED
  5
206
  9
$SURFTAB1
 70
     6
  9
$SURFTAB2
 70
     6
  9
$SURFTYPE
 70
     6
  9
$SURFU
 70
     6
  9
$SURFV
 70
     6
  9
$UCSBASE
  2

  9
$UCSNAME
  2

  9
$UCSORG
 10
0.0
 20
0.0
 30
0.0
  9
$UCSXDIR
 10
1.0
 20
0.0
 30
0.0
  9
$UCSYDIR
 10
0.0
 20
1.0
 30
0.0
  9
$UCSORTHOREF
  2

  9
$UCSORTHOVIEW
 70
     0
  9
$UCSORGTOP
 10
0.0
 20
0.0
 30
0.0
  9
$UCSORGBOTTOM
 10
0.0
 20
0.0
 30
0.0
  9
$UCSORGLEFT
 10
0.0
 20
0.0
 30
0.0
  9
$UCSORGRIGHT
 10
0.0
 20
0.0
 30
0.0
  9
$UCSORGFRONT
 10
0.0
 20
0.0
 30
0.0
  9
$UCSORGBACK
 10
0.0
 20
0.0
 30
0.0
  9
$PUCSBASE
  2

  9
$PUCSNAME
  2

  9
$PUCSORG
 10
0.0
 20
0.0
 30
0.0
  9
$PUCSXDIR
 10
1.0
 20
0.0
 30
0.0
  9
$PUCSYDIR
 10
0.0
 20
1.0
 30
0.0
  9
$PUCSORTHOREF
  2

  9
$PUCSORTHOVIEW
 70
     0
  9
$PUCSORGTOP
 10
0.0
 20
0.0
 30
0.0
  9
$PUCSORGBOTTOM
 10
0.0
 20
0.0
 30
0.0
  9
$PUCSORGLEFT
 10
0.0
 20
0.0
 30
0.0
  9
$PUCSORGRIGHT
 10
0.0
 20
0.0
 30
0.0
  9
$PUCSORGFRONT
 10
0.0
 20
0.0
 30
0.0
  9
$PUCSORGBACK
 10
0.0
 20
0.0
 30
0.0
  9
$USERI1
 70
     0
  9
$USERI2
 70
     0
  9
$USERI3
 70
     0
  9
$USERI4
 70
     0
  9
$USERI5
 70
     0
  9
$USERR1
 40
0.0
  9
$USERR2
 40
0.0
  9
$USERR3
 40
0.0
  9
$USERR4
 40
0.0
  9
$USERR5
 40
0.0
  9
$WORLDVIEW
 70
     1
  9
$SHADEDGE
 70
     3
  9
$SHADEDIF
 70
    70
  9
$TILEMODE
 70
     1
  9
$MAXACTVP
 70
    64
  9
$PINSBASE
 10
0.0
 20
0.0
 30
0.0
  9
$PLIMCHECK
 70
     0
  9
$PEXTMIN
 10
1.000000000000000E+20
 20
1.000000000000000E+20
 30
1.000000000000000E+20
  9
$PEXTMAX
 10
-1.000000000000000E+20
 20
-1.000000000000000E+20
 30
-1.000000000000000E+20
  9
$PLIMMIN
 10
0.0
 20
0.0
  9
$PLIMMAX
 10
12.0
 20
9.0
  9
$UNITMODE
 70
     0
  9
$VISRETAIN
 70
     1
  9
$PLINEGEN
 70
     0
  9
$PSLTSCALE
 70
     1
  9
$TREEDEPTH
 70
  3020
  9
$CMLSTYLE
  2
Standard
  9
$CMLJUST
 70
     0
  9
$CMLSCALE
 40
1.0
  9
$PROXYGRAPHICS
 70
     1
  9
$MEASUREMENT
 70
     0
  9
$CELWEIGHT
370
    -1
  9
$ENDCAPS
280
     0
  9
$JOINSTYLE
280
     0
  9
$LWDISPLAY
290
     0
  9
$INSUNITS
 70
     1
  9
$HYPERLINKBASE
  1

  9
$STYLESHEET
  1

  9
$XEDIT
290
     1
  9
$CEPSNTYPE
380
     0
  9
$PSTYLEMODE
290
     1
  9
$FINGERPRINTGUID
  2
{D99E4014-E164-4427-A0B7-C613AA9763AE}
  9
$VERSIONGUID
  2
{FAEB1C32-E019-11D5-929B-00C0DF256EC4}
  9
$EXTNAMES
290
     1
  9
$PSVPSCALE
 40
0.0
  9
$OLESTARTUP
290
     0
  9
$SORTENTS
280
   127
  9
$INDEXCTL
280
     0
  9
$HIDETEXT
280
     1
  9
$XCLIPFRAME
280
     2
  9
$HALOGAP
280
     0
  9
$OBSCOLOR
 70
   257
  9
$OBSLTYPE
280
     0
  9
$INTERSECTIONDISPLAY
280
     0
  9
$INTERSECTIONCOLOR
 70
   257
  9
$DIMASSOC
280
     2
  9
$PROJECTNAME
  1

  9
$CAMERADISPLAY
290
     0
  9
$LENSLENGTH
 40
50.0
  9
$CAMERAHEIGHT
 40
0.0
  9
$STEPSPERSEC
 40
2.0
  9
$STEPSIZE
 40
6.0
  9
$3DDWFPREC
 40
2.0
  9
$PSOLWIDTH
 40
0.25
  9
$PSOLHEIGHT
 40
4.0
  9
$LOFTANG1
 40
1.570796326794897
  9
$LOFTANG2
 40
1.570796326794897
  9
$LOFTMAG1
 40
0.0
  9
$LOFTMAG2
 40
0.0
  9
$LOFTPARAM
 70
     7
  9
$LOFTNORMALS
280
     1
  9
$LATITUDE
 40
37.795
  9
$LONGITUDE
 40
-122.394
  9
$NORTHDIRECTION
 40
0.0
  9
$TIMEZONE
 70
 -8000
  9
$LIGHTGLYPHDISPLAY
280
     1
  9
$TILEMODELIGHTSYNCH
280
     1
  9
$CMATERIAL
347
44
  9
$SOLIDHIST
280
     0
  9
$SHOWHIST
280
     1
  9
$DWFFRAME
280
     2
  9
$DGNFRAME
280
     2
  9
$REALWORLDSCALE
290
     1
  9
$INTERFERECOLOR
 62
   256
  9
$CSHADOW
280
     0
  9
$SHADOWPLANELOCATION
 40
0.0
  0
ENDSEC
  0
SECTION
  2
CLASSES
  0
CLASS
  1
ACDBDICTIONARYWDFLT
  2
AcDbDictionaryWithDefault
  3
ObjectDBX Classes
 90
        0
 91
        4
280
     0
281
     0
  0
CLASS
  1
VISUALSTYLE
  2
AcDbVisualStyle
  3
ObjectDBX Classes
 90
     4095
 91
        4
280
     0
281
     0
  0
CLASS
  1
MATERIAL
  2
AcDbMaterial
  3
ObjectDBX Classes
 90
     1153
 91
        4
280
     0
281
     0
  0
CLASS
  1
SCALE
  2
AcDbScale
  3
ObjectDBX Classes
 90
     1153
 91
        4
280
     0
281
     0
  0
CLASS
  1
TABLESTYLE
  2
AcDbTableStyle
  3
ObjectDBX Classes
 90
     4095
 91
        4
280
     0
281
     0
  0
CLASS
  1
MLEADERSTYLE
  2
AcDbMLeaderStyle
  3
ACDB_MLEADERSTYLE_CLASS
 90
     4095
 91
        4
280
     0
281
     0
  0
CLASS
  1
SUN
  2
AcDbSun
  3
SCENEOE
 90
     1153
 91
        4
280
     0
281
     0
  0
CLASS
  1
DICTIONARYVAR
  2
AcDbDictionaryVar
  3
ObjectDBX Classes
 90
        0
 91
        4
280
     0
281
     0
  0
CLASS
  1
CELLSTYLEMAP
  2
AcDbCellStyleMap
  3
ObjectDBX Classes
 90
     1152
 91
        4
280
     0
281
     0
  0
ENDSEC
  0
SECTION
  2
TABLES
  0
TABLE
  2
VPORT
  5
8
330
0
100
AcDbSymbolTable
 70
     1
  0
VPORT
  5
29
330
8
100
AcDbSymbolTableRecord
100
AcDbViewportTableRecord
  2
*Active
 70
     0
 10
0.0
 20
0.0
 11
1.0
 21
1.0
 12
-0.1552500000000006
 22
0.0
 13
0.0
 23
0.0
 14
0.5
 24
0.5
 15
0.5
 25
0.5
 16
0.0
 26
0.0
 36
1.0
 17
0.0
 27
0.0
 37
0.0
 40
4.212600000000001
 41
0.4698547215496367
 42
50.0
 43
0.0
 44
0.0
 50
0.0
 51
0.0
 71
     0
 72
   100
 73
     1
 74
     3
 75
     0
 76
     0
 77
     0
 78
     0
281
     0
 65
     1
110
0.0
120
0.0
130
0.0
111
1.0
121
0.0
131
0.0
112
0.0
122
1.0
132
0.0
 79
     0
146
0.0
348
2F
 60
     3
 61
     5
292
     1
282
     1
141
0.0
142
0.0
 63
   250
361
6D
  0
ENDTAB
  0
TABLE
  2
LTYPE
  5
5
330
0
100
AcDbSymbolTable
 70
     3
  0
LTYPE
  5
14
330
5
100
AcDbSymbolTableRecord
100
AcDbLinetypeTableRecord
  2
ByBlock
 70
     0
  3

 72
    65
 73
     0
 40
0.0
  0
LTYPE
  5
15
330
5
100
AcDbSymbolTableRecord
100
AcDbLinetypeTableRecord
  2
ByLayer
 70
     0
  3

 72
    65
 73
     0
 40
0.0
  0
LTYPE
  5
16
330
5
100
AcDbSymbolTableRecord
100
AcDbLinetypeTableRecord
  2
Continuous
 70
     0
  3
Solid line
 72
    65
 73
     0
 40
0.0
  0
LTYPE
  5
A7
330
5
100
AcDbSymbolTableRecord
100
AcDbLinetypeTableRecord
  2
Dashed
 70
     0
  3

 72
    65
 73
     2
 40
2.0
 49
1.0
 74
     0
 49
-1.0
 74
     0
  0
LTYPE
  5
DF
330
5
100
AcDbSymbolTableRecord
100
AcDbLinetypeTableRecord
  2
Center
 70
     0
  3

 72
    65
 73
     4
 40
1.5
 49
0.45
 74
     0
 49
-0.5
 74
     0
 49
0.05
 74
     0
 49
-0.5
 74
     0
  0
ENDTAB
  0
TABLE
  2
LAYER
  5
2
330
0
100
AcDbSymbolTable
 70
     7
  0
LAYER
  5
10
330
2
100
AcDbSymbolTableRecord
100
AcDbLayerTableRecord
  2
0
 70
     0
 62
     7
  6
Continuous
370
    -3
390
F
347
46
348
0
  0
LAYER
  5
72
330
2
100
AcDbSymbolTableRecord
100
AcDbLayerTableRecord
  2
AM_6
 70
     0
 62
    -2
  6
Continuous
370
    35
390
F
347
46
348
0
  0
LAYER
  5
A8
330
2
100
AcDbSymbolTableRecord
100
AcDbLayerTableRecord
  2
AM_9
 70
     0
 62
     6
  6
Dashed
370
    25
390
F
347
46
348
0
  0
LAYER
  5
DC
330
2
100
AcDbSymbolTableRecord
100
AcDbLayerTableRecord
  2
AM_5
 70
     0
 62
     3
  6
Continuous
370
    25
390
F
347
46
348
0
  0
LAYER
  5
E0
330
2
100
AcDbSymbolTableRecord
100
AcDbLayerTableRecord
  2
AM_7
 70
     0
 62
     7
  6
Center
370
    25
390
F
347
46
348
0
  0
LAYER
  5
E4
330
2
100
AcDbSymbolTableRecord
100
AcDbLayerTableRecord
  2
AM_4
 70
     0
 62
     7
  6
Continuous
370
    50
390
F
347
46
348
0
  0
LAYER
  5
1F9
330
2
100
AcDbSymbolTableRecord
100
AcDbLayerTableRecord
  2
ConnectionPoints
 70
     0
 62
     7
  6
Continuous
370
    50
390
F
347
46
348
0
  0
ENDTAB
  0
TABLE
  2
STYLE
  5
3
330
0
100
AcDbSymbolTable
 70
     1
  0
STYLE
  5
11
330
3
100
AcDbSymbolTableRecord
100
AcDbTextStyleTableRecord
  2
Standard
 70
     0
 40
0.0
 41
1.0
 50
0.0
 71
     0
 42
0.2
  3
txt
  4

  0
ENDTAB
  0
TABLE
  2
VIEW
  5
6
330
0
100
AcDbSymbolTable
 70
     0
  0
ENDTAB
  0
TABLE
  2
UCS
  5
7
330
0
100
AcDbSymbolTable
 70
     0
  0
ENDTAB
  0
TABLE
  2
APPID
  5
9
330
0
100
AcDbSymbolTable
 70
     1
  0
APPID
  5
12
330
9
100
AcDbSymbolTableRecord
100
AcDbRegAppTableRecord
  2
ACAD
 70
     0
  0
ENDTAB
  0
TABLE
  2
DIMSTYLE
  5
A
330
0
100
AcDbSymbolTable
 70
     1
100
AcDbDimStyleTable
  0
DIMSTYLE
105
27
330
A
100
AcDbSymbolTableRecord
100
AcDbDimStyleTableRecord
  2
Standard
 70
     0
178
     0
340
11
  0
ENDTAB
  0
TABLE
  2
BLOCK_RECORD
  5
1
330
0
100
AcDbSymbolTable
 70
     5
  0
BLOCK_RECORD
  5
1F
330
1
100
AcDbSymbolTableRecord
100
AcDbBlockTableRecord
  2
*Model_Space
340
22
 70
     0
280
     1
281
     0
  0
BLOCK_RECORD
  5
1B
330
1
100
AcDbSymbolTableRecord
100
AcDbBlockTableRecord
  2
*Paper_Space
340
1E
 70
     0
280
     1
281
     0
  0
BLOCK_RECORD
  5
23
330
1
100
AcDbSymbolTableRecord
100
AcDbBlockTableRecord
  2
*Paper_Space0
340
26
 70
     0
280
     1
281
     0
  0
BLOCK_RECORD
  5
6E
330
1
100
AcDbSymbolTableRecord
100
AcDbBlockTableRecord
  2
1_135118_2
340
0
102
{BLKREFS
331
6F
102
}
 70
     0
280
     1
281
     0
  0
BLOCK_RECORD
  5
90
330
1
100
AcDbSymbolTableRecord
100
AcDbBlockTableRecord
  2
2_123420_0_in_135118_2
340
0
102
{BLKREFS
331
91
102
}
 70
     0
280
     1
281
     0
  0
BLOCK_RECORD
  5
FB
330
1
100
AcDbSymbolTableRecord
100
AcDbBlockTableRecord
  2
3_405016_Inch_0_in_135118_2
340
0
102
{BLKREFS
331
FC
102
}
 70
     0
280
     1
281
     0
  0
BLOCK_RECORD
  5
172
330
1
100
AcDbSymbolTableRecord
100
AcDbBlockTableRecord
  2
4_135118H_0_in_135118_2
340
0
102
{BLKREFS
331
173
102
}
 70
     0
280
     1
281
     0
  0
ENDTAB
  0
ENDSEC
  0
SECTION
  2
BLOCKS
  0
BLOCK
  5
20
330
1F
100
AcDbEntity
  8
0
100
AcDbBlockBegin
  2
*Model_Space
 70
     0
 10
0.0
 20
0.0
 30
0.0
  3
*Model_Space
  1

  0
ENDBLK
  5
21
330
1F
100
AcDbEntity
  8
0
100
AcDbBlockEnd
  0
BLOCK
  5
1C
330
1B
100
AcDbEntity
 67
     1
  8
0
100
AcDbBlockBegin
  2
*Paper_Space
 70
     0
 10
0.0
 20
0.0
 30
0.0
  3
*Paper_Space
  1

  0
ENDBLK
  5
1D
330
1B
100
AcDbEntity
 67
     1
  8
0
100
AcDbBlockEnd
  0
BLOCK
  5
24
330
23
100
AcDbEntity
  8
0
100
AcDbBlockBegin
  2
*Paper_Space0
 70
     0
 10
0.0
 20
0.0
 30
0.0
  3
*Paper_Space0
  1

  0
ENDBLK
  5
25
330
23
100
AcDbEntity
  8
0
100
AcDbBlockEnd
  0
BLOCK
  5
70
330
6E
100
AcDbEntity
  8
0
100
AcDbBlockBegin
  2
1_135118_2
 70
     2
 10
0.0
 20
0.0
 30
0.0
  3
1_135118_2
  1

  0
ATTDEF
  5
73
330
6E
100
AcDbEntity
  8
AM_6
100
AcDbText
 10
5.814254441252508
 20
2.065
 30
0.0
 40
0.5
  1
Set Screw Medium Duty Wide Slot Take Up Inch Bore
100
AcDbAttributeDefinition
  3

  2
NN
 70
     8
280
     0
  0
ATTDEF
  5
74
330
6E
100
AcDbEntity
  8
AM_6
100
AcDbText
 10
5.814254441252508
 20
1.565
 30
0.0
 40
0.5
  1
SC Take-Up Bearings -Wide Slot -(Medium Duty)
100
AcDbAttributeDefinition
  3

  2
NT
 70
     8
280
     0
  0
ATTDEF
  5
75
330
6E
100
AcDbEntity
  8
AM_6
100
AcDbText
 10
5.814254441252508
 20
1.065
 30
0.0
 40
0.5
  1
135118
100
AcDbAttributeDefinition
  3

  2
NB
 70
     8
280
     0
  0
ATTDEF
  5
76
330
6E
100
AcDbEntity
  8
AM_6
100
AcDbText
 10
5.814254441252508
 20
0.5650000000000004
 30
0.0
 40
0.5
  1
$PN.
100
AcDbAttributeDefinition
  3

  2
NBSYN
 70
     8
280
     0
  0
ATTDEF
  5
77
330
6E
100
AcDbEntity
  8
AM_6
100
AcDbText
 10
5.814254441252508
 20
0.0650000000000004
 30
0.0
 40
0.5
  1
135118
100
AcDbAttributeDefinition
  3

  2
LINA
 70
     8
280
     0
  0
ATTDEF
  5
78
330
6E
100
AcDbEntity
  8
AM_6
100
AcDbText
 10
5.814254441252508
 20
-0.4349999999999996
 30
0.0
 40
0.5
  1
207
100
AcDbAttributeDefinition
  3

  2
SERIES
 70
     8
280
     0
  0
ATTDEF
  5
79
330
6E
100
AcDbEntity
  8
AM_6
100
AcDbText
 10
5.814254441252508
 20
-0.9349999999999996
 30
0.0
 40
0.5
  1
1-3/16
100
AcDbAttributeDefinition
  3

  2
SS
 70
     8
280
     0
  0
ATTDEF
  5
7A
330
6E
100
AcDbEntity
  8
AM_6
100
AcDbText
 10
5.814254441252508
 20
-1.435
 30
0.0
 40
0.5
  1
135118
100
AcDbAttributeDefinition
  3

  2
PN
 70
     8
280
     0
  0
ATTDEF
  5
7B
330
6E
100
AcDbEntity
  8
AM_6
100
AcDbText
 10
5.814254441252508
 20
-1.935
 30
0.0
 40
0.5
  1
WSTU-SCM-103
100
AcDbAttributeDefinition
  3

  2
DESCRIPTION
 70
     8
280
     0
  0
ATTDEF
  5
7C
330
6E
100
AcDbEntity
  8
AM_6
100
AcDbText
 10
5.814254441252508
 20
-2.435
 30
0.0
 40
0.5
  1
3.9
100
AcDbAttributeDefinition
  3

  2
W
 70
     8
280
     0
  0
ATTDEF
  5
7D
330
6E
100
AcDbEntity
  8
AM_6
100
AcDbText
 10
5.814254441252508
 20
-2.935
 30
0.0
 40
0.5
  1
WS308
100
AcDbAttributeDefinition
  3

  2
FS
 70
     8
280
     0
  0
ATTDEF
  5
7E
330
6E
100
AcDbEntity
  8
AM_6
100
AcDbText
 10
5.814254441252508
 20
-3.435
 30
0.0
 40
0.5
  1
RE-LUBE
100
AcDbAttributeDefinition
  3

  2
LF
 70
     8
280
     0
  0
ATTDEF
  5
7F
330
6E
100
AcDbEntity
  8
AM_6
100
AcDbText
 10
5.814254441252508
 20
-3.935
 30
0.0
 40
0.5
  1
1.71
100
AcDbAttributeDefinition
  3

  2
A
 70
     8
280
     0
  0
ATTDEF
  5
80
330
6E
100
AcDbEntity
  8
AM_6
100
AcDbText
 10
5.814254441252508
 20
-4.435
 30
0.0
 40
0.5
  1
4.87
100
AcDbAttributeDefinition
  3

  2
B
 70
     8
280
     0
  0
ATTDEF
  5
81
330
6E
100
AcDbEntity
  8
AM_6
100
AcDbText
 10
5.814254441252508
 20
-4.935
 30
0.0
 40
0.5
  1
0.531
100
AcDbAttributeDefinition
  3

  2
C
 70
     8
280
     0
  0
ATTDEF
  5
82
330
6E
100
AcDbEntity
  8
AM_6
100
AcDbText
 10
5.814254441252508
 20
-5.435
 30
0.0
 40
0.5
  1
2.50
100
AcDbAttributeDefinition
  3

  2
D
 70
     8
280
     0
  0
ATTDEF
  5
83
330
6E
100
AcDbEntity
  8
AM_6
100
AcDbText
 10
5.814254441252508
 20
-5.935
 30
0.0
 40
0.5
  1
3.06
100
AcDbAttributeDefinition
  3

  2
E
 70
     8
280
     0
  0
ATTDEF
  5
84
330
6E
100
AcDbEntity
  8
AM_6
100
AcDbText
 10
5.814254441252508
 20
-6.435
 30
0.0
 40
0.5
  1
3/4
100
AcDbAttributeDefinition
  3

  2
F
 70
     8
280
     0
  0
ATTDEF
  5
85
330
6E
100
AcDbEntity
  8
AM_6
100
AcDbText
 10
5.814254441252508
 20
-6.935
 30
0.0
 40
0.5
  1
0.50
100
AcDbAttributeDefinition
  3

  2
G
 70
     8
280
     0
  0
ATTDEF
  5
86
330
6E
100
AcDbEntity
  8
AM_6
100
AcDbText
 10
5.814254441252508
 20
-7.435
 30
0.0
 40
0.5
  1
0.63
100
AcDbAttributeDefinition
  3

  2
H
 70
     8
280
     0
  0
ATTDEF
  5
87
330
6E
100
AcDbEntity
  8
AM_6
100
AcDbText
 10
5.814254441252508
 20
-7.935
 30
0.0
 40
0.5
  1
2.50
100
AcDbAttributeDefinition
  3

  2
J
 70
     8
280
     0
  0
ATTDEF
  5
88
330
6E
100
AcDbEntity
  8
AM_6
100
AcDbText
 10
5.814254441252508
 20
-8.434999999999999
 30
0.0
 40
0.5
  1
1.44
100
AcDbAttributeDefinition
  3

  2
K
 70
     8
280
     0
  0
ATTDEF
  5
89
330
6E
100
AcDbEntity
  8
AM_6
100
AcDbText
 10
5.814254441252508
 20
-8.934999999999999
 30
0.0
 40
0.5
  1
1.84
100
AcDbAttributeDefinition
  3

  2
L
 70
     8
280
     0
  0
ATTDEF
  5
8A
330
6E
100
AcDbEntity
  8
AM_6
100
AcDbText
 10
5.814254441252508
 20
-9.434999999999999
 30
0.0
 40
0.5
  1
3.480 / 3.510
100
AcDbAttributeDefinition
  3

  2
M
 70
     8
280
     0
  0
ATTDEF
  5
8B
330
6E
100
AcDbEntity
  8
AM_6
100
AcDbText
 10
5.814254441252508
 20
-9.934999999999999
 30
0.0
 40
0.5
  1
4.13
100
AcDbAttributeDefinition
  3

  2
N
 70
     8
280
     0
  0
ATTDEF
  5
8C
330
6E
100
AcDbEntity
  8
AM_6
100
AcDbText
 10
5.814254441252508
 20
-10.435
 30
0.0
 40
0.5
  1
0.67
100
AcDbAttributeDefinition
  3

  2
R
 70
     8
280
     0
  0
ATTDEF
  5
8D
330
6E
100
AcDbEntity
  8
AM_6
100
AcDbText
 10
5.814254441252508
 20
-10.935
 30
0.0
 40
0.5
  1
1.04
100
AcDbAttributeDefinition
  3

  2
S
 70
     8
280
     0
  0
ATTDEF
  5
8E
330
6E
100
AcDbEntity
  8
AM_6
100
AcDbText
 10
5.814254441252508
 20
-11.435
 30
0.0
 40
0.5
  1
1.63
100
AcDbAttributeDefinition
  3

  2
T
 70
     8
280
     0
  0
ATTDEF
  5
8F
330
6E
100
AcDbEntity
  8
AM_6
100
AcDbText
 10
5.814254441252508
 20
-11.935
 30
0.0
 40
0.5
  1
baldor
100
AcDbAttributeDefinition
  3

  2
COMPANY
 70
     8
280
     0
  0
INSERT
  5
91
330
6E
100
AcDbEntity
  8
0
100
AcDbBlockReference
  2
2_123420_0_in_135118_2
 10
0.0
 20
0.0
 30
0.0
  0
INSERT
  5
FC
330
6E
100
AcDbEntity
  8
0
100
AcDbBlockReference
  2
3_405016_Inch_0_in_135118_2
 10
0.0
 20
0.0
 30
0.0
  0
INSERT
  5
173
330
6E
100
AcDbEntity
  8
0
100
AcDbBlockReference
  2
4_135118H_0_in_135118_2
 10
0.0
 20
0.0
 30
0.0
  0
ENDBLK
  5
71
330
6E
100
AcDbEntity
  8
0
100
AcDbBlockEnd
  0
BLOCK
  5
92
330
90
100
AcDbEntity
  8
0
100
AcDbBlockBegin
  2
2_123420_0_in_135118_2
 70
     2
 10
0.0
 20
0.0
 30
0.0
  3
2_123420_0_in_135118_2
  1

  0
ATTDEF
  5
94
330
90
100
AcDbEntity
  8
AM_6
100
AcDbText
 10
5.7555
 20
1.50450875
 30
0.0
 40
0.5
  1
Set Screw Medium Duty Insert Inch Bore
100
AcDbAttributeDefinition
  3

  2
NN
 70
     8
280
     0
  0
ATTDEF
  5
95
330
90
100
AcDbEntity
  8
AM_6
100
AcDbText
 10
5.7555
 20
1.00450875
 30
0.0
 40
0.5
  1
SC Medium Duty Bearing Inserts (Standard Insert)
100
AcDbAttributeDefinition
  3

  2
NT
 70
     8
280
     0
  0
ATTDEF
  5
96
330
90
100
AcDbEntity
  8
AM_6
100
AcDbText
 10
5.7555
 20
0.5045087500000001
 30
0.0
 40
0.5
  1
123420
100
AcDbAttributeDefinition
  3

  2
NB
 70
     8
280
     0
  0
ATTDEF
  5
97
330
90
100
AcDbEntity
  8
AM_6
100
AcDbText
 10
5.7555
 20
0.0045087500000001
 30
0.0
 40
0.5
  1
$PN.
100
AcDbAttributeDefinition
  3

  2
NBSYN
 70
     8
280
     0
  0
ATTDEF
  5
98
330
90
100
AcDbEntity
  8
AM_6
100
AcDbText
 10
5.7555
 20
-0.4954912499999999
 30
0.0
 40
0.5
  1
123420
100
AcDbAttributeDefinition
  3

  2
LINA
 70
     8
280
     0
  0
ATTDEF
  5
99
330
90
100
AcDbEntity
  8
AM_6
100
AcDbText
 10
5.7555
 20
-0.9954912499999999
 30
0.0
 40
0.5
  1
207
100
AcDbAttributeDefinition
  3

  2
SERIES
 70
     8
280
     0
  0
ATTDEF
  5
9A
330
90
100
AcDbEntity
  8
AM_6
100
AcDbText
 10
5.7555
 20
-1.49549125
 30
0.0
 40
0.5
  1
1-3/16
100
AcDbAttributeDefinition
  3

  2
SS
 70
     8
280
     0
  0
ATTDEF
  5
9B
330
90
100
AcDbEntity
  8
AM_6
100
AcDbText
 10
5.7555
 20
-1.99549125
 30
0.0
 40
0.5
  1
123420
100
AcDbAttributeDefinition
  3

  2
PN
 70
     8
280
     0
  0
ATTDEF
  5
9C
330
90
100
AcDbEntity
  8
AM_6
100
AcDbText
 10
5.7555
 20
-2.49549125
 30
0.0
 40
0.5
  1
INS-SCM-103
100
AcDbAttributeDefinition
  3

  2
DESCRIPTION
 70
     8
280
     0
  0
ATTDEF
  5
9D
330
90
100
AcDbEntity
  8
AM_6
100
AcDbText
 10
5.7555
 20
-2.99549125
 30
0.0
 40
0.5
  1
1.07
100
AcDbAttributeDefinition
  3

  2
WEIGHT
 70
     8
280
     0
  0
ATTDEF
  5
9E
330
90
100
AcDbEntity
  8
AM_6
100
AcDbText
 10
5.7555
 20
-3.49549125
 30
0.0
 40
0.5
  1
1.71
100
AcDbAttributeDefinition
  3

  2
A
 70
     8
280
     0
  0
ATTDEF
  5
9F
330
90
100
AcDbEntity
  8
AM_6
100
AcDbText
 10
5.7555
 20
-3.99549125
 30
0.0
 40
0.5
  1
0.75
100
AcDbAttributeDefinition
  3

  2
C
 70
     8
280
     0
  0
ATTDEF
  5
A0
330
90
100
AcDbEntity
  8
AM_6
100
AcDbText
 10
5.7555
 20
-4.49549125
 30
0.0
 40
0.5
  1
2.8346
100
AcDbAttributeDefinition
  3

  2
D
 70
     8
280
     0
  0
ATTDEF
  5
A1
330
90
100
AcDbEntity
  8
AM_6
100
AcDbText
 10
5.7555
 20
-4.99549125
 30
0.0
 40
0.5
  1
0.20
100
AcDbAttributeDefinition
  3

  2
J
 70
     8
280
     0
  0
ATTDEF
  5
A2
330
90
100
AcDbEntity
  8
AM_6
100
AcDbText
 10
5.7555
 20
-5.49549125
 30
0.0
 40
0.5
  1
1.84
100
AcDbAttributeDefinition
  3

  2
L
 70
     8
280
     0
  0
ATTDEF
  5
A3
330
90
100
AcDbEntity
  8
AM_6
100
AcDbText
 10
5.7555
 20
-5.99549125
 30
0.0
 40
0.5
  1
5/16 - 24
100
AcDbAttributeDefinition
  3

  2
N
 70
     8
280
     0
  0
ATTDEF
  5
A4
330
90
100
AcDbEntity
  8
AM_6
100
AcDbText
 10
5.7555
 20
-6.49549125
 30
0.0
 40
0.5
  1
0.67
100
AcDbAttributeDefinition
  3

  2
W
 70
     8
280
     0
  0
ATTDEF
  5
A5
330
90
100
AcDbEntity
  8
AM_6
100
AcDbText
 10
5.7555
 20
-6.99549125
 30
0.0
 40
0.5
  1
1.04
100
AcDbAttributeDefinition
  3

  2
Y
 70
     8
280
     0
  0
ATTDEF
  5
A6
330
90
100
AcDbEntity
  8
AM_6
100
AcDbText
 10
5.7555
 20
-7.49549125
 30
0.0
 40
0.5
  1
baldor
100
AcDbAttributeDefinition
  3

  2
COMPANY
 70
     8
280
     0
  0
LINE
  5
A9
330
90
100
AcDbEntity
  8
AM_9
100
AcDbLine
 10
0.2359848484848541
 20
1.476675
 30
0.0
 11
0.164015151515146
 21
1.476675
 31
0.0
  0
ARC
  5
AA
330
90
100
AcDbEntity
  8
AM_9
100
AcDbCircle
 10
0.1640151515151566
 20
1.408493181818181
 30
0.0
 40
0.0681818181818186
100
AcDbArc
 50
90.0
 51
175.3867924576406
  0
ARC
  5
AB
330
90
100
AcDbEntity
  8
AM_9
100
AcDbCircle
 10
0.2359848484848441
 20
1.408493181818182
 30
0.0
 40
0.0681818181818177
100
AcDbArc
 50
0.0
 51
90.0
  0
LINE
  5
AC
330
90
100
AcDbEntity
  8
AM_9
100
AcDbLine
 10
0.3041666666666619
 20
1.384315765022947
 30
0.0
 11
0.3041666666666619
 21
1.408493181818182
 31
0.0
  0
LINE
  5
AD
330
90
100
AcDbEntity
  8
AM_9
100
AcDbLine
 10
0.3041666666666619
 20
1.408493181818182
 30
0.0
 11
0.1350888808181194
 21
1.408493181818182
 31
0.0
  0
ELLIPSE
  5
AE
330
90
100
AcDbEntity
  8
AM_9
100
AcDbEllipse
 10
-0.7075
 20
-0.525950313030699
 30
0.0
 11
-0.126200000000004
 21
1.545504260524009E-17
 31
0.0
210
0.0
220
0.0
230
1.0
 40
0.4226182617407124
 41
4.611688921455816
 42
4.813089039313565
  0
LINE
  5
AF
330
90
100
AcDbEntity
  8
AM_9
100
AcDbLine
 10
-0.8337
 20
-0.5380536026191461
 30
0.0
 11
-0.8337
 21
-0.8148925094304427
 31
0.0
  0
LINE
  5
B0
330
90
100
AcDbEntity
  8
AM_9
100
AcDbLine
 10
-0.5813
 20
-0.8148925094304427
 30
0.0
 11
-0.5813
 21
-0.538053602619146
 31
0.0
  0
LWPOLYLINE
  5
B1
330
90
100
AcDbEntity
  8
AM_9
100
AcDbPolyline
 90
       11
 70
     0
 43
0.0
 10
-0.8336999992271286
 20
-0.5381261510477604
 10
-0.8335773302203854
 20
-0.5403153116862169
 10
-0.8309682414683668
 20
-0.5486364647863652
 10
-0.8249973427447872
 20
-0.5559468202807715
 10
-0.815880108087368
 20
-0.5622445172169878
 10
-0.8036506681195432
 20
-0.5675344986021748
 10
-0.7887857408623962
 20
-0.5717578302669354
 10
-0.7713323874740047
 20
-0.5750031021667785
 10
-0.7520326249117911
 20
-0.5772747646262392
 10
-0.7363611780191613
 20
-0.5783953943335682
 10
-0.7201868801540121
 20
-0.5790145471841273
  0
LWPOLYLINE
  5
B2
330
90
100
AcDbEntity
  8
AM_9
100
AcDbPolyline
 90
       11
 70
     0
 43
0.0
 10
-0.5813000007728715
 20
-0.5381143457604999
 10
-0.5814226697796147
 20
-0.5358735589435806
 10
-0.5840317585316332
 20
-0.5265624636644182
 10
-0.590002657255213
 20
-0.5170489882703995
 10
-0.599119891912632
 20
-0.5075962521509866
 10
-0.6113493318804568
 20
-0.498459355828545
 10
-0.6262142591376039
 20
-0.4901626505743895
 10
-0.6436676125259954
 20
-0.4829976827193652
 10
-0.6629673750882091
 20
-0.477467808180992
 10
-0.6786388219808389
 20
-0.4745575697560335
 10
-0.6948131198459879
 20
-0.4728860788772641
  0
ELLIPSE
  5
B3
330
90
100
AcDbEntity
  8
AM_9
100
AcDbEllipse
 10
-0.7075
 20
-0.8148925094304421
 30
0.0
 11
-0.1261999999999998
 21
1.545504260523957E-17
 31
0.0
210
0.0
220
0.0
230
1.0
 40
0.4226182617406976
 41
3.511772988839345
 42
5.913749369964244
  0
LINE
  5
B4
330
90
100
AcDbEntity
  8
AM_9
100
AcDbLine
 10
-0.8191393737973384
 20
-0.7900222587814012
 30
0.0
 11
-0.8352235736553019
 21
-0.8029176110143217
 31
0.0
  0
LINE
  5
B5
330
90
100
AcDbEntity
  8
AM_9
100
AcDbLine
 10
-0.5796478687932645
 20
-0.8030206807922764
 30
0.0
 11
-0.5958606262026616
 21
-0.7900222587814012
 31
0.0
  0
LINE
  5
B6
330
90
100
AcDbEntity
  8
AM_9
100
AcDbLine
 10
-0.7201868801540123
 20
-0.5790145471841271
 30
0.0
 11
-0.6948131198459878
 21
-0.5790145471841271
 31
0.0
  0
LWPOLYLINE
  5
B7
330
90
100
AcDbEntity
  8
AM_9
100
AcDbPolyline
 90
        4
 70
     0
 43
0.0
 10
-0.5927108576297604
 20
-0.5581792602570426
 10
-0.5867676406711576
 20
-0.5525961270197522
 10
-0.5822874764536007
 20
-0.5445896782906449
 10
-0.5813000007728715
 20
-0.5381143457604999
  0
LWPOLYLINE
  5
B8
330
90
100
AcDbEntity
  8
AM_9
100
AcDbPolyline
 90
        8
 70
     0
 43
0.0
 10
-0.6948131198459879
 20
-0.5790145471841273
 10
-0.6740785845070962
 20
-0.5781252227884068
 10
-0.654301052256352
 20
-0.5763945269523081
 10
-0.6360625593074891
 20
-0.5737586549163413
 10
-0.6198076161923829
 20
-0.5701517141257698
 10
-0.6058142981755597
 20
-0.5654185300557877
 10
-0.5946835766208127
 20
-0.5595760372890548
 10
-0.5927108576297604
 20
-0.5581792602570426
  0
LWPOLYLINE
  5
B9
330
90
100
AcDbEntity
  8
AM_9
100
AcDbPolyline
 90
        3
 70
     0
 43
0.0
 10
-0.6948131198459878
 20
-0.4728860788772641
 10
-0.7028295757847299
 20
-0.4724487181945788
 10
-0.7201868801540123
 20
-0.4728860788772641
  0
LWPOLYLINE
  5
BA
330
90
100
AcDbEntity
  8
AM_9
100
AcDbPolyline
 90
       10
 70
     0
 43
0.0
 10
-0.7201868801540121
 20
-0.4728860788772641
 10
-0.7409214154929038
 20
-0.4752762167392913
 10
-0.7606989477436481
 20
-0.4796664038530364
 10
-0.7789374406925108
 20
-0.4858368785842442
 10
-0.795192383807617
 20
-0.4934421998748154
 10
-0.8091857018244404
 20
-0.502260671196985
 10
-0.8203164233791874
 20
-0.5117704980259844
 10
-0.8282323593288424
 20
-0.5215779761274393
 10
-0.8327125235463994
 20
-0.5312717987306409
 10
-0.8336999992271286
 20
-0.5381261510477604
  0
LINE
  5
BB
330
90
100
AcDbEntity
  8
AM_9
100
AcDbLine
 10
-1.0032
 20
-0.59375
 30
0.0
 11
0.6332
 21
-0.59375
 31
0.0
  0
LINE
  5
BC
330
90
100
AcDbEntity
  8
AM_9
100
AcDbLine
 10
0.6332
 20
0.59375
 30
0.0
 11
-1.0032
 21
0.59375
 31
0.0
  0
LINE
  5
BD
330
90
100
AcDbEntity
  8
AM_9
100
AcDbLine
 10
0.6332
 20
-0.59375
 30
0.0
 11
0.67
 21
-0.6305499999999999
 31
0.0
  0
LINE
  5
BE
330
90
100
AcDbEntity
  8
AM_9
100
AcDbLine
 10
0.67
 20
0.6305499999999999
 30
0.0
 11
0.6332
 21
0.59375
 31
0.0
  0
LINE
  5
BF
330
90
100
AcDbEntity
  8
AM_9
100
AcDbLine
 10
-1.0032
 20
0.5937500000000001
 30
0.0
 11
-1.04
 21
0.6305500000000002
 31
0.0
  0
LINE
  5
C0
330
90
100
AcDbEntity
  8
AM_9
100
AcDbLine
 10
-1.04
 20
-0.6305500000000002
 30
0.0
 11
-1.0032
 21
-0.5937500000000001
 31
0.0
  0
LINE
  5
C1
330
90
100
AcDbEntity
  8
AM_9
100
AcDbLine
 10
-0.4513499999999998
 20
-0.92
 30
0.0
 11
-0.3749999999999999
 21
-0.92
 31
0.0
  0
LINE
  5
C2
330
90
100
AcDbEntity
  8
AM_9
100
AcDbLine
 10
-0.3749999999999999
 20
0.92
 30
0.0
 11
-0.4513499999999998
 21
0.92
 31
0.0
  0
LWPOLYLINE
  5
C3
330
90
100
AcDbEntity
  8
AM_9
100
AcDbPolyline
 90
       11
 70
     0
 43
0.0
 10
-0.8088016172198905
 20
0.0990984342088975
 10
-0.8072394677212081
 20
0.1004479803098776
 10
-0.7889932534545554
 20
0.1138322299328558
 10
-0.7673860853323994
 20
0.1249200745047225
 10
-0.7442781073396043
 20
0.1324680822367561
 10
-0.7189616017455025
 20
0.1364023855439377
 10
-0.6933348432201434
 20
0.1361941960916927
 10
-0.6675558828582541
 20
0.1316545944302786
 10
-0.6429175251698679
 20
0.1228845007114303
 10
-0.623663235789157
 20
0.1123376132684435
 10
-0.6061814370042299
 20
0.0990834330639696
  0
LWPOLYLINE
  5
C4
330
90
100
AcDbEntity
  8
AM_9
100
AcDbPolyline
 90
       21
 70
     0
 43
0.0
 10
-0.6061814370042299
 20
0.0990834330639696
 10
-0.5915394078750823
 20
0.0840374929366207
 10
-0.5793139641116154
 20
0.0669681475490527
 10
-0.5689688256557147
 20
0.0457989188607531
 10
-0.5625562100249473
 20
0.0231139790003436
 10
-0.5604572607214223
 20
0.0012281334213103
 10
-0.5621328563835757
 20
-0.0206946600793281
 10
-0.5673134775960738
 20
-0.0412435742351937
 10
-0.5757374011364825
 20
-0.0606773322778276
 10
-0.587474486884716
 20
-0.0789456867897272
 10
-0.6019193796601767
 20
-0.0951532253816025
 10
-0.6198686973677595
 20
-0.1097961270516978
 10
-0.6398973282902163
 20
-0.1214666823348716
 10
-0.6630373735956747
 20
-0.1303930598059047
 10
-0.6873231601094075
 20
-0.1355338288805017
 10
-0.7131930881225923
 20
-0.1367167921933475
 10
-0.7389057595955516
 20
-0.1336639999275326
 10
-0.7640259393427403
 20
-0.1262679964264501
 10
-0.7875085961069855
 20
-0.1147418003498324
 10
-0.8082508596599404
 20
-0.0995611040119845
 10
-0.8088999975327267
 20
-0.0990112777326557
  0
ARC
  5
C5
330
90
100
AcDbEntity
  8
AM_9
100
AcDbCircle
 10
-0.7075
 20
0.0
 30
0.0
 40
0.1262
100
AcDbArc
 50
214.1725616456258
 51
145.8274383543743
  0
LINE
  5
C6
330
90
100
AcDbEntity
  8
AM_9
100
AcDbLine
 10
0.67
 20
0.4640312489477403
 30
0.0
 11
0.67
 21
-0.4640312489477403
 31
0.0
  0
LINE
  5
C7
330
90
100
AcDbEntity
  8
AM_9
100
AcDbLine
 10
0.6332
 20
0.5131108652133571
 30
0.0
 11
0.6332
 21
-0.5131108652133571
 31
0.0
  0
LINE
  5
C8
330
90
100
AcDbEntity
  8
AM_9
100
AcDbLine
 10
0.3749999999999999
 20
-0.9199999999999997
 30
0.0
 11
0.4513500000000003
 21
-0.9199999999999997
 31
0.0
  0
LINE
  5
C9
330
90
100
AcDbEntity
  8
AM_9
100
AcDbLine
 10
0.4513500000000003
 20
0.9199999999999997
 30
0.0
 11
0.3749999999999999
 21
0.9199999999999997
 31
0.0
  0
LINE
  5
CA
330
90
100
AcDbEntity
  8
AM_9
100
AcDbLine
 10
-0.2399999999999999
 20
-1.350633333333333
 30
0.0
 11
-0.1599999999999999
 21
-1.350633333333333
 31
0.0
  0
LINE
  5
CB
330
90
100
AcDbEntity
  8
AM_9
100
AcDbLine
 10
-0.1599999999999999
 20
1.350633333333333
 30
0.0
 11
-0.2399999999999999
 21
1.350633333333333
 31
0.0
  0
LINE
  5
CC
330
90
100
AcDbEntity
  8
AM_9
100
AcDbLine
 10
0.3749999999999999
 20
1.335937981344943
 30
0.0
 11
0.3749999999999999
 21
-1.335937981342143
 31
0.0
  0
ARC
  5
CD
330
90
100
AcDbEntity
  8
AM_9
100
AcDbCircle
 10
0.335
 20
-1.335937981344943
 30
0.0
 40
0.0399999999999997
100
AcDbArc
 50
284.0772302633403
 51
0.0
  0
ARC
  5
CE
330
90
100
AcDbEntity
  8
AM_9
100
AcDbCircle
 10
0.335
 20
1.335937981344943
 30
0.0
 40
0.0399999999999999
100
AcDbArc
 50
0.0
 51
75.92276973665967
  0
LINE
  5
CF
330
90
100
AcDbEntity
  8
AM_9
100
AcDbLine
 10
-0.3749999999999999
 20
1.335937981344943
 30
0.0
 11
-0.3749999999999999
 21
-1.335937981342143
 31
0.0
  0
ARC
  5
D0
330
90
100
AcDbEntity
  8
AM_9
100
AcDbCircle
 10
-0.3349999999999994
 20
-1.335937981344942
 30
0.0
 40
0.0400000000000005
100
AcDbArc
 50
180.0
 51
255.9227727932858
  0
ARC
  5
D1
330
90
100
AcDbEntity
  8
AM_9
100
AcDbCircle
 10
-0.3349999999999995
 20
1.335937981344942
 30
0.0
 40
0.0400000000000003
100
AcDbArc
 50
104.0772272067141
 51
180.0
  0
LINE
  5
D2
330
90
100
AcDbEntity
  8
AM_9
100
AcDbLine
 10
-0.3447291802802586
 20
1.374736731983001
 30
0.0
 11
-0.3447291802802586
 21
-1.37473673198297
 31
0.0
  0
LINE
  5
D3
330
90
100
AcDbEntity
  8
AM_9
100
AcDbLine
 10
-0.24
 20
1.396831876068126
 30
0.0
 11
-0.24
 21
-1.396831876068094
 31
0.0
  0
ARC
  5
D4
330
90
100
AcDbEntity
  8
AM_9
100
AcDbCircle
 10
0.0000000000087922
 20
0.0000000000417544
 30
0.0
 40
1.417300000042609
100
AcDbArc
 50
255.9227727933522
 51
260.2507814750213
  0
ARC
  5
D5
330
90
100
AcDbEntity
  8
AM_9
100
AcDbCircle
 10
0.0000000000088059
 20
-0.0000000000418185
 30
0.0
 40
1.417300000042674
100
AcDbArc
 50
99.74921852497883
 51
104.0772272066476
  0
LINE
  5
D6
330
90
100
AcDbEntity
  8
AM_9
100
AcDbLine
 10
-0.1599999999999999
 20
1.40823978426971
 30
0.0
 11
-0.1599999999999999
 21
-1.40823978426971
 31
0.0
  0
LINE
  5
D7
330
90
100
AcDbEntity
  8
AM_9
100
AcDbLine
 10
0.3447291823501022
 20
1.374736731463967
 30
0.0
 11
0.3447291823501021
 21
-1.374736731463966
 31
0.0
  0
ARC
  5
D8
330
90
100
AcDbEntity
  8
AM_9
100
AcDbCircle
 10
-0.0000000000000008
 20
0.000000000000026
 30
0.0
 40
1.417300000000025
100
AcDbArc
 50
263.5180207994821
 51
284.0772272929792
  0
ARC
  5
D9
330
90
100
AcDbEntity
  8
AM_9
100
AcDbCircle
 10
-0.0000000000007369
 20
-0.0000000000032057
 30
0.0
 40
1.417300000003288
100
AcDbArc
 50
75.9227727070232
 51
77.61838744033952
  0
ARC
  5
DA
330
90
100
AcDbEntity
  8
AM_9
100
AcDbCircle
 10
-0.0000000000000007
 20
-0.0000000000000462
 30
0.0
 40
1.417300000000045
100
AcDbArc
 50
86.09935484516988
 51
96.48197920051776
  0
LINE
  5
DB
330
90
100
AcDbEntity
  8
AM_9
100
AcDbLine
 10
0.0960594135614091
 20
1.41404097503075
 30
0.0
 11
0.3041666666405601
 21
1.384276680761231
 31
0.0
  0
ARC
  5
DD
330
90
100
AcDbEntity
  8
AM_5
100
AcDbCircle
 10
-0.7075000000000002
 20
-0.0000000000000001
 30
0.0
 40
0.15625
100
AcDbArc
 50
75.0
 51
14.99999999999997
  0
ARC
  5
DE
330
90
100
AcDbEntity
  8
AM_5
100
AcDbCircle
 10
-0.7275
 20
0.0
 30
0.0
 40
0.15625
100
AcDbArc
 50
75.00000000000001
 51
14.99999999999997
  0
LINE
  5
E1
330
90
100
AcDbEntity
  8
AM_7
100
AcDbLine
 10
-1.1255
 20
0.0
 30
0.0
 11
0.7554999999999996
 21
0.0
 31
0.0
  0
LINE
  5
E2
330
90
100
AcDbEntity
  8
AM_7
100
AcDbLine
 10
0.2
 20
1.50450875
 30
0.0
 11
0.2
 21
0.89216625
 31
0.0
  0
LINE
  5
E3
330
90
100
AcDbEntity
  8
AM_7
100
AcDbLine
 10
-0.7075000000000002
 20
-0.1325099999999996
 30
0.0
 11
-0.7075000000000002
 21
0.1325099999999999
 31
0.0
  0
ELLIPSE
  5
E5
330
90
100
AcDbEntity
  8
AM_4
100
AcDbEllipse
 10
-0.7075
 20
-0.8148925094304427
 30
0.0
 11
-0.1262
 21
1.545504260523960E-17
 31
0.0
210
0.0
220
0.0
230
1.0
 40
0.4226182617406994
 41
5.913749369964236
 42
9.79495829601894
  0
LWPOLYLINE
  5
E6
330
90
100
AcDbEntity
  8
AM_4
100
AcDbPolyline
 90
       14
 70
     0
 43
0.0
 10
-0.8353933021884346
 20
-0.8030536920670431
 10
-0.8312955586635274
 20
-0.799946475955041
 10
-0.8172836347978099
 20
-0.7912915877057912
 10
-0.8007671272814006
 20
-0.7836061445765111
 10
-0.7807722420046174
 20
-0.7767412176447328
 10
-0.758988278381379
 20
-0.771521188565616
 10
-0.7345136270465198
 20
-0.7680136773610051
 10
-0.7093232214294111
 20
-0.7667070585634598
 10
-0.6832999742100652
 20
-0.7677560775678578
 10
-0.6579578724397033
 20
-0.7711554158505998
 10
-0.6339984893613346
 20
-0.7768109492897658
 10
-0.6121991277220694
 20
-0.7844399761037789
 10
-0.5938345460575526
 20
-0.7934534387992556
 10
-0.5795928403116656
 20
-0.8030647993863768
  0
LWPOLYLINE
  5
E7
330
90
100
AcDbEntity
  8
AM_4
100
AcDbPolyline
 90
        6
 70
     0
 43
0.0
 10
-0.5795928403116656
 20
-0.8030647993863768
 10
-0.5788877308662341
 20
-0.8036359003476897
 10
-0.5686260742809275
 20
-0.8138338949555558
 10
-0.5623590487133963
 20
-0.8242576997106629
 10
-0.5606862680881516
 20
-0.8304150206999563
 10
-0.5605878958336314
 20
-0.8364200418006985
  0
LWPOLYLINE
  5
E8
330
90
100
AcDbEntity
  8
AM_4
100
AcDbPolyline
 90
       23
 70
     0
 43
0.0
 10
-0.5605878958336314
 20
-0.8364200418006985
 10
-0.5635680356699398
 20
-0.8452352217950198
 10
-0.5701729415079199
 20
-0.8532824103906756
 10
-0.5799237393696521
 20
-0.8602397306751866
 10
-0.5925453381619383
 20
-0.8662397807921377
 10
-0.6086345461053658
 20
-0.8715099360739705
 10
-0.6270200470031391
 20
-0.8756964721186199
 10
-0.648751955752624
 20
-0.8790152587109868
 10
-0.6719593141783387
 20
-0.8811831958308243
 10
-0.6973312168221053
 20
-0.8822617265662864
 10
-0.7229788291470501
 20
-0.8821386239732293
 10
-0.7487221663299638
 20
-0.8807631372408959
 10
-0.7732870748661603
 20
-0.8780978394089982
 10
-0.795751488410156
 20
-0.8741084630623616
 10
-0.8155921006122825
 20
-0.8687299636509869
 10
-0.8314358019562612
 20
-0.8622062848454316
 10
-0.8435713129913822
 20
-0.8543798591777444
 10
-0.8509628016037893
 20
-0.8460197404765809
 10
-0.8543649951509522
 20
-0.8367914119524856
 10
-0.8537283405896985
 20
-0.8276050497532315
 10
-0.849496834881177
 20
-0.818157690520508
 10
-0.8419214843032236
 20
-0.8088816593979681
 10
-0.8353933021884346
 20
-0.8030536920670431
  0
LINE
  5
E9
330
90
100
AcDbEntity
  8
AM_4
100
AcDbLine
 10
-1.0032
 20
-0.92
 30
0.0
 11
-0.4513499999999998
 21
-0.92
 31
0.0
  0
LINE
  5
EA
330
90
100
AcDbEntity
  8
AM_4
100
AcDbLine
 10
-0.4513499999999998
 20
0.92
 30
0.0
 11
-1.0032
 21
0.92
 31
0.0
  0
LWPOLYLINE
  5
EB
330
90
100
AcDbEntity
  8
AM_4
100
AcDbPolyline
 90
       11
 70
     0
 43
0.0
 10
-0.8088999975327267
 20
-0.0990112777326557
 10
-0.825973913522221
 20
-0.0809634024229808
 10
-0.8392952453659654
 20
-0.0605746225470169
 10
-0.848724767186288
 20
-0.0381081879578248
 10
-0.8535209113427464
 20
-0.0161048615811192
 10
-0.8544037989290798
 20
0.006403838359732
 10
-0.8515343273380862
 20
0.0275196310014103
 10
-0.8452383994537459
 20
0.0478689225270829
 10
-0.8356491183957145
 20
0.0670079418213215
 10
-0.8231727997366157
 20
0.0843932464781528
 10
-0.8088016172198905
 20
0.0990984342088975
  0
ARC
  5
EC
330
90
100
AcDbEntity
  8
AM_4
100
AcDbCircle
 10
-0.7074999999999998
 20
0.0
 30
0.0
 40
0.1262000000000002
100
AcDbArc
 50
145.8274383543743
 51
214.1725616456257
  0
LINE
  5
ED
330
90
100
AcDbEntity
  8
AM_4
100
AcDbLine
 10
-1.04
 20
0.8832
 30
0.0
 11
-1.04
 21
-0.8832
 31
0.0
  0
LINE
  5
EE
330
90
100
AcDbEntity
  8
AM_4
100
AcDbLine
 10
-1.0032
 20
0.92
 30
0.0
 11
-1.0032
 21
-0.92
 31
0.0
  0
LINE
  5
EF
330
90
100
AcDbEntity
  8
AM_4
100
AcDbLine
 10
-1.04
 20
-0.8832
 30
0.0
 11
-1.0032
 21
-0.92
 31
0.0
  0
LINE
  5
F0
330
90
100
AcDbEntity
  8
AM_4
100
AcDbLine
 10
-1.0032
 20
0.92
 30
0.0
 11
-1.04
 21
0.8832
 31
0.0
  0
LINE
  5
F1
330
90
100
AcDbEntity
  8
AM_4
100
AcDbLine
 10
0.67
 20
-0.4640312489477403
 30
0.0
 11
0.67
 21
-0.8832000000000002
 31
0.0
  0
LINE
  5
F2
330
90
100
AcDbEntity
  8
AM_4
100
AcDbLine
 10
0.67
 20
0.8832000000000002
 30
0.0
 11
0.67
 21
0.4640312489477403
 31
0.0
  0
LINE
  5
F3
330
90
100
AcDbEntity
  8
AM_4
100
AcDbLine
 10
0.67
 20
0.8832000000000002
 30
0.0
 11
0.6332
 21
0.9200000000000002
 31
0.0
  0
LINE
  5
F4
330
90
100
AcDbEntity
  8
AM_4
100
AcDbLine
 10
0.6332
 20
-0.9200000000000002
 30
0.0
 11
0.67
 21
-0.8832000000000002
 31
0.0
  0
LINE
  5
F5
330
90
100
AcDbEntity
  8
AM_4
100
AcDbLine
 10
0.6332
 20
-0.5131108652133571
 30
0.0
 11
0.6332
 21
-0.9199999999999997
 31
0.0
  0
LINE
  5
F6
330
90
100
AcDbEntity
  8
AM_4
100
AcDbLine
 10
0.6332
 20
0.9200000000000002
 30
0.0
 11
0.6332
 21
0.5131108652133571
 31
0.0
  0
LINE
  5
F7
330
90
100
AcDbEntity
  8
AM_4
100
AcDbLine
 10
0.4513500000000003
 20
-0.9199999999999997
 30
0.0
 11
0.6332
 21
-0.9199999999999997
 31
0.0
  0
LINE
  5
F8
330
90
100
AcDbEntity
  8
AM_4
100
AcDbLine
 10
0.6332
 20
0.9199999999999997
 30
0.0
 11
0.4513500000000003
 21
0.9199999999999997
 31
0.0
  0
ARC
  5
F9
330
90
100
AcDbEntity
  8
AM_5
100
AcDbCircle
 10
-0.7074999999999999
 20
0.0
 30
0.0
 40
0.1562499999999999
100
AcDbArc
 50
345.0
 51
284.9999999999999
  0
ARC
  5
FA
330
90
100
AcDbEntity
  8
AM_5
100
AcDbCircle
 10
-0.7275
 20
0.0
 30
0.0
 40
0.15625
100
AcDbArc
 50
345.0
 51
285.0
  0
ENDBLK
  5
93
330
90
100
AcDbEntity
  8
0
100
AcDbBlockEnd
  0
BLOCK
  5
FD
330
FB
100
AcDbEntity
  8
0
100
AcDbBlockBegin
  2
3_405016_Inch_0_in_135118_2
 70
     2
 10
0.0
 20
0.0
 30
0.0
  3
3_405016_Inch_0_in_135118_2
  1

  0
ATTDEF
  5
FF
330
FB
100
AcDbEntity
  8
AM_6
100
AcDbText
 10
5.21875
 20
-0.696925698355158
 30
0.0
 40
0.5
  1
405016 -Inch
100
AcDbAttributeDefinition
  3

  2
NN
 70
     8
280
     0
  0
ATTDEF
  5
100
330
FB
100
AcDbEntity
  8
AM_6
100
AcDbText
 10
5.21875
 20
-1.196925698355158
 30
0.0
 40
0.5
  1
Grease Fitting
100
AcDbAttributeDefinition
  3

  2
NT
 70
     8
280
     0
  0
ATTDEF
  5
101
330
FB
100
AcDbEntity
  8
AM_6
100
AcDbText
 10
5.21875
 20
-1.696925698355158
 30
0.0
 40
0.5
  1
405016-Inch
100
AcDbAttributeDefinition
  3

  2
NB
 70
     8
280
     0
  0
ATTDEF
  5
102
330
FB
100
AcDbEntity
  8
AM_6
100
AcDbText
 10
5.21875
 20
-2.196925698355158
 30
0.0
 40
0.5
  1
$MN.-Inch
100
AcDbAttributeDefinition
  3

  2
NBSYN
 70
     8
280
     0
  0
ATTDEF
  5
103
330
FB
100
AcDbEntity
  8
AM_6
100
AcDbText
 10
5.21875
 20
-2.696925698355158
 30
0.0
 40
0.5
  1
405016
100
AcDbAttributeDefinition
  3

  2
LINA
 70
     8
280
     0
  0
ATTDEF
  5
104
330
FB
100
AcDbEntity
  8
AM_6
100
AcDbText
 10
5.21875
 20
-3.196925698355158
 30
0.0
 40
0.5
  1
405016
100
AcDbAttributeDefinition
  3

  2
MN
 70
     8
280
     0
  0
ATTDEF
  5
105
330
FB
100
AcDbEntity
  8
AM_6
100
AcDbText
 10
5.21875
 20
-3.696925698355158
 30
0.0
 40
0.5
  1
7/16 HEX
100
AcDbAttributeDefinition
  3

  2
H
 70
     8
280
     0
  0
ATTDEF
  5
106
330
FB
100
AcDbEntity
  8
AM_6
100
AcDbText
 10
5.21875
 20
-4.196925698355158
 30
0.0
 40
0.5
  1
0.383
100
AcDbAttributeDefinition
  3

  2
NDR
 70
     8
280
     0
  0
ATTDEF
  5
107
330
FB
100
AcDbEntity
  8
AM_6
100
AcDbText
 10
5.21875
 20
-4.696925698355158
 30
0.0
 40
0.5
  1
0.337
100
AcDbAttributeDefinition
  3

  2
KDR
 70
     8
280
     0
  0
ATTDEF
  5
108
330
FB
100
AcDbEntity
  8
AM_6
100
AcDbText
 10
5.21875
 20
-5.196925698355158
 30
0.0
 40
0.5
  1
0.1575
100
AcDbAttributeDefinition
  3

  2
BZE
 70
     8
280
     0
  0
ATTDEF
  5
109
330
FB
100
AcDbEntity
  8
AM_6
100
AcDbText
 10
5.21875
 20
-5.696925698355158
 30
0.0
 40
0.5
  1
0.4375
100
AcDbAttributeDefinition
  3

  2
HEX
 70
     8
280
     0
  0
ATTDEF
  5
10A
330
FB
100
AcDbEntity
  8
AM_6
100
AcDbText
 10
5.21875
 20
-6.196925698355158
 30
0.0
 40
0.5
  1
0.281250
100
AcDbAttributeDefinition
  3

  2
HEX2
 70
     8
280
     0
  0
ATTDEF
  5
10B
330
FB
100
AcDbEntity
  8
AM_6
100
AcDbText
 10
5.21875
 20
-6.696925698355158
 30
0.0
 40
0.5
  1
baldor
100
AcDbAttributeDefinition
  3

  2
COMPANY
 70
     8
280
     0
  0
LWPOLYLINE
  5
10C
330
FB
100
AcDbEntity
  8
AM_9
100
AcDbPolyline
 90
        5
 70
     0
 43
0.0
 10
-0.1791093260592888
 20
-1.301738809059826
 10
-0.1842540823997055
 20
-1.268670119967152
 10
-0.1862220679364952
 20
-1.234312409178914
 10
-0.1844124966919382
 20
-1.198126446285356
 10
-0.1791093260592888
 20
-1.161113809059826
  0
LINE
  5
10D
330
FB
100
AcDbEntity
  8
AM_9
100
AcDbLine
 10
-0.1510741298357571
 20
-1.15457729571137
 30
0.0
 11
-0.1791093260592888
 21
-1.161113809059826
 31
0.0
  0
LWPOLYLINE
  5
10E
330
FB
100
AcDbEntity
  8
AM_9
100
AcDbPolyline
 90
        5
 70
     0
 43
0.0
 10
-0.1791093260592888
 20
-1.161113809059826
 10
-0.1988355121406939
 20
-1.129688517736611
 10
-0.2156330920108725
 20
-1.096997724328328
 10
-0.2290462109660021
 20
-1.062506153690794
 10
-0.2389369657326277
 20
-1.027169092407283
  0
LINE
  5
10F
330
FB
100
AcDbEntity
  8
AM_9
100
AcDbLine
 10
-0.2099962668917054
 20
-1.020421457656344
 30
0.0
 11
-0.2389369657326277
 21
-1.027169092407283
 31
0.0
  0
LINE
  5
110
330
FB
100
AcDbEntity
  8
AM_9
100
AcDbLine
 10
-0.2389369657326277
 20
-1.027169092407283
 30
0.0
 11
-0.2711532636537957
 21
-1.031618123437406
 31
0.0
  0
LWPOLYLINE
  5
111
330
FB
100
AcDbEntity
  8
AM_9
100
AcDbPolyline
 90
        3
 70
     0
 43
0.0
 10
-0.28139190003636
 20
-1.032753048956784
 10
-0.2911775952746243
 20
-1.03355559349426
 10
-0.2987675689889718
 20
-1.033850066725467
  0
LWPOLYLINE
  5
112
330
FB
100
AcDbEntity
  8
AM_9
100
AcDbPolyline
 90
        5
 70
     0
 43
0.0
 10
-0.2389369657326277
 20
-1.308419092407284
 10
-0.2295338871417797
 20
-1.30799806213629
 10
-0.2166871171046321
 20
-1.306802555641742
 10
-0.1996402057054679
 20
-1.304676787031713
 10
-0.1791093260592888
 20
-1.301738809059826
  0
LINE
  5
113
330
FB
100
AcDbEntity
  8
AM_9
100
AcDbLine
 10
-0.1510741298357571
 20
-1.29520229571137
 30
0.0
 11
-0.1791093260592888
 21
-1.301738809059826
 31
0.0
  0
ELLIPSE
  5
114
330
FB
100
AcDbEntity
  8
AM_9
100
AcDbEllipse
 10
-0.4687499999999995
 20
-1.220606438444094
 30
0.0
 11
-0.02349716402074531
 21
0.1007796617096764
 31
0.0
210
0.0
220
0.0
230
1.0
 40
0.3659981507706637
 41
2.957156468664757
 42
6.467621492104661
  0
LINE
  5
115
330
FB
100
AcDbEntity
  8
AM_9
100
AcDbLine
 10
-0.45135
 20
-1.321517472588915
 30
0.0
 11
-0.3774664534000949
 21
-1.339780662014441
 31
0.0
  0
LINE
  5
116
330
FB
100
AcDbEntity
  8
AM_9
100
AcDbLine
 10
-0.4395859245204075
 20
-1.073349390582632
 30
0.0
 11
-0.4513499999999998
 21
-1.083267278560741
 31
0.0
  0
LWPOLYLINE
  5
117
330
FB
100
AcDbEntity
  8
AM_9
100
AcDbPolyline
 90
        3
 70
     0
 43
0.0
 10
-0.2689146070947223
 20
-1.026889734350518
 10
-0.251275593729576
 20
-1.024238843014548
 10
-0.2360765106845275
 20
-1.022187592413267
  0
ELLIPSE
  5
118
330
FB
100
AcDbEntity
  8
AM_9
100
AcDbEllipse
 10
-0.3994303217889762
 20
-1.204444290038774
 30
0.0
 11
-0.03159560311146664
 21
0.1355139790604252
 31
0.0
210
0.0
220
0.0
230
1.0
 40
0.3659981507706679
 41
1.492410664254418
 42
4.145181672147547
  0
LWPOLYLINE
  5
119
330
FB
100
AcDbEntity
  8
AM_9
100
AcDbPolyline
 90
       11
 70
     0
 43
0.0
 10
-0.3783374459808951
 20
-1.077720564206883
 10
-0.3787237484429712
 20
-1.077387276105177
 10
-0.3858542559234027
 20
-1.071992638400534
 10
-0.3929383013584642
 20
-1.067988400085006
 10
-0.3999890726666719
 20
-1.065260518576308
 10
-0.4070443533782435
 20
-1.063728886660235
 10
-0.4140834664898768
 20
-1.063374996519012
 10
-0.4216613550464883
 20
-1.064343168095296
 10
-0.4286931519410359
 20
-1.066609978060913
 10
-0.4350686463081664
 20
-1.070000998223093
 10
-0.4398819966320524
 20
-1.073601144370371
  0
LWPOLYLINE
  5
11A
330
FB
100
AcDbEntity
  8
AM_9
100
AcDbPolyline
 90
       12
 70
     0
 43
0.0
 10
-0.3781317228164484
 20
-1.339610947884287
 10
-0.3775288160169398
 20
-1.339765200422536
 10
-0.3704730789831046
 20
-1.340930816536941
 10
-0.3634537422909063
 20
-1.340917562075362
 10
-0.3560207934785617
 20
-1.339569702632218
 10
-0.3491624590334039
 20
-1.336970127652788
 10
-0.3429802679181977
 20
-1.333293437730741
 10
-0.3374681686607149
 20
-1.328654590390981
 10
-0.3325718691918888
 20
-1.323073450129706
 10
-0.3282316871554093
 20
-1.316465305532786
 10
-0.3244220180705195
 20
-1.308665057911343
 10
-0.3240822303918632
 20
-1.307839941134929
  0
ELLIPSE
  5
11B
330
FB
100
AcDbEntity
  8
AM_9
100
AcDbEllipse
 10
-0.3994303217889739
 20
-1.204444290038776
 30
0.0
 11
-0.03159560311146831
 21
0.1355139790604285
 31
0.0
210
0.0
220
0.0
230
1.0
 40
0.3659981507706687
 41
0.1881055278535904
 42
0.5147673728610687
  0
LWPOLYLINE
  5
11C
330
FB
100
AcDbEntity
  8
AM_9
100
AcDbPolyline
 90
        3
 70
     0
 43
0.0
 10
-0.109375
 20
-0.8799999999999999
 10
-0.0546875000000001
 20
-0.8514595596074827
 10
-0.0000000000000001
 20
-0.8207787001516927
  0
LWPOLYLINE
  5
11D
330
FB
100
AcDbEntity
  8
AM_9
100
AcDbPolyline
 90
        3
 70
     0
 43
0.0
 10
-0.0000000000000001
 20
-0.8207787001516927
 10
0.0544416102741495
 20
-0.8513260426622647
 10
0.1093749999999999
 20
-0.8799999999999999
  0
LWPOLYLINE
  5
11E
330
FB
100
AcDbEntity
  8
AM_9
100
AcDbPolyline
 90
        6
 70
     0
 43
0.0
 10
-0.1510741298357571
 20
-1.29520229571137
 10
-0.1564222384464443
 20
-1.2951462587984
 10
-0.1639940363880805
 20
-1.295585121917566
 10
-0.1744063212866123
 20
-1.296646289109958
 10
-0.1876759562813858
 20
-1.298363121169831
 10
-0.2099962668917054
 20
-1.301671457656344
  0
LWPOLYLINE
  5
11F
330
FB
100
AcDbEntity
  8
AM_9
100
AcDbPolyline
 90
        4
 70
     0
 43
0.0
 10
-0.1510741298357571
 20
-1.15457729571137
 10
-0.1458778226760521
 20
-1.178510622598914
 10
-0.1427138007556463
 20
-1.203367212109332
 10
-0.1419585098156051
 20
-1.222769408754154
  0
LINE
  5
120
330
FB
100
AcDbEntity
  8
AM_9
100
AcDbLine
 10
-0.1784404386292251
 20
-1.07050033110174
 30
0.0
 11
-0.1765789831125444
 21
-1.074205855542361
 31
0.0
  0
LWPOLYLINE
  5
121
330
FB
100
AcDbEntity
  8
AM_9
100
AcDbPolyline
 90
        3
 70
     0
 43
0.0
 10
-0.2099962668917054
 20
-1.020421457656344
 10
-0.1943573015029059
 20
-1.042992854288234
 10
-0.1866450985986797
 20
-1.055538562228978
  0
LWPOLYLINE
  5
122
330
FB
100
AcDbEntity
  8
AM_9
100
AcDbPolyline
 90
        4
 70
     0
 43
0.0
 10
-0.2258378743019628
 20
-1.021052666893888
 10
-0.2189176876709015
 20
-1.020510369847584
 10
-0.2138633349839128
 20
-1.0203309118622
 10
-0.2099962668917054
 20
-1.020421457656344
  0
LWPOLYLINE
  5
123
330
FB
100
AcDbEntity
  8
AM_9
100
AcDbPolyline
 90
        4
 70
     0
 43
0.0
 10
-0.1419977324084015
 20
-1.227220783538464
 10
-0.1420496512545707
 20
-1.229566312422038
 10
-0.1441228263802215
 20
-1.256595324422914
 10
-0.151074129835757
 20
-1.29520229571137
  0
LINE
  5
124
330
FB
100
AcDbEntity
  8
AM_9
100
AcDbLine
 10
-0.1419585098156051
 20
-1.222769408754154
 30
0.0
 11
-0.1419977324084015
 21
-1.227220783538464
 31
0.0
  0
LWPOLYLINE
  5
125
330
FB
100
AcDbEntity
  8
AM_9
100
AcDbPolyline
 90
        3
 70
     0
 43
0.0
 10
-0.1684721522337567
 20
-1.092257768762537
 10
-0.1598729403210871
 20
-1.116768689712644
 10
-0.1510741298357571
 20
-1.15457729571137
  0
LINE
  5
126
330
FB
100
AcDbEntity
  8
AM_9
100
AcDbLine
 10
-0.1765789831125444
 20
-1.074205855542361
 30
0.0
 11
-0.1720459725132007
 21
-1.083862065696138
 31
0.0
  0
ELLIPSE
  5
127
330
FB
100
AcDbEntity
  8
AM_9
100
AcDbEllipse
 10
-0.2013892028241885
 20
-1.158270244837341
 30
0.0
 11
-0.03193085011438275
 21
0.1369518580960951
 31
0.0
210
0.0
220
0.0
230
1.0
 40
0.3659981507706672
 41
2.150416404658208
 42
6.139946939636884
  0
LWPOLYLINE
  5
128
330
FB
100
AcDbEntity
  8
AM_9
100
AcDbPolyline
 90
        3
 70
     0
 43
0.0
 10
-0.3055458577949631
 20
-1.122852494962034
 10
-0.3030753670497809
 20
-1.148922855181632
 10
-0.2987675689889718
 20
-1.174475066725467
  0
LWPOLYLINE
  5
129
330
FB
100
AcDbEntity
  8
AM_9
100
AcDbPolyline
 90
        4
 70
     0
 43
0.0
 10
-0.2602304684431209
 20
-1.078067949924796
 10
-0.2616913382589204
 20
-1.0634112730526
 10
-0.2647402074337707
 20
-1.04495477011276
 10
-0.2689146070947223
 20
-1.026889734350518
  0
LINE
  5
12A
330
FB
100
AcDbEntity
  8
AM_9
100
AcDbLine
 10
-0.2689146070947223
 20
-1.026889734350518
 30
0.0
 11
-0.2987675689889718
 21
-1.033850066725467
 31
0.0
  0
LWPOLYLINE
  5
12B
330
FB
100
AcDbEntity
  8
AM_9
100
AcDbPolyline
 90
        3
 70
     0
 43
0.0
 10
-0.2987675689889718
 20
-1.033850066725467
 10
-0.3030606061861223
 20
-1.061294122408012
 10
-0.3055458577949631
 20
-1.08863340646832
  0
LINE
  5
12C
330
FB
100
AcDbEntity
  8
AM_9
100
AcDbLine
 10
-0.2711532636537957
 20
-1.031618123437406
 30
0.0
 11
-0.28139190003636
 21
-1.032753048956784
 31
0.0
  0
ELLIPSE
  5
12D
330
FB
100
AcDbEntity
  8
AM_9
100
AcDbEllipse
 10
-0.2467045921760209
 20
-1.168835701380858
 30
0.0
 11
-0.03193085011438269
 21
0.1369518580960949
 31
0.0
210
0.0
220
0.0
230
1.0
 40
0.3659981507706657
 41
2.247295557267567
 42
6.139946939636895
  0
ELLIPSE
  5
12E
330
FB
100
AcDbEntity
  8
AM_9
100
AcDbEllipse
 10
-0.2467045921760199
 20
-1.168835701380858
 30
0.0
 11
-0.03193085011438337
 21
0.1369518580960978
 31
0.0
210
0.0
220
0.0
230
1.0
 40
0.3659981507706621
 41
1.144545279139749
 42
1.951156734850493
  0
LWPOLYLINE
  5
12F
330
FB
100
AcDbEntity
  8
AM_9
100
AcDbPolyline
 90
        3
 70
     0
 43
0.0
 10
-0.3055458577949631
 20
-1.08863340646832
 10
-0.3064767622622302
 20
-1.105869806845232
 10
-0.3055458577949631
 20
-1.122852494962034
  0
ELLIPSE
  5
130
330
FB
100
AcDbEntity
  8
AM_9
100
AcDbEllipse
 10
-0.2467045921760266
 20
-1.168835701380853
 30
0.0
 11
-0.03193085011437839
 21
0.1369518580960876
 31
0.0
210
0.0
220
0.0
230
1.0
 40
0.365998150770654
 41
0.0560213022649707
 42
0.8626327579757895
  0
LWPOLYLINE
  5
131
330
FB
100
AcDbEntity
  8
AM_9
100
AcDbPolyline
 90
       17
 70
     0
 43
0.0
 10
-0.3250049434160211
 20
-1.310023193162842
 10
-0.3245741034048658
 20
-1.309169705179793
 10
-0.3233221942922401
 20
-1.307110397395071
 10
-0.3210512662978481
 20
-1.304054093302383
 10
-0.317550210449099
 20
-1.300238085383155
 10
-0.3126309760914363
 20
-1.295975121800061
 10
-0.3062059580892485
 20
-1.291687016281157
 10
-0.2984088127006221
 20
-1.287891080318981
 10
-0.2896677707828861
 20
-1.285082696526764
 10
-0.2806143840754834
 20
-1.283561523434407
 10
-0.2719223080850544
 20
-1.283348147451716
 10
-0.2641651404355813
 20
-1.28421133258363
 10
-0.257717839107524
 20
-1.285765749171416
 10
-0.2527428187558879
 20
-1.28758677038911
 10
-0.2492066180480618
 20
-1.289308786827531
 10
-0.2469723475717541
 20
-1.290660129676285
 10
-0.2458848673442356
 20
-1.291442215102415
  0
LWPOLYLINE
  5
132
330
FB
100
AcDbEntity
  8
AM_9
100
AcDbPolyline
 90
        4
 70
     0
 43
0.0
 10
-0.245724988250897
 20
-1.291571960916105
 10
-0.2458083087863897
 20
-1.291497607435518
 10
-0.2466264866218708
 20
-1.290693879212496
 10
-0.2470864517465622
 20
-1.290207923930116
  0
LWPOLYLINE
  5
133
330
FB
100
AcDbEntity
  8
AM_9
100
AcDbPolyline
 90
        4
 70
     0
 43
0.0
 10
-0.3007077849655931
 20
-1.060087412061008
 10
-0.3006969669636131
 20
-1.060051458416085
 10
-0.3001974558700338
 20
-1.058549418436617
 10
-0.3001080482840255
 20
-1.058322263717043
  0
LWPOLYLINE
  5
134
330
FB
100
AcDbEntity
  8
AM_9
100
AcDbPolyline
 90
       18
 70
     0
 43
0.0
 10
-0.3001614348883586
 20
-1.058440168624849
 10
-0.3007826092648297
 20
-1.059620452543143
 10
-0.3022681611056669
 20
-1.06194682712342
 10
-0.3048252046677529
 20
-1.065216380715136
 10
-0.3086632978135938
 20
-1.069176463758652
 10
-0.3139549920234372
 20
-1.073489665963582
 10
-0.3207446976606376
 20
-1.07770578533913
 10
-0.3288272774027833
 20
-1.081297701417497
 10
-0.3377086035039798
 20
-1.083803584461996
 10
-0.3467363096594273
 20
-1.084990962942551
 10
-0.3552407786430267
 20
-1.08490701537829
 10
-0.3626996854994229
 20
-1.083832488089398
 10
-0.3687874050251376
 20
-1.082173089635288
 10
-0.3733957254907532
 20
-1.080346175970016
 10
-0.3765936413963423
 20
-1.078694365059162
 10
-0.3785287463794491
 20
-1.077468092332539
 10
-0.3793531905886819
 20
-1.07685302034803
 10
-0.3793797889719665
 20
-1.076831100360995
  0
LINE
  5
135
330
FB
100
AcDbEntity
  8
AM_9
100
AcDbLine
 10
-0.1771207715546619
 20
-1.039661692407327
 30
0.0
 11
-0.2263662233581053
 21
-1.051143458059951
 31
0.0
  0
LINE
  5
136
330
FB
100
AcDbEntity
  8
AM_9
100
AcDbLine
 10
-0.176412182290271
 20
-1.26539703161473
 30
0.0
 11
-0.1343592486638227
 21
-1.255592229115782
 31
0.0
  0
LWPOLYLINE
  5
137
330
FB
100
AcDbEntity
  8
AM_9
100
AcDbPolyline
 90
       20
 70
     0
 43
0.0
 10
-0.1343659249938088
 20
-1.25559378540361
 10
-0.1293028157827817
 20
-1.252990967168627
 10
-0.1247141396218193
 20
-1.247417196040507
 10
-0.1208880884981782
 20
-1.238797239076489
 10
-0.1181545989145989
 20
-1.227880991490922
 10
-0.1164278875396128
 20
-1.214336212655024
 10
-0.1158549073091555
 20
-1.199330271317741
 10
-0.1164156227038168
 20
-1.182408286749774
 10
-0.1180609686233502
 20
-1.165004703027538
 10
-0.1208367673933812
 20
-1.146607393511457
 10
-0.1245107513506023
 20
-1.128747455120003
 10
-0.1291842652280563
 20
-1.110922481606625
 10
-0.134472979061152
 20
-1.0945960564441
 10
-0.140518627090196
 20
-1.079328872764631
 10
-0.1468270783017121
 20
-1.066370478489193
 10
-0.1535654953592165
 20
-1.055381372029879
 10
-0.1601799433259584
 20
-1.047268942862664
 10
-0.1668493358980662
 20
-1.041820477436415
 10
-0.1731116383367606
 20
-1.039480939756072
 10
-0.1771125901748264
 20
-1.039659785344162
  0
LINE
  5
138
330
FB
100
AcDbEntity
  8
AM_9
100
AcDbLine
 10
-0.1771125901748264
 20
-1.039659785344162
 30
0.0
 11
-0.1790373738502116
 21
-1.040304054033761
 31
0.0
  0
LWPOLYLINE
  5
139
330
FB
100
AcDbEntity
  8
AM_9
100
AcDbPolyline
 90
        3
 70
     0
 43
0.0
 10
-0.2689146070947223
 20
-1.167514734350518
 10
-0.2634308483997529
 20
-1.139890958955647
 10
-0.2602304684431306
 20
-1.112287038418517
  0
LWPOLYLINE
  5
13A
330
FB
100
AcDbEntity
  8
AM_9
100
AcDbPolyline
 90
        5
 70
     0
 43
0.0
 10
-0.179037373850178
 20
-1.194695945966246
 10
-0.1733931390117468
 20
-1.210209976006311
 10
-0.1670729780242511
 20
-1.22435797563067
 10
-0.1606047421316796
 20
-1.235955943415793
 10
-0.154580933995101
 20
-1.244404396158668
  0
ARC
  5
13B
330
FB
100
AcDbEntity
  8
AM_9
100
AcDbCircle
 10
0.0000000000000002
 20
-1.1175
 30
0.0
 40
0.1999999999999998
100
AcDbArc
 50
219.3524456777288
 51
0.0
  0
LWPOLYLINE
  5
13C
330
FB
100
AcDbEntity
  8
AM_9
100
AcDbPolyline
 90
        6
 70
     0
 43
0.0
 10
-0.154580933995101
 20
-1.244404396158668
 10
-0.1538031670974777
 20
-1.245334802540261
 10
-0.1472336073736393
 20
-1.251712011960484
 10
-0.1407130262602577
 20
-1.255261709638181
 10
-0.1347930597680667
 20
-1.255684256104104
 10
-0.1343659249938088
 20
-1.25559378540361
  0
LINE
  5
13D
330
FB
100
AcDbEntity
  8
AM_9
100
AcDbLine
 10
-0.2360765106845275
 20
-1.022187592413267
 30
0.0
 11
-0.2258378743019628
 21
-1.021052666893888
 31
0.0
  0
ELLIPSE
  5
13E
330
FB
100
AcDbEntity
  8
AM_9
100
AcDbEllipse
 10
-0.2013892028241879
 20
-1.158270244837342
 30
0.0
 11
-0.031930850114384
 21
0.1369518580960951
 31
0.0
210
0.0
220
0.0
230
1.0
 40
0.3659981507705697
 41
0.056021302265
 42
0.8626327579757322
  0
LINE
  5
13F
330
FB
100
AcDbEntity
  8
AM_9
100
AcDbLine
 10
-0.2602304684431306
 20
-1.112287038418517
 30
0.0
 11
-0.2602304684431209
 21
-1.078067949924796
 31
0.0
  0
ELLIPSE
  5
140
330
FB
100
AcDbEntity
  8
AM_9
100
AcDbEllipse
 10
-0.20138920282419
 20
-1.158270244837341
 30
0.0
 11
-0.03193085011438189
 21
0.1369518580960916
 31
0.0
210
0.0
220
0.0
230
1.0
 40
0.3659981507706622
 41
1.144545279139734
 42
1.951156734850507
  0
LWPOLYLINE
  5
141
330
FB
100
AcDbEntity
  8
AM_9
100
AcDbPolyline
 90
        3
 70
     0
 43
0.0
 10
-0.2099962668917054
 20
-1.301671457656344
 10
-0.2163479371246913
 20
-1.272339189975666
 10
-0.2258378743019629
 20
-1.243057477599441
  0
LINE
  5
142
330
FB
100
AcDbEntity
  8
AM_9
100
AcDbLine
 10
-0.2258378743019629
 20
-1.243057477599441
 30
0.0
 11
-0.2360765106845278
 21
-1.219965725501071
 31
0.0
  0
LWPOLYLINE
  5
143
330
FB
100
AcDbEntity
  8
AM_9
100
AcDbPolyline
 90
        3
 70
     0
 43
0.0
 10
-0.2360765106845278
 20
-1.219965725501071
 10
-0.2462091938631852
 20
-1.201421611213501
 10
-0.2689146070947223
 20
-1.167514734350518
  0
LINE
  5
144
330
FB
100
AcDbEntity
  8
AM_9
100
AcDbLine
 10
-0.2689146070947223
 20
-1.167514734350518
 30
0.0
 11
-0.2987675689889718
 21
-1.174475066725467
 31
0.0
  0
LWPOLYLINE
  5
145
330
FB
100
AcDbEntity
  8
AM_9
100
AcDbPolyline
 90
        3
 70
     0
 43
0.0
 10
-0.2987675689889718
 20
-1.174475066725467
 10
-0.2912216284034025
 20
-1.202576183495197
 10
-0.2813919000363599
 20
-1.23053118204459
  0
LINE
  5
146
330
FB
100
AcDbEntity
  8
AM_9
100
AcDbLine
 10
-0.2813919000363599
 20
-1.23053118204459
 30
0.0
 11
-0.2711532636537957
 21
-1.253622934142958
 31
0.0
  0
LWPOLYLINE
  5
147
330
FB
100
AcDbEntity
  8
AM_9
100
AcDbPolyline
 90
        3
 70
     0
 43
0.0
 10
-0.2711532636537957
 20
-1.253622934142958
 10
-0.2561815527589921
 20
-1.281327936735335
 10
-0.2389369657326277
 20
-1.308419092407284
  0
LINE
  5
148
330
FB
100
AcDbEntity
  8
AM_9
100
AcDbLine
 10
-0.2099962668917054
 20
-1.301671457656344
 30
0.0
 11
-0.2389369657326277
 21
-1.308419092407284
 31
0.0
  0
LWPOLYLINE
  5
149
330
FB
100
AcDbEntity
  8
AM_9
100
AcDbPolyline
 90
        3
 70
     0
 43
0.0
 10
-0.0000000000000001
 20
-0.7798462998483071
 10
-0.0544416102741497
 20
-0.8037405676118847
 10
-0.1093750000000001
 20
-0.8299999999999998
  0
LWPOLYLINE
  5
14A
330
FB
100
AcDbEntity
  8
AM_9
100
AcDbPolyline
 90
        3
 70
     0
 43
0.0
 10
0.1093749999999999
 20
-0.8299999999999998
 10
0.0546874999999999
 20
-0.8038529403925173
 10
-0.0000000000000001
 20
-0.7798462998483071
  0
LWPOLYLINE
  5
14B
330
FB
100
AcDbEntity
  8
AM_9
100
AcDbPolyline
 90
        3
 70
     0
 43
0.0
 10
0.1093749999999999
 20
-0.8799999999999999
 10
0.1640624999999999
 20
-0.9061470596074825
 10
0.2187499999999999
 20
-0.9301537001516926
  0
LWPOLYLINE
  5
14C
330
FB
100
AcDbEntity
  8
AM_9
100
AcDbPolyline
 90
        3
 70
     0
 43
0.0
 10
-0.2187500000000001
 20
-0.9301537001516926
 10
-0.1643083897258505
 20
-0.9062594323881151
 10
-0.109375
 20
-0.8799999999999999
  0
LINE
  5
14D
330
FB
100
AcDbEntity
  8
AM_9
100
AcDbLine
 10
-0.0000000000000001
 20
-0.8207787001516927
 30
0.0
 11
-0.0000000000000001
 21
-0.7798462998483071
 31
0.0
  0
LWPOLYLINE
  5
14E
330
FB
100
AcDbEntity
  8
AM_9
100
AcDbPolyline
 90
        3
 70
     0
 43
0.0
 10
0.2187499999999999
 20
-0.8892212998483071
 10
0.1643083897258503
 20
-0.8586739573377351
 10
0.1093749999999999
 20
-0.8299999999999998
  0
LWPOLYLINE
  5
14F
330
FB
100
AcDbEntity
  8
AM_9
100
AcDbPolyline
 90
        3
 70
     0
 43
0.0
 10
-0.1093750000000001
 20
-0.8299999999999998
 10
-0.1640625000000001
 20
-0.8585404403925172
 10
-0.2187500000000001
 20
-0.8892212998483071
  0
LWPOLYLINE
  5
150
330
FB
100
AcDbEntity
  8
AM_9
100
AcDbPolyline
 90
        7
 70
     0
 43
0.0
 10
-0.1790373738501785
 20
-1.194695945966246
 10
-0.1842628795203941
 20
-1.178701216295605
 10
-0.1891729979031394
 20
-1.162644458256412
 10
-0.1936098952159724
 20
-1.145877825105295
 10
-0.1971856748420371
 20
-1.128429808725254
 10
-0.1994144431868155
 20
-1.110957633207593
 10
-0.1999999999699529
 20
-1.09725755900097
  0
LINE
  5
151
330
FB
100
AcDbEntity
  8
AM_9
100
AcDbLine
 10
-0.2000000000000001
 20
-1.0440625
 30
0.0
 11
-0.2000000000000001
 21
-1.097346885409148
 31
0.0
  0
LINE
  5
152
330
FB
100
AcDbEntity
  8
AM_9
100
AcDbLine
 10
0.1999999999999998
 20
-1.1175
 30
0.0
 11
0.1999999999999999
 21
-1.0440625
 31
0.0
  0
ELLIPSE
  5
153
330
FB
100
AcDbEntity
  8
AM_9
100
AcDbEllipse
 10
-0.0000000000000001
 20
-1.117500000000001
 30
0.0
 11
-0.1999999999999993
 21
2.449293598294697E-17
 31
0.0
210
0.0
220
0.0
230
1.0
 40
0.8660254037844382
 41
0.4619460205669634
 42
5.821239286612615
  0
LWPOLYLINE
  5
154
330
FB
100
AcDbEntity
  8
AM_9
100
AcDbPolyline
 90
        8
 70
     0
 43
0.0
 10
-0.1999999999699529
 20
-1.09725755900097
 10
-0.1999786710855128
 20
-1.094747492794572
 10
-0.1988321115509053
 20
-1.079477046299115
 10
-0.196164942998426
 20
-1.066547828583382
 10
-0.1920694300574958
 20
-1.055495849846331
 10
-0.1870948030566195
 20
-1.047226804053058
 10
-0.181500594761393
 20
-1.041703487144152
 10
-0.1790373738501785
 20
-1.040304054033754
  0
LINE
  5
155
330
FB
100
AcDbEntity
  8
AM_9
100
AcDbLine
 10
-0.2187500000000001
 20
-1.148903700151693
 30
0.0
 11
-0.2187500000000001
 21
-0.8892212998483071
 31
0.0
  0
LWPOLYLINE
  5
156
330
FB
100
AcDbEntity
  8
AM_9
100
AcDbPolyline
 90
        3
 70
     0
 43
0.0
 10
-0.109375
 20
-1.208125
 10
-0.1640625000000001
 20
-1.179584559607483
 10
-0.2187500000000001
 20
-1.148903700151693
  0
LWPOLYLINE
  5
157
330
FB
100
AcDbEntity
  8
AM_9
100
AcDbPolyline
 90
        3
 70
     0
 43
0.0
 10
-0.0000000000000001
 20
-1.258278700151693
 10
-0.0544416102741497
 20
-1.234384432388115
 10
-0.109375
 20
-1.208125
  0
LWPOLYLINE
  5
158
330
FB
100
AcDbEntity
  8
AM_9
100
AcDbPolyline
 90
        3
 70
     0
 43
0.0
 10
-0.2187500000000001
 20
-1.107971299848307
 10
-0.1643083897258505
 20
-1.131865567611885
 10
-0.1093750000000001
 20
-1.158125
  0
LWPOLYLINE
  5
159
330
FB
100
AcDbEntity
  8
AM_9
100
AcDbPolyline
 90
        3
 70
     0
 43
0.0
 10
-0.1093750000000001
 20
-1.158125
 10
-0.0546875000000001
 20
-1.186665440392517
 10
-0.0000000000000001
 20
-1.217346299848307
  0
LINE
  5
15A
330
FB
100
AcDbEntity
  8
AM_9
100
AcDbLine
 10
-0.0000000000000001
 20
-1.258278700151693
 30
0.0
 11
-0.0000000000000001
 21
-1.217346299848307
 31
0.0
  0
LWPOLYLINE
  5
15B
330
FB
100
AcDbEntity
  8
AM_9
100
AcDbPolyline
 90
        3
 70
     0
 43
0.0
 10
0.1093749999999999
 20
-1.208125
 10
0.0546874999999999
 20
-1.234272059607483
 10
-0.0000000000000001
 20
-1.258278700151693
  0
LWPOLYLINE
  5
15C
330
FB
100
AcDbEntity
  8
AM_9
100
AcDbPolyline
 90
        3
 70
     0
 43
0.0
 10
0.2187499999999999
 20
-1.148903700151693
 10
0.1643083897258503
 20
-1.179451042662265
 10
0.1093749999999999
 20
-1.208125
  0
LINE
  5
15D
330
FB
100
AcDbEntity
  8
AM_9
100
AcDbLine
 10
0.2187499999999999
 20
-1.148903700151693
 30
0.0
 11
0.2187499999999999
 21
-0.8892212998483071
 31
0.0
  0
LWPOLYLINE
  5
15E
330
FB
100
AcDbEntity
  8
AM_9
100
AcDbPolyline
 90
        3
 70
     0
 43
0.0
 10
0.1093749999999999
 20
-1.158125
 10
0.1640624999999999
 20
-1.131977940392517
 10
0.2187499999999999
 20
-1.107971299848307
  0
LWPOLYLINE
  5
15F
330
FB
100
AcDbEntity
  8
AM_9
100
AcDbPolyline
 90
        3
 70
     0
 43
0.0
 10
-0.0000000000000001
 20
-1.217346299848307
 10
0.0544416102741495
 20
-1.186798957337735
 10
0.1093749999999999
 20
-1.158125
  0
LINE
  5
160
330
FB
100
AcDbEntity
  8
AM_9
100
AcDbLine
 10
-0.2
 20
-0.955
 30
0.0
 11
-0.2
 21
-0.9940624999999998
 31
0.0
  0
LINE
  5
161
330
FB
100
AcDbEntity
  8
AM_9
100
AcDbLine
 10
0.1999999999999998
 20
-0.9940625
 30
0.0
 11
0.1999999999999998
 21
-0.955
 31
0.0
  0
LINE
  5
162
330
FB
100
AcDbEntity
  8
AM_9
100
AcDbLine
 10
-0.1851454569549802
 20
-0.8488099125707269
 30
0.0
 11
-0.1912304659644924
 21
-0.946022462287446
 31
0.0
  0
LINE
  5
163
330
FB
100
AcDbEntity
  8
AM_9
100
AcDbLine
 10
0.1912304659644922
 20
-0.946022462287446
 30
0.0
 11
0.18514545695498
 21
-0.8488099125707269
 31
0.0
  0
ELLIPSE
  5
164
330
FB
100
AcDbEntity
  8
AM_9
100
AcDbEllipse
 10
-0.0000000000000001
 20
-0.845625
 30
0.0
 11
0.1616637258772237
 21
0.0
 31
0.0
210
0.0
220
0.0
230
1.0
 40
0.8660254037844384
 41
0.0
 42
6.283185307179586
  0
ELLIPSE
  5
165
330
FB
100
AcDbEntity
  8
AM_9
100
AcDbEllipse
 10
-0.3729962569746642
 20
-1.198281086609234
 30
0.0
 11
-0.03024351534849233
 21
0.1297148559307586
 31
0.0
210
0.0
220
0.0
230
1.0
 40
0.3659981507706655
 41
0.0
 42
6.283185307179586
  0
ELLIPSE
  5
166
330
FB
100
AcDbEntity
  8
AM_9
100
AcDbEllipse
 10
-0.2013892028241881
 20
-1.158270244837341
 30
0.0
 11
-0.02497702053391715
 21
0.1071267867773895
 31
0.0
210
0.0
220
0.0
230
1.0
 40
0.3659981507706667
 41
0.0
 42
6.283185307179586
  0
ELLIPSE
  5
167
330
FB
100
AcDbEntity
  8
AM_9
100
AcDbEllipse
 10
-0.0000000000000001
 20
-1.044062499999999
 30
0.0
 11
-0.2000000000000001
 21
2.449293598294708E-17
 31
0.0
210
0.0
220
0.0
230
1.0
 40
0.8660254037844395
 41
0.0
 42
6.283185307179586
  0
ELLIPSE
  5
168
330
FB
100
AcDbEntity
  8
AM_9
100
AcDbEllipse
 10
-0.0000000000000001
 20
-1.044062500000001
 30
0.0
 11
-0.2187499999999989
 21
3.259629037943306E-9
 31
0.0
210
0.0
220
0.0
230
1.0
 40
0.8660254037844383
 41
0.0
 42
6.283185307179586
  0
ELLIPSE
  5
169
330
FB
100
AcDbEntity
  8
AM_9
100
AcDbEllipse
 10
-0.0000000000000001
 20
-0.9940624999999992
 30
0.0
 11
-0.2187500000000001
 21
3.259629037943325E-9
 31
0.0
210
0.0
220
0.0
230
1.0
 40
0.8660254037844417
 41
0.0
 42
6.283185307179586
  0
ELLIPSE
  5
16A
330
FB
100
AcDbEntity
  8
AM_9
100
AcDbEllipse
 10
-0.0000000000000002
 20
-0.9940625
 30
0.0
 11
-0.1999999999999997
 21
2.449293598294703E-17
 31
0.0
210
0.0
220
0.0
230
1.0
 40
0.8660254037844396
 41
0.0
 42
6.283185307179586
  0
ELLIPSE
  5
16B
330
FB
100
AcDbEntity
  8
AM_9
100
AcDbEllipse
 10
-0.0000000000000002
 20
-0.9550000000000001
 30
0.0
 11
-0.2
 21
2.449293598294707E-17
 31
0.0
210
0.0
220
0.0
230
1.0
 40
0.8660254037844395
 41
0.0
 42
6.283185307179586
  0
ELLIPSE
  5
16C
330
FB
100
AcDbEntity
  8
AM_9
100
AcDbEllipse
 10
-0.0000000000000002
 20
-0.9550000000000001
 30
0.0
 11
-0.1915112338502294
 21
2.345336195354437E-17
 31
0.0
210
0.0
220
0.0
230
1.0
 40
0.8660254037844385
 41
0.0
 42
6.283185307179586
  0
ELLIPSE
  5
16D
330
FB
100
AcDbEntity
  8
AM_9
100
AcDbEllipse
 10
-0.0000000000000001
 20
-0.8575017824238809
 30
0.0
 11
-0.1854172907249858
 21
2.270706915929280E-17
 31
0.0
210
0.0
220
0.0
230
1.0
 40
0.8660254037844407
 41
0.0
 42
6.283185307179586
  0
LINE
  5
16E
330
FB
100
AcDbEntity
  8
AM_4
100
AcDbLine
 10
-0.4524158089341449
 20
-1.321254016496842
 30
0.0
 11
-0.45135
 21
-1.321517472588915
 31
0.0
  0
LINE
  5
16F
330
FB
100
AcDbEntity
  8
AM_4
100
AcDbLine
 10
-0.4513499999999998
 20
-1.083267278560741
 30
0.0
 11
-0.4986131040655763
 21
-1.123113178260488
 31
0.0
  0
ELLIPSE
  5
170
330
FB
100
AcDbEntity
  8
AM_4
100
AcDbEllipse
 10
-0.4687499999999999
 20
-1.220606438444094
 30
0.0
 11
-0.02349716402074608
 21
0.1007796617096763
 31
0.0
210
0.0
220
0.0
230
1.0
 40
0.3659981507706657
 41
0.1844361849250422
 42
2.957156468664752
  0
ELLIPSE
  5
171
330
FB
100
AcDbEntity
  8
AM_4
100
AcDbEllipse
 10
-0.3994303217889764
 20
-1.204444290038774
 30
0.0
 11
-0.03159560311146602
 21
0.1355139790604254
 31
0.0
210
0.0
220
0.0
230
1.0
 40
0.3659981507706658
 41
0.5147673728610735
 42
1.492410664254425
  0
ENDBLK
  5
FE
330
FB
100
AcDbEntity
  8
0
100
AcDbBlockEnd
  0
BLOCK
  5
174
330
172
100
AcDbEntity
  8
0
100
AcDbBlockBegin
  2
4_135118H_0_in_135118_2
 70
     2
 10
0.0
 20
0.0
 30
0.0
  3
4_135118H_0_in_135118_2
  1

  0
ATTDEF
  5
176
330
172
100
AcDbEntity
  8
AM_6
100
AcDbText
 10
5.814254441252508
 20
2.065
 30
0.0
 40
0.5
  1
WSTU-SCM -Inch - housing
100
AcDbAttributeDefinition
  3

  2
NN
 70
     8
280
     0
  0
ATTDEF
  5
177
330
172
100
AcDbEntity
  8
AM_6
100
AcDbText
 10
5.814254441252508
 20
1.565
 30
0.0
 40
0.5
  1
SC Take-Up Bearings -Wide Slot -(Medium Duty)
100
AcDbAttributeDefinition
  3

  2
NT
 70
     8
280
     0
  0
ATTDEF
  5
178
330
172
100
AcDbEntity
  8
AM_6
100
AcDbText
 10
5.814254441252508
 20
1.065
 30
0.0
 40
0.5
  1
135118H
100
AcDbAttributeDefinition
  3

  2
NB
 70
     8
280
     0
  0
ATTDEF
  5
179
330
172
100
AcDbEntity
  8
AM_6
100
AcDbText
 10
5.814254441252508
 20
0.5650000000000004
 30
0.0
 40
0.5
  1
$PN.H
100
AcDbAttributeDefinition
  3

  2
NBSYN
 70
     8
280
     0
  0
ATTDEF
  5
17A
330
172
100
AcDbEntity
  8
AM_6
100
AcDbText
 10
5.814254441252508
 20
0.0650000000000004
 30
0.0
 40
0.5
  1
135118
100
AcDbAttributeDefinition
  3

  2
LINA
 70
     8
280
     0
  0
ATTDEF
  5
17B
330
172
100
AcDbEntity
  8
AM_6
100
AcDbText
 10
5.814254441252508
 20
-0.4349999999999996
 30
0.0
 40
0.5
  1
207
100
AcDbAttributeDefinition
  3

  2
SERIES
 70
     8
280
     0
  0
ATTDEF
  5
17C
330
172
100
AcDbEntity
  8
AM_6
100
AcDbText
 10
5.814254441252508
 20
-0.9349999999999996
 30
0.0
 40
0.5
  1
1-3/16
100
AcDbAttributeDefinition
  3

  2
SS
 70
     8
280
     0
  0
ATTDEF
  5
17D
330
172
100
AcDbEntity
  8
AM_6
100
AcDbText
 10
5.814254441252508
 20
-1.435
 30
0.0
 40
0.5
  1
135118
100
AcDbAttributeDefinition
  3

  2
PN
 70
     8
280
     0
  0
ATTDEF
  5
17E
330
172
100
AcDbEntity
  8
AM_6
100
AcDbText
 10
5.814254441252508
 20
-1.935
 30
0.0
 40
0.5
  1
WSTU-SCM-103
100
AcDbAttributeDefinition
  3

  2
DESCRIPTION
 70
     8
280
     0
  0
ATTDEF
  5
17F
330
172
100
AcDbEntity
  8
AM_6
100
AcDbText
 10
5.814254441252508
 20
-2.435
 30
0.0
 40
0.5
  1
3.9
100
AcDbAttributeDefinition
  3

  2
W
 70
     8
280
     0
  0
ATTDEF
  5
180
330
172
100
AcDbEntity
  8
AM_6
100
AcDbText
 10
5.814254441252508
 20
-2.935
 30
0.0
 40
0.5
  1
WS308
100
AcDbAttributeDefinition
  3

  2
FS
 70
     8
280
     0
  0
ATTDEF
  5
181
330
172
100
AcDbEntity
  8
AM_6
100
AcDbText
 10
5.814254441252508
 20
-3.435
 30
0.0
 40
0.5
  1
1.71
100
AcDbAttributeDefinition
  3

  2
A
 70
     8
280
     0
  0
ATTDEF
  5
182
330
172
100
AcDbEntity
  8
AM_6
100
AcDbText
 10
5.814254441252508
 20
-3.935
 30
0.0
 40
0.5
  1
4.87
100
AcDbAttributeDefinition
  3

  2
B
 70
     8
280
     0
  0
ATTDEF
  5
183
330
172
100
AcDbEntity
  8
AM_6
100
AcDbText
 10
5.814254441252508
 20
-4.435
 30
0.0
 40
0.5
  1
0.531
100
AcDbAttributeDefinition
  3

  2
C
 70
     8
280
     0
  0
ATTDEF
  5
184
330
172
100
AcDbEntity
  8
AM_6
100
AcDbText
 10
5.814254441252508
 20
-4.935
 30
0.0
 40
0.5
  1
2.50
100
AcDbAttributeDefinition
  3

  2
D
 70
     8
280
     0
  0
ATTDEF
  5
185
330
172
100
AcDbEntity
  8
AM_6
100
AcDbText
 10
5.814254441252508
 20
-5.435
 30
0.0
 40
0.5
  1
3.06
100
AcDbAttributeDefinition
  3

  2
E
 70
     8
280
     0
  0
ATTDEF
  5
186
330
172
100
AcDbEntity
  8
AM_6
100
AcDbText
 10
5.814254441252508
 20
-5.935
 30
0.0
 40
0.5
  1
3/4
100
AcDbAttributeDefinition
  3

  2
F
 70
     8
280
     0
  0
ATTDEF
  5
187
330
172
100
AcDbEntity
  8
AM_6
100
AcDbText
 10
5.814254441252508
 20
-6.435
 30
0.0
 40
0.5
  1
0.50
100
AcDbAttributeDefinition
  3

  2
G
 70
     8
280
     0
  0
ATTDEF
  5
188
330
172
100
AcDbEntity
  8
AM_6
100
AcDbText
 10
5.814254441252508
 20
-6.935
 30
0.0
 40
0.5
  1
0.63
100
AcDbAttributeDefinition
  3

  2
H
 70
     8
280
     0
  0
ATTDEF
  5
189
330
172
100
AcDbEntity
  8
AM_6
100
AcDbText
 10
5.814254441252508
 20
-7.435
 30
0.0
 40
0.5
  1
2.50
100
AcDbAttributeDefinition
  3

  2
J
 70
     8
280
     0
  0
ATTDEF
  5
18A
330
172
100
AcDbEntity
  8
AM_6
100
AcDbText
 10
5.814254441252508
 20
-7.935
 30
0.0
 40
0.5
  1
1.44
100
AcDbAttributeDefinition
  3

  2
K
 70
     8
280
     0
  0
ATTDEF
  5
18B
330
172
100
AcDbEntity
  8
AM_6
100
AcDbText
 10
5.814254441252508
 20
-8.434999999999999
 30
0.0
 40
0.5
  1
1.84
100
AcDbAttributeDefinition
  3

  2
L
 70
     8
280
     0
  0
ATTDEF
  5
18C
330
172
100
AcDbEntity
  8
AM_6
100
AcDbText
 10
5.814254441252508
 20
-8.934999999999999
 30
0.0
 40
0.5
  1
3.480 / 3.510
100
AcDbAttributeDefinition
  3

  2
M
 70
     8
280
     0
  0
ATTDEF
  5
18D
330
172
100
AcDbEntity
  8
AM_6
100
AcDbText
 10
5.814254441252508
 20
-9.434999999999999
 30
0.0
 40
0.5
  1
4.13
100
AcDbAttributeDefinition
  3

  2
N
 70
     8
280
     0
  0
ATTDEF
  5
18E
330
172
100
AcDbEntity
  8
AM_6
100
AcDbText
 10
5.814254441252508
 20
-9.934999999999999
 30
0.0
 40
0.5
  1
0.67
100
AcDbAttributeDefinition
  3

  2
R
 70
     8
280
     0
  0
ATTDEF
  5
18F
330
172
100
AcDbEntity
  8
AM_6
100
AcDbText
 10
5.814254441252508
 20
-10.435
 30
0.0
 40
0.5
  1
1.04
100
AcDbAttributeDefinition
  3

  2
S
 70
     8
280
     0
  0
ATTDEF
  5
190
330
172
100
AcDbEntity
  8
AM_6
100
AcDbText
 10
5.814254441252508
 20
-10.935
 30
0.0
 40
0.5
  1
1.63
100
AcDbAttributeDefinition
  3

  2
T
 70
     8
280
     0
  0
ATTDEF
  5
191
330
172
100
AcDbEntity
  8
AM_6
100
AcDbText
 10
5.814254441252508
 20
-11.435
 30
0.0
 40
0.5
  1
3065
100
AcDbAttributeDefinition
  3

  2
CAPS
 70
     8
280
     0
  0
ATTDEF
  5
192
330
172
100
AcDbEntity
  8
AM_6
100
AcDbText
 10
5.814254441252508
 20
-11.935
 30
0.0
 40
0.5
  1
5759
100
AcDbAttributeDefinition
  3

  2
CAPD
 70
     8
280
     0
  0
ATTDEF
  5
193
330
172
100
AcDbEntity
  8
AM_6
100
AcDbText
 10
5.814254441252508
 20
-12.435
 30
0.0
 40
0.5
  1
baldor
100
AcDbAttributeDefinition
  3

  2
COMPANY
 70
     8
280
     0
  0
ELLIPSE
  5
194
330
172
100
AcDbEntity
  8
AM_9
100
AcDbEllipse
 10
-0.0000000000000001
 20
-0.9550000000000001
 30
0.0
 11
0.1500000000000003
 21
0.0
 31
0.0
210
0.0
220
0.0
230
1.0
 40
0.8660254037844382
 41
1.570796326794897
 42
3.141592653589793
  0
LWPOLYLINE
  5
195
330
172
100
AcDbEntity
  8
AM_9
100
AcDbPolyline
 90
       11
 70
     0
 43
0.0
 10
-0.0000000000000001
 20
-0.7719831003030929
 10
-0.0247770871733314
 20
-0.7738526268452861
 10
-0.0495541743466627
 20
-0.7796168820067837
 10
-0.0722491900294254
 20
-0.7887679211108
 10
-0.0935202536247027
 20
-0.8015331731318268
 10
-0.1116292667160459
 20
-0.8168414985351045
 10
-0.1270497800805068
 20
-0.835065102405732
 10
-0.138503975639908
 20
-0.8546670748350603
 10
-0.1462950724025526
 20
-0.8761549181262579
 10
-0.1497598160738645
 20
-0.8976417144257767
 10
-0.1499999993406582
 20
-0.9049878199903642
  0
LINE
  5
196
330
172
100
AcDbEntity
  8
AM_9
100
AcDbLine
 10
0.1500000000000001
 20
-0.9550000000000002
 30
0.0
 11
0.1500000000000001
 21
-0.9049972686366601
 31
0.0
  0
LINE
  5
197
330
172
100
AcDbEntity
  8
AM_9
100
AcDbLine
 10
-0.1500000000000003
 20
-0.9049799513073841
 30
0.0
 11
-0.1500000000000003
 21
-0.9550000000000002
 31
0.0
  0
ELLIPSE
  5
198
330
172
100
AcDbEntity
  8
AM_9
100
AcDbEllipse
 10
-0.0000000000000001
 20
-0.9550000000000003
 30
0.0
 11
0.15
 21
0.0
 31
0.0
210
0.0
220
0.0
230
1.0
 40
0.866025403784439
 41
3.141592653589793
 42
7.853981633974483
  0
LWPOLYLINE
  5
199
330
172
100
AcDbEntity
  8
AM_9
100
AcDbPolyline
 90
       20
 70
     0
 43
0.0
 10
-0.1499999993406582
 20
-0.9049878199903642
 10
-0.1490197393218892
 20
-0.9197864471957564
 10
-0.1441539402238342
 20
-0.9406752762112558
 10
-0.1350287153179322
 20
-0.9609827924227577
 10
-0.1223919730923843
 20
-0.9790616575631966
 10
-0.1058918537454943
 20
-0.9954461367798102
 10
-0.0868441680963073
 20
-1.008849342682326
 10
-0.0647430027886495
 20
-1.019648129640124
 10
-0.0414396823619897
 20
-1.026973053003818
 10
-0.0162600900296786
 20
-1.031061879672229
 10
0.0085962574743315
 20
-1.031587469409736
 10
0.0339221386665099
 20
-1.028584782278537
 10
0.0575562040765734
 20
-1.022306184936564
 10
0.0802163923870955
 20
-1.01254623166426
 10
0.1000573392514283
 20
-1.000053563997028
 10
0.1175950418596671
 20
-0.9844461175243846
 10
0.131394674018718
 20
-0.96693901062228
 10
0.1418053818766732
 20
-0.9470185106671428
 10
0.1479429545404568
 20
-0.9263550651483663
 10
0.1499999999050612
 20
-0.9049953781348185
  0
LWPOLYLINE
  5
19A
330
172
100
AcDbEntity
  8
AM_9
100
AcDbPolyline
 90
       12
 70
     0
 43
0.0
 10
0.1499999999050612
 20
-0.9049953781348185
 10
0.1499978457500319
 20
-0.904303704759261
 10
0.1478079411734522
 20
-0.8827827090473861
 10
0.141324425168536
 20
-0.8611128697837772
 10
0.1310937236234827
 20
-0.8411322598496002
 10
0.1168248945347199
 20
-0.8222967275362681
 10
0.0996541725470952
 20
-0.8061706466096996
 10
0.0791240131803267
 20
-0.7923932373421536
 10
0.0569199884142482
 20
-0.7821481294244829
 10
0.0324245554702277
 20
-0.7752001024778536
 10
0.0164068866318492
 20
-0.7727998192861363
 10
-0.0000000000000001
 20
-0.7719831003030929
  0
ELLIPSE
  5
19B
330
172
100
AcDbEntity
  8
AM_9
100
AcDbEllipse
 10
-0.0000000000000001
 20
-0.955
 30
0.0
 11
-0.3200000000000003
 21
3.918869757271534E-17
 31
0.0
210
0.0
220
0.0
230
1.0
 40
0.8660254037844383
 41
0.0
 42
6.283185307179586
  0
LINE
  5
19C
330
172
100
AcDbEntity
  8
AM_9
100
AcDbLine
 10
0.4199957567034006
 20
-0.9066986544261512
 30
0.0
 11
0.4199991137000999
 21
-0.9042236732097744
 31
0.0
  0
LWPOLYLINE
  5
19D
330
172
100
AcDbEntity
  8
AM_9
100
AcDbPolyline
 90
        3
 70
     0
 43
0.0
 10
0.4196686537298568
 20
-0.9200074997751904
 10
0.4199514111905677
 20
-0.9107479079820833
 10
0.4199957567034006
 20
-0.9066986544261512
  0
LWPOLYLINE
  5
19E
330
172
100
AcDbEntity
  8
AM_9
100
AcDbPolyline
 90
        9
 70
     0
 43
0.0
 10
0.3750202665213344
 20
-1.075068799968267
 10
0.3848376366340288
 20
-1.056306989242147
 10
0.3937796817959363
 20
-1.036393706870612
 10
0.4014398400443325
 20
-1.016074116408056
 10
0.4077976759538222
 20
-0.9954158616764031
 10
0.4128372961558905
 20
-0.9744867031761519
 10
0.4165471324411898
 20
-0.953354246407659
 10
0.4189197086925463
 20
-0.9320857352525594
 10
0.4196686537298568
 20
-0.9200074997751904
  0
LWPOLYLINE
  5
19F
330
172
100
AcDbEntity
  8
AM_9
100
AcDbPolyline
 90
       14
 70
     0
 43
0.0
 10
0.1698930575119149
 20
-1.250003768565255
 10
0.1914088136024894
 20
-1.2408201390102
 10
0.212453376354944
 20
-1.230479601817167
 10
0.2328097568548388
 20
-1.219072669051551
 10
0.2524091594433022
 20
-1.206636023271194
 10
0.2711850805465822
 20
-1.193210393319854
 10
0.2890737067935794
 20
-1.178840482332591
 10
0.3060143275579817
 20
-1.163574832979376
 10
0.3219497454774792
 20
-1.147465623185562
 10
0.3368266654842974
 20
-1.130568390676868
 10
0.3505960417561197
 20
-1.112941690816859
 10
0.3632133632630664
 20
-1.094646698532981
 10
0.374638862345827
 20
-1.075746770698407
 10
0.3750202665213344
 20
-1.075068799968267
  0
LWPOLYLINE
  5
1A0
330
172
100
AcDbEntity
  8
AM_9
100
AcDbPolyline
 90
       17
 70
     0
 43
0.0
 10
-0.1600327489841429
 20
-1.253774367786466
 10
-0.1564477578500337
 20
-1.25507973851422
 10
-0.1340376316985678
 20
-1.262476229933235
 10
-0.111188218121542
 20
-1.268720751824531
 10
-0.0879735267525426
 20
-1.273792713904007
 10
-0.0644685480005076
 20
-1.27767532629033
 10
-0.0407490138833396
 20
-1.280355569743597
 10
-0.016891186303287
 20
-1.281824160869248
 10
0.0070283308091901
 20
-1.282075519531766
 10
0.0309327603130595
 20
-1.281107744301526
 10
0.0547448284600621
 20
-1.278922656618009
 10
0.0783877342047617
 20
-1.275525789764627
 10
0.1017850613429531
 20
-1.270926375579377
 10
0.124860813561492
 20
-1.265137389181818
 10
0.1475395901900412
 20
-1.258175605312549
 10
0.1697467849121941
 20
-1.250061663950342
 10
0.1698930575119149
 20
-1.250003768565255
  0
LINE
  5
1A1
330
172
100
AcDbEntity
  8
AM_9
100
AcDbLine
 10
-0.169556679737007
 20
-1.250136819287601
 30
0.0
 11
-0.1600327489841429
 21
-1.253774367786466
 31
0.0
  0
LWPOLYLINE
  5
1A2
330
172
100
AcDbEntity
  8
AM_9
100
AcDbPolyline
 90
        5
 70
     0
 43
0.0
 10
-0.2400045251931013
 20
-1.21468195356038
 10
-0.2203228587973025
 20
-1.226241527362588
 10
-0.1996606519762705
 20
-1.236932284798054
 10
-0.1783458360897747
 20
-1.246555684491135
 10
-0.169556679737007
 20
-1.250136819287601
  0
LWPOLYLINE
  5
1A3
330
172
100
AcDbEntity
  8
AM_9
100
AcDbPolyline
 90
       11
 70
     0
 43
0.0
 10
-0.3751088120889924
 20
-1.074910917281164
 10
-0.3668204538164115
 20
-1.088952564204665
 10
-0.3546845505737488
 20
-1.107265212862391
 10
-0.3414073466589844
 20
-1.124939494809468
 10
-0.3270283825285336
 20
-1.14191844923489
 10
-0.3115911550119913
 20
-1.158146707740807
 10
-0.2951431044626597
 20
-1.173570809142049
 10
-0.2777355310195926
 20
-1.188139530643916
 10
-0.2594234392291458
 20
-1.201804217129739
 10
-0.2402653168100021
 20
-1.214519090956828
 10
-0.2400045251931013
 20
-1.21468195356038
  0
LWPOLYLINE
  5
1A4
330
172
100
AcDbEntity
  8
AM_9
100
AcDbPolyline
 90
        9
 70
     0
 43
0.0
 10
-0.4182543607507767
 20
-0.9394169345943657
 10
-0.4172843415590015
 20
-0.9479019246285028
 10
-0.4139317178104009
 20
-0.9690008959240639
 10
-0.4092635583147528
 20
-0.989887560189289
 10
-0.4032946308262387
 20
-1.010498835233536
 10
-0.3960429049067664
 20
-1.030772329101942
 10
-0.387529624647556
 20
-1.050646328211462
 10
-0.3777794217093397
 20
-1.070059820366674
 10
-0.3751088120889924
 20
-1.074910917281164
  0
LINE
  5
1A5
330
172
100
AcDbEntity
  8
AM_9
100
AcDbLine
 10
-0.4189088558991521
 20
-0.9322212701344594
 30
0.0
 11
-0.4183360549970954
 21
-0.9386036108319215
 31
0.0
  0
LWPOLYLINE
  5
1A6
330
172
100
AcDbEntity
  8
AM_9
100
AcDbPolyline
 90
        3
 70
     0
 43
0.0
 10
-0.4196687615577688
 20
-0.9200050586589369
 10
-0.4193098418752109
 20
-0.9266544516281603
 10
-0.4189088558991521
 20
-0.9322212701344594
  0
LWPOLYLINE
  5
1A7
330
172
100
AcDbEntity
  8
AM_9
100
AcDbPolyline
 90
        3
 70
     0
 43
0.0
 10
-0.4199999639317917
 20
-0.9048433909942021
 10
-0.4199998451033565
 20
-0.905324545371119
 10
-0.4196687615577688
 20
-0.9200050586589369
  0
LINE
  5
1A8
330
172
100
AcDbEntity
  8
AM_9
100
AcDbLine
 10
-0.4199977179312286
 20
-0.9037542863588324
 30
0.0
 11
-0.4199999639317917
 21
-0.9048433909942021
 31
0.0
  0
ELLIPSE
  5
1A9
330
172
100
AcDbEntity
  8
AM_9
100
AcDbEllipse
 10
0.0000000000000004
 20
-0.9049999999999995
 30
0.0
 11
0.4199999999999996
 21
6.258487701416011E-9
 31
0.0
210
0.0
220
0.0
230
1.0
 40
0.8660254037844382
 41
0.0019780714993862
 42
3.138412409346603
  0
LWPOLYLINE
  5
1AA
330
172
100
AcDbEntity
  8
AM_9
100
AcDbPolyline
 90
        3
 70
     0
 43
0.0
 10
0.4187500000000001
 20
-0.8768136337601472
 10
0.419999971861974
 20
-0.9042418681878376
 10
0.4199999999999382
 20
-0.9043748028060357
  0
LWPOLYLINE
  5
1AB
330
172
100
AcDbEntity
  8
AM_9
100
AcDbPolyline
 90
        3
 70
     0
 43
0.0
 10
-0.4188092843437698
 20
-0.9322018523952231
 10
-0.4199999718619742
 20
-0.9045081534164111
 10
-0.4199999999999384
 20
-0.9043751971940119
  0
LWPOLYLINE
  5
1AC
330
172
100
AcDbEntity
  8
AM_9
100
AcDbPolyline
 90
       37
 70
     0
 43
0.0
 10
0.41875
 20
-0.9328967194455812
 10
0.414671182630044
 20
-0.9621278611364168
 10
0.4077987446058907
 20
-0.9906391383543354
 10
0.3978515700161157
 20
-1.019044135028296
 10
0.3850821712126152
 20
-1.046311386389891
 10
0.3700675101688696
 20
-1.071540535760068
 10
0.3525933052183906
 20
-1.095410256465921
 10
0.3321822058840688
 20
-1.118405092958773
 10
0.3094418736064832
 20
-1.139727231379957
 10
0.284814947774381
 20
-1.159060710469462
 10
0.2582235479713886
 20
-1.176579282425608
 10
0.2289933379278037
 20
-1.192622991460613
 10
0.1980668216525648
 20
-1.206596032580289
 10
0.1664228198331099
 20
-1.218177805735706
 10
0.1335789658597578
 20
-1.227672476040506
 10
0.0987178790461901
 20
-1.235219612907488
 10
0.0630871162000956
 20
-1.240467176007798
 10
0.028804218650983
 20
-1.24328863371743
 10
-0.0056832245028699
 20
-1.244000199595591
 10
-0.0411601802871105
 20
-1.242516679937238
 10
-0.0763274513229017
 20
-1.238798975954178
 10
-0.109444152736112
 20
-1.233160283144237
 10
-0.1418156867704486
 20
-1.225517997155853
 10
-0.1740957978416152
 20
-1.215600244788007
 10
-0.2051460421577939
 20
-1.203643905123668
 10
-0.2344146083050367
 20
-1.189871497354202
 10
-0.2620967887929015
 20
-1.174215646963427
 10
-0.2887073601517979
 20
-1.156223245997071
 10
-0.3132829250369318
 20
-1.136387063205222
 10
-0.3355211969123429
 20
-1.114927710929137
 10
-0.3554366408073765
 20
-1.091832951228514
 10
-0.3733557150341107
 20
-1.066464445247397
 10
-0.3885297196349728
 20
-1.039621709472912
 10
-0.3996477649667177
 20
-1.014541076705119
 10
-0.4084081379330785
 20
-0.9885378297298486
 10
-0.4148744409293727
 20
-0.9610476314577344
 10
-0.41875
 20
-0.9328967194455831
  0
LWPOLYLINE
  5
1AD
330
172
100
AcDbEntity
  8
AM_9
100
AcDbPolyline
 90
       37
 70
     0
 43
0.0
 10
-0.4187500000000001
 20
-0.876813633760145
 10
-0.4146711826300439
 20
-0.8466425596748303
 10
-0.4077987446058901
 20
-0.8165686018078556
 10
-0.397851570016115
 20
-0.7859446167959498
 10
-0.3850821712126142
 20
-0.7559062138420602
 10
-0.3700675101688685
 20
-0.7275284702251861
 10
-0.3525933052183892
 20
-0.7001459356051657
 10
-0.3321822058840672
 20
-0.6732547858211483
 10
-0.3094418736064813
 20
-0.6478561297926304
 10
-0.2848149477743789
 20
-0.6244248047466485
 10
-0.2582235479713865
 20
-0.6028530429880126
 10
-0.2289933379278014
 20
-0.5828037913777797
 10
-0.1980668216525623
 20
-0.5651066698615019
 10
-0.1664228198331073
 20
-0.5502677706676358
 10
-0.133578965859755
 20
-0.5379841553915959
 10
-0.0987178790461872
 20
-0.5281436242862316
 10
-0.0630871162000926
 20
-0.5212592454976651
 10
-0.0288042186509801
 20
-0.5175446865632466
 10
0.0056832245028727
 20
-0.5166054629650944
 10
0.0411601802871133
 20
-0.5185622341113335
 10
0.0763274513229045
 20
-0.5234512559440769
 10
0.1094441527361147
 20
-0.5308356075028242
 10
0.1418156867704513
 20
-0.5407808702542396
 10
0.1740957978416178
 20
-0.5535838364207814
 10
0.2051460421577963
 20
-0.5688641762720168
 10
0.234414608305039
 20
-0.5862625212419961
 10
0.2620967887929038
 20
-0.6057828717706644
 10
0.2887073601518
 20
-0.6278880000108821
 10
0.3132829250369337
 20
-0.6518652095794946
 10
0.3355211969123445
 20
-0.6773542156517484
 10
0.355436640807378
 20
-0.7042837503330635
 10
0.373355715034112
 20
-0.7332837535124856
 10
0.3885297196349738
 20
-0.7633356785536719
 10
0.3996477649667185
 20
-0.7908445554167275
 10
0.408408137933079
 20
-0.8188075183234709
 10
0.414874440929373
 20
-0.8477694653750776
 10
0.4187500000000001
 20
-0.8768136337601472
  0
LINE
  5
1AE
330
172
100
AcDbEntity
  8
AM_9
100
AcDbLine
 10
-0.4199999999999384
 20
-0.9043751971940119
 30
0.0
 11
-0.41875
 21
-0.8768136337601448
 31
0.0
  0
LINE
  5
1AF
330
172
100
AcDbEntity
  8
AM_9
100
AcDbLine
 10
0.4199999999999382
 20
-0.9043748028060357
 30
0.0
 11
0.41875
 21
-0.9328967194455812
 31
0.0
  0
ELLIPSE
  5
1B0
330
172
100
AcDbEntity
  8
AM_9
100
AcDbEllipse
 10
-0.0000000000000001
 20
-0.9050000000000004
 30
0.0
 11
0.4200000000000001
 21
0.0
 31
0.0
210
0.0
220
0.0
230
1.0
 40
0.8660254037844375
 41
5.034706000482073
 42
6.283185307179586
  0
ELLIPSE
  5
1B1
330
172
100
AcDbEntity
  8
AM_9
100
AcDbEllipse
 10
-0.0000000000000001
 20
-0.9050000000000005
 30
0.0
 11
0.4199999999999975
 21
0.0
 31
0.0
210
0.0
220
0.0
230
1.0
 40
0.8660254037844431
 41
4.390071960287305
 42
5.034706000482075
  0
ELLIPSE
  5
1B2
330
172
100
AcDbEntity
  8
AM_9
100
AcDbEllipse
 10
0.0000000000000096
 20
-0.9049999999998786
 30
0.0
 11
0.4200000000000271
 21
0.0
 31
0.0
210
0.0
220
0.0
230
1.0
 40
0.8660254037846606
 41
4.321562849809263
 42
4.390071960287312
  0
ELLIPSE
  5
1B3
330
172
100
AcDbEntity
  8
AM_9
100
AcDbEllipse
 10
0.0000000000000011
 20
-0.9050000000000019
 30
0.0
 11
0.4200000000000013
 21
0.0
 31
0.0
210
0.0
220
0.0
230
1.0
 40
0.8660254037844372
 41
3.141592653589793
 42
4.321562849809244
  0
LINE
  5
1B4
330
172
100
AcDbEntity
  8
AM_9
100
AcDbLine
 10
0.41875
 20
-0.8768136337601472
 30
0.0
 11
0.4187500000000001
 21
1.309045453756286
 31
0.0
  0
LINE
  5
1B5
330
172
100
AcDbEntity
  8
AM_9
100
AcDbLine
 10
-0.41875
 20
-0.876813633760145
 30
0.0
 11
-0.41875
 21
1.309045453756286
 31
0.0
  0
LINE
  5
1B6
330
172
100
AcDbEntity
  8
AM_9
100
AcDbLine
 10
-0.41875
 20
1.309045453756286
 30
0.0
 11
0.4187500000000001
 21
1.309045453756286
 31
0.0
  0
LINE
  5
1B7
330
172
100
AcDbEntity
  8
AM_9
100
AcDbLine
 10
0.4513500000000001
 20
-1.263586467164001
 30
0.0
 11
0.4187500000000001
 21
-1.309045453756286
 31
0.0
  0
LINE
  5
1B8
330
172
100
AcDbEntity
  8
AM_9
100
AcDbLine
 10
-0.41875
 20
-1.309045453756286
 30
0.0
 11
-0.45135
 21
-1.263586467164001
 31
0.0
  0
LINE
  5
1B9
330
172
100
AcDbEntity
  8
AM_9
100
AcDbLine
 10
0.4187500000000001
 20
-1.309045453756286
 30
0.0
 11
-0.41875
 21
-1.309045453756286
 31
0.0
  0
LINE
  5
1BA
330
172
100
AcDbEntity
  8
AM_9
100
AcDbLine
 10
0.4187500000000001
 20
1.309045453756286
 30
0.0
 11
0.45135
 21
1.263586467164
 31
0.0
  0
LINE
  5
1BB
330
172
100
AcDbEntity
  8
AM_9
100
AcDbLine
 10
-0.45135
 20
1.263586467164001
 30
0.0
 11
-0.41875
 21
1.309045453756286
 31
0.0
  0
LINE
  5
1BC
330
172
100
AcDbEntity
  8
AM_9
100
AcDbLine
 10
0.4187500000000001
 20
-1.309045453756286
 30
0.0
 11
0.41875
 21
-0.9328967194455812
 31
0.0
  0
LINE
  5
1BD
330
172
100
AcDbEntity
  8
AM_9
100
AcDbLine
 10
-0.41875
 20
-1.309045453756286
 30
0.0
 11
-0.4187500000000001
 21
-0.9328967194455834
 31
0.0
  0
LINE
  5
1BE
330
172
100
AcDbEntity
  8
AM_9
100
AcDbLine
 10
-0.2389499999999999
 20
-1.422633131853473
 30
0.0
 11
0.45135
 21
-1.422633131853473
 31
0.0
  0
LINE
  5
1BF
330
172
100
AcDbEntity
  8
AM_9
100
AcDbLine
 10
-0.2389499999999999
 20
-1.476675
 30
0.0
 11
0.45135
 21
-1.476675
 31
0.0
  0
LINE
  5
1C0
330
172
100
AcDbEntity
  8
AM_9
100
AcDbLine
 10
-0.2389499999999999
 20
-1.476675
 30
0.0
 11
-0.2389499999999999
 21
-1.360902370569697
 31
0.0
  0
LINE
  5
1C1
330
172
100
AcDbEntity
  8
AM_9
100
AcDbLine
 10
-0.2389499999999999
 20
1.422633131853473
 30
0.0
 11
0.45135
 21
1.422633131853473
 31
0.0
  0
LINE
  5
1C2
330
172
100
AcDbEntity
  8
AM_9
100
AcDbLine
 10
-0.2389499999999999
 20
1.360902370569697
 30
0.0
 11
-0.2389499999999999
 21
1.476675
 31
0.0
  0
LINE
  5
1C3
330
172
100
AcDbEntity
  8
AM_9
100
AcDbLine
 10
0.164015151515146
 20
1.476675
 30
0.0
 11
-0.2389499999999999
 21
1.476675
 31
0.0
  0
LINE
  5
1C4
330
172
100
AcDbEntity
  8
AM_9
100
AcDbLine
 10
0.4513499999999998
 20
1.476675
 30
0.0
 11
0.2359848484848541
 21
1.476675
 31
0.0
  0
LINE
  5
1C5
330
172
100
AcDbEntity
  8
AM_9
100
AcDbLine
 10
-0.2389499999999999
 20
1.360902370569697
 30
0.0
 11
0.45135
 21
1.360902370569697
 31
0.0
  0
LINE
  5
1C6
330
172
100
AcDbEntity
  8
AM_9
100
AcDbLine
 10
0.45135
 20
-1.360902370569697
 30
0.0
 11
-0.2389499999999999
 21
-1.360902370569697
 31
0.0
  0
LINE
  5
1C7
330
172
100
AcDbEntity
  8
AM_9
100
AcDbLine
 10
-0.4513500000000001
 20
-1.4173
 30
0.0
 11
-0.2389499999999999
 21
-1.4173
 31
0.0
  0
LINE
  5
1C8
330
172
100
AcDbEntity
  8
AM_9
100
AcDbLine
 10
-0.2389499999999999
 20
1.4173
 30
0.0
 11
-0.45135
 21
1.4173
 31
0.0
  0
LINE
  5
1C9
330
172
100
AcDbEntity
  8
AM_9
100
AcDbLine
 10
-0.45135
 20
0.6669000000000007
 30
0.0
 11
0.4513500000000001
 21
0.6669000000000007
 31
0.0
  0
LINE
  5
1CA
330
172
100
AcDbEntity
  8
AM_9
100
AcDbLine
 10
-0.45135
 20
0.7200000000000002
 30
0.0
 11
0.4513500000000001
 21
0.7200000000000002
 31
0.0
  0
LINE
  5
1CB
330
172
100
AcDbEntity
  8
AM_9
100
AcDbLine
 10
-0.45135
 20
-0.666900000000001
 30
0.0
 11
0.4513500000000001
 21
-0.6669000000000012
 31
0.0
  0
LINE
  5
1CC
330
172
100
AcDbEntity
  8
AM_9
100
AcDbLine
 10
-0.45135
 20
-0.72
 30
0.0
 11
0.4513500000000001
 21
-0.72
 31
0.0
  0
LINE
  5
1CD
330
172
100
AcDbEntity
  8
AM_9
100
AcDbLine
 10
0.4513500000000001
 20
-0.6786075283254672
 30
0.0
 11
0.4513500000000001
 21
0.6786075283254672
 31
0.0
  0
LINE
  5
1CE
330
172
100
AcDbEntity
  8
AM_9
100
AcDbLine
 10
-0.45135
 20
0.6786075283254672
 30
0.0
 11
-0.45135
 21
-0.6786075283254672
 31
0.0
  0
LINE
  5
1CF
330
172
100
AcDbEntity
  8
AM_7
100
AcDbLine
 10
0.0000000000000002
 20
-0.3937499999999999
 30
0.0
 11
0.0000000000000002
 21
0.3937499999999999
 31
0.0
  0
LINE
  5
1D0
330
172
100
AcDbEntity
  8
AM_4
100
AcDbLine
 10
-0.2655000000000001
 20
-1.74
 30
0.0
 11
-0.2655000000000001
 21
-2.065
 31
0.0
  0
LWPOLYLINE
  5
1D1
330
172
100
AcDbEntity
  8
AM_4
100
AcDbPolyline
 90
       19
 70
     0
 43
0.0
 10
-0.4779000000000004
 20
-2.065
 10
-0.482527969939901
 20
-2.064797938468672
 10
-0.4871207182341143
 20
-2.064193291684948
 10
-0.4916432912949441
 20
-2.06319066137595
 10
-0.4960612696105932
 20
-2.061797678163732
 10
-0.5003410296984312
 20
-2.060024943491646
 10
-0.50445
 20
-2.057885948940954
 10
-0.5083569087702405
 20
-2.055396973551746
 10
-0.5120320220743552
 20
-2.052576959929619
 10
-0.5154473700810056
 20
-2.049447370081007
 10
-0.5185769599296176
 20
-2.046032022074356
 10
-0.5213969735517454
 20
-2.042356908770242
 10
-0.5238859489409536
 20
-2.038450000000001
 10
-0.526024943491646
 20
-2.034341029698432
 10
-0.5277976781637317
 20
-2.030061269610594
 10
-0.5291906613759494
 20
-2.025643291294945
 10
-0.5301932916849482
 20
-2.021120718234116
 10
-0.5307979384686717
 20
-2.016527969939902
 10
-0.531
 20
-2.011900002093456
  0
LINE
  5
1D2
330
172
100
AcDbEntity
  8
AM_4
100
AcDbLine
 10
-0.477900000000001
 20
-2.065
 30
0.0
 11
-0.2655000000000001
 21
-2.065
 31
0.0
  0
LINE
  5
1D3
330
172
100
AcDbEntity
  8
AM_4
100
AcDbLine
 10
0.2654999999999997
 20
-2.065
 30
0.0
 11
0.2654999999999998
 21
-1.74
 31
0.0
  0
LWPOLYLINE
  5
1D4
330
172
100
AcDbEntity
  8
AM_4
100
AcDbPolyline
 90
       19
 70
     0
 43
0.0
 10
0.5309999999999994
 20
-2.011900000000001
 10
0.5307979384686711
 20
-2.016527969939901
 10
0.5301932916849477
 20
-2.021120718234115
 10
0.529190661375949
 20
-2.025643291294944
 10
0.5277976781637311
 20
-2.030061269610593
 10
0.5260249434916456
 20
-2.034341029698432
 10
0.5238859489409532
 20
-2.03845
 10
0.521396973551745
 20
-2.042356908770241
 10
0.5185769599296173
 20
-2.046032022074356
 10
0.5154473700810054
 20
-2.049447370081006
 10
0.5120320220743549
 20
-2.052576959929618
 10
0.5083569087702403
 20
-2.055396973551745
 10
0.5044499999999998
 20
-2.057885948940954
 10
0.5003410296984311
 20
-2.060024943491646
 10
0.496061269610593
 20
-2.061797678163732
 10
0.4916432912949439
 20
-2.06319066137595
 10
0.4871207182341142
 20
-2.064193291684948
 10
0.4825279699399008
 20
-2.064797938468672
 10
0.4779000000000003
 20
-2.065
  0
LINE
  5
1D5
330
172
100
AcDbEntity
  8
AM_4
100
AcDbLine
 10
0.2654999999999997
 20
-2.065
 30
0.0
 11
0.4779000000000002
 21
-2.065
 31
0.0
  0
LWPOLYLINE
  5
1D6
330
172
100
AcDbEntity
  8
AM_4
100
AcDbPolyline
 90
       19
 70
     0
 43
0.0
 10
-0.531
 20
2.011900000000001
 10
-0.5307979384686717
 20
2.016527969939901
 10
-0.5301932916849482
 20
2.021120718234115
 10
-0.5291906613759495
 20
2.025643291294944
 10
-0.5277976781637318
 20
2.030061269610593
 10
-0.5260249434916462
 20
2.034341029698432
 10
-0.5238859489409537
 20
2.03845
 10
-0.5213969735517456
 20
2.042356908770241
 10
-0.5185769599296179
 20
2.046032022074356
 10
-0.5154473700810059
 20
2.049447370081006
 10
-0.5120320220743556
 20
2.052576959929618
 10
-0.508356908770241
 20
2.055396973551745
 10
-0.5044500000000004
 20
2.057885948940954
 10
-0.5003410296984316
 20
2.060024943491646
 10
-0.4960612696105935
 20
2.061797678163732
 10
-0.4916432912949444
 20
2.06319066137595
 10
-0.4871207182341147
 20
2.064193291684948
 10
-0.4825279699399014
 20
2.064797938468672
 10
-0.4779000000000009
 20
2.065
  0
LINE
  5
1D7
330
172
100
AcDbEntity
  8
AM_4
100
AcDbLine
 10
-0.2654999999999998
 20
2.065
 30
0.0
 11
-0.2655
 21
1.74
 31
0.0
  0
LINE
  5
1D8
330
172
100
AcDbEntity
  8
AM_4
100
AcDbLine
 10
-0.4779000000000007
 20
2.065
 30
0.0
 11
-0.2654999999999998
 21
2.065
 31
0.0
  0
LINE
  5
1D9
330
172
100
AcDbEntity
  8
AM_4
100
AcDbLine
 10
0.4513500000000003
 20
0.6786075283254666
 30
0.0
 11
0.4513500000000001
 21
1.577499999999999
 31
0.0
  0
LINE
  5
1DA
330
172
100
AcDbEntity
  8
AM_4
100
AcDbLine
 10
-0.45135
 20
1.5775
 30
0.0
 11
-0.4513499999999999
 21
0.6786075283254672
 31
0.0
  0
LINE
  5
1DB
330
172
100
AcDbEntity
  8
AM_4
100
AcDbLine
 10
0.5310000000000001
 20
1.65715
 30
0.0
 11
0.5309999999999999
 21
2.0119
 31
0.0
  0
LINE
  5
1DC
330
172
100
AcDbEntity
  8
AM_4
100
AcDbLine
 10
-0.5309999999999999
 20
2.011900000000001
 30
0.0
 11
-0.5309999999999999
 21
1.65715
 31
0.0
  0
LINE
  5
1DD
330
172
100
AcDbEntity
  8
AM_4
100
AcDbLine
 10
-0.5309999999999999
 20
1.65715
 30
0.0
 11
-0.45135
 21
1.5775
 31
0.0
  0
LINE
  5
1DE
330
172
100
AcDbEntity
  8
AM_4
100
AcDbLine
 10
0.4513500000000001
 20
1.577499999999999
 30
0.0
 11
0.5310000000000001
 21
1.65715
 31
0.0
  0
LINE
  5
1DF
330
172
100
AcDbEntity
  8
AM_4
100
AcDbLine
 10
0.2655000000000001
 20
1.74
 30
0.0
 11
0.2655
 21
2.065
 31
0.0
  0
LINE
  5
1E0
330
172
100
AcDbEntity
  8
AM_4
100
AcDbLine
 10
-0.2655
 20
1.74
 30
0.0
 11
0.2655000000000001
 21
1.74
 31
0.0
  0
LINE
  5
1E1
330
172
100
AcDbEntity
  8
AM_4
100
AcDbLine
 10
-0.2655
 20
2.011900000000001
 30
0.0
 11
-0.5309999999999999
 21
2.011900000000001
 31
0.0
  0
LINE
  5
1E2
330
172
100
AcDbEntity
  8
AM_4
100
AcDbLine
 10
0.45135
 20
-1.5775
 30
0.0
 11
0.4513500000000001
 21
-0.6786075283254672
 31
0.0
  0
LINE
  5
1E3
330
172
100
AcDbEntity
  8
AM_4
100
AcDbLine
 10
-0.4513499999999998
 20
-0.6786075283254671
 30
0.0
 11
-0.4513500000000001
 21
-1.577499999999999
 31
0.0
  0
LINE
  5
1E4
330
172
100
AcDbEntity
  8
AM_4
100
AcDbLine
 10
0.2654999999999998
 20
-1.74
 30
0.0
 11
-0.2655000000000001
 21
-1.74
 31
0.0
  0
LINE
  5
1E5
330
172
100
AcDbEntity
  8
AM_4
100
AcDbLine
 10
-0.4513500000000001
 20
-1.577499999999999
 30
0.0
 11
-0.5310000000000001
 21
-1.65715
 31
0.0
  0
LINE
  5
1E6
330
172
100
AcDbEntity
  8
AM_4
100
AcDbLine
 10
-0.5310000000000001
 20
-1.65715
 30
0.0
 11
-0.5310000000000001
 21
-2.011900000000001
 31
0.0
  0
LINE
  5
1E7
330
172
100
AcDbEntity
  8
AM_4
100
AcDbLine
 10
-0.2655000000000002
 20
-2.011900000000001
 30
0.0
 11
-0.5310000000000001
 21
-2.011900000000001
 31
0.0
  0
LINE
  5
1E8
330
172
100
AcDbEntity
  8
AM_4
100
AcDbLine
 10
0.5309999999999997
 20
-2.011900000000001
 30
0.0
 11
0.2654999999999998
 21
-2.011900000000001
 31
0.0
  0
LINE
  5
1E9
330
172
100
AcDbEntity
  8
AM_4
100
AcDbLine
 10
0.5309999999999997
 20
-2.011900000000001
 30
0.0
 11
0.5309999999999999
 21
-1.65715
 31
0.0
  0
LINE
  5
1EA
330
172
100
AcDbEntity
  8
AM_4
100
AcDbLine
 10
0.5309999999999999
 20
-1.65715
 30
0.0
 11
0.45135
 21
-1.5775
 31
0.0
  0
LWPOLYLINE
  5
1EB
330
172
100
AcDbEntity
  8
AM_4
100
AcDbPolyline
 90
       19
 70
     0
 43
0.0
 10
0.4779000000000009
 20
2.065
 10
0.4825279699399016
 20
2.064797938468672
 10
0.4871207182341148
 20
2.064193291684948
 10
0.4916432912949447
 20
2.06319066137595
 10
0.4960612696105937
 20
2.061797678163732
 10
0.5003410296984317
 20
2.060024943491646
 10
0.5044500000000006
 20
2.057885948940954
 10
0.5083569087702411
 20
2.055396973551745
 10
0.5120320220743557
 20
2.052576959929618
 10
0.5154473700810062
 20
2.049447370081006
 10
0.518576959929618
 20
2.046032022074356
 10
0.5213969735517457
 20
2.042356908770241
 10
0.523885948940954
 20
2.038450000000001
 10
0.5260249434916463
 20
2.034341029698432
 10
0.527797678163732
 20
2.030061269610593
 10
0.5291906613759497
 20
2.025643291294944
 10
0.5301932916849484
 20
2.021120718234115
 10
0.530797938468672
 20
2.016527969939901
 10
0.5310000000000002
 20
2.011900000000001
  0
LINE
  5
1EC
330
172
100
AcDbEntity
  8
AM_4
100
AcDbLine
 10
0.5309999999999999
 20
2.0119
 30
0.0
 11
0.2655
 21
2.011900000000001
 31
0.0
  0
LINE
  5
1ED
330
172
100
AcDbEntity
  8
AM_4
100
AcDbLine
 10
0.2655
 20
2.065
 30
0.0
 11
0.477900000000001
 21
2.065
 31
0.0
  0
LWPOLYLINE
  5
1EE
330
172
100
AcDbEntity
  8
AM_4
100
AcDbPolyline
 90
       19
 70
     0
 43
0.0
 10
0.3982499999999995
 20
1.25
 10
0.4028779699399002
 20
1.249797938468672
 10
0.4074707182341136
 20
1.249193291684948
 10
0.4119932912949433
 20
1.24819066137595
 10
0.4164112696105925
 20
1.246797678163732
 10
0.4206910296984307
 20
1.245024943491646
 10
0.4247999999999995
 20
1.242885948940954
 10
0.42870690877024
 20
1.240396973551746
 10
0.4323820220743547
 20
1.237576959929618
 10
0.4357973700810052
 20
1.234447370081006
 10
0.4389269599296173
 20
1.231032022074356
 10
0.441746973551745
 20
1.227356908770241
 10
0.4442359489409533
 20
1.22345
 10
0.4463749434916457
 20
1.219341029698432
 10
0.4481476781637314
 20
1.215061269610594
 10
0.4495406613759492
 20
1.210643291294944
 10
0.4505432916849479
 20
1.206120718234115
 10
0.4511479384686714
 20
1.201527969939901
 10
0.4513499999999997
 20
1.196900000000001
  0
LWPOLYLINE
  5
1EF
330
172
100
AcDbEntity
  8
AM_4
100
AcDbPolyline
 90
       19
 70
     0
 43
0.0
 10
-0.4513499999999994
 20
1.1969
 10
-0.451147938468671
 20
1.201527969939901
 10
-0.4505432916849476
 20
1.206120718234114
 10
-0.4495406613759489
 20
1.210643291294944
 10
-0.4481476781637311
 20
1.215061269610593
 10
-0.4463749434916455
 20
1.219341029698431
 10
-0.4442359489409531
 20
1.22345
 10
-0.4417469735517449
 20
1.227356908770241
 10
-0.4389269599296172
 20
1.231032022074355
 10
-0.4357973700810051
 20
1.234447370081006
 10
-0.4323820220743547
 20
1.237576959929618
 10
-0.42870690877024
 20
1.240396973551745
 10
-0.4247999999999995
 20
1.242885948940954
 10
-0.4206910296984307
 20
1.245024943491646
 10
-0.4164112696105926
 20
1.246797678163732
 10
-0.4119932912949434
 20
1.248190661375949
 10
-0.4074707182341136
 20
1.249193291684948
 10
-0.4028779699399003
 20
1.249797938468672
 10
-0.3982499999999997
 20
1.25
  0
LINE
  5
1F0
330
172
100
AcDbEntity
  8
AM_4
100
AcDbLine
 10
-0.3982499999999991
 20
1.25
 30
0.0
 11
0.3982499999999998
 21
1.25
 31
0.0
  0
LINE
  5
1F1
330
172
100
AcDbEntity
  8
AM_4
100
AcDbLine
 10
-0.3982499999999999
 20
-1.25
 30
0.0
 11
0.3982500000000004
 21
-1.25
 31
0.0
  0
LWPOLYLINE
  5
1F2
330
172
100
AcDbEntity
  8
AM_4
100
AcDbPolyline
 90
       19
 70
     0
 43
0.0
 10
0.4513500000000001
 20
-1.1969
 10
0.4511479384686718
 20
-1.201527969939901
 10
0.4505432916849483
 20
-1.206120718234114
 10
0.4495406613759496
 20
-1.210643291294944
 10
0.4481476781637319
 20
-1.215061269610593
 10
0.4463749434916462
 20
-1.219341029698431
 10
0.4442359489409539
 20
-1.22345
 10
0.4417469735517456
 20
-1.227356908770241
 10
0.4389269599296179
 20
-1.231032022074355
 10
0.4357973700810059
 20
-1.234447370081006
 10
0.4323820220743555
 20
-1.237576959929618
 10
0.4287069087702408
 20
-1.240396973551745
 10
0.4248000000000003
 20
-1.242885948940954
 10
0.4206910296984315
 20
-1.245024943491646
 10
0.4164112696105933
 20
-1.246797678163732
 10
0.4119932912949442
 20
-1.248190661375949
 10
0.4074707182341145
 20
-1.249193291684948
 10
0.4028779699399011
 20
-1.249797938468672
 10
0.3982500000000005
 20
-1.25
  0
LWPOLYLINE
  5
1F3
330
172
100
AcDbEntity
  8
AM_4
100
AcDbPolyline
 90
       19
 70
     0
 43
0.0
 10
-0.3982499999999999
 20
-1.25
 10
-0.4028779699399005
 20
-1.249797938468672
 10
-0.4074707182341138
 20
-1.249193291684948
 10
-0.4119932912949437
 20
-1.248190661375949
 10
-0.4164112696105928
 20
-1.246797678163732
 10
-0.4206910296984309
 20
-1.245024943491646
 10
-0.4247999999999997
 20
-1.242885948940954
 10
-0.4287069087702403
 20
-1.240396973551745
 10
-0.4323820220743549
 20
-1.237576959929618
 10
-0.4357973700810054
 20
-1.234447370081006
 10
-0.4389269599296174
 20
-1.231032022074355
 10
-0.4417469735517451
 20
-1.227356908770241
 10
-0.4442359489409533
 20
-1.22345
 10
-0.4463749434916457
 20
-1.219341029698431
 10
-0.4481476781637314
 20
-1.215061269610593
 10
-0.4495406613759492
 20
-1.210643291294944
 10
-0.4505432916849478
 20
-1.206120718234114
 10
-0.4511479384686713
 20
-1.201527969939901
 10
-0.4513499999999996
 20
-1.196900000000001
  0
ARC
  5
1F4
330
172
100
AcDbEntity
  8
AM_4
100
AcDbCircle
 10
0.0000000000000008
 20
-0.0000000000000003
 30
0.0
 40
0.8149999999999992
100
AcDbArc
 50
303.6283547731773
 51
56.37164522682266
  0
CIRCLE
  5
1F5
330
172
100
AcDbEntity
  8
AM_4
100
AcDbCircle
 10
0.0000000000000002
 20
0.0
 30
0.0
 40
0.3749999999999999
  0
LINE
  5
1F6
330
172
100
AcDbEntity
  8
AM_4
100
AcDbLine
 10
0.4513500000000003
 20
1.196900000000001
 30
0.0
 11
-0.4513499999999998
 21
1.1969
 31
0.0
  0
ARC
  5
1F7
330
172
100
AcDbEntity
  8
AM_4
100
AcDbCircle
 10
-0.0000000000000001
 20
0.0000000000000002
 30
0.0
 40
0.8149999999999996
100
AcDbArc
 50
123.6283547731774
 51
236.3716452268227
  0
LINE
  5
1F8
330
172
100
AcDbEntity
  8
AM_4
100
AcDbLine
 10
0.4513500000000003
 20
-1.1969
 30
0.0
 11
-0.4513499999999998
 21
-1.1969
 31
0.0
  0
ENDBLK
  5
175
330
172
100
AcDbEntity
  8
0
100
AcDbBlockEnd
  0
ENDSEC
  0
SECTION
  2
ENTITIES
  0
INSERT
  5
6F
330
1F
100
AcDbEntity
  8
0
100
AcDbBlockReference
  2
1_135118_2
 10
0.0
 20
0.0
 30
0.0
  0
POINT
  5
1FA
330
1F
100
AcDbEntity
  8
ConnectionPoints
100
AcDbPoint
 10
-0.0000000000000001
 20
-0.955
 30
-1.654108521228278
  0
POINT
  5
1FB
330
1F
100
AcDbEntity
  8
ConnectionPoints
100
AcDbPoint
 10
-0.0000000000000001
 20
-0.955
 30
-1.654108521228278
  0
POINT
  5
1FC
330
1F
100
AcDbEntity
  8
ConnectionPoints
100
AcDbPoint
 10
-1.04
 20
0.0
 30
0.0000000000000001
  0
ENDSEC
  0
SECTION
  2
OBJECTS
  0
DICTIONARY
  5
C
330
0
100
AcDbDictionary
281
     1
  3
ACAD_DETAILVIEWSTYLE
350
204
  3
ACAD_GROUP
350
D
  3
ACAD_LAYOUT
350
1A
  3
ACAD_MATERIAL
350
43
  3
ACAD_MLEADERSTYLE
350
6B
  3
ACAD_MLINESTYLE
350
17
  3
ACAD_PLOTSETTINGS
350
19
  3
ACAD_PLOTSTYLENAME
350
E
  3
ACAD_SCALELIST
350
47
  3
ACAD_SECTIONVIEWSTYLE
350
205
  3
ACAD_TABLESTYLE
350
69
  3
ACAD_VISUALSTYLE
350
2A
  3
ACDB_RECOMPOSE_DATA
350
201
  3
AcDbVariableDictionary
350
1FD
  0
SUN
  5
6D
330
29
100
AcDbSun
 90
        1
290
     0
 63
     7
421
 16777215
 40
1.0
291
     1
 91
  2455826
 92
 54000000
292
     0
 70
     2
 71
   256
280
     1
  0
DICTIONARY
  5
204
102
{ACAD_REACTORS
330
C
102
}
330
C
100
AcDbDictionary
281
     1
  0
DICTIONARY
  5
D
102
{ACAD_REACTORS
330
C
102
}
330
C
100
AcDbDictionary
281
     1
  0
DICTIONARY
  5
1A
102
{ACAD_REACTORS
330
C
102
}
330
C
100
AcDbDictionary
281
     1
  3
Layout1
350
1E
  3
Layout2
350
26
  3
Model
350
22
  0
DICTIONARY
  5
43
102
{ACAD_REACTORS
330
C
102
}
330
C
100
AcDbDictionary
281
     1
  3
ByBlock
350
45
  3
ByLayer
350
44
  3
Global
350
46
  0
DICTIONARY
  5
6B
102
{ACAD_REACTORS
330
C
102
}
330
C
100
AcDbDictionary
281
     1
  3
Standard
350
6C
  0
DICTIONARY
  5
17
102
{ACAD_REACTORS
330
C
102
}
330
C
100
AcDbDictionary
281
     1
  3
Standard
350
18
  0
DICTIONARY
  5
19
102
{ACAD_REACTORS
330
C
102
}
330
C
100
AcDbDictionary
281
     1
  0
ACDBDICTIONARYWDFLT
  5
E
102
{ACAD_REACTORS
330
C
102
}
330
C
100
AcDbDictionary
281
     1
  3
Normal
350
F
100
AcDbDictionaryWithDefault
340
F
  0
DICTIONARY
  5
47
102
{ACAD_REACTORS
330
C
102
}
330
C
100
AcDbDictionary
281
     1
  3
A0
350
48
  3
A1
350
49
  3
A2
350
4A
  3
A3
350
4B
  3
A4
350
4C
  3
A5
350
4D
  3
A6
350
4E
  3
A7
350
4F
  3
A8
350
50
  3
A9
350
51
  3
B0
350
52
  3
B1
350
53
  3
B2
350
54
  3
B3
350
55
  3
B4
350
56
  3
B5
350
57
  3
B6
350
58
  3
B7
350
59
  3
B8
350
5A
  3
B9
350
5B
  3
C0
350
5C
  3
C1
350
5D
  3
C2
350
5E
  3
C3
350
5F
  3
C4
350
60
  3
C5
350
61
  3
C6
350
62
  3
C7
350
63
  3
C8
350
64
  3
C9
350
65
  3
D0
350
66
  3
D1
350
67
  3
D2
350
68
  0
DICTIONARY
  5
205
102
{ACAD_REACTORS
330
C
102
}
330
C
100
AcDbDictionary
281
     1
  0
DICTIONARY
  5
69
102
{ACAD_REACTORS
330
C
102
}
330
C
100
AcDbDictionary
281
     1
  3
Standard
350
6A
  0
DICTIONARY
  5
2A
102
{ACAD_REACTORS
330
C
102
}
330
C
100
AcDbDictionary
281
     1
  3
2dWireframe
350
2F
  3
Basic
350
32
  3
Brighten
350
36
  3
ColorChange
350
3A
  3
Conceptual
350
34
  3
Dim
350
35
  3
EdgeColorOff
350
3D
  3
Facepattern
350
39
  3
Flat
350
2B
  3
FlatWithEdges
350
2C
  3
Gouraud
350
2D
  3
GouraudWithEdges
350
2E
  3
Hidden
350
31
  3
JitterOff
350
3B
  3
Linepattern
350
38
  3
OverhangOff
350
3C
  3
Realistic
350
33
  3
Shaded
350
42
  3
Shaded with edges
350
41
  3
Shades of Gray
350
3E
  3
Sketchy
350
3F
  3
Thicken
350
37
  3
Wireframe
350
30
  3
X-Ray
350
40
  0
XRECORD
  5
201
102
{ACAD_REACTORS
330
C
102
}
330
C
100
AcDbXrecord
280
     1
 90
        1
330
6A
  0
DICTIONARY
  5
1FD
102
{ACAD_REACTORS
330
C
102
}
330
C
100
AcDbDictionary
281
     1
  3
CANNOSCALE
350
1FE
  3
CMLEADERSTYLE
350
203
  3
CTABLESTYLE
350
202
  0
LAYOUT
  5
1E
102
{ACAD_REACTORS
330
1A
102
}
330
1A
100
AcDbPlotSettings
  1

  2
none_device
  4

  6

 40
0.0
 41
0.0
 42
0.0
 43
0.0
 44
0.0
 45
0.0
 46
0.0
 47
0.0
 48
0.0
 49
0.0
140
0.0
141
0.0
142
1.0
143
1.0
 70
   688
 72
     0
 73
     0
 74
     5
  7

 75
    16
 76
     0
 77
     2
 78
   300
147
1.0
148
0.0
149
0.0
100
AcDbLayout
  1
Layout1
 70
     1
 71
     1
 10
0.0
 20
0.0
 11
12.0
 21
9.0
 12
0.0
 22
0.0
 32
0.0
 14
1.000000000000000E+20
 24
1.000000000000000E+20
 34
1.000000000000000E+20
 15
-1.000000000000000E+20
 25
-1.000000000000000E+20
 35
-1.000000000000000E+20
146
0.0
 13
0.0
 23
0.0
 33
0.0
 16
1.0
 26
0.0
 36
0.0
 17
0.0
 27
1.0
 37
0.0
 76
     0
330
1B
  0
LAYOUT
  5
26
102
{ACAD_REACTORS
330
1A
102
}
330
1A
100
AcDbPlotSettings
  1

  2
none_device
  4

  6

 40
0.0
 41
0.0
 42
0.0
 43
0.0
 44
0.0
 45
0.0
 46
0.0
 47
0.0
 48
0.0
 49
0.0
140
0.0
141
0.0
142
1.0
143
1.0
 70
   688
 72
     0
 73
     0
 74
     5
  7

 75
    16
 76
     0
 77
     2
 78
   300
147
1.0
148
0.0
149
0.0
100
AcDbLayout
  1
Layout2
 70
     1
 71
     2
 10
0.0
 20
0.0
 11
0.0
 21
0.0
 12
0.0
 22
0.0
 32
0.0
 14
0.0
 24
0.0
 34
0.0
 15
0.0
 25
0.0
 35
0.0
146
0.0
 13
0.0
 23
0.0
 33
0.0
 16
1.0
 26
0.0
 36
0.0
 17
0.0
 27
1.0
 37
0.0
 76
     0
330
23
  0
LAYOUT
  5
22
102
{ACAD_REACTORS
330
1A
102
}
330
1A
100
AcDbPlotSettings
  1

  2
none_device
  4
Letter_(8.50_x_11.00_Inches)
  6

 40
6.35
 41
6.35
 42
6.35000508
 43
6.35000508
 44
215.9
 45
279.4
 46
0.0
 47
0.0
 48
0.0
 49
0.0
140
0.0
141
0.0
142
1.0
143
1.0
 70
  1712
 72
     0
 73
     0
 74
     0
  7

 75
     0
 76
     0
 77
     2
 78
   300
147
1.0
148
0.0
149
0.0
100
AcDbLayout
  1
Model
 70
     1
 71
     0
 10
0.0
 20
0.0
 11
12.0
 21
9.0
 12
0.0
 22
0.0
 32
0.0
 14
1.000000000000000E+20
 24
1.000000000000000E+20
 34
1.000000000000000E+20
 15
-1.000000000000000E+20
 25
-1.000000000000000E+20
 35
-1.000000000000000E+20
146
0.0
 13
0.0
 23
0.0
 33
0.0
 16
1.0
 26
0.0
 36
0.0
 17
0.0
 27
1.0
 37
0.0
 76
     0
330
1F
331
29
  0
MATERIAL
  5
45
102
{ACAD_REACTORS
330
43
102
}
330
43
100
AcDbMaterial
  1
ByBlock
 72
     1
 94
      127
  0
MATERIAL
  5
44
102
{ACAD_REACTORS
330
43
102
}
330
43
100
AcDbMaterial
  1
ByLayer
 72
     1
 94
      127
  0
MATERIAL
  5
46
102
{ACAD_REACTORS
330
43
102
}
330
43
100
AcDbMaterial
  1
Global
 72
     1
 94
      127
  0
MLEADERSTYLE
  5
6C
102
{ACAD_REACTORS
330
6B
102
}
330
6B
100
AcDbMLeaderStyle
179
     2
170
     2
171
     1
172
     0
 90
        2
 40
0.0
 41
0.0
173
     1
 91
-1056964608
340
14
 92
       -2
290
     1
 42
0.09
291
     1
 43
0.36
  3
Standard
341
0
 44
0.18
300

342
11
174
     1
178
     6
175
     1
176
     0
 93
-1056964608
 45
0.18
292
     0
297
     0
 46
0.18
343
0
 94
-1056964608
 47
1.0
 49
1.0
140
1.0
293
     1
141
0.0
294
     1
177
     0
142
1.0
295
     0
296
     0
143
0.125
271
     0
272
     9
273
     9
298
     0
  0
MLINESTYLE
  5
18
102
{ACAD_REACTORS
330
17
102
}
330
17
100
AcDbMlineStyle
  2
Standard
 70
     0
  3

 62
   256
 51
90.0
 52
90.0
 71
     2
 49
0.5
 62
   256
  6
BYLAYER
 49
-0.5
 62
   256
  6
BYLAYER
  0
ACDBPLACEHOLDER
  5
F
102
{ACAD_REACTORS
330
E
102
}
330
E
  0
SCALE
  5
48
102
{ACAD_REACTORS
330
47
102
}
330
47
100
AcDbScale
 70
     0
300
1:1
140
1.0
141
1.0
290
     1
  0
SCALE
  5
49
102
{ACAD_REACTORS
330
47
102
}
330
47
100
AcDbScale
 70
     0
300
1:2
140
1.0
141
2.0
290
     0
  0
SCALE
  5
4A
102
{ACAD_REACTORS
330
47
102
}
330
47
100
AcDbScale
 70
     0
300
1:4
140
1.0
141
4.0
290
     0
  0
SCALE
  5
4B
102
{ACAD_REACTORS
330
47
102
}
330
47
100
AcDbScale
 70
     0
300
1:5
140
1.0
141
5.0
290
     0
  0
SCALE
  5
4C
102
{ACAD_REACTORS
330
47
102
}
330
47
100
AcDbScale
 70
     0
300
1:8
140
1.0
141
8.0
290
     0
  0
SCALE
  5
4D
102
{ACAD_REACTORS
330
47
102
}
330
47
100
AcDbScale
 70
     0
300
1:10
140
1.0
141
10.0
290
     0
  0
SCALE
  5
4E
102
{ACAD_REACTORS
330
47
102
}
330
47
100
AcDbScale
 70
     0
300
1:16
140
1.0
141
16.0
290
     0
  0
SCALE
  5
4F
102
{ACAD_REACTORS
330
47
102
}
330
47
100
AcDbScale
 70
     0
300
1:20
140
1.0
141
20.0
290
     0
  0
SCALE
  5
50
102
{ACAD_REACTORS
330
47
102
}
330
47
100
AcDbScale
 70
     0
300
1:30
140
1.0
141
30.0
290
     0
  0
SCALE
  5
51
102
{ACAD_REACTORS
330
47
102
}
330
47
100
AcDbScale
 70
     0
300
1:40
140
1.0
141
40.0
290
     0
  0
SCALE
  5
52
102
{ACAD_REACTORS
330
47
102
}
330
47
100
AcDbScale
 70
     0
300
1:50
140
1.0
141
50.0
290
     0
  0
SCALE
  5
53
102
{ACAD_REACTORS
330
47
102
}
330
47
100
AcDbScale
 70
     0
300
1:100
140
1.0
141
100.0
290
     0
  0
SCALE
  5
54
102
{ACAD_REACTORS
330
47
102
}
330
47
100
AcDbScale
 70
     0
300
2:1
140
2.0
141
1.0
290
     0
  0
SCALE
  5
55
102
{ACAD_REACTORS
330
47
102
}
330
47
100
AcDbScale
 70
     0
300
4:1
140
4.0
141
1.0
290
     0
  0
SCALE
  5
56
102
{ACAD_REACTORS
330
47
102
}
330
47
100
AcDbScale
 70
     0
300
8:1
140
8.0
141
1.0
290
     0
  0
SCALE
  5
57
102
{ACAD_REACTORS
330
47
102
}
330
47
100
AcDbScale
 70
     0
300
10:1
140
10.0
141
1.0
290
     0
  0
SCALE
  5
58
102
{ACAD_REACTORS
330
47
102
}
330
47
100
AcDbScale
 70
     0
300
100:1
140
100.0
141
1.0
290
     0
  0
SCALE
  5
59
102
{ACAD_REACTORS
330
47
102
}
330
47
100
AcDbScale
 70
     0
300
1/128" = 1'-0"
140
0.0078125
141
12.0
290
     0
  0
SCALE
  5
5A
102
{ACAD_REACTORS
330
47
102
}
330
47
100
AcDbScale
 70
     0
300
1/64" = 1'-0"
140
0.015625
141
12.0
290
     0
  0
SCALE
  5
5B
102
{ACAD_REACTORS
330
47
102
}
330
47
100
AcDbScale
 70
     0
300
1/32" = 1'-0"
140
0.03125
141
12.0
290
     0
  0
SCALE
  5
5C
102
{ACAD_REACTORS
330
47
102
}
330
47
100
AcDbScale
 70
     0
300
1/16" = 1'-0"
140
0.0625
141
12.0
290
     0
  0
SCALE
  5
5D
102
{ACAD_REACTORS
330
47
102
}
330
47
100
AcDbScale
 70
     0
300
3/32" = 1'-0"
140
0.09375
141
12.0
290
     0
  0
SCALE
  5
5E
102
{ACAD_REACTORS
330
47
102
}
330
47
100
AcDbScale
 70
     0
300
1/8" = 1'-0"
140
0.125
141
12.0
290
     0
  0
SCALE
  5
5F
102
{ACAD_REACTORS
330
47
102
}
330
47
100
AcDbScale
 70
     0
300
3/16" = 1'-0"
140
0.1875
141
12.0
290
     0
  0
SCALE
  5
60
102
{ACAD_REACTORS
330
47
102
}
330
47
100
AcDbScale
 70
     0
300
1/4" = 1'-0"
140
0.25
141
12.0
290
     0
  0
SCALE
  5
61
102
{ACAD_REACTORS
330
47
102
}
330
47
100
AcDbScale
 70
     0
300
3/8" = 1'-0"
140
0.375
141
12.0
290
     0
  0
SCALE
  5
62
102
{ACAD_REACTORS
330
47
102
}
330
47
100
AcDbScale
 70
     0
300
1/2" = 1'-0"
140
0.5
141
12.0
290
     0
  0
SCALE
  5
63
102
{ACAD_REACTORS
330
47
102
}
330
47
100
AcDbScale
 70
     0
300
3/4" = 1'-0"
140
0.75
141
12.0
290
     0
  0
SCALE
  5
64
102
{ACAD_REACTORS
330
47
102
}
330
47
100
AcDbScale
 70
     0
300
1" = 1'-0"
140
1.0
141
12.0
290
     0
  0
SCALE
  5
65
102
{ACAD_REACTORS
330
47
102
}
330
47
100
AcDbScale
 70
     0
300
1-1/2" = 1'-0"
140
1.5
141
12.0
290
     0
  0
SCALE
  5
66
102
{ACAD_REACTORS
330
47
102
}
330
47
100
AcDbScale
 70
     0
300
3" = 1'-0"
140
3.0
141
12.0
290
     0
  0
SCALE
  5
67
102
{ACAD_REACTORS
330
47
102
}
330
47
100
AcDbScale
 70
     0
300
6" = 1'-0"
140
6.0
141
12.0
290
     0
  0
SCALE
  5
68
102
{ACAD_REACTORS
330
47
102
}
330
47
100
AcDbScale
 70
     0
300
1'-0" = 1'-0"
140
12.0
141
12.0
290
     0
  0
TABLESTYLE
  5
6A
102
{ACAD_REACTORS
330
69
102
}
102
{ACAD_XDICTIONARY
360
1FF
102
}
330
69
100
AcDbTableStyle
  3
Standard
 70
     0
 71
     0
 40
0.06
 41
0.06
280
     0
281
     0
  7
Standard
140
0.18
170
     2
 62
     0
 63
   257
283
     0
 90
        4
 91
        0
  1

274
    -2
284
     1
 64
     0
275
    -2
285
     1
 65
     0
276
    -2
286
     1
 66
     0
277
    -2
287
     1
 67
     0
278
    -2
288
     1
 68
     0
279
    -2
289
     1
 69
     0
  7
Standard
140
0.25
170
     5
 62
     0
 63
   257
283
     0
 90
        4
 91
        0
  1

274
    -2
284
     1
 64
     0
275
    -2
285
     1
 65
     0
276
    -2
286
     1
 66
     0
277
    -2
287
     1
 67
     0
278
    -2
288
     1
 68
     0
279
    -2
289
     1
 69
     0
  7
Standard
140
0.18
170
     5
 62
     0
 63
   257
283
     0
 90
        4
 91
        0
  1

274
    -2
284
     1
 64
     0
275
    -2
285
     1
 65
     0
276
    -2
286
     1
 66
     0
277
    -2
287
     1
 67
     0
278
    -2
288
     1
 68
     0
279
    -2
289
     1
 69
     0
  0
VISUALSTYLE
  5
2F
102
{ACAD_REACTORS
330
2A
102
}
330
2A
100
AcDbVisualStyle
  2
2dWireframe
 70
     4
177
     3
291
     0
 70
    58
 90
        0
176
     1
 90
        2
176
     1
 90
        0
176
     1
 90
        0
176
     1
 40
0.6
176
     1
 40
30.0
176
     1
 62
     7
420
 16777215
176
     1
 90
        1
176
     1
 90
        4
176
     1
 62
     7
176
     1
 62
   257
176
     1
 90
        1
176
     1
 90
        1
176
     1
 40
1.0
176
     1
 90
        0
176
     1
 62
   257
176
     1
 40
1.0
176
     1
 90
        1
176
     1
 90
        6
176
     1
 90
        2
176
     1
 62
     7
176
     1
 90
        5
176
     1
 90
        0
176
     1
 90
        0
176
     1
290
     0
176
     1
 90
        1
176
     1
 40
0.0
176
     1
 90
        0
176
     1
290
     1
176
     1
290
     1
176
     1
290
     0
176
     1
290
     0
176
     1
290
     0
176
     1
290
     0
176
     1
290
     0
176
     1
290
     0
176
     1
290
     0
176
     1
 90
       50
176
     1
 40
0.0
176
     1
 40
1.0
176
     1
 90
        0
176
     1
 62
    18
420
        0
176
     1
 90
       50
176
     1
 90
        3
176
     1
 62
     5
420
      255
176
     1
290
     0
176
     1
 90
       50
176
     1
 90
       50
176
     1
 90
       50
176
     1
290
     0
176
     1
 90
       50
176
     1
 62
   256
176
     0
 40
1.0
176
     0
 90
        2
176
     1
  1
strokes_ogs.tif
176
     1
290
     0
176
     1
 40
1.0
176
     1
 40
1.0
176
     1
  0
VISUALSTYLE
  5
32
102
{ACAD_REACTORS
330
2A
102
}
330
2A
100
AcDbVisualStyle
  2
Basic
 70
     7
177
     3
291
     1
 70
    58
 90
        1
176
     1
 90
        0
176
     1
 90
        1
176
     1
 90
        0
176
     1
 40
0.6
176
     1
 40
30.0
176
     1
 62
     7
420
 16777215
176
     1
 90
        0
176
     1
 90
        4
176
     1
 62
     7
176
     1
 62
   257
176
     1
 90
        1
176
     1
 90
        1
176
     1
 40
1.0
176
     1
 90
        8
176
     1
 62
     7
176
     1
 40
1.0
176
     1
 90
        1
176
     1
 90
        6
176
     1
 90
        2
176
     1
 62
     7
176
     1
 90
        5
176
     1
 90
        0
176
     1
 90
        0
176
     1
290
     0
176
     1
 90
        1
176
     1
 40
0.0
176
     1
 90
        0
176
     1
290
     0
176
     1
290
     1
176
     1
290
     1
176
     1
290
     0
176
     1
290
     0
176
     1
290
     0
176
     1
290
     0
176
     1
290
     0
176
     1
290
     0
176
     1
 90
       50
176
     1
 40
0.0
176
     1
 40
1.0
176
     1
 90
        0
176
     1
 62
    18
420
        0
176
     1
 90
       50
176
     1
 90
        3
176
     1
 62
     5
420
      255
176
     1
290
     0
176
     1
 90
       50
176
     1
 90
       50
176
     1
 90
       50
176
     1
290
     0
176
     1
 90
       50
176
     1
 62
   256
176
     0
 40
1.0
176
     0
 90
        2
176
     1
  1
strokes_ogs.tif
176
     1
290
     0
176
     1
 40
1.0
176
     1
 40
1.0
176
     1
  0
VISUALSTYLE
  5
36
102
{ACAD_REACTORS
330
2A
102
}
330
2A
100
AcDbVisualStyle
  2
Brighten
 70
    12
177
     3
291
     1
 70
    58
 90
        2
176
     1
 90
        2
176
     1
 90
        0
176
     1
 90
        0
176
     1
 40
0.6
176
     1
 40
30.0
176
     1
 62
     7
420
 16777215
176
     1
 90
        1
176
     1
 90
        4
176
     1
 62
     7
176
     1
 62
   257
176
     1
 90
        1
176
     1
 90
        1
176
     1
 40
1.0
176
     1
 90
        8
176
     1
 62
     7
176
     1
 40
1.0
176
     1
 90
        1
176
     1
 90
        6
176
     1
 90
        2
176
     1
 62
     7
176
     1
 90
        5
176
     1
 90
        0
176
     1
 90
        0
176
     1
290
     0
176
     1
 90
        1
176
     1
 40
50.0
176
     1
 90
        0
176
     1
290
     0
176
     1
290
     1
176
     1
290
     1
176
     1
290
     0
176
     1
290
     0
176
     1
290
     0
176
     1
290
     0
176
     1
290
     0
176
     1
290
     0
176
     1
 90
       50
176
     1
 40
0.0
176
     1
 40
1.0
176
     1
 90
        0
176
     1
 62
    18
420
        0
176
     1
 90
       50
176
     1
 90
        3
176
     1
 62
     5
420
      255
176
     1
290
     0
176
     1
 90
       50
176
     1
 90
       50
176
     1
 90
       50
176
     1
290
     0
176
     1
 90
       50
176
     1
 62
   256
176
     0
 40
1.0
176
     0
 90
        2
176
     1
  1
strokes_ogs.tif
176
     1
290
     0
176
     1
 40
1.0
176
     1
 40
1.0
176
     1
  0
VISUALSTYLE
  5
3A
102
{ACAD_REACTORS
330
2A
102
}
330
2A
100
AcDbVisualStyle
  2
ColorChange
 70
    16
177
     3
291
     1
 70
    58
 90
        2
176
     1
 90
        2
176
     1
 90
        3
176
     1
 90
        0
176
     1
 40
0.6
176
     1
 40
30.0
176
     1
 62
     8
420
  8421504
176
     1
 90
        1
176
     1
 90
        4
176
     1
 62
     7
176
     1
 62
   257
176
     1
 90
        1
176
     1
 90
        1
176
     1
 40
1.0
176
     1
 90
        8
176
     1
 62
     8
420
  8421504
176
     1
 40
1.0
176
     1
 90
        1
176
     1
 90
        6
176
     1
 90
        2
176
     1
 62
     7
176
     1
 90
        5
176
     1
 90
        0
176
     1
 90
        0
176
     1
290
     0
176
     1
 90
        1
176
     1
 40
0.0
176
     1
 90
        0
176
     1
290
     0
176
     1
290
     1
176
     1
290
     1
176
     1
290
     0
176
     1
290
     0
176
     1
290
     0
176
     1
290
     0
176
     1
290
     0
176
     1
290
     0
176
     1
 90
       50
176
     1
 40
0.0
176
     1
 40
1.0
176
     1
 90
        0
176
     1
 62
    18
420
        0
176
     1
 90
       50
176
     1
 90
        3
176
     1
 62
     5
420
      255
176
     1
290
     0
176
     1
 90
       50
176
     1
 90
       50
176
     1
 90
       50
176
     1
290
     0
176
     1
 90
       50
176
     1
 62
   256
176
     0
 40
1.0
176
     0
 90
        2
176
     1
  1
strokes_ogs.tif
176
     1
290
     0
176
     1
 40
1.0
176
     1
 40
1.0
176
     1
  0
VISUALSTYLE
  5
34
102
{ACAD_REACTORS
330
2A
102
}
330
2A
100
AcDbVisualStyle
  2
Conceptual
 70
     9
177
     3
291
     0
 70
    58
 90
        3
176
     1
 90
        2
176
     1
 90
        0
176
     1
 90
        0
176
     1
 40
0.6
176
     1
 40
30.0
176
     1
 62
     7
420
 16777215
176
     1
 90
        2
176
     1
 90
        2
176
     1
 62
     7
176
     1
 62
   257
176
     1
 90
        1
176
     1
 90
        1
176
     1
 40
179.0
176
     1
 90
        8
176
     1
 62
     7
176
     1
 40
1.0
176
     1
 90
        1
176
     1
 90
        6
176
     1
 90
        2
176
     1
 62
     7
176
     1
 90
        3
176
     1
 90
        0
176
     1
 90
        0
176
     1
290
     0
176
     1
 90
        1
176
     1
 40
0.0
176
     1
 90
        0
176
     1
290
     0
176
     1
290
     1
176
     1
290
     1
176
     1
290
     0
176
     1
290
     0
176
     1
290
     0
176
     1
290
     0
176
     1
290
     0
176
     1
290
     0
176
     1
 90
       50
176
     1
 40
0.0
176
     1
 40
1.0
176
     1
 90
        0
176
     1
 62
    18
420
        0
176
     1
 90
       50
176
     1
 90
        3
176
     1
 62
     5
420
      255
176
     1
290
     0
176
     1
 90
       50
176
     1
 90
       50
176
     1
 90
       50
176
     1
290
     0
176
     1
 90
       50
176
     1
 62
   256
176
     0
 40
1.0
176
     0
 90
        2
176
     1
  1
strokes_ogs.tif
176
     1
290
     0
176
     1
 40
1.0
176
     1
 40
1.0
176
     1
  0
VISUALSTYLE
  5
35
102
{ACAD_REACTORS
330
2A
102
}
330
2A
100
AcDbVisualStyle
  2
Dim
 70
    11
177
     3
291
     1
 70
    58
 90
        2
176
     1
 90
        2
176
     1
 90
        0
176
     1
 90
        0
176
     1
 40
0.6
176
     1
 40
30.0
176
     1
 62
     7
420
 16777215
176
     1
 90
        1
176
     1
 90
        4
176
     1
 62
     7
176
     1
 62
   257
176
     1
 90
        1
176
     1
 90
        1
176
     1
 40
1.0
176
     1
 90
        8
176
     1
 62
     7
176
     1
 40
1.0
176
     1
 90
        1
176
     1
 90
        6
176
     1
 90
        2
176
     1
 62
     7
176
     1
 90
        5
176
     1
 90
        0
176
     1
 90
        0
176
     1
290
     0
176
     1
 90
        1
176
     1
 40
-50.0
176
     1
 90
        0
176
     1
290
     0
176
     1
290
     1
176
     1
290
     1
176
     1
290
     0
176
     1
290
     0
176
     1
290
     0
176
     1
290
     0
176
     1
290
     0
176
     1
290
     0
176
     1
 90
       50
176
     1
 40
0.0
176
     1
 40
1.0
176
     1
 90
        0
176
     1
 62
    18
420
        0
176
     1
 90
       50
176
     1
 90
        3
176
     1
 62
     5
420
      255
176
     1
290
     0
176
     1
 90
       50
176
     1
 90
       50
176
     1
 90
       50
176
     1
290
     0
176
     1
 90
       50
176
     1
 62
   256
176
     0
 40
1.0
176
     0
 90
        2
176
     1
  1
strokes_ogs.tif
176
     1
290
     0
176
     1
 40
1.0
176
     1
 40
1.0
176
     1
  0
VISUALSTYLE
  5
3D
102
{ACAD_REACTORS
330
2A
102
}
330
2A
100
AcDbVisualStyle
  2
EdgeColorOff
 70
    22
177
     3
291
     1
 70
    58
 90
        2
176
     0
 90
        2
176
     0
 90
        0
176
     0
 90
        0
176
     0
 40
0.6
176
     0
 40
30.0
176
     0
 62
     7
420
 16777215
176
     0
 90
        1
176
     0
 90
        4
176
     0
 62
     7
176
     0
 62
   257
176
     0
 90
        1
176
     0
 90
        1
176
     0
 40
1.0
176
     0
 90
        8
176
     2
 62
     7
176
     0
 40
1.0
176
     0
 90
        1
176
     0
 90
        6
176
     0
 90
        2
176
     0
 62
     7
176
     0
 90
        5
176
     0
 90
        0
176
     0
 90
        0
176
     0
290
     0
176
     0
 90
        1
176
     0
 40
0.0
176
     0
 90
        0
176
     0
290
     0
176
     0
290
     1
176
     0
290
     1
176
     0
290
     0
176
     0
290
     0
176
     0
290
     0
176
     0
290
     0
176
     0
290
     0
176
     0
290
     0
176
     0
 90
       50
176
     0
 40
0.0
176
     0
 40
1.0
176
     0
 90
        0
176
     0
 62
    18
420
        0
176
     0
 90
       50
176
     0
 90
        3
176
     0
 62
     5
420
      255
176
     0
290
     0
176
     0
 90
       50
176
     0
 90
       50
176
     0
 90
       50
176
     0
290
     0
176
     0
 90
       50
176
     0
 62
   256
176
     0
 40
1.0
176
     0
 90
        2
176
     0
  1
strokes_ogs.tif
176
     0
290
     0
176
     0
 40
1.0
176
     0
 40
1.0
176
     0
  0
VISUALSTYLE
  5
39
102
{ACAD_REACTORS
330
2A
102
}
330
2A
100
AcDbVisualStyle
  2
Facepattern
 70
    15
177
     3
291
     1
 70
    58
 90
        2
176
     1
 90
        2
176
     1
 90
        0
176
     1
 90
        0
176
     1
 40
0.6
176
     1
 40
30.0
176
     1
 62
     7
420
 16777215
176
     1
 90
        1
176
     1
 90
        4
176
     1
 62
     7
176
     1
 62
   257
176
     1
 90
        1
176
     1
 90
        1
176
     1
 40
1.0
176
     1
 90
        8
176
     1
 62
     7
176
     1
 40
1.0
176
     1
 90
        1
176
     1
 90
        6
176
     1
 90
        2
176
     1
 62
     7
176
     1
 90
        5
176
     1
 90
        0
176
     1
 90
        0
176
     1
290
     0
176
     1
 90
        1
176
     1
 40
0.0
176
     1
 90
        0
176
     1
290
     0
176
     1
290
     1
176
     1
290
     1
176
     1
290
     0
176
     1
290
     0
176
     1
290
     0
176
     1
290
     0
176
     1
290
     0
176
     1
290
     0
176
     1
 90
       50
176
     1
 40
0.0
176
     1
 40
1.0
176
     1
 90
        0
176
     1
 62
    18
420
        0
176
     1
 90
       50
176
     1
 90
        3
176
     1
 62
     5
420
      255
176
     1
290
     0
176
     1
 90
       50
176
     1
 90
       50
176
     1
 90
       50
176
     1
290
     0
176
     1
 90
       50
176
     1
 62
   256
176
     0
 40
1.0
176
     0
 90
        2
176
     1
  1
strokes_ogs.tif
176
     1
290
     0
176
     1
 40
1.0
176
     1
 40
1.0
176
     1
  0
VISUALSTYLE
  5
2B
102
{ACAD_REACTORS
330
2A
102
}
330
2A
100
AcDbVisualStyle
  2
Flat
 70
     0
177
     3
291
     1
 70
    58
 90
        2
176
     1
 90
        1
176
     1
 90
        1
176
     1
 90
        2
176
     1
 40
0.6
176
     1
 40
30.0
176
     1
 62
     7
420
 16777215
176
     1
 90
        0
176
     1
 90
        0
176
     1
 62
     7
176
     1
 62
   257
176
     1
 90
        1
176
     1
 90
        1
176
     1
 40
1.0
176
     1
 90
        8
176
     1
 62
     7
176
     1
 40
1.0
176
     1
 90
        1
176
     1
 90
        6
176
     1
 90
        2
176
     1
 62
     7
176
     1
 90
        5
176
     1
 90
        0
176
     1
 90
        0
176
     1
290
     0
176
     1
 90
       13
176
     1
 40
0.0
176
     1
 90
        0
176
     1
290
     0
176
     1
290
     1
176
     1
290
     1
176
     1
290
     0
176
     1
290
     0
176
     1
290
     0
176
     1
290
     0
176
     1
290
     0
176
     1
290
     0
176
     1
 90
       50
176
     1
 40
0.0
176
     1
 40
1.0
176
     1
 90
        0
176
     1
 62
    18
420
        0
176
     1
 90
       50
176
     1
 90
        3
176
     1
 62
     5
420
      255
176
     1
290
     0
176
     1
 90
       50
176
     1
 90
       50
176
     1
 90
       50
176
     1
290
     0
176
     1
 90
       50
176
     1
 62
   256
176
     0
 40
1.0
176
     0
 90
        2
176
     1
  1
strokes_ogs.tif
176
     1
290
     0
176
     1
 40
1.0
176
     1
 40
1.0
176
     1
  0
VISUALSTYLE
  5
2C
102
{ACAD_REACTORS
330
2A
102
}
330
2A
100
AcDbVisualStyle
  2
FlatWithEdges
 70
     1
177
     3
291
     1
 70
    58
 90
        2
176
     1
 90
        1
176
     1
 90
        1
176
     1
 90
        2
176
     1
 40
0.6
176
     1
 40
30.0
176
     1
 62
     7
420
 16777215
176
     1
 90
        1
176
     1
 90
        0
176
     1
 62
     7
176
     1
 62
   257
176
     1
 90
        1
176
     1
 90
        1
176
     1
 40
1.0
176
     1
 90
        0
176
     1
 62
   257
176
     1
 40
1.0
176
     1
 90
        1
176
     1
 90
        6
176
     1
 90
        2
176
     1
 62
     7
176
     1
 90
        5
176
     1
 90
        0
176
     1
 90
        0
176
     1
290
     0
176
     1
 90
       13
176
     1
 40
0.0
176
     1
 90
        0
176
     1
290
     0
176
     1
290
     1
176
     1
290
     1
176
     1
290
     0
176
     1
290
     0
176
     1
290
     0
176
     1
290
     0
176
     1
290
     0
176
     1
290
     0
176
     1
 90
       50
176
     1
 40
0.0
176
     1
 40
1.0
176
     1
 90
        0
176
     1
 62
    18
420
        0
176
     1
 90
       50
176
     1
 90
        3
176
     1
 62
     5
420
      255
176
     1
290
     0
176
     1
 90
       50
176
     1
 90
       50
176
     1
 90
       50
176
     1
290
     0
176
     1
 90
       50
176
     1
 62
   256
176
     0
 40
1.0
176
     0
 90
        2
176
     1
  1
strokes_ogs.tif
176
     1
290
     0
176
     1
 40
1.0
176
     1
 40
1.0
176
     1
  0
VISUALSTYLE
  5
2D
102
{ACAD_REACTORS
330
2A
102
}
330
2A
100
AcDbVisualStyle
  2
Gouraud
 70
     2
177
     3
291
     1
 70
    58
 90
        2
176
     1
 90
        2
176
     1
 90
        1
176
     1
 90
        2
176
     1
 40
0.6
176
     1
 40
30.0
176
     1
 62
     7
420
 16777215
176
     1
 90
        0
176
     1
 90
        0
176
     1
 62
     7
176
     1
 62
   257
176
     1
 90
        1
176
     1
 90
        1
176
     1
 40
1.0
176
     1
 90
        0
176
     1
 62
     7
176
     1
 40
1.0
176
     1
 90
        1
176
     1
 90
        6
176
     1
 90
        2
176
     1
 62
     7
176
     1
 90
        5
176
     1
 90
        0
176
     1
 90
        0
176
     1
290
     0
176
     1
 90
       13
176
     1
 40
0.0
176
     1
 90
        0
176
     1
290
     0
176
     1
290
     1
176
     1
290
     1
176
     1
290
     0
176
     1
290
     0
176
     1
290
     0
176
     1
290
     0
176
     1
290
     0
176
     1
290
     0
176
     1
 90
       50
176
     1
 40
0.0
176
     1
 40
1.0
176
     1
 90
        0
176
     1
 62
    18
420
        0
176
     1
 90
       50
176
     1
 90
        3
176
     1
 62
     5
420
      255
176
     1
290
     0
176
     1
 90
       50
176
     1
 90
       50
176
     1
 90
       50
176
     1
290
     0
176
     1
 90
       50
176
     1
 62
   256
176
     0
 40
1.0
176
     0
 90
        2
176
     1
  1
strokes_ogs.tif
176
     1
290
     0
176
     1
 40
1.0
176
     1
 40
1.0
176
     1
  0
VISUALSTYLE
  5
2E
102
{ACAD_REACTORS
330
2A
102
}
330
2A
100
AcDbVisualStyle
  2
GouraudWithEdges
 70
     3
177
     3
291
     1
 70
    58
 90
        2
176
     1
 90
        2
176
     1
 90
        1
176
     1
 90
        2
176
     1
 40
0.6
176
     1
 40
30.0
176
     1
 62
     7
420
 16777215
176
     1
 90
        1
176
     1
 90
        0
176
     1
 62
     7
176
     1
 62
   257
176
     1
 90
        1
176
     1
 90
        1
176
     1
 40
1.0
176
     1
 90
        0
176
     1
 62
   257
176
     1
 40
1.0
176
     1
 90
        1
176
     1
 90
        6
176
     1
 90
        2
176
     1
 62
     7
176
     1
 90
        5
176
     1
 90
        0
176
     1
 90
        0
176
     1
290
     0
176
     1
 90
       13
176
     1
 40
0.0
176
     1
 90
        0
176
     1
290
     0
176
     1
290
     1
176
     1
290
     1
176
     1
290
     0
176
     1
290
     0
176
     1
290
     0
176
     1
290
     0
176
     1
290
     0
176
     1
290
     0
176
     1
 90
       50
176
     1
 40
0.0
176
     1
 40
1.0
176
     1
 90
        0
176
     1
 62
    18
420
        0
176
     1
 90
       50
176
     1
 90
        3
176
     1
 62
     5
420
      255
176
     1
290
     0
176
     1
 90
       50
176
     1
 90
       50
176
     1
 90
       50
176
     1
290
     0
176
     1
 90
       50
176
     1
 62
   256
176
     0
 40
1.0
176
     0
 90
        2
176
     1
  1
strokes_ogs.tif
176
     1
290
     0
176
     1
 40
1.0
176
     1
 40
1.0
176
     1
  0
VISUALSTYLE
  5
31
102
{ACAD_REACTORS
330
2A
102
}
330
2A
100
AcDbVisualStyle
  2
Hidden
 70
     6
177
     3
291
     0
 70
    58
 90
        1
176
     1
 90
        2
176
     1
 90
        2
176
     1
 90
        0
176
     1
 40
0.6
176
     1
 40
30.0
176
     1
 62
     7
420
 16777215
176
     1
 90
        2
176
     1
 90
        2
176
     1
 62
     7
176
     1
 62
   257
176
     1
 90
        2
176
     1
 90
        1
176
     1
 40
40.0
176
     1
 90
        0
176
     1
 62
   257
176
     1
 40
1.0
176
     1
 90
        1
176
     1
 90
        6
176
     1
 90
        2
176
     1
 62
     7
176
     1
 90
        3
176
     1
 90
        0
176
     1
 90
        0
176
     1
290
     0
176
     1
 90
        1
176
     1
 40
0.0
176
     1
 90
        0
176
     1
290
     0
176
     1
290
     1
176
     1
290
     1
176
     1
290
     0
176
     1
290
     0
176
     1
290
     0
176
     1
290
     0
176
     1
290
     0
176
     1
290
     0
176
     1
 90
       50
176
     1
 40
0.0
176
     1
 40
1.0
176
     1
 90
        0
176
     1
 62
    18
420
        0
176
     1
 90
       50
176
     1
 90
        3
176
     1
 62
     5
420
      255
176
     1
290
     0
176
     1
 90
       50
176
     1
 90
       50
176
     1
 90
       50
176
     1
290
     0
176
     1
 90
       50
176
     1
 62
   256
176
     0
 40
1.0
176
     0
 90
        2
176
     1
  1
strokes_ogs.tif
176
     1
290
     0
176
     1
 40
1.0
176
     1
 40
1.0
176
     1
  0
VISUALSTYLE
  5
3B
102
{ACAD_REACTORS
330
2A
102
}
330
2A
100
AcDbVisualStyle
  2
JitterOff
 70
    20
177
     3
291
     1
 70
    58
 90
        2
176
     0
 90
        2
176
     0
 90
        0
176
     0
 90
        0
176
     0
 40
0.6
176
     0
 40
30.0
176
     0
 62
     7
420
 16777215
176
     0
 90
        1
176
     0
 90
        4
176
     0
 62
     7
176
     0
 62
   257
176
     0
 90
        1
176
     0
 90
        1
176
     0
 40
1.0
176
     0
 90
       10
176
     2
 62
     7
176
     0
 40
1.0
176
     0
 90
        1
176
     0
 90
        6
176
     0
 90
        2
176
     0
 62
     7
176
     0
 90
        5
176
     0
 90
        0
176
     0
 90
        0
176
     0
290
     0
176
     0
 90
        1
176
     0
 40
0.0
176
     0
 90
        0
176
     0
290
     0
176
     0
290
     1
176
     0
290
     1
176
     0
290
     0
176
     0
290
     0
176
     0
290
     0
176
     0
290
     0
176
     0
290
     0
176
     0
290
     0
176
     0
 90
       50
176
     0
 40
0.0
176
     0
 40
1.0
176
     0
 90
        0
176
     0
 62
    18
420
        0
176
     0
 90
       50
176
     0
 90
        3
176
     0
 62
     5
420
      255
176
     0
290
     0
176
     0
 90
       50
176
     0
 90
       50
176
     0
 90
       50
176
     0
290
     0
176
     0
 90
       50
176
     0
 62
   256
176
     0
 40
1.0
176
     0
 90
        2
176
     0
  1
strokes_ogs.tif
176
     0
290
     0
176
     0
 40
1.0
176
     0
 40
1.0
176
     0
  0
VISUALSTYLE
  5
38
102
{ACAD_REACTORS
330
2A
102
}
330
2A
100
AcDbVisualStyle
  2
Linepattern
 70
    14
177
     3
291
     1
 70
    58
 90
        2
176
     1
 90
        2
176
     1
 90
        0
176
     1
 90
        0
176
     1
 40
0.6
176
     1
 40
30.0
176
     1
 62
     7
420
 16777215
176
     1
 90
        1
176
     1
 90
        4
176
     1
 62
     7
176
     1
 62
   257
176
     1
 90
        7
176
     1
 90
        7
176
     1
 40
1.0
176
     1
 90
        8
176
     1
 62
     7
176
     1
 40
1.0
176
     1
 90
        1
176
     1
 90
        6
176
     1
 90
        2
176
     1
 62
     7
176
     1
 90
        5
176
     1
 90
        0
176
     1
 90
        0
176
     1
290
     0
176
     1
 90
        1
176
     1
 40
0.0
176
     1
 90
        0
176
     1
290
     0
176
     1
290
     1
176
     1
290
     1
176
     1
290
     0
176
     1
290
     0
176
     1
290
     0
176
     1
290
     0
176
     1
290
     0
176
     1
290
     0
176
     1
 90
       50
176
     1
 40
0.0
176
     1
 40
1.0
176
     1
 90
        0
176
     1
 62
    18
420
        0
176
     1
 90
       50
176
     1
 90
        3
176
     1
 62
     5
420
      255
176
     1
290
     0
176
     1
 90
       50
176
     1
 90
       50
176
     1
 90
       50
176
     1
290
     0
176
     1
 90
       50
176
     1
 62
   256
176
     0
 40
1.0
176
     0
 90
        2
176
     1
  1
strokes_ogs.tif
176
     1
290
     0
176
     1
 40
1.0
176
     1
 40
1.0
176
     1
  0
VISUALSTYLE
  5
3C
102
{ACAD_REACTORS
330
2A
102
}
330
2A
100
AcDbVisualStyle
  2
OverhangOff
 70
    21
177
     3
291
     1
 70
    58
 90
        2
176
     0
 90
        2
176
     0
 90
        0
176
     0
 90
        0
176
     0
 40
0.6
176
     0
 40
30.0
176
     0
 62
     7
420
 16777215
176
     0
 90
        1
176
     0
 90
        4
176
     0
 62
     7
176
     0
 62
   257
176
     0
 90
        1
176
     0
 90
        1
176
     0
 40
1.0
176
     0
 90
        9
176
     2
 62
     7
176
     0
 40
1.0
176
     0
 90
        1
176
     0
 90
        6
176
     0
 90
        2
176
     0
 62
     7
176
     0
 90
        5
176
     0
 90
        0
176
     0
 90
        0
176
     0
290
     0
176
     0
 90
        1
176
     0
 40
0.0
176
     0
 90
        0
176
     0
290
     0
176
     0
290
     1
176
     0
290
     1
176
     0
290
     0
176
     0
290
     0
176
     0
290
     0
176
     0
290
     0
176
     0
290
     0
176
     0
290
     0
176
     0
 90
       50
176
     0
 40
0.0
176
     0
 40
1.0
176
     0
 90
        0
176
     0
 62
    18
420
        0
176
     0
 90
       50
176
     0
 90
        3
176
     0
 62
     5
420
      255
176
     0
290
     0
176
     0
 90
       50
176
     0
 90
       50
176
     0
 90
       50
176
     0
290
     0
176
     0
 90
       50
176
     0
 62
   256
176
     0
 40
1.0
176
     0
 90
        2
176
     0
  1
strokes_ogs.tif
176
     0
290
     0
176
     0
 40
1.0
176
     0
 40
1.0
176
     0
  0
VISUALSTYLE
  5
33
102
{ACAD_REACTORS
330
2A
102
}
330
2A
100
AcDbVisualStyle
  2
Realistic
 70
     8
177
     3
291
     0
 70
    58
 90
        2
176
     1
 90
        3
176
     1
 90
        0
176
     1
 90
        2
176
     1
 40
0.6
176
     1
 40
30.0
176
     1
 62
     7
420
 16777215
176
     1
 90
        0
176
     1
 90
        0
176
     1
 62
     7
176
     1
 62
   257
176
     1
 90
        1
176
     1
 90
        1
176
     1
 40
1.0
176
     1
 90
        8
176
     1
 62
   257
176
     1
 40
1.0
176
     1
 90
        1
176
     1
 90
        6
176
     1
 90
        2
176
     1
 62
     7
176
     1
 90
        3
176
     1
 90
        0
176
     1
 90
        0
176
     1
290
     0
176
     1
 90
       13
176
     1
 40
0.0
176
     1
 90
        0
176
     1
290
     0
176
     1
290
     1
176
     1
290
     1
176
     1
290
     0
176
     1
290
     0
176
     1
290
     0
176
     1
290
     0
176
     1
290
     0
176
     1
290
     0
176
     1
 90
       50
176
     1
 40
0.0
176
     1
 40
1.0
176
     1
 90
        0
176
     1
 62
    18
420
        0
176
     1
 90
       50
176
     1
 90
        3
176
     1
 62
     5
420
      255
176
     1
290
     0
176
     1
 90
       50
176
     1
 90
       50
176
     1
 90
       50
176
     1
290
     0
176
     1
 90
       50
176
     1
 62
   256
176
     0
 40
1.0
176
     0
 90
        2
176
     1
  1
strokes_ogs.tif
176
     1
290
     0
176
     1
 40
1.0
176
     1
 40
1.0
176
     1
  0
VISUALSTYLE
  5
42
102
{ACAD_REACTORS
330
2A
102
}
330
2A
100
AcDbVisualStyle
  2
Shaded
 70
    27
177
     3
291
     0
 70
    58
 90
        2
176
     1
 90
        2
176
     1
 90
        1
176
     1
 90
        2
176
     1
 40
0.6
176
     1
 40
30.0
176
     1
 62
     7
420
 16777215
176
     1
 90
        0
176
     1
 90
        4
176
     1
 62
     7
176
     1
 62
   257
176
     1
 90
        1
176
     1
 90
        1
176
     1
 40
1.0
176
     1
 90
        8
176
     1
 62
   257
176
     1
 40
1.0
176
     1
 90
        1
176
     1
 90
        6
176
     1
 90
        2
176
     1
 62
     8
420
  7895160
176
     1
 90
        3
176
     1
 90
        0
176
     1
 90
        0
176
     1
290
     0
176
     1
 90
        5
176
     1
 40
0.0
176
     1
 90
        0
176
     1
290
     0
176
     1
290
     1
176
     1
290
     1
176
     1
290
     0
176
     1
290
     0
176
     1
290
     0
176
     1
290
     0
176
     1
290
     0
176
     1
290
     0
176
     1
 90
       50
176
     1
 40
0.0
176
     1
 40
1.0
176
     1
 90
        0
176
     1
 62
    18
420
        0
176
     1
 90
       50
176
     1
 90
        3
176
     1
 62
     5
420
      255
176
     1
290
     0
176
     1
 90
       50
176
     1
 90
       50
176
     1
 90
       50
176
     1
290
     0
176
     1
 90
       50
176
     1
 62
   256
176
     0
 40
1.0
176
     0
 90
        2
176
     1
  1
strokes_ogs.tif
176
     1
290
     0
176
     1
 40
1.0
176
     1
 40
1.0
176
     1
  0
VISUALSTYLE
  5
41
102
{ACAD_REACTORS
330
2A
102
}
330
2A
100
AcDbVisualStyle
  2
Shaded with edges
 70
    26
177
     3
291
     0
 70
    58
 90
        2
176
     1
 90
        2
176
     1
 90
        1
176
     1
 90
        2
176
     1
 40
0.6
176
     1
 40
30.0
176
     1
 62
     7
420
 16777215
176
     1
 90
        1
176
     1
 90
       10
176
     1
 62
     7
176
     1
 62
   257
176
     1
 90
        2
176
     1
 90
        1
176
     1
 40
1.0
176
     1
 90
        8
176
     1
 62
   257
176
     1
 40
1.0
176
     1
 90
        1
176
     1
 90
        6
176
     1
 90
        2
176
     1
 62
     7
176
     1
 90
        3
176
     1
 90
        0
176
     1
 90
        0
176
     1
290
     0
176
     1
 90
        5
176
     1
 40
0.0
176
     1
 90
        0
176
     1
290
     0
176
     1
290
     1
176
     1
290
     1
176
     1
290
     0
176
     1
290
     0
176
     1
290
     0
176
     1
290
     0
176
     1
290
     0
176
     1
290
     0
176
     1
 90
       50
176
     1
 40
0.0
176
     1
 40
1.0
176
     1
 90
        0
176
     1
 62
    18
420
        0
176
     1
 90
       50
176
     1
 90
        3
176
     1
 62
     5
420
      255
176
     1
290
     0
176
     1
 90
       50
176
     1
 90
       50
176
     1
 90
       50
176
     1
290
     0
176
     1
 90
       50
176
     1
 62
   256
176
     0
 40
1.0
176
     0
 90
        2
176
     1
  1
strokes_ogs.tif
176
     1
290
     0
176
     1
 40
1.0
176
     1
 40
1.0
176
     1
  0
VISUALSTYLE
  5
3E
102
{ACAD_REACTORS
330
2A
102
}
330
2A
100
AcDbVisualStyle
  2
Shades of Gray
 70
    23
177
     3
291
     0
 70
    58
 90
        2
176
     1
 90
        2
176
     1
 90
        3
176
     1
 90
        0
176
     1
 40
0.6
176
     1
 40
30.0
176
     1
 62
     7
420
 16777215
176
     1
 90
        2
176
     1
 90
        2
176
     1
 62
     7
176
     1
 62
     7
176
     1
 90
        1
176
     1
 90
        1
176
     1
 40
40.0
176
     1
 90
        8
176
     1
 62
     7
176
     1
 40
1.0
176
     1
 90
        1
176
     1
 90
        6
176
     1
 90
        2
176
     1
 62
     7
176
     1
 90
        3
176
     1
 90
        0
176
     1
 90
        0
176
     1
290
     0
176
     1
 90
        1
176
     1
 40
0.0
176
     1
 90
        0
176
     1
290
     0
176
     1
290
     1
176
     1
290
     1
176
     1
290
     0
176
     1
290
     0
176
     1
290
     0
176
     1
290
     0
176
     1
290
     0
176
     1
290
     0
176
     1
 90
       50
176
     1
 40
0.0
176
     1
 40
1.0
176
     1
 90
        0
176
     1
 62
    18
420
        0
176
     1
 90
       50
176
     1
 90
        3
176
     1
 62
     5
420
      255
176
     1
290
     0
176
     1
 90
       50
176
     1
 90
       50
176
     1
 90
       50
176
     1
290
     0
176
     1
 90
       50
176
     1
 62
   256
176
     0
 40
1.0
176
     0
 90
        2
176
     1
  1
strokes_ogs.tif
176
     1
290
     0
176
     1
 40
1.0
176
     1
 40
1.0
176
     1
  0
VISUALSTYLE
  5
3F
102
{ACAD_REACTORS
330
2A
102
}
330
2A
100
AcDbVisualStyle
  2
Sketchy
 70
    24
177
     3
291
     0
 70
    58
 90
        1
176
     1
 90
        2
176
     1
 90
        2
176
     1
 90
        0
176
     1
 40
0.6
176
     1
 40
30.0
176
     1
 62
     7
420
 16777215
176
     1
 90
        2
176
     1
 90
        2
176
     1
 62
     7
176
     1
 62
     7
176
     1
 90
        1
176
     1
 90
        1
176
     1
 40
40.0
176
     1
 90
       11
176
     1
 62
     7
176
     1
 40
1.0
176
     1
 90
        1
176
     1
 90
        6
176
     1
 90
        2
176
     1
 62
     7
176
     1
 90
        6
176
     1
 90
        0
176
     1
 90
        0
176
     1
290
     0
176
     1
 90
        1
176
     1
 40
0.0
176
     1
 90
        0
176
     1
290
     0
176
     1
290
     1
176
     1
290
     1
176
     1
290
     0
176
     1
290
     0
176
     1
290
     0
176
     1
290
     0
176
     1
290
     0
176
     1
290
     0
176
     1
 90
       50
176
     1
 40
0.0
176
     1
 40
1.0
176
     1
 90
        0
176
     1
 62
    18
420
        0
176
     1
 90
       50
176
     1
 90
        3
176
     1
 62
     5
420
      255
176
     1
290
     0
176
     1
 90
       50
176
     1
 90
       50
176
     1
 90
       50
176
     1
290
     0
176
     1
 90
       50
176
     1
 62
   256
176
     0
 40
1.0
176
     0
 90
        2
176
     1
  1
strokes_ogs.tif
176
     1
290
     0
176
     1
 40
1.0
176
     1
 40
1.0
176
     1
  0
VISUALSTYLE
  5
37
102
{ACAD_REACTORS
330
2A
102
}
330
2A
100
AcDbVisualStyle
  2
Thicken
 70
    13
177
     3
291
     1
 70
    58
 90
        2
176
     1
 90
        2
176
     1
 90
        0
176
     1
 90
        0
176
     1
 40
0.6
176
     1
 40
30.0
176
     1
 62
     7
420
 16777215
176
     1
 90
        1
176
     1
 90
        4
176
     1
 62
     7
176
     1
 62
   257
176
     1
 90
        1
176
     1
 90
        1
176
     1
 40
1.0
176
     1
 90
       12
176
     1
 62
     7
176
     1
 40
1.0
176
     1
 90
        1
176
     1
 90
        6
176
     1
 90
        2
176
     1
 62
     7
176
     1
 90
        5
176
     1
 90
        0
176
     1
 90
        0
176
     1
290
     0
176
     1
 90
        1
176
     1
 40
0.0
176
     1
 90
        0
176
     1
290
     0
176
     1
290
     1
176
     1
290
     1
176
     1
290
     0
176
     1
290
     0
176
     1
290
     0
176
     1
290
     0
176
     1
290
     0
176
     1
290
     0
176
     1
 90
       50
176
     1
 40
0.0
176
     1
 40
1.0
176
     1
 90
        0
176
     1
 62
    18
420
        0
176
     1
 90
       50
176
     1
 90
        3
176
     1
 62
     5
420
      255
176
     1
290
     0
176
     1
 90
       50
176
     1
 90
       50
176
     1
 90
       50
176
     1
290
     0
176
     1
 90
       50
176
     1
 62
   256
176
     0
 40
1.0
176
     0
 90
        2
176
     1
  1
strokes_ogs.tif
176
     1
290
     0
176
     1
 40
1.0
176
     1
 40
1.0
176
     1
  0
VISUALSTYLE
  5
30
102
{ACAD_REACTORS
330
2A
102
}
330
2A
100
AcDbVisualStyle
  2
Wireframe
 70
     5
177
     3
291
     0
 70
    58
 90
        0
176
     1
 90
        2
176
     1
 90
        0
176
     1
 90
        0
176
     1
 40
0.6
176
     1
 40
30.0
176
     1
 62
     7
420
 16777215
176
     1
 90
        1
176
     1
 90
        4
176
     1
 62
     7
176
     1
 62
   257
176
     1
 90
        1
176
     1
 90
        1
176
     1
 40
1.0
176
     1
 90
        0
176
     1
 62
   257
176
     1
 40
1.0
176
     1
 90
        1
176
     1
 90
        6
176
     1
 90
        2
176
     1
 62
     7
176
     1
 90
        3
176
     1
 90
        0
176
     1
 90
        0
176
     1
290
     0
176
     1
 90
        1
176
     1
 40
0.0
176
     1
 90
        0
176
     1
290
     0
176
     1
290
     1
176
     1
290
     1
176
     1
290
     0
176
     1
290
     0
176
     1
290
     0
176
     1
290
     0
176
     1
290
     0
176
     1
290
     0
176
     1
 90
       50
176
     1
 40
0.0
176
     1
 40
1.0
176
     1
 90
        0
176
     1
 62
    18
420
        0
176
     1
 90
       50
176
     1
 90
        3
176
     1
 62
     5
420
      255
176
     1
290
     0
176
     1
 90
       50
176
     1
 90
       50
176
     1
 90
       50
176
     1
290
     0
176
     1
 90
       50
176
     1
 62
   256
176
     0
 40
1.0
176
     0
 90
        2
176
     1
  1
strokes_ogs.tif
176
     1
290
     0
176
     1
 40
1.0
176
     1
 40
1.0
176
     1
  0
VISUALSTYLE
  5
40
102
{ACAD_REACTORS
330
2A
102
}
330
2A
100
AcDbVisualStyle
  2
X-Ray
 70
    25
177
     3
291
     0
 70
    58
 90
        2
176
     1
 90
        2
176
     1
 90
        1
176
     1
 90
        1
176
     1
 40
0.5
176
     1
 40
30.0
176
     1
 62
     7
420
 16777215
176
     1
 90
        1
176
     1
 90
        0
176
     1
 62
     7
176
     1
 62
   257
176
     1
 90
        1
176
     1
 90
        1
176
     1
 40
1.0
176
     1
 90
        8
176
     1
 62
     7
176
     1
 40
1.0
176
     1
 90
        1
176
     1
 90
        6
176
     1
 90
        2
176
     1
 62
     7
176
     1
 90
        3
176
     1
 90
        0
176
     1
 90
        0
176
     1
290
     0
176
     1
 90
       13
176
     1
 40
0.0
176
     1
 90
        0
176
     1
290
     0
176
     1
290
     1
176
     1
290
     1
176
     1
290
     0
176
     1
290
     0
176
     1
290
     0
176
     1
290
     0
176
     1
290
     0
176
     1
290
     0
176
     1
 90
       50
176
     1
 40
0.0
176
     1
 40
1.0
176
     1
 90
        0
176
     1
 62
    18
420
        0
176
     1
 90
       50
176
     1
 90
        3
176
     1
 62
     5
420
      255
176
     1
290
     0
176
     1
 90
       50
176
     1
 90
       50
176
     1
 90
       50
176
     1
290
     0
176
     1
 90
       50
176
     1
 62
   256
176
     0
 40
1.0
176
     0
 90
        2
176
     1
  1
strokes_ogs.tif
176
     1
290
     0
176
     1
 40
1.0
176
     1
 40
1.0
176
     1
  0
DICTIONARYVAR
  5
1FE
102
{ACAD_REACTORS
330
1FD
102
}
330
1FD
100
DictionaryVariables
280
     0
  1
1:1
  0
DICTIONARYVAR
  5
203
102
{ACAD_REACTORS
330
1FD
102
}
330
1FD
100
DictionaryVariables
280
     0
  1
Standard
  0
DICTIONARYVAR
  5
202
102
{ACAD_REACTORS
330
1FD
102
}
330
1FD
100
DictionaryVariables
280
     0
  1
Standard
  0
DICTIONARY
  5
1FF
330
6A
100
AcDbDictionary
280
     1
281
     1
  3
ACAD_ROUNDTRIP_2008_TABLESTYLE_CELLSTYLEMAP
360
200
  0
CELLSTYLEMAP
  5
200
102
{ACAD_REACTORS
330
1FF
102
}
330
1FF
100
AcDbCellStyleMap
 90
        3
300
CELLSTYLE
  1
TABLEFORMAT_BEGIN
 90
        5
170
     1
 91
        0
 92
    32768
 62
   257
 93
        1
300
CONTENTFORMAT
  1
CONTENTFORMAT_BEGIN
 90
        0
 91
        0
 92
        4
 93
        0
300

 40
0.0
140
1.0
 94
        5
 62
     0
340
11
144
0.25
309
CONTENTFORMAT_END
171
     1
301
MARGIN
  1
CELLMARGIN_BEGIN
 40
0.06
 40
0.06
 40
0.06
 40
0.06
 40
0.06
 40
0.06
309
CELLMARGIN_END
 94
        6
 95
        1
302
GRIDFORMAT
  1
GRIDFORMAT_BEGIN
 90
        0
 91
        1
 62
     0
 92
       -2
340
14
 93
        0
 40
0.045
309
GRIDFORMAT_END
 95
        2
302
GRIDFORMAT
  1
GRIDFORMAT_BEGIN
 90
        0
 91
        1
 62
     0
 92
       -2
340
14
 93
        0
 40
0.045
309
GRIDFORMAT_END
 95
        4
302
GRIDFORMAT
  1
GRIDFORMAT_BEGIN
 90
        0
 91
        1
 62
     0
 92
       -2
340
14
 93
        0
 40
0.045
309
GRIDFORMAT_END
 95
        8
302
GRIDFORMAT
  1
GRIDFORMAT_BEGIN
 90
        0
 91
        1
 62
     0
 92
       -2
340
14
 93
        0
 40
0.045
309
GRIDFORMAT_END
 95
       16
302
GRIDFORMAT
  1
GRIDFORMAT_BEGIN
 90
        0
 91
        1
 62
     0
 92
       -2
340
14
 93
        0
 40
0.045
309
GRIDFORMAT_END
 95
       32
302
GRIDFORMAT
  1
GRIDFORMAT_BEGIN
 90
        0
 91
        1
 62
     0
 92
       -2
340
14
 93
        0
 40
0.045
309
GRIDFORMAT_END
309
TABLEFORMAT_END
  1
CELLSTYLE_BEGIN
 90
        1
 91
        1
300
_TITLE
309
CELLSTYLE_END
300
CELLSTYLE
  1
TABLEFORMAT_BEGIN
 90
        5
170
     1
 91
        0
 92
        0
 62
   257
 93
        1
300
CONTENTFORMAT
  1
CONTENTFORMAT_BEGIN
 90
        0
 91
        0
 92
        4
 93
        0
300

 40
0.0
140
1.0
 94
        5
 62
     0
340
11
144
0.18
309
CONTENTFORMAT_END
171
     1
301
MARGIN
  1
CELLMARGIN_BEGIN
 40
0.06
 40
0.06
 40
0.06
 40
0.06
 40
0.06
 40
0.06
309
CELLMARGIN_END
 94
        6
 95
        1
302
GRIDFORMAT
  1
GRIDFORMAT_BEGIN
 90
        0
 91
        1
 62
     0
 92
       -2
340
14
 93
        0
 40
0.045
309
GRIDFORMAT_END
 95
        2
302
GRIDFORMAT
  1
GRIDFORMAT_BEGIN
 90
        0
 91
        1
 62
     0
 92
       -2
340
14
 93
        0
 40
0.045
309
GRIDFORMAT_END
 95
        4
302
GRIDFORMAT
  1
GRIDFORMAT_BEGIN
 90
        0
 91
        1
 62
     0
 92
       -2
340
14
 93
        0
 40
0.045
309
GRIDFORMAT_END
 95
        8
302
GRIDFORMAT
  1
GRIDFORMAT_BEGIN
 90
        0
 91
        1
 62
     0
 92
       -2
340
14
 93
        0
 40
0.045
309
GRIDFORMAT_END
 95
       16
302
GRIDFORMAT
  1
GRIDFORMAT_BEGIN
 90
        0
 91
        1
 62
     0
 92
       -2
340
14
 93
        0
 40
0.045
309
GRIDFORMAT_END
 95
       32
302
GRIDFORMAT
  1
GRIDFORMAT_BEGIN
 90
        0
 91
        1
 62
     0
 92
       -2
340
14
 93
        0
 40
0.045
309
GRIDFORMAT_END
309
TABLEFORMAT_END
  1
CELLSTYLE_BEGIN
 90
        2
 91
        1
300
_HEADER
309
CELLSTYLE_END
300
CELLSTYLE
  1
TABLEFORMAT_BEGIN
 90
        5
170
     1
 91
        0
 92
        0
 62
   257
 93
        1
300
CONTENTFORMAT
  1
CONTENTFORMAT_BEGIN
 90
        0
 91
        0
 92
        4
 93
        0
300

 40
0.0
140
1.0
 94
        2
 62
     0
340
11
144
0.18
309
CONTENTFORMAT_END
171
     1
301
MARGIN
  1
CELLMARGIN_BEGIN
 40
0.06
 40
0.06
 40
0.06
 40
0.06
 40
0.06
 40
0.06
309
CELLMARGIN_END
 94
        6
 95
        1
302
GRIDFORMAT
  1
GRIDFORMAT_BEGIN
 90
        0
 91
        1
 62
     0
 92
       -2
340
14
 93
        0
 40
0.045
309
GRIDFORMAT_END
 95
        2
302
GRIDFORMAT
  1
GRIDFORMAT_BEGIN
 90
        0
 91
        1
 62
     0
 92
       -2
340
14
 93
        0
 40
0.045
309
GRIDFORMAT_END
 95
        4
302
GRIDFORMAT
  1
GRIDFORMAT_BEGIN
 90
        0
 91
        1
 62
     0
 92
       -2
340
14
 93
        0
 40
0.045
309
GRIDFORMAT_END
 95
        8
302
GRIDFORMAT
  1
GRIDFORMAT_BEGIN
 90
        0
 91
        1
 62
     0
 92
       -2
340
14
 93
        0
 40
0.045
309
GRIDFORMAT_END
 95
       16
302
GRIDFORMAT
  1
GRIDFORMAT_BEGIN
 90
        0
 91
        1
 62
     0
 92
       -2
340
14
 93
        0
 40
0.045
309
GRIDFORMAT_END
 95
       32
302
GRIDFORMAT
  1
GRIDFORMAT_BEGIN
 90
        0
 91
        1
 62
     0
 92
       -2
340
14
 93
        0
 40
0.045
309
GRIDFORMAT_END
309
TABLEFORMAT_END
  1
CELLSTYLE_BEGIN
 90
        3
 91
        2
300
_DATA
309
CELLSTYLE_END
  0
ENDSEC
  0
EOF