0
SECTION
  2
HEADER
  9
$ACADVER
  1
AC1027
  9
$ACADMAINTVER
 70
     8
  9
$DWGCODEPAGE
  3
ANSI_1252
  9
$REQUIREDVERSIONS
160
                 0
  9
$COMMENTS
  1
File was created by Cadenas
  9
$CUSTOMPROPERTYTAG
  1
NN
  9
$CUSTOMPROPERTY
  1
Set Screw Medium Duty Wide Slot Take Up Inch Bore
  9
$CUSTOMPROPERTYTAG
  1
NT
  9
$CUSTOMPROPERTY
  1
SC Take-Up Bearings -Wide Slot -(Medium Duty)
  9
$CUSTOMPROPERTYTAG
  1
NB
  9
$CUSTOMPROPERTY
  1
135116
  9
$CUSTOMPROPERTYTAG
  1
NBSYN
  9
$CUSTOMPROPERTY
  1
$PN.
  9
$CUSTOMPROPERTYTAG
  1
LINA
  9
$CUSTOMPROPERTY
  1
135116
  9
$CUSTOMPROPERTYTAG
  1
SERIES
  9
$CUSTOMPROPERTY
  1
208
  9
$CUSTOMPROPERTYTAG
  1
SS
  9
$CUSTOMPROPERTY
  1
1-7/16
  9
$CUSTOMPROPERTYTAG
  1
PN
  9
$CUSTOMPROPERTY
  1
135116
  9
$CUSTOMPROPERTYTAG
  1
DESCRIPTION
  9
$CUSTOMPROPERTY
  1
WSTU-SCM-107
  9
$CUSTOMPROPERTYTAG
  1
W
  9
$CUSTOMPROPERTY
  1
6.1
  9
$CUSTOMPROPERTYTAG
  1
FS
  9
$CUSTOMPROPERTY
  1
WS400
  9
$CUSTOMPROPERTYTAG
  1
LF
  9
$CUSTOMPROPERTY
  1
RE-LUBE
  9
$CUSTOMPROPERTYTAG
  1
A
  9
$CUSTOMPROPERTY
  1
1.94
  9
$CUSTOMPROPERTYTAG
  1
B
  9
$CUSTOMPROPERTY
  1
5.69
  9
$CUSTOMPROPERTYTAG
  1
C
  9
$CUSTOMPROPERTY
  1
0.688
  9
$CUSTOMPROPERTYTAG
  1
D
  9
$CUSTOMPROPERTY
  1
3.25
  9
$CUSTOMPROPERTYTAG
  1
E
  9
$CUSTOMPROPERTY
  1
3.50
  9
$CUSTOMPROPERTYTAG
  1
F
  9
$CUSTOMPROPERTY
  1
1
  9
$CUSTOMPROPERTYTAG
  1
G
  9
$CUSTOMPROPERTY
  1
0.63
  9
$CUSTOMPROPERTYTAG
  1
H
  9
$CUSTOMPROPERTY
  1
0.75
  9
$CUSTOMPROPERTYTAG
  1
J
  9
$CUSTOMPROPERTY
  1
3.25
  9
$CUSTOMPROPERTYTAG
  1
K
  9
$CUSTOMPROPERTY
  1
1.94
  9
$CUSTOMPROPERTYTAG
  1
L
  9
$CUSTOMPROPERTY
  1
2.05
  9
$CUSTOMPROPERTYTAG
  1
M
  9
$CUSTOMPROPERTY
  1
3.985 / 4.015
  9
$CUSTOMPROPERTYTAG
  1
N
  9
$CUSTOMPROPERTY
  1
4.50
  9
$CUSTOMPROPERTYTAG
  1
R
  9
$CUSTOMPROPERTY
  1
0.75
  9
$CUSTOMPROPERTYTAG
  1
S
  9
$CUSTOMPROPERTY
  1
1.19
  9
$CUSTOMPROPERTYTAG
  1
T
  9
$CUSTOMPROPERTY
  1
1.94
  9
$CUSTOMPROPERTYTAG
  1
COMPANY
  9
$CUSTOMPROPERTY
  1
baldor
  9
$INSBASE
 10
0.0
 20
0.0
 30
0.0
  9
$EXTMIN
 10
1.000000000000000E+20
 20
1.000000000000000E+20
 30
1.000000000000000E+20
  9
$EXTMAX
 10
-1.000000000000000E+20
 20
-1.000000000000000E+20
 30
-1.000000000000000E+20
  9
$LIMMIN
 10
0.0
 20
0.0
  9
$LIMMAX
 10
12.0
 20
9.0
  9
$ORTHOMODE
 70
     0
  9
$REGENMODE
 70
     1
  9
$FILLMODE
 70
     1
  9
$QTEXTMODE
 70
     0
  9
$MIRRTEXT
 70
     1
  9
$LTSCALE
 40
1.0
  9
$ATTMODE
 70
     1
  9
$TEXTSIZE
 40
0.2
  9
$TRACEWID
 40
0.05
  9
$TEXTSTYLE
  7
Standard
  9
$CLAYER
  8
0
  9
$CELTYPE
  6
ByLayer
  9
$CECOLOR
 62
   256
  9
$CELTSCALE
 40
1.0
  9
$DISPSILH
 70
     0
  9
$DIMSCALE
 40
1.0
  9
$DIMASZ
 40
0.18
  9
$DIMEXO
 40
0.0625
  9
$DIMDLI
 40
0.38
  9
$DIMRND
 40
0.0
  9
$DIMDLE
 40
0.0
  9
$DIMEXE
 40
0.18
  9
$DIMTP
 40
0.0
  9
$DIMTM
 40
0.0
  9
$DIMTXT
 40
0.18
  9
$DIMCEN
 40
0.09
  9
$DIMTSZ
 40
0.0
  9
$DIMTOL
 70
     0
  9
$DIMLIM
 70
     0
  9
$DIMTIH
 70
     1
  9
$DIMTOH
 70
     1
  9
$DIMSE1
 70
     0
  9
$DIMSE2
 70
     0
  9
$DIMTAD
 70
     0
  9
$DIMZIN
 70
     0
  9
$DIMBLK
  1

  9
$DIMASO
 70
     1
  9
$DIMSHO
 70
     1
  9
$DIMPOST
  1

  9
$DIMAPOST
  1

  9
$DIMALT
 70
     0
  9
$DIMALTD
 70
     2
  9
$DIMALTF
 40
25.4
  9
$DIMLFAC
 40
1.0
  9
$DIMTOFL
 70
     0
  9
$DIMTVP
 40
0.0
  9
$DIMTIX
 70
     0
  9
$DIMSOXD
 70
     0
  9
$DIMSAH
 70
     0
  9
$DIMBLK1
  1

  9
$DIMBLK2
  1

  9
$DIMSTYLE
  2
Standard
  9
$DIMCLRD
 70
     0
  9
$DIMCLRE
 70
     0
  9
$DIMCLRT
 70
     0
  9
$DIMTFAC
 40
1.0
  9
$DIMGAP
 40
0.09
  9
$DIMJUST
 70
     0
  9
$DIMSD1
 70
     0
  9
$DIMSD2
 70
     0
  9
$DIMTOLJ
 70
     1
  9
$DIMTZIN
 70
     0
  9
$DIMALTZ
 70
     0
  9
$DIMALTTZ
 70
     0
  9
$DIMUPT
 70
     0
  9
$DIMDEC
 70
     4
  9
$DIMTDEC
 70
     4
  9
$DIMALTU
 70
     2
  9
$DIMALTTD
 70
     2
  9
$DIMTXSTY
  7
Standard
  9
$DIMAUNIT
 70
     0
  9
$DIMADEC
 70
     0
  9
$DIMALTRND
 40
0.0
  9
$DIMAZIN
 70
     0
  9
$DIMDSEP
 70
    46
  9
$DIMATFIT
 70
     3
  9
$DIMFRAC
 70
     0
  9
$DIMLDRBLK
  1

  9
$DIMLUNIT
 70
     2
  9
$DIMLWD
 70
    -2
  9
$DIMLWE
 70
    -2
  9
$DIMTMOVE
 70
     0
  9
$DIMFXL
 40
1.0
  9
$DIMFXLON
 70
     0
  9
$DIMJOGANG
 40
0.7853981633974483
  9
$DIMTFILL
 70
     0
  9
$DIMTFILLCLR
 70
     0
  9
$DIMARCSYM
 70
     0
  9
$DIMLTYPE
  6

  9
$DIMLTEX1
  6

  9
$DIMLTEX2
  6

  9
$DIMTXTDIRECTION
 70
     0
  9
$LUNITS
 70
     2
  9
$LUPREC
 70
     4
  9
$SKETCHINC
 40
0.1
  9
$FILLETRAD
 40
0.5
  9
$AUNITS
 70
     0
  9
$AUPREC
 70
     0
  9
$MENU
  1
.
  9
$ELEVATION
 40
0.0
  9
$PELEVATION
 40
0.0
  9
$THICKNESS
 40
0.0
  9
$LIMCHECK
 70
     0
  9
$CHAMFERA
 40
0.0
  9
$CHAMFERB
 40
0.0
  9
$CHAMFERC
 40
0.0
  9
$CHAMFERD
 40
0.0
  9
$SKPOLY
 70
     0
  9
$TDCREATE
 40
2458168.958285544
  9
$TDUCREATE
 40
2458168.916618877
  9
$TDUPDATE
 40
2458168.958285718
  9
$TDUUPDATE
 40
2458168.916619051
  9
$TDINDWG
 40
0.0000000116
  9
$TDUSRTIMER
 40
0.0000000116
  9
$USRTIMER
 70
     1
  9
$ANGBASE
 50
0.0
  9
$ANGDIR
 70
     0
  9
$PDMODE
 70
     0
  9
$PDSIZE
 40
0.0
  9
$PLINEWID
 40
0.0
  9
$SPLFRAME
 70
     0
  9
$SPLINETYPE
 70
     6
  9
$SPLINESEGS
 70
     8
  9
$HANDSEED
  5
1F1
  9
$SURFTAB1
 70
     6
  9
$SURFTAB2
 70
     6
  9
$SURFTYPE
 70
     6
  9
$SURFU
 70
     6
  9
$SURFV
 70
     6
  9
$UCSBASE
  2

  9
$UCSNAME
  2

  9
$UCSORG
 10
0.0
 20
0.0
 30
0.0
  9
$UCSXDIR
 10
1.0
 20
0.0
 30
0.0
  9
$UCSYDIR
 10
0.0
 20
1.0
 30
0.0
  9
$UCSORTHOREF
  2

  9
$UCSORTHOVIEW
 70
     0
  9
$UCSORGTOP
 10
0.0
 20
0.0
 30
0.0
  9
$UCSORGBOTTOM
 10
0.0
 20
0.0
 30
0.0
  9
$UCSORGLEFT
 10
0.0
 20
0.0
 30
0.0
  9
$UCSORGRIGHT
 10
0.0
 20
0.0
 30
0.0
  9
$UCSORGFRONT
 10
0.0
 20
0.0
 30
0.0
  9
$UCSORGBACK
 10
0.0
 20
0.0
 30
0.0
  9
$PUCSBASE
  2

  9
$PUCSNAME
  2

  9
$PUCSORG
 10
0.0
 20
0.0
 30
0.0
  9
$PUCSXDIR
 10
1.0
 20
0.0
 30
0.0
  9
$PUCSYDIR
 10
0.0
 20
1.0
 30
0.0
  9
$PUCSORTHOREF
  2

  9
$PUCSORTHOVIEW
 70
     0
  9
$PUCSORGTOP
 10
0.0
 20
0.0
 30
0.0
  9
$PUCSORGBOTTOM
 10
0.0
 20
0.0
 30
0.0
  9
$PUCSORGLEFT
 10
0.0
 20
0.0
 30
0.0
  9
$PUCSORGRIGHT
 10
0.0
 20
0.0
 30
0.0
  9
$PUCSORGFRONT
 10
0.0
 20
0.0
 30
0.0
  9
$PUCSORGBACK
 10
0.0
 20
0.0
 30
0.0
  9
$USERI1
 70
     0
  9
$USERI2
 70
     0
  9
$USERI3
 70
     0
  9
$USERI4
 70
     0
  9
$USERI5
 70
     0
  9
$USERR1
 40
0.0
  9
$USERR2
 40
0.0
  9
$USERR3
 40
0.0
  9
$USERR4
 40
0.0
  9
$USERR5
 40
0.0
  9
$WORLDVIEW
 70
     1
  9
$SHADEDGE
 70
     3
  9
$SHADEDIF
 70
    70
  9
$TILEMODE
 70
     1
  9
$MAXACTVP
 70
    64
  9
$PINSBASE
 10
0.0
 20
0.0
 30
0.0
  9
$PLIMCHECK
 70
     0
  9
$PEXTMIN
 10
1.000000000000000E+20
 20
1.000000000000000E+20
 30
1.000000000000000E+20
  9
$PEXTMAX
 10
-1.000000000000000E+20
 20
-1.000000000000000E+20
 30
-1.000000000000000E+20
  9
$PLIMMIN
 10
0.0
 20
0.0
  9
$PLIMMAX
 10
12.0
 20
9.0
  9
$UNITMODE
 70
     0
  9
$VISRETAIN
 70
     1
  9
$PLINEGEN
 70
     0
  9
$PSLTSCALE
 70
     1
  9
$TREEDEPTH
 70
  3020
  9
$CMLSTYLE
  2
Standard
  9
$CMLJUST
 70
     0
  9
$CMLSCALE
 40
1.0
  9
$PROXYGRAPHICS
 70
     1
  9
$MEASUREMENT
 70
     0
  9
$CELWEIGHT
370
    -1
  9
$ENDCAPS
280
     0
  9
$JOINSTYLE
280
     0
  9
$LWDISPLAY
290
     0
  9
$INSUNITS
 70
     1
  9
$HYPERLINKBASE
  1

  9
$STYLESHEET
  1

  9
$XEDIT
290
     1
  9
$CEPSNTYPE
380
     0
  9
$PSTYLEMODE
290
     1
  9
$FINGERPRINTGUID
  2
{88ADCF3B-C4A9-43A8-980B-FA8108CF996E}
  9
$VERSIONGUID
  2
{FAEB1C32-E019-11D5-929B-00C0DF256EC4}
  9
$EXTNAMES
290
     1
  9
$PSVPSCALE
 40
0.0
  9
$OLESTARTUP
290
     0
  9
$SORTENTS
280
   127
  9
$INDEXCTL
280
     0
  9
$HIDETEXT
280
     1
  9
$XCLIPFRAME
280
     2
  9
$HALOGAP
280
     0
  9
$OBSCOLOR
 70
   257
  9
$OBSLTYPE
280
     0
  9
$INTERSECTIONDISPLAY
280
     0
  9
$INTERSECTIONCOLOR
 70
   257
  9
$DIMASSOC
280
     2
  9
$PROJECTNAME
  1

  9
$CAMERADISPLAY
290
     0
  9
$LENSLENGTH
 40
50.0
  9
$CAMERAHEIGHT
 40
0.0
  9
$STEPSPERSEC
 40
2.0
  9
$STEPSIZE
 40
6.0
  9
$3DDWFPREC
 40
2.0
  9
$PSOLWIDTH
 40
0.25
  9
$PSOLHEIGHT
 40
4.0
  9
$LOFTANG1
 40
1.570796326794897
  9
$LOFTANG2
 40
1.570796326794897
  9
$LOFTMAG1
 40
0.0
  9
$LOFTMAG2
 40
0.0
  9
$LOFTPARAM
 70
     7
  9
$LOFTNORMALS
280
     1
  9
$LATITUDE
 40
37.795
  9
$LONGITUDE
 40
-122.394
  9
$NORTHDIRECTION
 40
0.0
  9
$TIMEZONE
 70
 -8000
  9
$LIGHTGLYPHDISPLAY
280
     1
  9
$TILEMODELIGHTSYNCH
280
     1
  9
$CMATERIAL
347
44
  9
$SOLIDHIST
280
     0
  9
$SHOWHIST
280
     1
  9
$DWFFRAME
280
     2
  9
$DGNFRAME
280
     2
  9
$REALWORLDSCALE
290
     1
  9
$INTERFERECOLOR
 62
   256
  9
$CSHADOW
280
     0
  9
$SHADOWPLANELOCATION
 40
0.0
  0
ENDSEC
  0
SECTION
  2
CLASSES
  0
CLASS
  1
ACDBDICTIONARYWDFLT
  2
AcDbDictionaryWithDefault
  3
ObjectDBX Classes
 90
        0
 91
        4
280
     0
281
     0
  0
CLASS
  1
VISUALSTYLE
  2
AcDbVisualStyle
  3
ObjectDBX Classes
 90
     4095
 91
        4
280
     0
281
     0
  0
CLASS
  1
MATERIAL
  2
AcDbMaterial
  3
ObjectDBX Classes
 90
     1153
 91
        4
280
     0
281
     0
  0
CLASS
  1
SCALE
  2
AcDbScale
  3
ObjectDBX Classes
 90
     1153
 91
        4
280
     0
281
     0
  0
CLASS
  1
TABLESTYLE
  2
AcDbTableStyle
  3
ObjectDBX Classes
 90
     4095
 91
        4
280
     0
281
     0
  0
CLASS
  1
MLEADERSTYLE
  2
AcDbMLeaderStyle
  3
ACDB_MLEADERSTYLE_CLASS
 90
     4095
 91
        4
280
     0
281
     0
  0
CLASS
  1
SUN
  2
AcDbSun
  3
SCENEOE
 90
     1153
 91
        4
280
     0
281
     0
  0
CLASS
  1
DICTIONARYVAR
  2
AcDbDictionaryVar
  3
ObjectDBX Classes
 90
        0
 91
        4
280
     0
281
     0
  0
CLASS
  1
CELLSTYLEMAP
  2
AcDbCellStyleMap
  3
ObjectDBX Classes
 90
     1152
 91
        4
280
     0
281
     0
  0
ENDSEC
  0
SECTION
  2
TABLES
  0
TABLE
  2
VPORT
  5
8
330
0
100
AcDbSymbolTable
 70
     1
  0
VPORT
  5
29
330
8
100
AcDbSymbolTableRecord
100
AcDbViewportTableRecord
  2
*Active
 70
     0
 10
0.0
 20
0.0
 11
1.0
 21
1.0
 12
0.4933587257609418
 22
-0.1585000000000001
 13
0.0
 23
0.0
 14
0.5
 24
0.5
 15
0.5
 25
0.5
 16
0.0
 26
0.0
 36
1.0
 17
0.0
 27
0.0
 37
0.0
 40
2.30214
 41
2.692194305927388
 42
50.0
 43
0.0
 44
0.0
 50
0.0
 51
0.0
 71
     0
 72
   100
 73
     1
 74
     3
 75
     0
 76
     0
 77
     0
 78
     0
281
     0
 65
     1
110
0.0
120
0.0
130
0.0
111
1.0
121
0.0
131
0.0
112
0.0
122
1.0
132
0.0
 79
     0
146
0.0
348
2F
 60
     3
 61
     5
292
     1
282
     1
141
0.0
142
0.0
 63
   250
361
6D
  0
ENDTAB
  0
TABLE
  2
LTYPE
  5
5
330
0
100
AcDbSymbolTable
 70
     3
  0
LTYPE
  5
14
330
5
100
AcDbSymbolTableRecord
100
AcDbLinetypeTableRecord
  2
ByBlock
 70
     0
  3

 72
    65
 73
     0
 40
0.0
  0
LTYPE
  5
15
330
5
100
AcDbSymbolTableRecord
100
AcDbLinetypeTableRecord
  2
ByLayer
 70
     0
  3

 72
    65
 73
     0
 40
0.0
  0
LTYPE
  5
16
330
5
100
AcDbSymbolTableRecord
100
AcDbLinetypeTableRecord
  2
Continuous
 70
     0
  3
Solid line
 72
    65
 73
     0
 40
0.0
  0
LTYPE
  5
A7
330
5
100
AcDbSymbolTableRecord
100
AcDbLinetypeTableRecord
  2
Dashed
 70
     0
  3

 72
    65
 73
     2
 40
2.0
 49
1.0
 74
     0
 49
-1.0
 74
     0
  0
LTYPE
  5
E5
330
5
100
AcDbSymbolTableRecord
100
AcDbLinetypeTableRecord
  2
Center
 70
     0
  3

 72
    65
 73
     4
 40
1.5
 49
0.45
 74
     0
 49
-0.5
 74
     0
 49
0.05
 74
     0
 49
-0.5
 74
     0
  0
ENDTAB
  0
TABLE
  2
LAYER
  5
2
330
0
100
AcDbSymbolTable
 70
     7
  0
LAYER
  5
10
330
2
100
AcDbSymbolTableRecord
100
AcDbLayerTableRecord
  2
0
 70
     0
 62
     7
  6
Continuous
370
    -3
390
F
347
46
348
0
  0
LAYER
  5
72
330
2
100
AcDbSymbolTableRecord
100
AcDbLayerTableRecord
  2
AM_6
 70
     0
 62
    -2
  6
Continuous
370
    35
390
F
347
46
348
0
  0
LAYER
  5
A8
330
2
100
AcDbSymbolTableRecord
100
AcDbLayerTableRecord
  2
AM_9
 70
     0
 62
     6
  6
Dashed
370
    25
390
F
347
46
348
0
  0
LAYER
  5
E1
330
2
100
AcDbSymbolTableRecord
100
AcDbLayerTableRecord
  2
AM_5
 70
     0
 62
     3
  6
Continuous
370
    25
390
F
347
46
348
0
  0
LAYER
  5
E6
330
2
100
AcDbSymbolTableRecord
100
AcDbLayerTableRecord
  2
AM_7
 70
     0
 62
     7
  6
Center
370
    25
390
F
347
46
348
0
  0
LAYER
  5
EA
330
2
100
AcDbSymbolTableRecord
100
AcDbLayerTableRecord
  2
AM_4
 70
     0
 62
     7
  6
Continuous
370
    50
390
F
347
46
348
0
  0
LAYER
  5
1E4
330
2
100
AcDbSymbolTableRecord
100
AcDbLayerTableRecord
  2
ConnectionPoints
 70
     0
 62
     7
  6
Continuous
370
    50
390
F
347
46
348
0
  0
ENDTAB
  0
TABLE
  2
STYLE
  5
3
330
0
100
AcDbSymbolTable
 70
     1
  0
STYLE
  5
11
330
3
100
AcDbSymbolTableRecord
100
AcDbTextStyleTableRecord
  2
Standard
 70
     0
 40
0.0
 41
1.0
 50
0.0
 71
     0
 42
0.2
  3
txt
  4

  0
ENDTAB
  0
TABLE
  2
VIEW
  5
6
330
0
100
AcDbSymbolTable
 70
     0
  0
ENDTAB
  0
TABLE
  2
UCS
  5
7
330
0
100
AcDbSymbolTable
 70
     0
  0
ENDTAB
  0
TABLE
  2
APPID
  5
9
330
0
100
AcDbSymbolTable
 70
     1
  0
APPID
  5
12
330
9
100
AcDbSymbolTableRecord
100
AcDbRegAppTableRecord
  2
ACAD
 70
     0
  0
ENDTAB
  0
TABLE
  2
DIMSTYLE
  5
A
330
0
100
AcDbSymbolTable
 70
     1
100
AcDbDimStyleTable
  0
DIMSTYLE
105
27
330
A
100
AcDbSymbolTableRecord
100
AcDbDimStyleTableRecord
  2
Standard
 70
     0
178
     0
340
11
  0
ENDTAB
  0
TABLE
  2
BLOCK_RECORD
  5
1
330
0
100
AcDbSymbolTable
 70
     5
  0
BLOCK_RECORD
  5
1F
330
1
100
AcDbSymbolTableRecord
100
AcDbBlockTableRecord
  2
*Model_Space
340
22
 70
     0
280
     1
281
     0
  0
BLOCK_RECORD
  5
1B
330
1
100
AcDbSymbolTableRecord
100
AcDbBlockTableRecord
  2
*Paper_Space
340
1E
 70
     0
280
     1
281
     0
  0
BLOCK_RECORD
  5
23
330
1
100
AcDbSymbolTableRecord
100
AcDbBlockTableRecord
  2
*Paper_Space0
340
26
 70
     0
280
     1
281
     0
  0
BLOCK_RECORD
  5
6E
330
1
100
AcDbSymbolTableRecord
100
AcDbBlockTableRecord
  2
1_135116_4
340
0
102
{BLKREFS
331
6F
102
}
 70
     0
280
     1
281
     0
  0
BLOCK_RECORD
  5
90
330
1
100
AcDbSymbolTableRecord
100
AcDbBlockTableRecord
  2
2_123353_0_in_135116_4
340
0
102
{BLKREFS
331
91
102
}
 70
     0
280
     1
281
     0
  0
BLOCK_RECORD
  5
F9
330
1
100
AcDbSymbolTableRecord
100
AcDbBlockTableRecord
  2
3_405016_Inch_0_in_135116_4
340
0
102
{BLKREFS
331
FA
102
}
 70
     0
280
     1
281
     0
  0
BLOCK_RECORD
  5
184
330
1
100
AcDbSymbolTableRecord
100
AcDbBlockTableRecord
  2
4_135116H_0_in_135116_4
340
0
102
{BLKREFS
331
185
102
}
 70
     0
280
     1
281
     0
  0
ENDTAB
  0
ENDSEC
  0
SECTION
  2
BLOCKS
  0
BLOCK
  5
20
330
1F
100
AcDbEntity
  8
0
100
AcDbBlockBegin
  2
*Model_Space
 70
     0
 10
0.0
 20
0.0
 30
0.0
  3
*Model_Space
  1

  0
ENDBLK
  5
21
330
1F
100
AcDbEntity
  8
0
100
AcDbBlockEnd
  0
BLOCK
  5
1C
330
1B
100
AcDbEntity
 67
     1
  8
0
100
AcDbBlockBegin
  2
*Paper_Space
 70
     0
 10
0.0
 20
0.0
 30
0.0
  3
*Paper_Space
  1

  0
ENDBLK
  5
1D
330
1B
100
AcDbEntity
 67
     1
  8
0
100
AcDbBlockEnd
  0
BLOCK
  5
24
330
23
100
AcDbEntity
  8
0
100
AcDbBlockBegin
  2
*Paper_Space0
 70
     0
 10
0.0
 20
0.0
 30
0.0
  3
*Paper_Space0
  1

  0
ENDBLK
  5
25
330
23
100
AcDbEntity
  8
0
100
AcDbBlockEnd
  0
BLOCK
  5
70
330
6E
100
AcDbEntity
  8
0
100
AcDbBlockBegin
  2
1_135116_4
 70
     2
 10
0.0
 20
0.0
 30
0.0
  3
1_135116_4
  1

  0
ATTDEF
  5
73
330
6E
100
AcDbEntity
  8
AM_6
100
AcDbText
 10
8.5315
 20
0.9699999999999999
 30
0.0
 40
0.5
  1
Set Screw Medium Duty Wide Slot Take Up Inch Bore
100
AcDbAttributeDefinition
  3

  2
NN
 70
     8
280
     0
  0
ATTDEF
  5
74
330
6E
100
AcDbEntity
  8
AM_6
100
AcDbText
 10
8.5315
 20
0.4699999999999999
 30
0.0
 40
0.5
  1
SC Take-Up Bearings -Wide Slot -(Medium Duty)
100
AcDbAttributeDefinition
  3

  2
NT
 70
     8
280
     0
  0
ATTDEF
  5
75
330
6E
100
AcDbEntity
  8
AM_6
100
AcDbText
 10
8.5315
 20
-0.0300000000000001
 30
0.0
 40
0.5
  1
135116
100
AcDbAttributeDefinition
  3

  2
NB
 70
     8
280
     0
  0
ATTDEF
  5
76
330
6E
100
AcDbEntity
  8
AM_6
100
AcDbText
 10
8.5315
 20
-0.5300000000000001
 30
0.0
 40
0.5
  1
$PN.
100
AcDbAttributeDefinition
  3

  2
NBSYN
 70
     8
280
     0
  0
ATTDEF
  5
77
330
6E
100
AcDbEntity
  8
AM_6
100
AcDbText
 10
8.5315
 20
-1.03
 30
0.0
 40
0.5
  1
135116
100
AcDbAttributeDefinition
  3

  2
LINA
 70
     8
280
     0
  0
ATTDEF
  5
78
330
6E
100
AcDbEntity
  8
AM_6
100
AcDbText
 10
8.5315
 20
-1.53
 30
0.0
 40
0.5
  1
208
100
AcDbAttributeDefinition
  3

  2
SERIES
 70
     8
280
     0
  0
ATTDEF
  5
79
330
6E
100
AcDbEntity
  8
AM_6
100
AcDbText
 10
8.5315
 20
-2.03
 30
0.0
 40
0.5
  1
1-7/16
100
AcDbAttributeDefinition
  3

  2
SS
 70
     8
280
     0
  0
ATTDEF
  5
7A
330
6E
100
AcDbEntity
  8
AM_6
100
AcDbText
 10
8.5315
 20
-2.53
 30
0.0
 40
0.5
  1
135116
100
AcDbAttributeDefinition
  3

  2
PN
 70
     8
280
     0
  0
ATTDEF
  5
7B
330
6E
100
AcDbEntity
  8
AM_6
100
AcDbText
 10
8.5315
 20
-3.03
 30
0.0
 40
0.5
  1
WSTU-SCM-107
100
AcDbAttributeDefinition
  3

  2
DESCRIPTION
 70
     8
280
     0
  0
ATTDEF
  5
7C
330
6E
100
AcDbEntity
  8
AM_6
100
AcDbText
 10
8.5315
 20
-3.53
 30
0.0
 40
0.5
  1
6.1
100
AcDbAttributeDefinition
  3

  2
W
 70
     8
280
     0
  0
ATTDEF
  5
7D
330
6E
100
AcDbEntity
  8
AM_6
100
AcDbText
 10
8.5315
 20
-4.03
 30
0.0
 40
0.5
  1
WS400
100
AcDbAttributeDefinition
  3

  2
FS
 70
     8
280
     0
  0
ATTDEF
  5
7E
330
6E
100
AcDbEntity
  8
AM_6
100
AcDbText
 10
8.5315
 20
-4.53
 30
0.0
 40
0.5
  1
RE-LUBE
100
AcDbAttributeDefinition
  3

  2
LF
 70
     8
280
     0
  0
ATTDEF
  5
7F
330
6E
100
AcDbEntity
  8
AM_6
100
AcDbText
 10
8.5315
 20
-5.03
 30
0.0
 40
0.5
  1
1.94
100
AcDbAttributeDefinition
  3

  2
A
 70
     8
280
     0
  0
ATTDEF
  5
80
330
6E
100
AcDbEntity
  8
AM_6
100
AcDbText
 10
8.5315
 20
-5.53
 30
0.0
 40
0.5
  1
5.69
100
AcDbAttributeDefinition
  3

  2
B
 70
     8
280
     0
  0
ATTDEF
  5
81
330
6E
100
AcDbEntity
  8
AM_6
100
AcDbText
 10
8.5315
 20
-6.03
 30
0.0
 40
0.5
  1
0.688
100
AcDbAttributeDefinition
  3

  2
C
 70
     8
280
     0
  0
ATTDEF
  5
82
330
6E
100
AcDbEntity
  8
AM_6
100
AcDbText
 10
8.5315
 20
-6.53
 30
0.0
 40
0.5
  1
3.25
100
AcDbAttributeDefinition
  3

  2
D
 70
     8
280
     0
  0
ATTDEF
  5
83
330
6E
100
AcDbEntity
  8
AM_6
100
AcDbText
 10
8.5315
 20
-7.03
 30
0.0
 40
0.5
  1
3.50
100
AcDbAttributeDefinition
  3

  2
E
 70
     8
280
     0
  0
ATTDEF
  5
84
330
6E
100
AcDbEntity
  8
AM_6
100
AcDbText
 10
8.5315
 20
-7.53
 30
0.0
 40
0.5
  1
1
100
AcDbAttributeDefinition
  3

  2
F
 70
     8
280
     0
  0
ATTDEF
  5
85
330
6E
100
AcDbEntity
  8
AM_6
100
AcDbText
 10
8.5315
 20
-8.030000000000001
 30
0.0
 40
0.5
  1
0.63
100
AcDbAttributeDefinition
  3

  2
G
 70
     8
280
     0
  0
ATTDEF
  5
86
330
6E
100
AcDbEntity
  8
AM_6
100
AcDbText
 10
8.5315
 20
-8.530000000000001
 30
0.0
 40
0.5
  1
0.75
100
AcDbAttributeDefinition
  3

  2
H
 70
     8
280
     0
  0
ATTDEF
  5
87
330
6E
100
AcDbEntity
  8
AM_6
100
AcDbText
 10
8.5315
 20
-9.030000000000001
 30
0.0
 40
0.5
  1
3.25
100
AcDbAttributeDefinition
  3

  2
J
 70
     8
280
     0
  0
ATTDEF
  5
88
330
6E
100
AcDbEntity
  8
AM_6
100
AcDbText
 10
8.5315
 20
-9.530000000000001
 30
0.0
 40
0.5
  1
1.94
100
AcDbAttributeDefinition
  3

  2
K
 70
     8
280
     0
  0
ATTDEF
  5
89
330
6E
100
AcDbEntity
  8
AM_6
100
AcDbText
 10
8.5315
 20
-10.03
 30
0.0
 40
0.5
  1
2.05
100
AcDbAttributeDefinition
  3

  2
L
 70
     8
280
     0
  0
ATTDEF
  5
8A
330
6E
100
AcDbEntity
  8
AM_6
100
AcDbText
 10
8.5315
 20
-10.53
 30
0.0
 40
0.5
  1
3.985 / 4.015
100
AcDbAttributeDefinition
  3

  2
M
 70
     8
280
     0
  0
ATTDEF
  5
8B
330
6E
100
AcDbEntity
  8
AM_6
100
AcDbText
 10
8.5315
 20
-11.03
 30
0.0
 40
0.5
  1
4.50
100
AcDbAttributeDefinition
  3

  2
N
 70
     8
280
     0
  0
ATTDEF
  5
8C
330
6E
100
AcDbEntity
  8
AM_6
100
AcDbText
 10
8.5315
 20
-11.53
 30
0.0
 40
0.5
  1
0.75
100
AcDbAttributeDefinition
  3

  2
R
 70
     8
280
     0
  0
ATTDEF
  5
8D
330
6E
100
AcDbEntity
  8
AM_6
100
AcDbText
 10
8.5315
 20
-12.03
 30
0.0
 40
0.5
  1
1.19
100
AcDbAttributeDefinition
  3

  2
S
 70
     8
280
     0
  0
ATTDEF
  5
8E
330
6E
100
AcDbEntity
  8
AM_6
100
AcDbText
 10
8.5315
 20
-12.53
 30
0.0
 40
0.5
  1
1.94
100
AcDbAttributeDefinition
  3

  2
T
 70
     8
280
     0
  0
ATTDEF
  5
8F
330
6E
100
AcDbEntity
  8
AM_6
100
AcDbText
 10
8.5315
 20
-13.03
 30
0.0
 40
0.5
  1
baldor
100
AcDbAttributeDefinition
  3

  2
COMPANY
 70
     8
280
     0
  0
INSERT
  5
91
330
6E
100
AcDbEntity
  8
0
100
AcDbBlockReference
  2
2_123353_0_in_135116_4
 10
0.0
 20
0.0
 30
0.0
  0
INSERT
  5
FA
330
6E
100
AcDbEntity
  8
0
100
AcDbBlockReference
  2
3_405016_Inch_0_in_135116_4
 10
0.0
 20
0.0
 30
0.0
  0
INSERT
  5
185
330
6E
100
AcDbEntity
  8
0
100
AcDbBlockReference
  2
4_135116H_0_in_135116_4
 10
0.0
 20
0.0
 30
0.0
  0
ENDBLK
  5
71
330
6E
100
AcDbEntity
  8
0
100
AcDbBlockEnd
  0
BLOCK
  5
92
330
90
100
AcDbEntity
  8
0
100
AcDbBlockBegin
  2
2_123353_0_in_135116_4
 70
     2
 10
0.0
 20
0.0
 30
0.0
  3
2_123353_0_in_135116_4
  1

  0
ATTDEF
  5
94
330
90
100
AcDbEntity
  8
AM_6
100
AcDbText
 10
6.57377298912247
 20
0.8469999999999999
 30
0.0
 40
0.5
  1
Set Screw Medium Duty Insert Inch Bore
100
AcDbAttributeDefinition
  3

  2
NN
 70
     8
280
     0
  0
ATTDEF
  5
95
330
90
100
AcDbEntity
  8
AM_6
100
AcDbText
 10
6.57377298912247
 20
0.3469999999999999
 30
0.0
 40
0.5
  1
SC Medium Duty Bearing Inserts (Standard Insert)
100
AcDbAttributeDefinition
  3

  2
NT
 70
     8
280
     0
  0
ATTDEF
  5
96
330
90
100
AcDbEntity
  8
AM_6
100
AcDbText
 10
6.57377298912247
 20
-0.1530000000000001
 30
0.0
 40
0.5
  1
123353
100
AcDbAttributeDefinition
  3

  2
NB
 70
     8
280
     0
  0
ATTDEF
  5
97
330
90
100
AcDbEntity
  8
AM_6
100
AcDbText
 10
6.57377298912247
 20
-0.6530000000000001
 30
0.0
 40
0.5
  1
$PN.
100
AcDbAttributeDefinition
  3

  2
NBSYN
 70
     8
280
     0
  0
ATTDEF
  5
98
330
90
100
AcDbEntity
  8
AM_6
100
AcDbText
 10
6.57377298912247
 20
-1.153
 30
0.0
 40
0.5
  1
123353
100
AcDbAttributeDefinition
  3

  2
LINA
 70
     8
280
     0
  0
ATTDEF
  5
99
330
90
100
AcDbEntity
  8
AM_6
100
AcDbText
 10
6.57377298912247
 20
-1.653
 30
0.0
 40
0.5
  1
208
100
AcDbAttributeDefinition
  3

  2
SERIES
 70
     8
280
     0
  0
ATTDEF
  5
9A
330
90
100
AcDbEntity
  8
AM_6
100
AcDbText
 10
6.57377298912247
 20
-2.153
 30
0.0
 40
0.5
  1
1-7/16
100
AcDbAttributeDefinition
  3

  2
SS
 70
     8
280
     0
  0
ATTDEF
  5
9B
330
90
100
AcDbEntity
  8
AM_6
100
AcDbText
 10
6.57377298912247
 20
-2.653
 30
0.0
 40
0.5
  1
123353
100
AcDbAttributeDefinition
  3

  2
PN
 70
     8
280
     0
  0
ATTDEF
  5
9C
330
90
100
AcDbEntity
  8
AM_6
100
AcDbText
 10
6.57377298912247
 20
-3.153
 30
0.0
 40
0.5
  1
INS-SCM-107
100
AcDbAttributeDefinition
  3

  2
DESCRIPTION
 70
     8
280
     0
  0
ATTDEF
  5
9D
330
90
100
AcDbEntity
  8
AM_6
100
AcDbText
 10
6.57377298912247
 20
-3.653
 30
0.0
 40
0.5
  1
1.32
100
AcDbAttributeDefinition
  3

  2
WEIGHT
 70
     8
280
     0
  0
ATTDEF
  5
9E
330
90
100
AcDbEntity
  8
AM_6
100
AcDbText
 10
6.57377298912247
 20
-4.153
 30
0.0
 40
0.5
  1
1.94
100
AcDbAttributeDefinition
  3

  2
A
 70
     8
280
     0
  0
ATTDEF
  5
9F
330
90
100
AcDbEntity
  8
AM_6
100
AcDbText
 10
6.57377298912247
 20
-4.653
 30
0.0
 40
0.5
  1
0.87
100
AcDbAttributeDefinition
  3

  2
C
 70
     8
280
     0
  0
ATTDEF
  5
A0
330
90
100
AcDbEntity
  8
AM_6
100
AcDbText
 10
6.57377298912247
 20
-5.153
 30
0.0
 40
0.5
  1
3.1496
100
AcDbAttributeDefinition
  3

  2
D
 70
     8
280
     0
  0
ATTDEF
  5
A1
330
90
100
AcDbEntity
  8
AM_6
100
AcDbText
 10
6.57377298912247
 20
-5.653
 30
0.0
 40
0.5
  1
0.22
100
AcDbAttributeDefinition
  3

  2
J
 70
     8
280
     0
  0
ATTDEF
  5
A2
330
90
100
AcDbEntity
  8
AM_6
100
AcDbText
 10
6.57377298912247
 20
-6.153
 30
0.0
 40
0.5
  1
2.05
100
AcDbAttributeDefinition
  3

  2
L
 70
     8
280
     0
  0
ATTDEF
  5
A3
330
90
100
AcDbEntity
  8
AM_6
100
AcDbText
 10
6.57377298912247
 20
-6.653
 30
0.0
 40
0.5
  1
5/16 - 24
100
AcDbAttributeDefinition
  3

  2
N
 70
     8
280
     0
  0
ATTDEF
  5
A4
330
90
100
AcDbEntity
  8
AM_6
100
AcDbText
 10
6.57377298912247
 20
-7.153
 30
0.0
 40
0.5
  1
0.75
100
AcDbAttributeDefinition
  3

  2
W
 70
     8
280
     0
  0
ATTDEF
  5
A5
330
90
100
AcDbEntity
  8
AM_6
100
AcDbText
 10
6.57377298912247
 20
-7.653
 30
0.0
 40
0.5
  1
1.19
100
AcDbAttributeDefinition
  3

  2
Y
 70
     8
280
     0
  0
ATTDEF
  5
A6
330
90
100
AcDbEntity
  8
AM_6
100
AcDbText
 10
6.57377298912247
 20
-8.153
 30
0.0
 40
0.5
  1
baldor
100
AcDbAttributeDefinition
  3

  2
COMPANY
 70
     8
280
     0
  0
ELLIPSE
  5
A9
330
90
100
AcDbEntity
  8
AM_9
100
AcDbEllipse
 10
0.2996620258682409
 20
-0.8125000000000001
 30
0.0
 11
-2.318256390785960E-17
 21
-0.1262000000000011
 31
0.0
210
0.0
220
0.0
230
1.0
 40
0.9063077870366513
 41
4.341513899854039
 42
5.083264060915339
  0
LINE
  5
AA
330
90
100
AcDbEntity
  8
AM_9
100
AcDbLine
 10
0.3037429979432024
 20
-0.9387
 30
0.0
 11
0.4249514101428963
 21
-0.9387
 31
0.0
  0
LINE
  5
AB
330
90
100
AcDbEntity
  8
AM_9
100
AcDbLine
 10
0.4249514101428963
 20
-0.6863
 30
0.0
 11
0.3037429979432024
 21
-0.6863
 31
0.0
  0
LWPOLYLINE
  5
AC
330
90
100
AcDbEntity
  8
AM_9
100
AcDbPolyline
 90
        9
 70
     0
 43
0.0
 10
0.3037674729953429
 20
-0.9386999994583003
 10
0.2865206679501123
 20
-0.9372763979080083
 10
0.2677113931691029
 20
-0.9324219110025623
 10
0.2496899869308022
 20
-0.9242998353630114
 10
0.2328936839716771
 20
-0.913011904181621
 10
0.217944191599905
 20
-0.8989588281660451
 10
0.2051880001742812
 20
-0.8822583873833333
 10
0.1952223419198634
 20
-0.8635675090236554
 10
0.1930623478339725
 20
-0.8582388117499942
  0
LWPOLYLINE
  5
AD
330
90
100
AcDbEntity
  8
AM_9
100
AcDbPolyline
 90
        8
 70
     0
 43
0.0
 10
0.3218344222577457
 20
-0.6879072712008443
 10
0.3388919226268084
 20
-0.6925780889974377
 10
0.3558052277921906
 20
-0.7007001646369886
 10
0.3711861292792912
 20
-0.7119880958183792
 10
0.3845797763303594
 20
-0.7260411718339549
 10
0.3957892083442926
 20
-0.7427416126166668
 10
0.4044090916624484
 20
-0.7614324909763445
 10
0.4062617039025068
 20
-0.7667611882500059
  0
LWPOLYLINE
  5
AE
330
90
100
AcDbEntity
  8
AM_9
100
AcDbPolyline
 90
        3
 70
     0
 43
0.0
 10
0.3037462781765193
 20
-0.6863000005416998
 10
0.3207829634860669
 20
-0.6877236020919917
 10
0.3218344222577457
 20
-0.6879072712008443
  0
ELLIPSE
  5
AF
330
90
100
AcDbEntity
  8
AM_9
100
AcDbEllipse
 10
0.2996620258682392
 20
-0.8125
 30
0.0
 11
-2.318256390785943E-17
 21
-0.1262000000000002
 31
0.0
210
0.0
220
0.0
230
1.0
 40
0.9063077870366515
 41
1.199921246264245
 42
1.941671407325547
  0
LINE
  5
B0
330
90
100
AcDbEntity
  8
AM_9
100
AcDbLine
 10
0.7090607600201135
 20
-0.7667611882500059
 30
0.0
 11
0.7090607600201135
 21
-0.8582388117499941
 31
0.0
  0
LINE
  5
B1
330
90
100
AcDbEntity
  8
AM_9
100
AcDbLine
 10
0.7187499999999998
 20
-0.9387
 30
0.0
 11
1.005520699443008
 21
-0.9387
 31
0.0
  0
LINE
  5
B2
330
90
100
AcDbEntity
  8
AM_9
100
AcDbLine
 10
1.005520699443008
 20
-0.6863
 30
0.0
 11
0.7187499999999998
 21
-0.6863
 31
0.0
  0
LINE
  5
B3
330
90
100
AcDbEntity
  8
AM_9
100
AcDbLine
 10
1.005520699443008
 20
-0.9387
 30
0.0
 11
1.025
 21
-0.9581793005569921
 31
0.0
  0
LINE
  5
B4
330
90
100
AcDbEntity
  8
AM_9
100
AcDbLine
 10
1.025
 20
-0.666820699443008
 30
0.0
 11
1.005520699443008
 21
-0.6863
 31
0.0
  0
LINE
  5
B5
330
90
100
AcDbEntity
  8
AM_9
100
AcDbLine
 10
1.005520699443008
 20
-0.6863
 30
0.0
 11
1.005520699443008
 21
-0.9387
 31
0.0
  0
LWPOLYLINE
  5
B6
330
90
100
AcDbEntity
  8
AM_9
100
AcDbPolyline
 90
        7
 70
     0
 43
0.0
 10
0.7090607600201135
 20
-0.7667611882500059
 10
0.7089876846752271
 20
-0.7677019634560304
 10
0.7078615288487687
 20
-0.7862113341214959
 10
0.7073013941260886
 20
-0.8056225765936855
 10
0.7073697111592164
 20
-0.8235326160507402
 10
0.7079667031034145
 20
-0.8411193488645407
 10
0.7090607600201135
 20
-0.8582388117499941
  0
LWPOLYLINE
  5
B7
330
90
100
AcDbEntity
  8
AM_9
100
AcDbPolyline
 90
        9
 70
     0
 43
0.0
 10
0.7090607600201135
 20
-0.8582388117499941
 10
0.7105277725742473
 20
-0.877111091147895
 10
0.7123361804680473
 20
-0.8946444551007953
 10
0.7141847385165403
 20
-0.9093747553800228
 10
0.7159669264067398
 20
-0.9217406389962739
 10
0.7173923343252243
 20
-0.9307228355631625
 10
0.7183737574736316
 20
-0.9365392394639065
 10
0.7187455937843692
 20
-0.9386749027518774
 10
0.7187499999999005
 20
-0.9386999999994342
  0
LWPOLYLINE
  5
B8
330
90
100
AcDbEntity
  8
AM_9
100
AcDbPolyline
 90
        6
 70
     0
 43
0.0
 10
0.1930623478339728
 20
-0.8582388117499942
 10
0.1873759202140734
 20
-0.8431807756381314
 10
0.1838862955294872
 20
-0.8270271684683397
 10
0.1829475727307853
 20
-0.8091090099038264
 10
0.1851320449129799
 20
-0.7907325654923022
 10
0.1930623478339728
 20
-0.7667611882500059
  0
LWPOLYLINE
  5
B9
330
90
100
AcDbEntity
  8
AM_9
100
AcDbPolyline
 90
        3
 70
     0
 43
0.0
 10
0.2866664571968939
 20
-0.6876996312265246
 10
0.3017532415778835
 20
-0.6863324955441169
 10
0.3037462781765193
 20
-0.6863000005416998
  0
LWPOLYLINE
  5
BA
330
90
100
AcDbEntity
  8
AM_9
100
AcDbPolyline
 90
        8
 70
     0
 43
0.0
 10
0.1930623478339728
 20
-0.7667611882500058
 10
0.2021961124339783
 20
-0.7476321843945395
 10
0.2142168437059328
 20
-0.7303555448992047
 10
0.2287539626894767
 20
-0.7154402187244344
 10
0.2453114911297246
 20
-0.7032593610037261
 10
0.2634409995014377
 20
-0.6941799070045997
 10
0.2825233950005984
 20
-0.6884607605360935
 10
0.2866664571968939
 20
-0.6876996312265246
  0
LWPOLYLINE
  5
BB
330
90
100
AcDbEntity
  8
AM_9
100
AcDbPolyline
 90
        7
 70
     0
 43
0.0
 10
0.4062617039025065
 20
-0.7667611882500062
 10
0.408474872440238
 20
-0.7728236556025635
 10
0.4131412855587492
 20
-0.791548084350046
 10
0.4148997949124584
 20
-0.8109914863230715
 10
0.4138552032237169
 20
-0.8286936925608428
 10
0.4103842200507561
 20
-0.8459328530230614
 10
0.4062617039025065
 20
-0.858238811749994
  0
LWPOLYLINE
  5
BC
330
90
100
AcDbEntity
  8
AM_9
100
AcDbPolyline
 90
        9
 70
     0
 43
0.0
 10
0.4062617039025065
 20
-0.8582388117499941
 10
0.3983898709975882
 20
-0.8773678156054605
 10
0.3878757130228978
 20
-0.8946444551007953
 10
0.3749226320051339
 20
-0.9095597812755656
 10
0.3598499046739706
 20
-0.9217406389962739
 10
0.3429375725810196
 20
-0.9308200929954001
 10
0.3246723423266835
 20
-0.9365392394639065
 10
0.3057539226044083
 20
-0.9386675044558832
 10
0.3037674729953429
 20
-0.9386999994583003
  0
LINE
  5
BD
330
90
100
AcDbEntity
  8
AM_9
100
AcDbLine
 10
0.7187499999999998
 20
-1.149
 30
0.0
 11
0.7187499999999998
 21
-0.9387
 31
0.0
  0
LINE
  5
BE
330
90
100
AcDbEntity
  8
AM_9
100
AcDbLine
 10
0.71875
 20
-0.6863
 30
0.0
 11
0.7187499999999998
 21
0.7089999999999997
 31
0.0
  0
LINE
  5
BF
330
90
100
AcDbEntity
  8
AM_9
100
AcDbLine
 10
-0.7187499999999998
 20
0.7089999999999997
 30
0.0
 11
-0.7187499999999998
 21
-1.149
 31
0.0
  0
LWPOLYLINE
  5
C0
330
90
100
AcDbEntity
  8
AM_9
100
AcDbPolyline
 90
        9
 70
     0
 43
0.0
 10
0.7187499999999005
 20
-0.6863000000005658
 10
0.7185014070792745
 20
-0.6877236020919917
 10
0.7176915489566255
 20
-0.6924748487034461
 10
0.7163618678344041
 20
-0.7007001646369886
 10
0.7147134468984132
 20
-0.7118014961510784
 10
0.7128465834019585
 20
-0.7260411718339549
 10
0.7110400820875543
 20
-0.7424794613340041
 10
0.7094244237252344
 20
-0.7614324909763446
 10
0.7090607600201135
 20
-0.7667611882500059
  0
LINE
  5
C1
330
90
100
AcDbEntity
  8
AM_9
100
AcDbLine
 10
0.71875
 20
0.7089999999999997
 30
0.0
 11
0.75975
 21
0.7499999999999999
 31
0.0
  0
LINE
  5
C2
330
90
100
AcDbEntity
  8
AM_9
100
AcDbLine
 10
-0.75975
 20
0.7499999999999999
 30
0.0
 11
-0.71875
 21
0.7089999999999997
 31
0.0
  0
LINE
  5
C3
330
90
100
AcDbEntity
  8
AM_9
100
AcDbLine
 10
-0.7187499999999998
 20
-1.149
 30
0.0
 11
-0.7597499999999998
 21
-1.19
 31
0.0
  0
LINE
  5
C4
330
90
100
AcDbEntity
  8
AM_9
100
AcDbLine
 10
0.7597499999999998
 20
-1.19
 30
0.0
 11
0.7187499999999998
 21
-1.149
 31
0.0
  0
LINE
  5
C5
330
90
100
AcDbEntity
  8
AM_9
100
AcDbLine
 10
1.024999999999999
 20
0.435
 30
0.0
 11
1.024999999999999
 21
0.6879999999999996
 31
0.0
  0
LINE
  5
C6
330
90
100
AcDbEntity
  8
AM_9
100
AcDbLine
 10
-1.024999999999999
 20
0.6879999999999996
 30
0.0
 11
-1.024999999999999
 21
0.435
 31
0.0
  0
LINE
  5
C7
330
90
100
AcDbEntity
  8
AM_9
100
AcDbLine
 10
1.022576389121375
 20
-0.6877616169187076
 30
0.0
 11
1.024999999999993
 21
-0.6668206994430609
 31
0.0
  0
LWPOLYLINE
  5
C8
330
90
100
AcDbEntity
  8
AM_9
100
AcDbPolyline
 90
       38
 70
     0
 43
0.0
 10
0.4275995592815833
 20
-0.6669691821600464
 10
0.4079416321390921
 20
-0.6698695297863883
 10
0.3888273561044445
 20
-0.67631210391323
 10
0.3709328640766227
 20
-0.6860190267592975
 10
0.3545664435697722
 20
-0.698645010942042
 10
0.3394588325960994
 20
-0.7146708166515867
 10
0.3268253747343178
 20
-0.7330120294088802
 10
0.3164402744665057
 20
-0.7545549151991745
 10
0.3094183209518494
 20
-0.7775663455333435
 10
0.3058891372281863
 20
-0.8026200050620461
 10
0.3063154425723863
 20
-0.8279421026254263
 10
0.3108673430249875
 20
-0.853326335373057
 10
0.3194041100468916
 20
-0.8775440082872361
 10
0.3316540082437868
 20
-0.8996919303001614
 10
0.3472786967924644
 20
-0.919257845704104
 10
0.3651185513906365
 20
-0.9349450896018828
 10
0.385131863233287
 20
-0.946994059403087
 10
0.4052517827064919
 20
-0.954441817296262
 10
0.4260691366329377
 20
-0.9579383981470371
 10
0.4456876159574322
 20
-0.9574110228782176
 10
0.4647598716088671
 20
-0.9532620935730187
 10
0.4825260512471
 20
-0.9457244580912654
 10
0.4988414148782703
 20
-0.9350882701776977
 10
0.5138745125014909
 20
-0.9210941477139776
 10
0.5267109313504468
 20
-0.9045682077260032
 10
0.5377089073993991
 20
-0.8846914626821395
 10
0.5458349712973879
 20
-0.8630296176078154
 10
0.5511468475489522
 20
-0.8388253435877778
 10
0.5530681263403717
 20
-0.8139207029691914
 10
0.551438778757446
 20
-0.7882540383078664
 10
0.5462147143115421
 20
-0.7632700687182168
 10
0.5374083028097669
 20
-0.73966707959229
 10
0.5252064905605082
 20
-0.7181994457299203
 10
0.5102386877062806
 20
-0.7000878219951006
 10
0.4925661359141443
 20
-0.6853336672343705
 10
0.4738021334105185
 20
-0.6751118241100637
 10
0.4535199767323221
 20
-0.6688284450176325
 10
0.4275995528559908
 20
-0.6669691750064606
  0
LINE
  5
C9
330
90
100
AcDbEntity
  8
AM_9
100
AcDbLine
 10
1.025
 20
-0.6668206994430081
 30
0.0
 11
1.025
 21
-0.435
 31
0.0
  0
LINE
  5
CA
330
90
100
AcDbEntity
  8
AM_9
100
AcDbLine
 10
-1.025
 20
-0.435
 30
0.0
 11
-1.025
 21
-0.6880000000000003
 31
0.0
  0
LINE
  5
CB
330
90
100
AcDbEntity
  8
AM_9
100
AcDbLine
 10
1.020398004032454
 20
-0.7100798237472677
 30
0.0
 11
1.019556206657229
 21
-0.7201103035132748
 31
0.0
  0
LINE
  5
CC
330
90
100
AcDbEntity
  8
AM_9
100
AcDbLine
 10
1.501466666666667
 20
-0.2640000000000001
 30
0.0
 11
1.501466666666667
 21
-0.176
 31
0.0
  0
LINE
  5
CD
330
90
100
AcDbEntity
  8
AM_9
100
AcDbLine
 10
-1.501466666666667
 20
-0.176
 30
0.0
 11
-1.501466666666667
 21
-0.2640000000000001
 31
0.0
  0
LINE
  5
CE
330
90
100
AcDbEntity
  8
AM_9
100
AcDbLine
 10
-1.480022851174941
 20
-0.4349999999999997
 30
0.0
 11
1.480022851174941
 21
-0.4349999999999997
 31
0.0
  0
ARC
  5
CF
330
90
100
AcDbEntity
  8
AM_9
100
AcDbCircle
 10
1.480022851174941
 20
-0.3909999999999999
 30
0.0
 40
0.0439999999999998
100
AcDbArc
 50
270.0
 51
345.2014078426526
  0
ARC
  5
D0
330
90
100
AcDbEntity
  8
AM_9
100
AcDbCircle
 10
-1.480022851174941
 20
-0.3910000000000002
 30
0.0
 40
0.0439999999999995
100
AcDbArc
 50
194.7985921573472
 51
270.0
  0
LINE
  5
D1
330
90
100
AcDbEntity
  8
AM_9
100
AcDbLine
 10
-1.48002285117494
 20
0.435
 30
0.0
 11
1.48002285117494
 21
0.435
 31
0.0
  0
ARC
  5
D2
330
90
100
AcDbEntity
  8
AM_9
100
AcDbCircle
 10
1.48002285117494
 20
0.3910000000000003
 30
0.0
 40
0.0439999999999998
100
AcDbArc
 50
14.79859014623451
 51
90.0
  0
ARC
  5
D3
330
90
100
AcDbEntity
  8
AM_9
100
AcDbCircle
 10
-1.48002285117494
 20
0.3910000000000003
 30
0.0
 40
0.0439999999999997
100
AcDbArc
 50
90.0
 51
165.2014098537655
  0
LINE
  5
D4
330
90
100
AcDbEntity
  8
AM_9
100
AcDbLine
 10
-1.522563356434588
 20
-0.4022385680689833
 30
0.0
 11
1.522563356434738
 21
-0.4022385680689833
 31
0.0
  0
LINE
  5
D5
330
90
100
AcDbEntity
  8
AM_9
100
AcDbLine
 10
-1.552513780937075
 20
-0.264
 30
0.0
 11
1.552513780937226
 21
-0.264
 31
0.0
  0
ARC
  5
D6
330
90
100
AcDbEntity
  8
AM_9
100
AcDbCircle
 10
0.0000000000000289
 20
-0.0000000000000077
 30
0.0
 40
1.57479999999997
100
AcDbArc
 50
345.2014078426524
 51
350.3493485931006
  0
ARC
  5
D7
330
90
100
AcDbEntity
  8
AM_9
100
AcDbCircle
 10
0.0000000001078313
 20
0.0000000000233284
 30
0.0
 40
1.574800000110068
100
AcDbArc
 50
189.6506514070795
 51
194.7985921571675
  0
LINE
  5
D8
330
90
100
AcDbEntity
  8
AM_9
100
AcDbLine
 10
-1.564934196699665
 20
-0.1759999999999997
 30
0.0
 11
1.564934196699657
 21
-0.1759999999999997
 31
0.0
  0
LINE
  5
D9
330
90
100
AcDbEntity
  8
AM_9
100
AcDbLine
 10
-1.522563356829226
 20
0.4022385665757888
 30
0.0
 11
1.522563356829217
 21
0.4022385665757888
 31
0.0
  0
ARC
  5
DA
330
90
100
AcDbEntity
  8
AM_9
100
AcDbCircle
 10
-0.0000000000000664
 20
-0.0000000000000055
 30
0.0
 40
1.574800000000065
100
AcDbArc
 50
353.5832052965279
 51
14.79859210115653
  0
ARC
  5
DB
330
90
100
AcDbEntity
  8
AM_9
100
AcDbCircle
 10
0.0000000000157421
 20
-0.000000000001153
 30
0.0
 40
1.574800000015523
100
AcDbArc
 50
165.2014078989488
 51
186.4167947033668
  0
ARC
  5
DC
330
90
100
AcDbEntity
  8
AM_9
100
AcDbCircle
 10
-0.0000000000000001
 20
0.2200000000000001
 30
0.0
 40
0.104166666666662
100
AcDbArc
 50
307.0593484839055
 51
232.9406515160889
  0
LWPOLYLINE
  5
DD
330
90
100
AcDbEntity
  8
AM_9
100
AcDbPolyline
 90
        3
 70
     0
 43
0.0
 10
-0.0627752029098915
 20
0.1368737806461436
 10
-0.0459342310389686
 20
0.1265229403581146
 10
-0.0443872421731425
 20
0.1257807137384401
  0
LINE
  5
DE
330
90
100
AcDbEntity
  8
AM_9
100
AcDbLine
 10
0.0502128720679785
 20
0.1287440576927447
 30
0.0
 11
0.062775202909883
 21
0.1368737806461375
 31
0.0
  0
LWPOLYLINE
  5
DF
330
90
100
AcDbEntity
  8
AM_9
100
AcDbPolyline
 90
        7
 70
     0
 43
0.0
 10
-0.0443872421731425
 20
0.1257807137384401
 10
-0.0266533604827668
 20
0.1193406049275982
 10
-0.0097422262201236
 20
0.1163426730811919
 10
0.007933522839171
 20
0.1161893669690238
 10
0.0249236849139147
 20
0.1189004470880919
 10
0.0416853758974776
 20
0.1245584576780104
 10
0.0502128720679785
 20
0.1287440576927447
  0
CIRCLE
  5
E0
330
90
100
AcDbEntity
  8
AM_9
100
AcDbCircle
 10
-0.0000000000000001
 20
0.2200000000000001
 30
0.0
 40
0.0250757575757546
  0
LINE
  5
E2
330
90
100
AcDbEntity
  8
AM_5
100
AcDbLine
 10
0.7187499999999998
 20
-0.65625
 30
0.0
 11
1.025
 21
-0.65625
 31
0.0
  0
LINE
  5
E3
330
90
100
AcDbEntity
  8
AM_5
100
AcDbLine
 10
0.7187499999999998
 20
-0.96875
 30
0.0
 11
1.025
 21
-0.96875
 31
0.0
  0
ELLIPSE
  5
E4
330
90
100
AcDbEntity
  8
AM_9
100
AcDbEllipse
 10
0.4249514101428963
 20
-0.8125
 30
0.0
 11
-2.318256390785939E-17
 21
-0.1262
 31
0.0
210
0.0
220
0.0
230
1.0
 40
0.9063077870366493
 41
0.0
 42
6.283185307179586
  0
LINE
  5
E7
330
90
100
AcDbEntity
  8
AM_7
100
AcDbLine
 10
0.0
 20
-1.287
 30
0.0
 11
0.0
 21
0.8469999999999999
 31
0.0
  0
LINE
  5
E8
330
90
100
AcDbEntity
  8
AM_7
100
AcDbLine
 10
1.053398696414153
 20
-0.8125
 30
0.0
 11
0.6611827630489687
 21
-0.8125
 31
0.0
  0
LINE
  5
E9
330
90
100
AcDbEntity
  8
AM_7
100
AcDbLine
 10
-0.1093749999999953
 20
0.2200000000000001
 30
0.0
 11
0.109374999999995
 21
0.2200000000000001
 31
0.0
  0
LINE
  5
EB
330
90
100
AcDbEntity
  8
AM_4
100
AcDbLine
 10
-0.9839999999999998
 20
0.7499999999999999
 30
0.0
 11
0.9839999999999998
 21
0.7499999999999999
 31
0.0
  0
LINE
  5
EC
330
90
100
AcDbEntity
  8
AM_4
100
AcDbLine
 10
-0.9839999999999998
 20
0.7499999999999999
 30
0.0
 11
-1.025
 21
0.709
 31
0.0
  0
LINE
  5
ED
330
90
100
AcDbEntity
  8
AM_4
100
AcDbLine
 10
1.025
 20
0.709
 30
0.0
 11
0.9839999999999998
 21
0.7499999999999999
 31
0.0
  0
LINE
  5
EE
330
90
100
AcDbEntity
  8
AM_4
100
AcDbLine
 10
-1.024999999999999
 20
0.709
 30
0.0
 11
1.024999999999999
 21
0.709
 31
0.0
  0
LINE
  5
EF
330
90
100
AcDbEntity
  8
AM_4
100
AcDbLine
 10
1.024999999999999
 20
0.6879999999999996
 30
0.0
 11
1.024999999999999
 21
0.709
 31
0.0
  0
LINE
  5
F0
330
90
100
AcDbEntity
  8
AM_4
100
AcDbLine
 10
-1.024999999999999
 20
0.709
 30
0.0
 11
-1.024999999999999
 21
0.6879999999999996
 31
0.0
  0
LINE
  5
F1
330
90
100
AcDbEntity
  8
AM_4
100
AcDbLine
 10
1.020247733536849
 20
-0.711798129483285
 30
0.0
 11
1.022576389121375
 21
-0.6877616169187076
 31
0.0
  0
LINE
  5
F2
330
90
100
AcDbEntity
  8
AM_4
100
AcDbLine
 10
1.025
 20
-1.149
 30
0.0
 11
1.025
 21
-0.9581793005569921
 31
0.0
  0
LINE
  5
F3
330
90
100
AcDbEntity
  8
AM_4
100
AcDbLine
 10
-1.025
 20
-0.6880000000000003
 30
0.0
 11
-1.025
 21
-1.149
 31
0.0
  0
LWPOLYLINE
  5
F4
330
90
100
AcDbEntity
  8
AM_4
100
AcDbPolyline
 90
       16
 70
     0
 43
0.0
 10
1.024999999999973
 20
-0.9581793005567754
 10
1.024976298469001
 20
-0.9579887141699828
 10
1.024619710174366
 20
-0.9550915600493703
 10
1.023844026620378
 20
-0.9485830002044605
 10
1.022764687047735
 20
-0.9389862943239196
 10
1.021442965051538
 20
-0.9261638431295552
 10
1.020001469124752
 20
-0.910321653916198
 10
1.018581090681412
 20
-0.8917205457038043
 10
1.017319320525189
 20
-0.8704415165008237
 10
1.016384016862419
 20
-0.8471095754871287
 10
1.015906997823399
 20
-0.8223916698190472
 10
1.015972636360615
 20
-0.7967155235477027
 10
1.016586324885621
 20
-0.7717003937199638
 10
1.017714882639329
 20
-0.7471430394819233
 10
1.018896003512407
 20
-0.7288021417262059
 10
1.020247733536849
 20
-0.711798129483285
  0
LINE
  5
F5
330
90
100
AcDbEntity
  8
AM_4
100
AcDbLine
 10
-0.9839999999999998
 20
-1.19
 30
0.0
 11
0.9839999999999998
 21
-1.19
 31
0.0
  0
LINE
  5
F6
330
90
100
AcDbEntity
  8
AM_4
100
AcDbLine
 10
-1.025
 20
-1.149
 30
0.0
 11
1.025
 21
-1.149
 31
0.0
  0
LINE
  5
F7
330
90
100
AcDbEntity
  8
AM_4
100
AcDbLine
 10
0.9839999999999998
 20
-1.19
 30
0.0
 11
1.025
 21
-1.149
 31
0.0
  0
LINE
  5
F8
330
90
100
AcDbEntity
  8
AM_4
100
AcDbLine
 10
-1.025
 20
-1.149
 30
0.0
 11
-0.9839999999999998
 21
-1.19
 31
0.0
  0
ENDBLK
  5
93
330
90
100
AcDbEntity
  8
0
100
AcDbBlockEnd
  0
BLOCK
  5
FB
330
F9
100
AcDbEntity
  8
0
100
AcDbBlockBegin
  2
3_405016_Inch_0_in_135116_4
 70
     2
 10
0.0
 20
0.0
 30
0.0
  3
3_405016_Inch_0_in_135116_4
  1

  0
ATTDEF
  5
FD
330
F9
100
AcDbEntity
  8
AM_6
100
AcDbText
 10
3.287076745350093
 20
0.218750000000001
 30
0.0
 40
0.5
  1
405016 -Inch
100
AcDbAttributeDefinition
  3

  2
NN
 70
     8
280
     0
  0
ATTDEF
  5
FE
330
F9
100
AcDbEntity
  8
AM_6
100
AcDbText
 10
3.287076745350093
 20
-0.281249999999999
 30
0.0
 40
0.5
  1
Grease Fitting
100
AcDbAttributeDefinition
  3

  2
NT
 70
     8
280
     0
  0
ATTDEF
  5
FF
330
F9
100
AcDbEntity
  8
AM_6
100
AcDbText
 10
3.287076745350093
 20
-0.781249999999999
 30
0.0
 40
0.5
  1
405016-Inch
100
AcDbAttributeDefinition
  3

  2
NB
 70
     8
280
     0
  0
ATTDEF
  5
100
330
F9
100
AcDbEntity
  8
AM_6
100
AcDbText
 10
3.287076745350093
 20
-1.281249999999999
 30
0.0
 40
0.5
  1
$MN.-Inch
100
AcDbAttributeDefinition
  3

  2
NBSYN
 70
     8
280
     0
  0
ATTDEF
  5
101
330
F9
100
AcDbEntity
  8
AM_6
100
AcDbText
 10
3.287076745350093
 20
-1.781249999999999
 30
0.0
 40
0.5
  1
405016
100
AcDbAttributeDefinition
  3

  2
LINA
 70
     8
280
     0
  0
ATTDEF
  5
102
330
F9
100
AcDbEntity
  8
AM_6
100
AcDbText
 10
3.287076745350093
 20
-2.281249999999999
 30
0.0
 40
0.5
  1
405016
100
AcDbAttributeDefinition
  3

  2
MN
 70
     8
280
     0
  0
ATTDEF
  5
103
330
F9
100
AcDbEntity
  8
AM_6
100
AcDbText
 10
3.287076745350093
 20
-2.781249999999999
 30
0.0
 40
0.5
  1
7/16 HEX
100
AcDbAttributeDefinition
  3

  2
H
 70
     8
280
     0
  0
ATTDEF
  5
104
330
F9
100
AcDbEntity
  8
AM_6
100
AcDbText
 10
3.287076745350093
 20
-3.281249999999999
 30
0.0
 40
0.5
  1
0.383
100
AcDbAttributeDefinition
  3

  2
NDR
 70
     8
280
     0
  0
ATTDEF
  5
105
330
F9
100
AcDbEntity
  8
AM_6
100
AcDbText
 10
3.287076745350093
 20
-3.781249999999999
 30
0.0
 40
0.5
  1
0.337
100
AcDbAttributeDefinition
  3

  2
KDR
 70
     8
280
     0
  0
ATTDEF
  5
106
330
F9
100
AcDbEntity
  8
AM_6
100
AcDbText
 10
3.287076745350093
 20
-4.281249999999999
 30
0.0
 40
0.5
  1
0.1575
100
AcDbAttributeDefinition
  3

  2
BZE
 70
     8
280
     0
  0
ATTDEF
  5
107
330
F9
100
AcDbEntity
  8
AM_6
100
AcDbText
 10
3.287076745350093
 20
-4.781249999999999
 30
0.0
 40
0.5
  1
0.4375
100
AcDbAttributeDefinition
  3

  2
HEX
 70
     8
280
     0
  0
ATTDEF
  5
108
330
F9
100
AcDbEntity
  8
AM_6
100
AcDbText
 10
3.287076745350093
 20
-5.281249999999999
 30
0.0
 40
0.5
  1
0.281250
100
AcDbAttributeDefinition
  3

  2
HEX2
 70
     8
280
     0
  0
ATTDEF
  5
109
330
F9
100
AcDbEntity
  8
AM_6
100
AcDbText
 10
3.287076745350093
 20
-5.781249999999999
 30
0.0
 40
0.5
  1
baldor
100
AcDbAttributeDefinition
  3

  2
COMPANY
 70
     8
280
     0
  0
LINE
  5
10A
330
F9
100
AcDbEntity
  8
AM_9
100
AcDbLine
 10
-2.410066072480448
 20
-0.151074129835757
 30
0.0
 11
-2.421387645704325
 21
-0.1791093260592887
 31
0.0
  0
LINE
  5
10B
330
F9
100
AcDbEntity
  8
AM_9
100
AcDbLine
 10
-2.258891226441951
 20
-0.2099962668917053
 30
0.0
 11
-2.270578472661496
 21
-0.2389369657326276
 31
0.0
  0
LWPOLYLINE
  5
10C
330
F9
100
AcDbEntity
  8
AM_9
100
AcDbPolyline
 90
        3
 70
     0
 43
0.0
 10
-2.042737421176545
 20
0.1093749999999999
 10
-2.024877771192622
 20
0.0546874999999999
 10
-2.003310806641622
 20
-0.0000000000000001
  0
LWPOLYLINE
  5
10D
330
F9
100
AcDbEntity
  8
AM_9
100
AcDbPolyline
 90
        3
 70
     0
 43
0.0
 10
-2.003310806641622
 20
-0.0000000000000001
 10
-2.024788477559244
 20
-0.0544416102741497
 10
-2.042737421176545
 20
-0.109375
  0
LWPOLYLINE
  5
10E
330
F9
100
AcDbEntity
  8
AM_9
100
AcDbPolyline
 90
        3
 70
     0
 43
0.0
 10
-2.200960378019861
 20
-0.2987675689889718
 10
-2.216847662582957
 20
-0.2912216284034024
 10
-2.232057664280972
 20
-0.2813919000363599
  0
LWPOLYLINE
  5
10F
330
F9
100
AcDbEntity
  8
AM_9
100
AcDbPolyline
 90
        3
 70
     0
 43
0.0
 10
-1.93241380964041
 20
-0.0000000000000001
 10
-1.942368017069684
 20
0.0544416102741495
 10
-1.956134880798102
 20
0.1093749999999999
  0
LWPOLYLINE
  5
110
330
F9
100
AcDbEntity
  8
AM_9
100
AcDbPolyline
 90
        3
 70
     0
 43
0.0
 10
-1.956134880798102
 20
-0.1093750000000001
 10
-1.942420687935717
 20
-0.0546875000000001
 10
-1.93241380964041
 20
-0.0000000000000001
  0
LINE
  5
111
330
F9
100
AcDbEntity
  8
AM_9
100
AcDbLine
 10
-2.189934025181382
 20
-0.2672118976010216
 30
0.0
 11
-2.188904728708883
 21
-0.2689146070947222
 31
0.0
  0
LWPOLYLINE
  5
112
330
F9
100
AcDbEntity
  8
AM_9
100
AcDbPolyline
 90
        3
 70
     0
 43
0.0
 10
-2.042737421176545
 20
-0.109375
 10
-2.05645161403893
 20
-0.1640625
 10
-2.066458492334237
 20
-0.2187500000000001
  0
LINE
  5
113
330
F9
100
AcDbEntity
  8
AM_9
100
AcDbLine
 10
-2.003310806641622
 20
-0.0000000000000001
 30
0.0
 11
-1.93241380964041
 21
-0.0000000000000001
 31
0.0
  0
LWPOLYLINE
  5
114
330
F9
100
AcDbEntity
  8
AM_9
100
AcDbPolyline
 90
        3
 70
     0
 43
0.0
 10
-2.066458492334237
 20
0.2187499999999999
 10
-2.056504284904962
 20
0.1643083897258503
 10
-2.042737421176545
 20
0.1093749999999999
  0
LINE
  5
115
330
F9
100
AcDbEntity
  8
AM_9
100
AcDbLine
 10
-2.188904728708883
 20
-0.2689146070947222
 30
0.0
 11
-2.189961118118894
 21
-0.2683791326563879
 31
0.0
  0
LINE
  5
116
330
F9
100
AcDbEntity
  8
AM_9
100
AcDbLine
 10
-2.188904728708883
 20
-0.2689146070947222
 30
0.0
 11
-2.19
 21
-0.2716267871917188
 31
0.0
  0
ELLIPSE
  5
117
330
F9
100
AcDbEntity
  8
AM_9
100
AcDbEllipse
 10
-2.443242020868952
 20
-0.4687500000000001
 30
0.0
 11
-0.09595382955731772
 21
0.03874944547499699
 31
0.0
210
0.0
220
0.0
230
1.0
 40
0.2113091308703526
 41
3.040609649696535
 42
6.384168311072832
  0
ELLIPSE
  5
118
330
F9
100
AcDbEntity
  8
AM_9
100
AcDbEllipse
 10
-2.415248358671469
 20
-0.399430321788976
 30
0.0
 11
-0.1290248947933273
 21
0.05210467522533598
 31
0.0
210
0.0
220
0.0
230
1.0
 40
0.2113091308703463
 41
3.036299423673043
 42
5.801105639492173
  0
ELLIPSE
  5
119
330
F9
100
AcDbEntity
  8
AM_9
100
AcDbEllipse
 10
-2.404573377194121
 20
-0.3729962569746709
 30
0.0
 11
-0.123503462562597
 21
0.04987493162724245
 31
0.0
210
0.0
220
0.0
230
1.0
 40
0.2113091308703592
 41
3.399547237026635
 42
6.024936503892883
  0
LWPOLYLINE
  5
11A
330
F9
100
AcDbEntity
  8
AM_9
100
AcDbPolyline
 90
        5
 70
     0
 43
0.0
 10
-2.421387645704325
 20
-0.1791093260592887
 10
-2.443250034202951
 20
-0.1842540823997054
 10
-2.464146121132944
 20
-0.1862220679364951
 10
-2.484063740687854
 20
-0.1844124966919381
 10
-2.502577527309116
 20
-0.1791093260592887
  0
LWPOLYLINE
  5
11B
330
F9
100
AcDbEntity
  8
AM_9
100
AcDbPolyline
 90
        5
 70
     0
 43
0.0
 10
-2.270578472661496
 20
-0.2389369657326276
 10
-2.309419761348925
 20
-0.2295338871417796
 10
-2.347554808060844
 20
-0.216687117104632
 10
-2.385173602422027
 20
-0.1996402057054678
 10
-2.421387645704325
 20
-0.1791093260592887
  0
LWPOLYLINE
  5
11C
330
F9
100
AcDbEntity
  8
AM_9
100
AcDbPolyline
 90
        3
 70
     0
 43
0.0
 10
-2.244079194462778
 20
-0.2711532636537956
 10
-2.257814372227351
 20
-0.2561815527589921
 10
-2.270578472661496
 20
-0.2389369657326276
  0
ELLIPSE
  5
11D
330
F9
100
AcDbEntity
  8
AM_9
100
AcDbEllipse
 10
-2.353572473930135
 20
-0.2467045921760217
 30
0.0
 11
-0.1303939210191775
 21
0.05265753494273515
 31
0.0
210
0.0
220
0.0
230
1.0
 40
0.2113091308703507
 41
3.806340372002836
 42
6.919181903097263
  0
LINE
  5
11E
330
F9
100
AcDbEntity
  8
AM_9
100
AcDbLine
 10
-1.967756462152739
 20
-0.1463205943090317
 30
0.0
 11
-1.956134880798102
 21
-0.1093750000000001
 31
0.0
  0
LWPOLYLINE
  5
11F
330
F9
100
AcDbEntity
  8
AM_9
100
AcDbPolyline
 90
        3
 70
     0
 43
0.0
 10
-1.987821855244375
 20
-0.2000409996967266
 10
-1.974083824415403
 20
-0.1643083897258505
 10
-1.967756462152739
 20
-0.1463205943090317
  0
LINE
  5
120
330
F9
100
AcDbEntity
  8
AM_9
100
AcDbLine
 10
-1.995561495333025
 20
-0.2187500000000001
 30
0.0
 11
-1.987821855244375
 21
-0.2000409996967266
 31
0.0
  0
LINE
  5
121
330
F9
100
AcDbEntity
  8
AM_9
100
AcDbLine
 10
-1.987821977326341
 20
0.2000413016192557
 30
0.0
 11
-1.995561495333025
 21
0.2187499999999999
 31
0.0
  0
LWPOLYLINE
  5
122
330
F9
100
AcDbEntity
  8
AM_9
100
AcDbPolyline
 90
        3
 70
     0
 43
0.0
 10
-1.967994291748659
 20
0.1470192060267741
 10
-1.973994530782025
 20
0.1640624999999999
 10
-1.987821977326341
 20
0.2000413016192557
  0
LINE
  5
123
330
F9
100
AcDbEntity
  8
AM_9
100
AcDbLine
 10
-1.956134880798102
 20
0.1093749999999999
 30
0.0
 11
-1.967994291748659
 21
0.1470192060267741
 31
0.0
  0
LINE
  5
124
330
F9
100
AcDbEntity
  8
AM_9
100
AcDbLine
 10
-2.421200873332338
 20
-0.1204089378707286
 30
0.0
 11
-2.42228631832205
 21
-0.1230967854582225
 31
0.0
  0
LINE
  5
125
330
F9
100
AcDbEntity
  8
AM_9
100
AcDbLine
 10
-2.216080644906464
 20
-0.2
 30
0.0
 11
-2.21341216556176
 21
-0.193392142543456
 31
0.0
  0
ELLIPSE
  5
126
330
F9
100
AcDbEntity
  8
AM_9
100
AcDbEllipse
 10
-2.335272566391602
 20
-0.2013892028241914
 30
0.0
 11
-0.1019970226638906
 21
0.04118989399965287
 31
0.0
210
0.0
220
0.0
230
1.0
 40
0.2113091308703512
 41
3.141592653589793
 42
6.283185307179586
  0
LWPOLYLINE
  5
127
330
F9
100
AcDbEntity
  8
AM_9
100
AcDbPolyline
 90
        4
 70
     0
 43
0.0
 10
-2.421205602987358
 20
-0.1204206514110939
 10
-2.421344768971887
 20
-0.1208367673933812
 10
-2.420767185014761
 20
-0.1245107513506023
 10
-2.418858993155307
 20
-0.1273638845459952
  0
LWPOLYLINE
  5
128
330
F9
100
AcDbEntity
  8
AM_9
100
AcDbPolyline
 90
        5
 70
     0
 43
0.0
 10
-2.213411221360272
 20
-0.1933898041312626
 10
-2.213504557491423
 20
-0.1936098952159724
 10
-2.216720094444061
 20
-0.1971856748420371
 10
-2.222738457686844
 20
-0.1994144431868155
 10
-2.229602428267287
 20
-0.1999999999699529
  0
LWPOLYLINE
  5
129
330
F9
100
AcDbEntity
  8
AM_9
100
AcDbPolyline
 90
        3
 70
     0
 43
0.0
 10
-2.322899559479725
 20
-0.1745741884610188
 10
-2.295510484106294
 20
-0.1876759562813858
 10
-2.258891226441951
 20
-0.2099962668917053
  0
LWPOLYLINE
  5
12A
330
F9
100
AcDbEntity
  8
AM_9
100
AcDbPolyline
 90
        3
 70
     0
 43
0.0
 10
-2.410066072480448
 20
-0.151074129835757
 10
-2.380861464980925
 20
-0.1564222384464442
 10
-2.352190966038631
 20
-0.1639312493177431
  0
LWPOLYLINE
  5
12B
330
F9
100
AcDbEntity
  8
AM_9
100
AcDbPolyline
 90
        3
 70
     0
 43
0.0
 10
-2.258891226441951
 20
-0.2099962668917053
 10
-2.241917544108428
 20
-0.2163479371246913
 10
-2.225779286924245
 20
-0.2258378743019629
  0
LWPOLYLINE
  5
12C
330
F9
100
AcDbEntity
  8
AM_9
100
AcDbPolyline
 90
        4
 70
     0
 43
0.0
 10
-2.446976952824943
 20
-0.141958509815605
 10
-2.443101833378894
 20
-0.1420496512545706
 10
-2.428612918264144
 20
-0.1441228263802214
 10
-2.410066072480448
 20
-0.151074129835757
  0
ELLIPSE
  5
12D
330
F9
100
AcDbEntity
  8
AM_9
100
AcDbEllipse
 10
-2.335272566391605
 20
-0.2013892028241882
 30
0.0
 11
-0.1303939210191762
 21
0.05265753494273463
 31
0.0
210
0.0
220
0.0
230
1.0
 40
0.2113091308703496
 41
3.814164134970083
 42
4.681939745819369
  0
ELLIPSE
  5
12E
330
F9
100
AcDbEntity
  8
AM_9
100
AcDbEllipse
 10
-2.335272566391604
 20
-0.20138920282419
 30
0.0
 11
-0.1303939210191762
 21
0.05265753494273555
 31
0.0
210
0.0
220
0.0
230
1.0
 40
0.2113091308703569
 41
-1.283550689693566
 42
-0.6725714813802783
  0
LINE
  5
12F
330
F9
100
AcDbEntity
  8
AM_9
100
AcDbLine
 10
-2.232057664280972
 20
-0.2813919000363599
 30
0.0
 11
-2.244079194462778
 21
-0.2711532636537956
 31
0.0
  0
ELLIPSE
  5
130
330
F9
100
AcDbEntity
  8
AM_9
100
AcDbEllipse
 10
-2.353572473930138
 20
-0.2467045921760217
 30
0.0
 11
-0.1303939210191735
 21
0.05265753494273287
 31
0.0
210
0.0
220
0.0
230
1.0
 40
0.2113091308703516
 41
2.800469246484375
 42
3.607080702195137
  0
ELLIPSE
  5
131
330
F9
100
AcDbEntity
  8
AM_9
100
AcDbEllipse
 10
-2.353572473931852
 20
-0.2467045921738157
 30
0.0
 11
-0.1303939210216068
 21
0.05265753494466344
 31
0.0
210
0.0
220
0.0
230
1.0
 40
0.211309130874653
 41
-3.777589249505932
 42
-3.764628581857915
  0
LWPOLYLINE
  5
132
330
F9
100
AcDbEntity
  8
AM_9
100
AcDbPolyline
 90
       17
 70
     0
 43
0.0
 10
-2.220087330712348
 20
-0.1790373738501779
 10
-2.22805479578854
 20
-0.1733931390117467
 10
-2.238810869222722
 20
-0.1670729780242511
 10
-2.251453920745166
 20
-0.1606047421316795
 10
-2.266344343891007
 20
-0.1538031670974777
 10
-2.282246220697887
 20
-0.1472336073736393
 10
-2.299607190519606
 20
-0.1407130262602576
 10
-2.316962667649851
 20
-0.1347930597680667
 10
-2.334820379234139
 20
-0.1293028157827817
 10
-2.351650140734213
 20
-0.1247141396218192
 10
-2.367966884634918
 20
-0.1208880884981781
 10
-2.382365935494752
 20
-0.1181545989145989
 10
-2.3952982883605
 20
-0.1164278875396128
 10
-2.4056580165202
 20
-0.1158549073091554
 10
-2.413768191336897
 20
-0.1164156227038168
 10
-2.418944832527739
 20
-0.1180609686233502
 10
-2.421205602987358
 20
-0.1204206514110939
  0
LWPOLYLINE
  5
133
330
F9
100
AcDbEntity
  8
AM_9
100
AcDbPolyline
 90
        4
 70
     0
 43
0.0
 10
-2.220087330712348
 20
-0.1790373738501784
 10
-2.21513267024028
 20
-0.1842628795203941
 10
-2.213024785773537
 20
-0.1891729979031393
 10
-2.213411221360272
 20
-0.1933898041312626
  0
LINE
  5
134
330
F9
100
AcDbEntity
  8
AM_9
100
AcDbLine
 10
-2.137458949715468
 20
0.1999999999999999
 30
0.0
 11
-2.200148251565525
 21
0.1999999999999999
 31
0.0
  0
LINE
  5
135
330
F9
100
AcDbEntity
  8
AM_9
100
AcDbLine
 10
-2.200150895652901
 20
-0.2
 30
0.0
 11
-2.137458949715468
 21
-0.2
 31
0.0
  0
LINE
  5
136
330
F9
100
AcDbEntity
  8
AM_9
100
AcDbLine
 10
-1.983198174666365
 20
0.1999999999999999
 30
0.0
 11
-2.050856409337024
 21
0.1999999999999999
 31
0.0
  0
LINE
  5
137
330
F9
100
AcDbEntity
  8
AM_9
100
AcDbLine
 10
-2.050856409337024
 20
-0.2
 30
0.0
 11
-1.983198174666365
 21
-0.2
 31
0.0
  0
LINE
  5
138
330
F9
100
AcDbEntity
  8
AM_9
100
AcDbLine
 10
-2.19
 20
0.2187499999999999
 30
0.0
 11
-1.995561495333025
 21
0.2187499999999999
 31
0.0
  0
LWPOLYLINE
  5
139
330
F9
100
AcDbEntity
  8
AM_9
100
AcDbPolyline
 90
        3
 70
     0
 43
0.0
 10
-2.122437304725587
 20
0.2150392231236947
 10
-2.131811074147531
 20
0.1643083897258503
 10
-2.145577937875947
 20
0.1093749999999999
  0
LINE
  5
13A
330
F9
100
AcDbEntity
  8
AM_9
100
AcDbLine
 10
-2.121856866718256
 20
0.2187499999999999
 30
0.0
 11
-2.122437304725587
 21
0.2150392231236947
 31
0.0
  0
LWPOLYLINE
  5
13B
330
F9
100
AcDbEntity
  8
AM_9
100
AcDbPolyline
 90
        3
 70
     0
 43
0.0
 10
-2.150071322969318
 20
0.0943608436263348
 10
-2.163437587859871
 20
0.0546874999999999
 10
-2.185004552410871
 20
-0.0000000000000001
  0
LINE
  5
13C
330
F9
100
AcDbEntity
  8
AM_9
100
AcDbLine
 10
-2.145577937875947
 20
0.1093749999999999
 30
0.0
 11
-2.150071322969318
 21
0.0943608436263348
 31
0.0
  0
LINE
  5
13D
330
F9
100
AcDbEntity
  8
AM_9
100
AcDbLine
 10
-2.190000000000001
 20
-0.0000000000000001
 30
0.0
 11
-2.185004552410871
 21
-0.0000000000000001
 31
0.0
  0
LINE
  5
13E
330
F9
100
AcDbEntity
  8
AM_9
100
AcDbLine
 10
-2.19
 20
-0.2187500000000001
 30
0.0
 11
-1.995561495333025
 21
-0.2187500000000001
 31
0.0
  0
LINE
  5
13F
330
F9
100
AcDbEntity
  8
AM_9
100
AcDbLine
 10
-2.122503881107282
 20
-0.2146187884139697
 30
0.0
 11
-2.121856866718256
 21
-0.2187500000000001
 31
0.0
  0
LWPOLYLINE
  5
140
330
F9
100
AcDbEntity
  8
AM_9
100
AcDbPolyline
 90
        3
 70
     0
 43
0.0
 10
-2.145577937875947
 20
-0.109375
 10
-2.131863745013563
 20
-0.1640625
 10
-2.122503881107282
 20
-0.2146187884139697
  0
LINE
  5
141
330
F9
100
AcDbEntity
  8
AM_9
100
AcDbLine
 10
-2.149952611189571
 20
-0.0947443091423107
 30
0.0
 11
-2.145577937875947
 21
-0.109375
 31
0.0
  0
LWPOLYLINE
  5
142
330
F9
100
AcDbEntity
  8
AM_9
100
AcDbPolyline
 90
        3
 70
     0
 43
0.0
 10
-2.185004552410871
 20
-0.0000000000000001
 10
-2.163526881493249
 20
-0.0544416102741496
 10
-2.149952611189571
 20
-0.0947443091423107
  0
LINE
  5
143
330
F9
100
AcDbEntity
  8
AM_9
100
AcDbLine
 10
-1.812653557043962
 20
0.1853871066562612
 30
0.0
 11
-1.981470446728031
 21
0.1914800577488989
 31
0.0
  0
LINE
  5
144
330
F9
100
AcDbEntity
  8
AM_9
100
AcDbLine
 10
-1.981470446728031
 20
-0.191480057748899
 30
0.0
 11
-1.812653557043962
 21
-0.1853871066562613
 31
0.0
  0
LINE
  5
145
330
F9
100
AcDbEntity
  8
AM_9
100
AcDbLine
 10
-1.747086819761812
 20
0.1319978794387896
 30
0.0
 11
-1.760800946820881
 21
0.1513925839218323
 31
0.0
  0
LINE
  5
146
330
F9
100
AcDbEntity
  8
AM_9
100
AcDbLine
 10
-1.760800946820881
 20
-0.1513925839218325
 30
0.0
 11
-1.747086819761812
 21
-0.1319978794387897
 31
0.0
  0
ELLIPSE
  5
147
330
F9
100
AcDbEntity
  8
AM_9
100
AcDbEllipse
 10
-2.137458949715468
 20
0.0
 30
0.0
 11
1.339457436567424E-17
 21
0.218750000000001
 31
0.0
210
0.0
220
0.0
230
1.0
 40
0.4999999999999977
 41
0.0
 42
6.283185307179586
  0
ELLIPSE
  5
148
330
F9
100
AcDbEntity
  8
AM_9
100
AcDbEllipse
 10
-2.137458949715469
 20
-0.0000000000000001
 30
0.0
 11
1.224646799147353E-17
 21
0.2
 31
0.0
210
0.0
220
0.0
230
1.0
 40
0.5000000000000004
 41
0.0
 42
6.283185307179586
  0
ELLIPSE
  5
149
330
F9
100
AcDbEntity
  8
AM_9
100
AcDbEllipse
 10
-2.050856409337024
 20
-0.0000000000000003
 30
0.0
 11
1.224646799147351E-17
 21
0.1999999999999997
 31
0.0
210
0.0
220
0.0
230
1.0
 40
0.4999999999999968
 41
0.0
 42
6.283185307179586
  0
ELLIPSE
  5
14A
330
F9
100
AcDbEntity
  8
AM_9
100
AcDbEllipse
 10
-1.983198174666356
 20
-0.000000000000002
 30
0.0
 11
1.224646799147364E-17
 21
0.2000000000000018
 31
0.0
210
0.0
220
0.0
230
1.0
 40
0.4999999999999915
 41
0.0
 42
6.283185307179586
  0
ELLIPSE
  5
14B
330
F9
100
AcDbEntity
  8
AM_9
100
AcDbEllipse
 10
-2.050856409337024
 20
0.0000000000000001
 30
0.0
 11
1.339457436567407E-17
 21
0.2187499999999982
 31
0.0
210
0.0
220
0.0
230
1.0
 40
0.5000000000000052
 41
0.0
 42
6.283185307179586
  0
ELLIPSE
  5
14C
330
F9
100
AcDbEntity
  8
AM_9
100
AcDbEllipse
 10
-1.983198174666365
 20
0.0000000000000002
 30
0.0
 11
1.172668097677217E-17
 21
0.1915112338502292
 31
0.0
210
0.0
220
0.0
230
1.0
 40
0.5000000000000012
 41
0.0
 42
6.283185307179586
  0
ELLIPSE
  5
14D
330
F9
100
AcDbEntity
  8
AM_9
100
AcDbEllipse
 10
-1.814326308177123
 20
0.0000000000000007
 30
0.0
 11
1.135353457964650E-17
 21
0.1854172907249873
 31
0.0
210
0.0
220
0.0
230
1.0
 40
0.5000000000000002
 41
0.0
 42
6.283185307179586
  0
ELLIPSE
  5
14E
330
F9
100
AcDbEntity
  8
AM_9
100
AcDbEllipse
 10
-1.793755117588519
 20
0.0000000000000005
 30
0.0
 11
9.899048221688939E-18
 21
0.161663725877225
 31
0.0
210
0.0
220
0.0
230
1.0
 40
0.4999999999999954
 41
0.0
 42
6.283185307179586
  0
LWPOLYLINE
  5
14F
330
F9
100
AcDbEntity
  8
AM_4
100
AcDbPolyline
 90
        3
 70
     0
 43
0.0
 10
-2.213757756742438
 20
-0.2360765106845277
 10
-2.20459277016588
 20
-0.2462091938631851
 10
-2.189934025181382
 20
-0.2672118976010216
  0
LWPOLYLINE
  5
150
330
F9
100
AcDbEntity
  8
AM_4
100
AcDbPolyline
 90
        3
 70
     0
 43
0.0
 10
-2.189961118118894
 20
-0.2683791326563879
 10
-2.201900616558494
 20
-0.2634308483997528
 10
-2.216114516672734
 20
-0.2602304684431305
  0
LWPOLYLINE
  5
151
330
F9
100
AcDbEntity
  8
AM_4
100
AcDbPolyline
 90
        3
 70
     0
 43
0.0
 10
-2.234414424211268
 20
-0.3055458577949631
 10
-2.21803246959229
 20
-0.3030753670497808
 10
-2.200960378019861
 20
-0.2987675689889718
  0
LINE
  5
152
330
F9
100
AcDbEntity
  8
AM_4
100
AcDbLine
 10
-2.19
 20
-0.2716267871917188
 30
0.0
 11
-2.200960378019861
 21
-0.2987675689889718
 31
0.0
  0
LINE
  5
153
330
F9
100
AcDbEntity
  8
AM_4
100
AcDbLine
 10
-2.348602478997606
 20
-0.5093460834378319
 30
0.0
 11
-2.287990728730342
 21
-0.4540180898723598
 31
0.0
  0
LINE
  5
154
330
F9
100
AcDbEntity
  8
AM_4
100
AcDbLine
 10
-2.544725896030217
 20
-0.3503396289636352
 30
0.0
 11
-2.539532473739487
 21
-0.4322420068738781
 31
0.0
  0
ELLIPSE
  5
155
330
F9
100
AcDbEntity
  8
AM_4
100
AcDbEllipse
 10
-2.443242020868952
 20
-0.4687500000000001
 30
0.0
 11
-0.09595382955731811
 21
0.03874944547499725
 31
0.0
210
0.0
220
0.0
230
1.0
 40
0.2113091308703426
 41
0.1009830038932478
 42
3.040609649696543
  0
LINE
  5
156
330
F9
100
AcDbEntity
  8
AM_4
100
AcDbLine
 10
-2.491255954085239
 20
-0.151074129835757
 30
0.0
 11
-2.502577527309116
 21
-0.1791093260592887
 31
0.0
  0
LWPOLYLINE
  5
157
330
F9
100
AcDbEntity
  8
AM_4
100
AcDbPolyline
 90
        9
 70
     0
 43
0.0
 10
-2.520599486177702
 20
-0.3178924884873776
 10
-2.522633818794522
 20
-0.3185550278697722
 10
-2.528392862943279
 20
-0.321131705533227
 10
-2.533570347955476
 20
-0.3246477844271217
 10
-2.538040146717193
 20
-0.3291618787289914
 10
-2.541542982868731
 20
-0.3345877190385402
 10
-2.543947718092577
 20
-0.3411582637933178
 10
-2.544782548478115
 20
-0.3476660424270661
 10
-2.544682589663648
 20
-0.3509347943915622
  0
LWPOLYLINE
  5
158
330
F9
100
AcDbEntity
  8
AM_4
100
AcDbPolyline
 90
        9
 70
     0
 43
0.0
 10
-2.288404315030367
 20
-0.4543891001819145
 10
-2.285804739967624
 20
-0.4518171879359388
 10
-2.282023559015311
 20
-0.4466113179226902
 10
-2.279224853527788
 20
-0.4400844014116473
 10
-2.27804683812766
 20
-0.4335220079048013
 10
-2.278237995673465
 20
-0.4272803322826609
 10
-2.279525680255001
 20
-0.4214500620878979
 10
-2.281737192056642
 20
-0.4159635741427868
 10
-2.282802913656761
 20
-0.4139454919806508
  0
ELLIPSE
  5
159
330
F9
100
AcDbEntity
  8
AM_4
100
AcDbEllipse
 10
-2.415248358671469
 20
-0.399430321788976
 30
0.0
 11
-0.1290248947933268
 21
0.05210467522533575
 31
0.0
210
0.0
220
0.0
230
1.0
 40
0.21130913087035
 41
0.1056284905479661
 42
3.036299423673045
  0
LWPOLYLINE
  5
15A
330
F9
100
AcDbEntity
  8
AM_4
100
AcDbPolyline
 90
        3
 70
     0
 43
0.0
 10
-2.282150259624652
 20
-0.2987675689889718
 10
-2.268616994124262
 20
-0.3030606061861223
 10
-2.255057709499277
 20
-0.305456396233367
  0
ELLIPSE
  5
15B
330
F9
100
AcDbEntity
  8
AM_4
100
AcDbEllipse
 10
-2.353572473930139
 20
-0.2467045921760195
 30
0.0
 11
-0.1303939210191762
 21
0.05265753494273489
 31
0.0
210
0.0
220
0.0
230
1.0
 40
0.2113091308703508
 41
1.711945269609643
 42
2.505596057672103
  0
LWPOLYLINE
  5
15C
330
F9
100
AcDbEntity
  8
AM_4
100
AcDbPolyline
 90
        4
 70
     0
 43
0.0
 10
-2.502577527309116
 20
-0.1791093260592887
 10
-2.48770040926604
 20
-0.1988355121406939
 10
-2.471271137023366
 20
-0.2156330920108724
 10
-2.465774118412023
 20
-0.2201680623457972
  0
LWPOLYLINE
  5
15D
330
F9
100
AcDbEntity
  8
AM_4
100
AcDbPolyline
 90
        3
 70
     0
 43
0.0
 10
-2.465774118412023
 20
-0.2201680623457972
 10
-2.452833596813396
 20
-0.2290462109660021
 10
-2.432958235871079
 20
-0.2389369657326275
  0
LWPOLYLINE
  5
15E
330
F9
100
AcDbEntity
  8
AM_4
100
AcDbPolyline
 90
        3
 70
     0
 43
0.0
 10
-2.235870916626002
 20
-0.2602304684431209
 10
-2.245119552039896
 20
-0.2616913382589203
 10
-2.270094610313674
 20
-0.2689146070947222
  0
LINE
  5
15F
330
F9
100
AcDbEntity
  8
AM_4
100
AcDbLine
 10
-2.42228631832205
 20
-0.1230967854582225
 30
0.0
 11
-2.437269589055493
 21
-0.1601993088245384
 31
0.0
  0
LINE
  5
160
330
F9
100
AcDbEntity
  8
AM_4
100
AcDbLine
 10
-2.233275543727717
 20
-0.2425790968238377
 30
0.0
 11
-2.216080644906464
 21
-0.2
 31
0.0
  0
ELLIPSE
  5
161
330
F9
100
AcDbEntity
  8
AM_4
100
AcDbEllipse
 10
-2.335272566391605
 20
-0.2013892028241881
 30
0.0
 11
-0.1019970226638876
 21
0.04118989399964963
 31
0.0
210
0.0
220
0.0
230
1.0
 40
0.2113091308703492
 41
0.0
 42
3.141592653589793
  0
LWPOLYLINE
  5
162
330
F9
100
AcDbEntity
  8
AM_4
100
AcDbPolyline
 90
        4
 70
     0
 43
0.0
 10
-2.491255954085239
 20
-0.151074129835757
 10
-2.474640112097711
 20
-0.145877822676052
 10
-2.458585499442578
 20
-0.1427138007556462
 10
-2.446976952824943
 20
-0.141958509815605
  0
LWPOLYLINE
  5
163
330
F9
100
AcDbEntity
  8
AM_4
100
AcDbPolyline
 90
        6
 70
     0
 43
0.0
 10
-2.421270989651533
 20
-0.2099962668917053
 10
-2.431580126008863
 20
-0.1943573015029059
 10
-2.442923952843073
 20
-0.1805491420332303
 10
-2.45563792741988
 20
-0.1688997677199809
 10
-2.469533853609572
 20
-0.1598729403210871
 10
-2.491255954085239
 20
-0.151074129835757
  0
LINE
  5
164
330
F9
100
AcDbEntity
  8
AM_4
100
AcDbLine
 10
-2.445647099282114
 20
-0.1419585097669023
 30
0.0
 11
-2.447085575930267
 21
-0.1419585097669023
 31
0.0
  0
ELLIPSE
  5
165
330
F9
100
AcDbEntity
  8
AM_4
100
AcDbEllipse
 10
-2.335272566391591
 20
-0.2013892028242109
 30
0.0
 11
-0.1303939210191948
 21
0.05265753494275412
 31
0.0
210
0.0
220
0.0
230
1.0
 40
0.2113091308704014
 41
5.610613825799337
 42
7.795870906981333
  0
ELLIPSE
  5
166
330
F9
100
AcDbEntity
  8
AM_4
100
AcDbEllipse
 10
-2.353572473930137
 20
-0.2467045921760199
 30
0.0
 11
-0.1303939210191762
 21
0.05265753494273393
 31
0.0
210
0.0
220
0.0
230
1.0
 40
0.2113091308703553
 41
0.6359965959176908
 42
1.512685599801931
  0
LWPOLYLINE
  5
167
330
F9
100
AcDbEntity
  8
AM_4
100
AcDbPolyline
 90
        3
 70
     0
 43
0.0
 10
-2.254170824164538
 20
-0.3055458577949631
 10
-2.244720625278229
 20
-0.3064767622622302
 10
-2.234414424211268
 20
-0.3055458577949631
  0
LWPOLYLINE
  5
168
330
F9
100
AcDbEntity
  8
AM_4
100
AcDbPolyline
 90
       17
 70
     0
 43
0.0
 10
-2.282356701339486
 20
-0.4147516995842059
 10
-2.284795424426694
 20
-0.4094139063960064
 10
-2.287158481947054
 20
-0.402558087832511
 10
-2.289031549889352
 20
-0.3943318288340338
 10
-2.290029099835668
 20
-0.3850073123369672
 10
-2.289854453603719
 20
-0.3749906652087235
 10
-2.288345583619868
 20
-0.3646999349129906
 10
-2.285117970952594
 20
-0.3535656383568678
 10
-2.280469082950155
 20
-0.3432587198352172
 10
-2.274690127797916
 20
-0.3340616195016263
 10
-2.268095621362608
 20
-0.3261232469692968
 10
-2.26103456415209
 20
-0.3195312036564725
 10
-2.253908647195345
 20
-0.3143233139646578
 10
-2.247153577303373
 20
-0.3104617765040602
 10
-2.241161640422244
 20
-0.3078056983285213
 10
-2.236192664704026
 20
-0.3061265755737245
 10
-2.232592972000798
 20
-0.3052176845916407
  0
LWPOLYLINE
  5
169
330
F9
100
AcDbEntity
  8
AM_4
100
AcDbPolyline
 90
       18
 70
     0
 43
0.0
 10
-2.481106712345305
 20
-0.2050246346471989
 10
-2.480963067436852
 20
-0.205241915168917
 10
-2.478770616829155
 20
-0.208892574678062
 10
-2.476319999191849
 20
-0.2138711466677441
 10
-2.473883565254948
 20
-0.220276055116711
 10
-2.471814582155029
 20
-0.2280941666402319
 10
-2.470505921767198
 20
-0.2371156641990514
 10
-2.470290777580162
 20
-0.2469624542089732
 10
-2.471373376350968
 20
-0.2572099696887004
 10
-2.474161866056441
 20
-0.2685132073854253
 10
-2.478442675801566
 20
-0.2790925798167955
 10
-2.483937047097434
 20
-0.2886195142600467
 10
-2.490336764210301
 20
-0.2969203196842677
 10
-2.497305544902381
 20
-0.3038948368348359
 10
-2.504456663029999
 20
-0.3094896115191388
 10
-2.511358669173818
 20
-0.313717858877276
 10
-2.517596769411488
 20
-0.3166906370530878
 10
-2.521583725175288
 20
-0.3181965764981333
  0
ELLIPSE
  5
16A
330
F9
100
AcDbEntity
  8
AM_4
100
AcDbEllipse
 10
-2.404573377194123
 20
-0.3729962569746643
 30
0.0
 11
-0.1235034625625957
 21
0.04987493162723568
 31
0.0
210
0.0
220
0.0
230
1.0
 40
0.2113091308703504
 41
6.042339142087147
 42
9.664785382164084
  0
ELLIPSE
  5
16B
330
F9
100
AcDbEntity
  8
AM_4
100
AcDbEllipse
 10
-2.335272566391606
 20
-0.2013892028241855
 30
0.0
 11
-0.1303939210191843
 21
0.05265753494272244
 31
0.0
210
0.0
220
0.0
230
1.0
 40
0.2113091308703697
 41
1.711945269609626
 42
2.518556725320327
  0
LINE
  5
16C
330
F9
100
AcDbEntity
  8
AM_4
100
AcDbLine
 10
-2.216114516672734
 20
-0.2602304684431305
 30
0.0
 11
-2.235870916626002
 21
-0.2602304684431209
 31
0.0
  0
ELLIPSE
  5
16D
330
F9
100
AcDbEntity
  8
AM_4
100
AcDbEllipse
 10
-2.335272566391603
 20
-0.2013892028241887
 30
0.0
 11
-0.1303939210191727
 21
0.05265753494273345
 31
0.0
210
0.0
220
0.0
230
1.0
 40
0.2113091308703478
 41
2.800469246484365
 42
3.607080702195134
  0
LINE
  5
16E
330
F9
100
AcDbEntity
  8
AM_4
100
AcDbLine
 10
-2.225779286924245
 20
-0.2258378743019629
 30
0.0
 11
-2.213757756742438
 21
-0.2360765106845277
 31
0.0
  0
LWPOLYLINE
  5
16F
330
F9
100
AcDbEntity
  8
AM_4
100
AcDbPolyline
 90
        3
 70
     0
 43
0.0
 10
-2.270094610313674
 20
-0.2689146070947222
 10
-2.298156910282518
 20
-0.251275593729576
 10
-2.327945015120504
 20
-0.2360765106845275
  0
LINE
  5
170
330
F9
100
AcDbEntity
  8
AM_4
100
AcDbLine
 10
-2.327945015120504
 20
-0.2360765106845275
 30
0.0
 11
-2.353953824146489
 21
-0.2258378743019627
 31
0.0
  0
LWPOLYLINE
  5
171
330
F9
100
AcDbEntity
  8
AM_4
100
AcDbPolyline
 90
        3
 70
     0
 43
0.0
 10
-2.353953824146489
 20
-0.2258378743019627
 10
-2.376943858838729
 20
-0.2189176876709014
 10
-2.421270989651533
 20
-0.2099962668917053
  0
LINE
  5
172
330
F9
100
AcDbEntity
  8
AM_4
100
AcDbLine
 10
-2.421270989651533
 20
-0.2099962668917053
 30
0.0
 11
-2.432958235871078
 21
-0.2389369657326276
 31
0.0
  0
LWPOLYLINE
  5
173
330
F9
100
AcDbEntity
  8
AM_4
100
AcDbPolyline
 90
        3
 70
     0
 43
0.0
 10
-2.432958235871078
 20
-0.2389369657326276
 10
-2.403278414637276
 20
-0.2560939713202353
 10
-2.372253731685021
 20
-0.2711532636537956
  0
LINE
  5
174
330
F9
100
AcDbEntity
  8
AM_4
100
AcDbLine
 10
-2.372253731685021
 20
-0.2711532636537956
 30
0.0
 11
-2.346244922659038
 21
-0.2813919000363599
 31
0.0
  0
LWPOLYLINE
  5
175
330
F9
100
AcDbEntity
  8
AM_4
100
AcDbPolyline
 90
        3
 70
     0
 43
0.0
 10
-2.346244922659038
 20
-0.2813919000363599
 10
-2.314594371805013
 20
-0.2911775952746243
 10
-2.282150259624652
 20
-0.2987675689889718
  0
LINE
  5
176
330
F9
100
AcDbEntity
  8
AM_4
100
AcDbLine
 10
-2.270094610313674
 20
-0.2689146070947222
 30
0.0
 11
-2.282150259624652
 21
-0.2987675689889718
 31
0.0
  0
ARC
  5
177
330
F9
100
AcDbEntity
  8
AM_4
100
AcDbCircle
 10
-2.264656430896308
 20
0.0000000000000004
 30
0.0
 40
0.1999999999999995
100
AcDbArc
 50
90.0
 51
219.6396985082596
  0
LWPOLYLINE
  5
178
330
F9
100
AcDbEntity
  8
AM_4
100
AcDbPolyline
 90
       10
 70
     0
 43
0.0
 10
-2.418858993155307
 20
-0.1273638845459952
 10
-2.417195481205637
 20
-0.1291842652280562
 10
-2.410917933937973
 20
-0.1344729790611519
 10
-2.401760334875252
 20
-0.1405186270901959
 10
-2.390464145713241
 20
-0.1468270783017121
 10
-2.376722994572491
 20
-0.1535654953592165
 10
-2.361661504833009
 20
-0.1601799433259583
 10
-2.34486808201335
 20
-0.1668493358980661
 10
-2.327468745859354
 20
-0.1731116383367606
 10
-2.309225531080251
 20
-0.1790373738502115
  0
ELLIPSE
  5
179
330
F9
100
AcDbEntity
  8
AM_4
100
AcDbEllipse
 10
-2.264656430896308
 20
-0.0000000000000001
 30
0.0
 11
1.224646799147352E-17
 21
0.1999999999999998
 31
0.0
210
0.0
220
0.0
230
1.0
 40
0.5000000000000009
 41
0.0
 42
2.679646633022825
  0
LINE
  5
17A
330
F9
100
AcDbEntity
  8
AM_4
100
AcDbLine
 10
-2.200148251565525
 20
0.1999999999999999
 30
0.0
 11
-2.264656430896308
 21
0.1999999999999999
 31
0.0
  0
LINE
  5
17B
330
F9
100
AcDbEntity
  8
AM_4
100
AcDbLine
 10
-2.229750212494194
 20
-0.2
 30
0.0
 11
-2.200150895652901
 21
-0.2
 31
0.0
  0
LWPOLYLINE
  5
17C
330
F9
100
AcDbEntity
  8
AM_4
100
AcDbPolyline
 90
        8
 70
     0
 43
0.0
 10
-2.229602428267287
 20
-0.1999999999699529
 10
-2.23108954550659
 20
-0.1999786710855128
 10
-2.241963145983339
 20
-0.1988321115509053
 10
-2.254361467697322
 20
-0.1961649429984259
 10
-2.268784898063314
 20
-0.1920694300574958
 10
-2.284297877924131
 20
-0.1870948030566195
 10
-2.301391281711102
 20
-0.181500594761393
 10
-2.309225531080268
 20
-0.1790373738501784
  0
LINE
  5
17D
330
F9
100
AcDbEntity
  8
AM_4
100
AcDbLine
 10
-2.192753863719468
 20
0.2187499999999999
 30
0.0
 11
-2.19
 21
0.2187499999999999
 31
0.0
  0
LWPOLYLINE
  5
17E
330
F9
100
AcDbEntity
  8
AM_4
100
AcDbPolyline
 90
        3
 70
     0
 43
0.0
 10
-2.232180478254391
 20
0.1093749999999999
 10
-2.214320828270468
 20
0.1640624999999999
 10
-2.192753863719468
 20
0.2187499999999999
  0
LWPOLYLINE
  5
17F
330
F9
100
AcDbEntity
  8
AM_4
100
AcDbPolyline
 90
        3
 70
     0
 43
0.0
 10
-2.255901549412083
 20
-0.0000000000000001
 10
-2.245947341982808
 20
0.0544416102741495
 10
-2.232180478254391
 20
0.1093749999999999
  0
LINE
  5
180
330
F9
100
AcDbEntity
  8
AM_4
100
AcDbLine
 10
-2.255901549412083
 20
-0.0000000000000001
 30
0.0
 11
-2.190000000000001
 21
-0.0000000000000001
 31
0.0
  0
LWPOLYLINE
  5
181
330
F9
100
AcDbEntity
  8
AM_4
100
AcDbPolyline
 90
        3
 70
     0
 43
0.0
 10
-2.232180478254391
 20
-0.109375
 10
-2.245894671116776
 20
-0.0546875
 10
-2.255901549412083
 20
-0.0000000000000001
  0
LWPOLYLINE
  5
182
330
F9
100
AcDbEntity
  8
AM_4
100
AcDbPolyline
 90
        3
 70
     0
 43
0.0
 10
-2.192753863719468
 20
-0.2187500000000001
 10
-2.21423153463709
 20
-0.1643083897258504
 10
-2.232180478254391
 20
-0.109375
  0
LINE
  5
183
330
F9
100
AcDbEntity
  8
AM_4
100
AcDbLine
 10
-2.192753863719468
 20
-0.2187500000000001
 30
0.0
 11
-2.19
 21
-0.2187500000000001
 31
0.0
  0
ENDBLK
  5
FC
330
F9
100
AcDbEntity
  8
0
100
AcDbBlockEnd
  0
BLOCK
  5
186
330
184
100
AcDbEntity
  8
0
100
AcDbBlockBegin
  2
4_135116H_0_in_135116_4
 70
     2
 10
0.0
 20
0.0
 30
0.0
  3
4_135116H_0_in_135116_4
  1

  0
ATTDEF
  5
188
330
184
100
AcDbEntity
  8
AM_6
100
AcDbText
 10
8.5315
 20
0.9699999999999999
 30
0.0
 40
0.5
  1
WSTU-SCM -Inch - housing
100
AcDbAttributeDefinition
  3

  2
NN
 70
     8
280
     0
  0
ATTDEF
  5
189
330
184
100
AcDbEntity
  8
AM_6
100
AcDbText
 10
8.5315
 20
0.4699999999999999
 30
0.0
 40
0.5
  1
SC Take-Up Bearings -Wide Slot -(Medium Duty)
100
AcDbAttributeDefinition
  3

  2
NT
 70
     8
280
     0
  0
ATTDEF
  5
18A
330
184
100
AcDbEntity
  8
AM_6
100
AcDbText
 10
8.5315
 20
-0.0300000000000001
 30
0.0
 40
0.5
  1
135116H
100
AcDbAttributeDefinition
  3

  2
NB
 70
     8
280
     0
  0
ATTDEF
  5
18B
330
184
100
AcDbEntity
  8
AM_6
100
AcDbText
 10
8.5315
 20
-0.5300000000000001
 30
0.0
 40
0.5
  1
$PN.H
100
AcDbAttributeDefinition
  3

  2
NBSYN
 70
     8
280
     0
  0
ATTDEF
  5
18C
330
184
100
AcDbEntity
  8
AM_6
100
AcDbText
 10
8.5315
 20
-1.03
 30
0.0
 40
0.5
  1
135116
100
AcDbAttributeDefinition
  3

  2
LINA
 70
     8
280
     0
  0
ATTDEF
  5
18D
330
184
100
AcDbEntity
  8
AM_6
100
AcDbText
 10
8.5315
 20
-1.53
 30
0.0
 40
0.5
  1
208
100
AcDbAttributeDefinition
  3

  2
SERIES
 70
     8
280
     0
  0
ATTDEF
  5
18E
330
184
100
AcDbEntity
  8
AM_6
100
AcDbText
 10
8.5315
 20
-2.03
 30
0.0
 40
0.5
  1
1-7/16
100
AcDbAttributeDefinition
  3

  2
SS
 70
     8
280
     0
  0
ATTDEF
  5
18F
330
184
100
AcDbEntity
  8
AM_6
100
AcDbText
 10
8.5315
 20
-2.53
 30
0.0
 40
0.5
  1
135116
100
AcDbAttributeDefinition
  3

  2
PN
 70
     8
280
     0
  0
ATTDEF
  5
190
330
184
100
AcDbEntity
  8
AM_6
100
AcDbText
 10
8.5315
 20
-3.03
 30
0.0
 40
0.5
  1
WSTU-SCM-107
100
AcDbAttributeDefinition
  3

  2
DESCRIPTION
 70
     8
280
     0
  0
ATTDEF
  5
191
330
184
100
AcDbEntity
  8
AM_6
100
AcDbText
 10
8.5315
 20
-3.53
 30
0.0
 40
0.5
  1
6.1
100
AcDbAttributeDefinition
  3

  2
W
 70
     8
280
     0
  0
ATTDEF
  5
192
330
184
100
AcDbEntity
  8
AM_6
100
AcDbText
 10
8.5315
 20
-4.03
 30
0.0
 40
0.5
  1
WS400
100
AcDbAttributeDefinition
  3

  2
FS
 70
     8
280
     0
  0
ATTDEF
  5
193
330
184
100
AcDbEntity
  8
AM_6
100
AcDbText
 10
8.5315
 20
-4.53
 30
0.0
 40
0.5
  1
1.94
100
AcDbAttributeDefinition
  3

  2
A
 70
     8
280
     0
  0
ATTDEF
  5
194
330
184
100
AcDbEntity
  8
AM_6
100
AcDbText
 10
8.5315
 20
-5.03
 30
0.0
 40
0.5
  1
5.69
100
AcDbAttributeDefinition
  3

  2
B
 70
     8
280
     0
  0
ATTDEF
  5
195
330
184
100
AcDbEntity
  8
AM_6
100
AcDbText
 10
8.5315
 20
-5.53
 30
0.0
 40
0.5
  1
0.688
100
AcDbAttributeDefinition
  3

  2
C
 70
     8
280
     0
  0
ATTDEF
  5
196
330
184
100
AcDbEntity
  8
AM_6
100
AcDbText
 10
8.5315
 20
-6.03
 30
0.0
 40
0.5
  1
3.25
100
AcDbAttributeDefinition
  3

  2
D
 70
     8
280
     0
  0
ATTDEF
  5
197
330
184
100
AcDbEntity
  8
AM_6
100
AcDbText
 10
8.5315
 20
-6.53
 30
0.0
 40
0.5
  1
3.50
100
AcDbAttributeDefinition
  3

  2
E
 70
     8
280
     0
  0
ATTDEF
  5
198
330
184
100
AcDbEntity
  8
AM_6
100
AcDbText
 10
8.5315
 20
-7.03
 30
0.0
 40
0.5
  1
1
100
AcDbAttributeDefinition
  3

  2
F
 70
     8
280
     0
  0
ATTDEF
  5
199
330
184
100
AcDbEntity
  8
AM_6
100
AcDbText
 10
8.5315
 20
-7.53
 30
0.0
 40
0.5
  1
0.63
100
AcDbAttributeDefinition
  3

  2
G
 70
     8
280
     0
  0
ATTDEF
  5
19A
330
184
100
AcDbEntity
  8
AM_6
100
AcDbText
 10
8.5315
 20
-8.030000000000001
 30
0.0
 40
0.5
  1
0.75
100
AcDbAttributeDefinition
  3

  2
H
 70
     8
280
     0
  0
ATTDEF
  5
19B
330
184
100
AcDbEntity
  8
AM_6
100
AcDbText
 10
8.5315
 20
-8.530000000000001
 30
0.0
 40
0.5
  1
3.25
100
AcDbAttributeDefinition
  3

  2
J
 70
     8
280
     0
  0
ATTDEF
  5
19C
330
184
100
AcDbEntity
  8
AM_6
100
AcDbText
 10
8.5315
 20
-9.030000000000001
 30
0.0
 40
0.5
  1
1.94
100
AcDbAttributeDefinition
  3

  2
K
 70
     8
280
     0
  0
ATTDEF
  5
19D
330
184
100
AcDbEntity
  8
AM_6
100
AcDbText
 10
8.5315
 20
-9.530000000000001
 30
0.0
 40
0.5
  1
2.05
100
AcDbAttributeDefinition
  3

  2
L
 70
     8
280
     0
  0
ATTDEF
  5
19E
330
184
100
AcDbEntity
  8
AM_6
100
AcDbText
 10
8.5315
 20
-10.03
 30
0.0
 40
0.5
  1
3.985 / 4.015
100
AcDbAttributeDefinition
  3

  2
M
 70
     8
280
     0
  0
ATTDEF
  5
19F
330
184
100
AcDbEntity
  8
AM_6
100
AcDbText
 10
8.5315
 20
-10.53
 30
0.0
 40
0.5
  1
4.50
100
AcDbAttributeDefinition
  3

  2
N
 70
     8
280
     0
  0
ATTDEF
  5
1A0
330
184
100
AcDbEntity
  8
AM_6
100
AcDbText
 10
8.5315
 20
-11.03
 30
0.0
 40
0.5
  1
0.75
100
AcDbAttributeDefinition
  3

  2
R
 70
     8
280
     0
  0
ATTDEF
  5
1A1
330
184
100
AcDbEntity
  8
AM_6
100
AcDbText
 10
8.5315
 20
-11.53
 30
0.0
 40
0.5
  1
1.19
100
AcDbAttributeDefinition
  3

  2
S
 70
     8
280
     0
  0
ATTDEF
  5
1A2
330
184
100
AcDbEntity
  8
AM_6
100
AcDbText
 10
8.5315
 20
-12.03
 30
0.0
 40
0.5
  1
1.94
100
AcDbAttributeDefinition
  3

  2
T
 70
     8
280
     0
  0
ATTDEF
  5
1A3
330
184
100
AcDbEntity
  8
AM_6
100
AcDbText
 10
8.5315
 20
-12.53
 30
0.0
 40
0.5
  1
4005
100
AcDbAttributeDefinition
  3

  2
CAPS
 70
     8
280
     0
  0
ATTDEF
  5
1A4
330
184
100
AcDbEntity
  8
AM_6
100
AcDbText
 10
8.5315
 20
-13.03
 30
0.0
 40
0.5
  1
7332
100
AcDbAttributeDefinition
  3

  2
CAPD
 70
     8
280
     0
  0
ATTDEF
  5
1A5
330
184
100
AcDbEntity
  8
AM_6
100
AcDbText
 10
8.5315
 20
-13.53
 30
0.0
 40
0.5
  1
baldor
100
AcDbAttributeDefinition
  3

  2
COMPANY
 70
     8
280
     0
  0
LWPOLYLINE
  5
1A6
330
184
100
AcDbEntity
  8
AM_9
100
AcDbPolyline
 90
       11
 70
     0
 43
0.0
 10
-1.967141643746578
 20
-0.0000000000000001
 10
-1.966231925404925
 20
-0.0247924152057592
 10
-1.963412585309353
 20
-0.0495848304115184
 10
-1.95889153939832
 20
-0.0722945167364867
 10
-1.952491772130034
 20
-0.0935785146472019
 10
-1.9446795096716
 20
-0.1116825398738214
 10
-1.935173790557484
 20
-0.1270951394762363
 10
-1.924700662343841
 20
-0.1385338022852192
 10
-1.912913133362068
 20
-0.1463097585476124
 10
-1.900787544377696
 20
-0.1497639529318287
 10
-1.89660276045919
 20
-0.1499999993228947
  0
LINE
  5
1A7
330
184
100
AcDbEntity
  8
AM_9
100
AcDbLine
 10
-1.983198174666366
 20
-0.1499999999999999
 30
0.0
 11
-1.896567053119932
 21
-0.1499999999999999
 31
0.0
  0
LINE
  5
1A8
330
184
100
AcDbEntity
  8
AM_9
100
AcDbLine
 10
-1.896590525345408
 20
0.1499999999999998
 30
0.0
 11
-1.983198174666366
 21
0.1499999999999998
 31
0.0
  0
LWPOLYLINE
  5
1A9
330
184
100
AcDbEntity
  8
AM_9
100
AcDbPolyline
 90
       20
 70
     0
 43
0.0
 10
-1.89660276045919
 20
-0.1499999993228947
 10
-1.887937623366488
 20
-0.149010713941032
 10
-1.875469257035228
 20
-0.1441249056023046
 10
-1.863026121903882
 20
-0.1349702192340759
 10
-1.851681294249269
 20
-0.1223026577812418
 10
-1.841174639344506
 20
-0.105765751600758
 10
-1.832428174903005
 20
-0.0867002989578984
 10
-1.825276633069013
 20
-0.0645864818867164
 10
-1.820375038033566
 20
-0.0412783013964109
 10
-1.817626422379013
 20
-0.016102300110937
 10
-1.817285166816371
 20
0.0087694506965998
 10
-1.819336555635064
 20
0.034105727670874
 10
-1.823585082575367
 20
0.0577557345765747
 10
-1.830114970842438
 20
0.0804257297236244
 10
-1.838343519624188
 20
0.1002515627682366
 10
-1.848436353994344
 20
0.1177661607409679
 10
-1.859506948124132
 20
0.1315245507283895
 10
-1.871800643242817
 20
0.1418901350889906
 10
-1.884227129841093
 20
0.1479857004140858
 10
-1.896599045471253
 20
0.1499999998448515
  0
LWPOLYLINE
  5
1AA
330
184
100
AcDbEntity
  8
AM_9
100
AcDbPolyline
 90
       12
 70
     0
 43
0.0
 10
-1.896599045471253
 20
0.1499999998448515
 10
-1.897125990142201
 20
0.1499962464390961
 10
-1.909376188482668
 20
0.1477602015701333
 10
-1.921369154166171
 20
0.1412228418719714
 10
-1.932129399483775
 20
0.130934250180295
 10
-1.942015450518529
 20
0.1166007453829472
 10
-1.950274145202703
 20
0.0993832302591704
 10
-1.95718597406853
 20
0.078811336759286
 10
-1.962234679819694
 20
0.0565866405173277
 10
-1.965609939552502
 20
0.0320838073911224
 10
-1.966753535522843
 20
0.0162299750380387
 10
-1.967141643746578
 20
-0.0000000000000001
  0
LINE
  5
1AB
330
184
100
AcDbEntity
  8
AM_9
100
AcDbLine
 10
-1.899214567391947
 20
-0.4199809470760907
 30
0.0
 11
-1.896540652847891
 21
-0.4199999916028922
 31
0.0
  0
LWPOLYLINE
  5
1AC
330
184
100
AcDbEntity
  8
AM_9
100
AcDbPolyline
 90
       27
 70
     0
 43
0.0
 10
-2.156595634287922
 20
-0.0000000000000001
 10
-2.156470929048772
 20
-0.013583366877637
 10
-2.155573305005118
 20
-0.038849606753719
 10
-2.153809793411793
 20
-0.0639935787345332
 10
-2.151179839601529
 20
-0.0889391507200544
 10
-2.147681520895621
 20
-0.1136146360788124
 10
-2.143311119050011
 20
-0.1379498386308498
 10
-2.138062487497828
 20
-0.1618760803515524
 10
-2.131926317017506
 20
-0.1853258703455562
 10
-2.124889408911003
 20
-0.208232005087866
 10
-2.116934186052803
 20
-0.2305258072780896
 10
-2.108038883669973
 20
-0.2521341345875214
 10
-2.098179185540177
 20
-0.2729748060887809
 10
-2.087332448564018
 20
-0.2929504139205515
 10
-2.075485780128458
 20
-0.3119414920760099
 10
-2.062670666649901
 20
-0.3297731242950359
 10
-2.048946389621285
 20
-0.3462723350892767
 10
-2.034411075804554
 20
-0.3612714721828676
 10
-2.019191702904757
 20
-0.3746339532797371
 10
-2.003423150926347
 20
-0.3862740109984127
 10
-1.98723001716184
 20
-0.3961577066294648
 10
-1.970719817401228
 20
-0.4042889409889581
 10
-1.95398597752097
 20
-0.4106922563811806
 10
-1.937114062787797
 20
-0.4154006364797375
 10
-1.920186352424468
 20
-0.4184496625760078
 10
-1.903283240320111
 20
-0.419875737869409
 10
-1.899214567391947
 20
-0.4199809470760907
  0
LWPOLYLINE
  5
1AD
330
184
100
AcDbEntity
  8
AM_9
100
AcDbPolyline
 90
       27
 70
     0
 43
0.0
 10
-1.896600477063256
 20
0.4199999999348542
 10
-1.91282354637408
 20
0.4192674929485076
 10
-1.929358288108029
 20
0.4170017676581274
 10
-1.945609563206041
 20
0.4132428694296373
 10
-1.961531461405467
 20
0.4080251634421184
 10
-1.977089543314771
 20
0.4013732519327948
 10
-1.99225938729911
 20
0.3932990031094705
 10
-2.007023146048517
 20
0.3838000119777434
 10
-2.0213640389293
 20
0.3728609590458826
 10
-2.03525915752549
 20
0.3604595192930918
 10
-2.048671876416561
 20
0.3465779471362373
 10
-2.061546488324944
 20
0.3312194056029266
 10
-2.073808586380347
 20
0.314424294875852
 10
-2.085373403090518
 20
0.2962784892389731
 10
-2.096159909383067
 20
0.2769072006070428
 10
-2.106104015819076
 20
0.2564565747549614
 10
-2.115155658781944
 20
0.2350958726709779
 10
-2.123300495259731
 20
0.2129526985761107
 10
-2.130538340387865
 20
0.1901339863291622
 10
-2.136875196492622
 20
0.1667326257429197
 10
-2.142319044158958
 20
0.1428320128146554
 10
-2.146877555199296
 20
0.1185099828167094
 10
-2.150557120495853
 20
0.0938416009830709
 10
-2.153362623224564
 20
0.0689008911105882
 10
-2.155297563328806
 20
0.0437617560091993
 10
-2.156364295833002
 20
0.0184983393103676
 10
-2.156595634287922
 20
-0.0000000000000001
  0
LINE
  5
1AE
330
184
100
AcDbEntity
  8
AM_9
100
AcDbLine
 10
2.87
 20
-0.5
 30
0.0
 11
3.5
 21
-0.5
 31
0.0
  0
LINE
  5
1AF
330
184
100
AcDbEntity
  8
AM_9
100
AcDbLine
 10
3.5
 20
0.5
 30
0.0
 11
2.87
 21
0.5
 31
0.0
  0
LINE
  5
1B0
330
184
100
AcDbEntity
  8
AM_9
100
AcDbLine
 10
2.188800000000001
 20
-0.5848
 30
0.0
 11
2.1888
 21
0.5848000000000001
 31
0.0
  0
LINE
  5
1B1
330
184
100
AcDbEntity
  8
AM_9
100
AcDbLine
 10
2.120000000000001
 20
-0.5848
 30
0.0
 11
2.120000000000001
 21
0.5848000000000001
 31
0.0
  0
LINE
  5
1B2
330
184
100
AcDbEntity
  8
AM_9
100
AcDbLine
 10
2.87
 20
-0.5848
 30
0.0
 11
2.87
 21
0.5848000000000001
 31
0.0
  0
LINE
  5
1B3
330
184
100
AcDbEntity
  8
AM_9
100
AcDbLine
 10
2.8012
 20
-0.5848
 30
0.0
 11
2.8012
 21
0.5848000000000001
 31
0.0
  0
LWPOLYLINE
  5
1B4
330
184
100
AcDbEntity
  8
AM_9
100
AcDbPolyline
 90
       29
 70
     0
 43
0.0
 10
-1.896595634287922
 20
0.4199999999999998
 10
-1.872855306932014
 20
0.417372633048305
 10
-1.848505149752073
 20
0.4095946391729467
 10
-1.824051525489753
 20
0.3968221788435152
 10
-1.799801301663055
 20
0.3791308897703753
 10
-1.776066132423731
 20
0.3567577995531365
 10
-1.753390795197134
 20
0.3301206845516493
 10
-1.731890901424528
 20
0.2990455194780562
 10
-1.712146678303545
 20
0.2641414681914565
 10
-1.694663461157506
 20
0.2260412374364704
 10
-1.67967186191496
 20
0.184691823251401
 10
-1.667563309762628
 20
0.140816656076636
 10
-1.658688791019305
 20
0.0952479452532906
 10
-1.653335912555309
 20
0.048978160794481
 10
-1.651422793472942
 20
0.0019262376230318
 10
-1.653007281203578
 20
-0.0449988777674201
 10
-1.658028084149707
 20
-0.0906980177443615
 10
-1.666319652904578
 20
-0.1354045257731093
 10
-1.677645817756564
 20
-0.1782968850352573
 10
-1.691941235184953
 20
-0.2192092389300436
 10
-1.708840789110683
 20
-0.2575356030947247
 10
-1.727903775865995
 20
-0.2925952656811285
 10
-1.749206059760578
 20
-0.3245245324074858
 10
-1.772086421303444
 20
-0.3524720591319607
 10
-1.795985570340659
 20
-0.3759142951794315
 10
-1.820593184324959
 20
-0.3945784650120405
 10
-1.845540956516288
 20
-0.4083058649483554
 10
-1.870267748795057
 20
-0.4168179093217773
 10
-1.896595634287922
 20
-0.42
  0
LWPOLYLINE
  5
1B5
330
184
100
AcDbEntity
  8
AM_9
100
AcDbPolyline
 90
       29
 70
     0
 43
0.0
 10
-1.896595634287922
 20
-0.42
 10
-1.918334464450472
 20
-0.417654793373338
 10
-1.939066275884217
 20
-0.4106763720608332
 10
-1.959433132783426
 20
-0.398466887661682
 10
-1.978365847308556
 20
-0.3814038956810869
 10
-1.9956158029141
 20
-0.3598114856404421
 10
-2.011281939737281
 20
-0.33351551598585
 10
-2.025182211010168
 20
-0.3030384209718273
 10
-2.037208522742977
 20
-0.2689316051760774
 10
-2.047503570804036
 20
-0.2309055075010508
 10
-2.05595611126491
 20
-0.1898001821091253
 10
-2.062535364616187
 20
-0.1463799118419848
 10
-2.06725369994042
 20
-0.1012542265632235
 10
-2.070199479604516
 20
-0.0546651863996102
 10
-2.071368369124166
 20
-0.0075147918129924
 10
-2.070785194744142
 20
0.0389495336781394
 10
-2.068488936996349
 20
0.0850673887832369
 10
-2.064482606820198
 20
0.1299715930288963
 10
-2.058736770611393
 20
0.1731370534471663
 10
-2.051217037077385
 20
0.2142933129876299
 10
-2.041946448648355
 20
0.252706434909581
 10
-2.030669434569716
 20
0.2885338421185491
 10
-2.017497089233937
 20
0.3208706019079574
 10
-2.002523262671845
 20
0.3491284561708075
 10
-1.985548653585311
 20
0.373185156349834
 10
-1.966759453621592
 20
0.3925872475999044
 10
-1.946400924989553
 20
0.4069507186283401
 10
-1.922229425828961
 20
0.41670971581852
 10
-1.896595634287922
 20
0.4199999999999998
  0
LINE
  5
1B6
330
184
100
AcDbEntity
  8
AM_9
100
AcDbLine
 10
1.5748
 20
-0.5848000000000001
 30
0.0
 11
1.5748
 21
0.5847999999999998
 31
0.0
  0
LINE
  5
1B7
330
184
100
AcDbEntity
  8
AM_9
100
AcDbLine
 10
-1.5748
 20
0.5847999999999998
 30
0.0
 11
-1.5748
 21
-0.5848000000000001
 31
0.0
  0
LINE
  5
1B8
330
184
100
AcDbEntity
  8
AM_9
100
AcDbLine
 10
-0.4791666666666667
 20
-0.3096000000000001
 30
0.0
 11
-0.4791666666666667
 21
0.5848
 31
0.0
  0
LINE
  5
1B9
330
184
100
AcDbEntity
  8
AM_9
100
AcDbLine
 10
0.4791666666666667
 20
-0.3096000000000001
 30
0.0
 11
0.4791666666666667
 21
0.5848
 31
0.0
  0
LINE
  5
1BA
330
184
100
AcDbEntity
  8
AM_9
100
AcDbLine
 10
0.4791666666666667
 20
-0.3096000000000001
 30
0.0
 11
-0.4791666666666667
 21
-0.3096000000000001
 31
0.0
  0
LINE
  5
1BB
330
184
100
AcDbEntity
  8
AM_9
100
AcDbLine
 10
1.625
 20
0.5848000000000001
 30
0.0
 11
-1.625
 21
0.5848000000000001
 31
0.0
  0
LINE
  5
1BC
330
184
100
AcDbEntity
  8
AM_9
100
AcDbLine
 10
1.625
 20
-0.5847999999999999
 30
0.0
 11
-1.625
 21
-0.5847999999999999
 31
0.0
  0
ELLIPSE
  5
1BD
330
184
100
AcDbEntity
  8
AM_9
100
AcDbEllipse
 10
-1.983198174666366
 20
0.0000000000000003
 30
0.0
 11
-2.755455298081549E-17
 21
-0.1500000000000003
 31
0.0
210
0.0
220
0.0
230
1.0
 40
0.4999999999999943
 41
0.0
 42
6.283185307179586
  0
ELLIPSE
  5
1BE
330
184
100
AcDbEntity
  8
AM_9
100
AcDbEllipse
 10
-1.983198174666366
 20
-0.0000000000000001
 30
0.0
 11
-5.878304635907290E-17
 21
-0.3199999999999997
 31
0.0
210
0.0
220
0.0
230
1.0
 40
0.4999999999999995
 41
0.0
 42
6.283185307179586
  0
ELLIPSE
  5
1BF
330
184
100
AcDbEntity
  8
AM_9
100
AcDbEllipse
 10
-1.896595634287921
 20
-0.0000000000000001
 30
0.0
 11
-7.715274834628323E-17
 21
-0.4199999999999999
 31
0.0
210
0.0
220
0.0
230
1.0
 40
0.4999999999999989
 41
0.0
 42
6.283185307179586
  0
LINE
  5
1C0
330
184
100
AcDbEntity
  8
AM_7
100
AcDbLine
 10
3.5315
 20
0.0
 30
0.0
 11
2.8385
 21
0.0
 31
0.0
  0
LINE
  5
1C1
330
184
100
AcDbEntity
  8
AM_4
100
AcDbLine
 10
2.87
 20
-0.5847999999999998
 30
0.0
 11
2.87
 21
-0.9699999999999999
 31
0.0
  0
LINE
  5
1C2
330
184
100
AcDbEntity
  8
AM_4
100
AcDbLine
 10
2.87
 20
-0.9699999999999999
 30
0.0
 11
3.5
 21
-0.9699999999999999
 31
0.0
  0
LINE
  5
1C3
330
184
100
AcDbEntity
  8
AM_4
100
AcDbLine
 10
3.5
 20
0.9699999999999999
 30
0.0
 11
2.87
 21
0.9699999999999999
 31
0.0
  0
LINE
  5
1C4
330
184
100
AcDbEntity
  8
AM_4
100
AcDbLine
 10
2.87
 20
0.9699999999999999
 30
0.0
 11
2.87
 21
0.5847999999999999
 31
0.0
  0
LINE
  5
1C5
330
184
100
AcDbEntity
  8
AM_4
100
AcDbLine
 10
3.5
 20
0.9699999999999999
 30
0.0
 11
3.5
 21
-0.9699999999999999
 31
0.0
  0
LINE
  5
1C6
330
184
100
AcDbEntity
  8
AM_4
100
AcDbLine
 10
-2.19
 20
-0.5459999999999998
 30
0.0
 11
-2.1512
 21
-0.5847999999999998
 31
0.0
  0
LINE
  5
1C7
330
184
100
AcDbEntity
  8
AM_4
100
AcDbLine
 10
-2.1512
 20
-0.5847999999999998
 30
0.0
 11
-1.625
 21
-0.5847999999999998
 31
0.0
  0
LINE
  5
1C8
330
184
100
AcDbEntity
  8
AM_4
100
AcDbLine
 10
-2.19
 20
0.5460000000000002
 30
0.0
 11
-2.190000000000001
 21
-0.5459999999999998
 31
0.0
  0
LINE
  5
1C9
330
184
100
AcDbEntity
  8
AM_4
100
AcDbLine
 10
-2.190000000000001
 20
-0.5459999999999998
 30
0.0
 11
-1.625
 21
-0.5459999999999998
 31
0.0
  0
LINE
  5
1CA
330
184
100
AcDbEntity
  8
AM_4
100
AcDbLine
 10
-2.1512
 20
0.5848000000000002
 30
0.0
 11
-2.19
 21
0.5460000000000002
 31
0.0
  0
LINE
  5
1CB
330
184
100
AcDbEntity
  8
AM_4
100
AcDbLine
 10
-2.19
 20
0.5460000000000002
 30
0.0
 11
-1.625
 21
0.5460000000000002
 31
0.0
  0
LINE
  5
1CC
330
184
100
AcDbEntity
  8
AM_4
100
AcDbLine
 10
-2.1512
 20
0.5848000000000002
 30
0.0
 11
-1.625
 21
0.5848000000000001
 31
0.0
  0
LINE
  5
1CD
330
184
100
AcDbEntity
  8
AM_4
100
AcDbLine
 10
3.5
 20
-0.5847999999999998
 30
0.0
 11
1.625
 21
-0.5847999999999998
 31
0.0
  0
LINE
  5
1CE
330
184
100
AcDbEntity
  8
AM_4
100
AcDbLine
 10
3.499999999999999
 20
-0.5848000000000001
 30
0.0
 11
3.4312
 21
-0.5160000000000002
 31
0.0
  0
LINE
  5
1CF
330
184
100
AcDbEntity
  8
AM_4
100
AcDbLine
 10
3.5
 20
0.5848000000000002
 30
0.0
 11
1.625
 21
0.5848000000000001
 31
0.0
  0
LINE
  5
1D0
330
184
100
AcDbEntity
  8
AM_4
100
AcDbLine
 10
3.431199999999999
 20
0.5160000000000001
 30
0.0
 11
3.5
 21
0.5848000000000005
 31
0.0
  0
LINE
  5
1D1
330
184
100
AcDbEntity
  8
AM_4
100
AcDbLine
 10
3.4312
 20
0.5159999999999998
 30
0.0
 11
1.625
 21
0.5159999999999998
 31
0.0
  0
LINE
  5
1D2
330
184
100
AcDbEntity
  8
AM_4
100
AcDbLine
 10
3.4312
 20
-0.5160000000000002
 30
0.0
 11
1.625
 21
-0.5159999999999998
 31
0.0
  0
LINE
  5
1D3
330
184
100
AcDbEntity
  8
AM_4
100
AcDbLine
 10
3.4312
 20
-0.5160000000000002
 30
0.0
 11
3.4312
 21
0.5159999999999998
 31
0.0
  0
LINE
  5
1D4
330
184
100
AcDbEntity
  8
AM_4
100
AcDbLine
 10
-1.5562
 20
-0.6191999999999999
 30
0.0
 11
-1.5562
 21
-0.3439999999999998
 31
0.0
  0
LINE
  5
1D5
330
184
100
AcDbEntity
  8
AM_4
100
AcDbLine
 10
1.625
 20
0.6880000000000001
 30
0.0
 11
-1.625
 21
0.6880000000000001
 31
0.0
  0
LINE
  5
1D6
330
184
100
AcDbEntity
  8
AM_4
100
AcDbLine
 10
1.556199999999999
 20
0.6191999999999991
 30
0.0
 11
-1.5562
 21
0.6191999999999991
 31
0.0
  0
LINE
  5
1D7
330
184
100
AcDbEntity
  8
AM_4
100
AcDbLine
 10
1.556199999999999
 20
-0.6191999999999999
 30
0.0
 11
-1.5562
 21
-0.6191999999999999
 31
0.0
  0
LINE
  5
1D8
330
184
100
AcDbEntity
  8
AM_4
100
AcDbLine
 10
-1.5562
 20
-0.6191999999999999
 30
0.0
 11
-1.625
 21
-0.6879999999999998
 31
0.0
  0
LINE
  5
1D9
330
184
100
AcDbEntity
  8
AM_4
100
AcDbLine
 10
1.625
 20
-0.6879999999999997
 30
0.0
 11
-1.625
 21
-0.6879999999999997
 31
0.0
  0
LINE
  5
1DA
330
184
100
AcDbEntity
  8
AM_4
100
AcDbLine
 10
1.625
 20
0.3440000000000001
 30
0.0
 11
-1.625
 21
0.3440000000000001
 31
0.0
  0
LINE
  5
1DB
330
184
100
AcDbEntity
  8
AM_4
100
AcDbLine
 10
-1.5562
 20
0.3440000000000001
 30
0.0
 11
-1.5562
 21
0.6191999999999991
 31
0.0
  0
LINE
  5
1DC
330
184
100
AcDbEntity
  8
AM_4
100
AcDbLine
 10
-1.625
 20
0.6879999999999996
 30
0.0
 11
-1.5562
 21
0.6191999999999991
 31
0.0
  0
LINE
  5
1DD
330
184
100
AcDbEntity
  8
AM_4
100
AcDbLine
 10
-1.625
 20
0.6880000000000001
 30
0.0
 11
-1.625
 21
-0.6879999999999997
 31
0.0
  0
LINE
  5
1DE
330
184
100
AcDbEntity
  8
AM_4
100
AcDbLine
 10
1.625
 20
0.6880000000000001
 30
0.0
 11
1.625
 21
-0.6879999999999997
 31
0.0
  0
LINE
  5
1DF
330
184
100
AcDbEntity
  8
AM_4
100
AcDbLine
 10
1.556199999999999
 20
0.6191999999999991
 30
0.0
 11
1.625
 21
0.6880000000000001
 31
0.0
  0
LINE
  5
1E0
330
184
100
AcDbEntity
  8
AM_4
100
AcDbLine
 10
1.556199999999999
 20
0.3440000000000001
 30
0.0
 11
1.556199999999999
 21
0.6191999999999991
 31
0.0
  0
LINE
  5
1E1
330
184
100
AcDbEntity
  8
AM_4
100
AcDbLine
 10
-1.625
 20
-0.3439999999999998
 30
0.0
 11
1.625
 21
-0.3439999999999998
 31
0.0
  0
LINE
  5
1E2
330
184
100
AcDbEntity
  8
AM_4
100
AcDbLine
 10
1.556199999999999
 20
-0.6191999999999999
 30
0.0
 11
1.556199999999999
 21
-0.3439999999999998
 31
0.0
  0
LINE
  5
1E3
330
184
100
AcDbEntity
  8
AM_4
100
AcDbLine
 10
1.625
 20
-0.6880000000000003
 30
0.0
 11
1.556199999999999
 21
-0.6192000000000001
 31
0.0
  0
ENDBLK
  5
187
330
184
100
AcDbEntity
  8
0
100
AcDbBlockEnd
  0
ENDSEC
  0
SECTION
  2
ENTITIES
  0
INSERT
  5
6F
330
1F
100
AcDbEntity
  8
0
100
AcDbBlockReference
  2
1_135116_4
 10
0.0
 20
0.0
 30
0.0
  0
POINT
  5
1E5
330
1F
100
AcDbEntity
  8
ConnectionPoints
100
AcDbPoint
 10
-1.983198174666365
 20
-0.0000000000000001
 30
-1.145
  0
POINT
  5
1E6
330
1F
100
AcDbEntity
  8
ConnectionPoints
100
AcDbPoint
 10
-1.983198174666365
 20
-0.0000000000000001
 30
-1.145
  0
POINT
  5
1E7
330
1F
100
AcDbEntity
  8
ConnectionPoints
100
AcDbPoint
 10
0.0
 20
-1.19
 30
0.0000000000000001
  0
ENDSEC
  0
SECTION
  2
OBJECTS
  0
DICTIONARY
  5
C
330
0
100
AcDbDictionary
281
     1
  3
ACAD_DETAILVIEWSTYLE
350
1EF
  3
ACAD_GROUP
350
D
  3
ACAD_LAYOUT
350
1A
  3
ACAD_MATERIAL
350
43
  3
ACAD_MLEADERSTYLE
350
6B
  3
ACAD_MLINESTYLE
350
17
  3
ACAD_PLOTSETTINGS
350
19
  3
ACAD_PLOTSTYLENAME
350
E
  3
ACAD_SCALELIST
350
47
  3
ACAD_SECTIONVIEWSTYLE
350
1F0
  3
ACAD_TABLESTYLE
350
69
  3
ACAD_VISUALSTYLE
350
2A
  3
ACDB_RECOMPOSE_DATA
350
1EC
  3
AcDbVariableDictionary
350
1E8
  0
SUN
  5
6D
330
29
100
AcDbSun
 90
        1
290
     0
 63
     7
421
 16777215
 40
1.0
291
     1
 91
  2455826
 92
 54000000
292
     0
 70
     2
 71
   256
280
     1
  0
DICTIONARY
  5
1EF
102
{ACAD_REACTORS
330
C
102
}
330
C
100
AcDbDictionary
281
     1
  0
DICTIONARY
  5
D
102
{ACAD_REACTORS
330
C
102
}
330
C
100
AcDbDictionary
281
     1
  0
DICTIONARY
  5
1A
102
{ACAD_REACTORS
330
C
102
}
330
C
100
AcDbDictionary
281
     1
  3
Layout1
350
1E
  3
Layout2
350
26
  3
Model
350
22
  0
DICTIONARY
  5
43
102
{ACAD_REACTORS
330
C
102
}
330
C
100
AcDbDictionary
281
     1
  3
ByBlock
350
45
  3
ByLayer
350
44
  3
Global
350
46
  0
DICTIONARY
  5
6B
102
{ACAD_REACTORS
330
C
102
}
330
C
100
AcDbDictionary
281
     1
  3
Standard
350
6C
  0
DICTIONARY
  5
17
102
{ACAD_REACTORS
330
C
102
}
330
C
100
AcDbDictionary
281
     1
  3
Standard
350
18
  0
DICTIONARY
  5
19
102
{ACAD_REACTORS
330
C
102
}
330
C
100
AcDbDictionary
281
     1
  0
ACDBDICTIONARYWDFLT
  5
E
102
{ACAD_REACTORS
330
C
102
}
330
C
100
AcDbDictionary
281
     1
  3
Normal
350
F
100
AcDbDictionaryWithDefault
340
F
  0
DICTIONARY
  5
47
102
{ACAD_REACTORS
330
C
102
}
330
C
100
AcDbDictionary
281
     1
  3
A0
350
48
  3
A1
350
49
  3
A2
350
4A
  3
A3
350
4B
  3
A4
350
4C
  3
A5
350
4D
  3
A6
350
4E
  3
A7
350
4F
  3
A8
350
50
  3
A9
350
51
  3
B0
350
52
  3
B1
350
53
  3
B2
350
54
  3
B3
350
55
  3
B4
350
56
  3
B5
350
57
  3
B6
350
58
  3
B7
350
59
  3
B8
350
5A
  3
B9
350
5B
  3
C0
350
5C
  3
C1
350
5D
  3
C2
350
5E
  3
C3
350
5F
  3
C4
350
60
  3
C5
350
61
  3
C6
350
62
  3
C7
350
63
  3
C8
350
64
  3
C9
350
65
  3
D0
350
66
  3
D1
350
67
  3
D2
350
68
  0
DICTIONARY
  5
1F0
102
{ACAD_REACTORS
330
C
102
}
330
C
100
AcDbDictionary
281
     1
  0
DICTIONARY
  5
69
102
{ACAD_REACTORS
330
C
102
}
330
C
100
AcDbDictionary
281
     1
  3
Standard
350
6A
  0
DICTIONARY
  5
2A
102
{ACAD_REACTORS
330
C
102
}
330
C
100
AcDbDictionary
281
     1
  3
2dWireframe
350
2F
  3
Basic
350
32
  3
Brighten
350
36
  3
ColorChange
350
3A
  3
Conceptual
350
34
  3
Dim
350
35
  3
EdgeColorOff
350
3D
  3
Facepattern
350
39
  3
Flat
350
2B
  3
FlatWithEdges
350
2C
  3
Gouraud
350
2D
  3
GouraudWithEdges
350
2E
  3
Hidden
350
31
  3
JitterOff
350
3B
  3
Linepattern
350
38
  3
OverhangOff
350
3C
  3
Realistic
350
33
  3
Shaded
350
42
  3
Shaded with edges
350
41
  3
Shades of Gray
350
3E
  3
Sketchy
350
3F
  3
Thicken
350
37
  3
Wireframe
350
30
  3
X-Ray
350
40
  0
XRECORD
  5
1EC
102
{ACAD_REACTORS
330
C
102
}
330
C
100
AcDbXrecord
280
     1
 90
        1
330
6A
  0
DICTIONARY
  5
1E8
102
{ACAD_REACTORS
330
C
102
}
330
C
100
AcDbDictionary
281
     1
  3
CANNOSCALE
350
1E9
  3
CMLEADERSTYLE
350
1EE
  3
CTABLESTYLE
350
1ED
  0
LAYOUT
  5
1E
102
{ACAD_REACTORS
330
1A
102
}
330
1A
100
AcDbPlotSettings
  1

  2
none_device
  4

  6

 40
0.0
 41
0.0
 42
0.0
 43
0.0
 44
0.0
 45
0.0
 46
0.0
 47
0.0
 48
0.0
 49
0.0
140
0.0
141
0.0
142
1.0
143
1.0
 70
   688
 72
     0
 73
     0
 74
     5
  7

 75
    16
 76
     0
 77
     2
 78
   300
147
1.0
148
0.0
149
0.0
100
AcDbLayout
  1
Layout1
 70
     1
 71
     1
 10
0.0
 20
0.0
 11
12.0
 21
9.0
 12
0.0
 22
0.0
 32
0.0
 14
1.000000000000000E+20
 24
1.000000000000000E+20
 34
1.000000000000000E+20
 15
-1.000000000000000E+20
 25
-1.000000000000000E+20
 35
-1.000000000000000E+20
146
0.0
 13
0.0
 23
0.0
 33
0.0
 16
1.0
 26
0.0
 36
0.0
 17
0.0
 27
1.0
 37
0.0
 76
     0
330
1B
  0
LAYOUT
  5
26
102
{ACAD_REACTORS
330
1A
102
}
330
1A
100
AcDbPlotSettings
  1

  2
none_device
  4

  6

 40
0.0
 41
0.0
 42
0.0
 43
0.0
 44
0.0
 45
0.0
 46
0.0
 47
0.0
 48
0.0
 49
0.0
140
0.0
141
0.0
142
1.0
143
1.0
 70
   688
 72
     0
 73
     0
 74
     5
  7

 75
    16
 76
     0
 77
     2
 78
   300
147
1.0
148
0.0
149
0.0
100
AcDbLayout
  1
Layout2
 70
     1
 71
     2
 10
0.0
 20
0.0
 11
0.0
 21
0.0
 12
0.0
 22
0.0
 32
0.0
 14
0.0
 24
0.0
 34
0.0
 15
0.0
 25
0.0
 35
0.0
146
0.0
 13
0.0
 23
0.0
 33
0.0
 16
1.0
 26
0.0
 36
0.0
 17
0.0
 27
1.0
 37
0.0
 76
     0
330
23
  0
LAYOUT
  5
22
102
{ACAD_REACTORS
330
1A
102
}
330
1A
100
AcDbPlotSettings
  1

  2
none_device
  4
Letter_(8.50_x_11.00_Inches)
  6

 40
6.35
 41
6.35
 42
6.35000508
 43
6.35000508
 44
215.9
 45
279.4
 46
0.0
 47
0.0
 48
0.0
 49
0.0
140
0.0
141
0.0
142
1.0
143
1.0
 70
  1712
 72
     0
 73
     0
 74
     0
  7

 75
     0
 76
     0
 77
     2
 78
   300
147
1.0
148
0.0
149
0.0
100
AcDbLayout
  1
Model
 70
     1
 71
     0
 10
0.0
 20
0.0
 11
12.0
 21
9.0
 12
0.0
 22
0.0
 32
0.0
 14
1.000000000000000E+20
 24
1.000000000000000E+20
 34
1.000000000000000E+20
 15
-1.000000000000000E+20
 25
-1.000000000000000E+20
 35
-1.000000000000000E+20
146
0.0
 13
0.0
 23
0.0
 33
0.0
 16
1.0
 26
0.0
 36
0.0
 17
0.0
 27
1.0
 37
0.0
 76
     0
330
1F
331
29
  0
MATERIAL
  5
45
102
{ACAD_REACTORS
330
43
102
}
330
43
100
AcDbMaterial
  1
ByBlock
 72
     1
 94
      127
  0
MATERIAL
  5
44
102
{ACAD_REACTORS
330
43
102
}
330
43
100
AcDbMaterial
  1
ByLayer
 72
     1
 94
      127
  0
MATERIAL
  5
46
102
{ACAD_REACTORS
330
43
102
}
330
43
100
AcDbMaterial
  1
Global
 72
     1
 94
      127
  0
MLEADERSTYLE
  5
6C
102
{ACAD_REACTORS
330
6B
102
}
330
6B
100
AcDbMLeaderStyle
179
     2
170
     2
171
     1
172
     0
 90
        2
 40
0.0
 41
0.0
173
     1
 91
-1056964608
340
14
 92
       -2
290
     1
 42
0.09
291
     1
 43
0.36
  3
Standard
341
0
 44
0.18
300

342
11
174
     1
178
     6
175
     1
176
     0
 93
-1056964608
 45
0.18
292
     0
297
     0
 46
0.18
343
0
 94
-1056964608
 47
1.0
 49
1.0
140
1.0
293
     1
141
0.0
294
     1
177
     0
142
1.0
295
     0
296
     0
143
0.125
271
     0
272
     9
273
     9
298
     0
  0
MLINESTYLE
  5
18
102
{ACAD_REACTORS
330
17
102
}
330
17
100
AcDbMlineStyle
  2
Standard
 70
     0
  3

 62
   256
 51
90.0
 52
90.0
 71
     2
 49
0.5
 62
   256
  6
BYLAYER
 49
-0.5
 62
   256
  6
BYLAYER
  0
ACDBPLACEHOLDER
  5
F
102
{ACAD_REACTORS
330
E
102
}
330
E
  0
SCALE
  5
48
102
{ACAD_REACTORS
330
47
102
}
330
47
100
AcDbScale
 70
     0
300
1:1
140
1.0
141
1.0
290
     1
  0
SCALE
  5
49
102
{ACAD_REACTORS
330
47
102
}
330
47
100
AcDbScale
 70
     0
300
1:2
140
1.0
141
2.0
290
     0
  0
SCALE
  5
4A
102
{ACAD_REACTORS
330
47
102
}
330
47
100
AcDbScale
 70
     0
300
1:4
140
1.0
141
4.0
290
     0
  0
SCALE
  5
4B
102
{ACAD_REACTORS
330
47
102
}
330
47
100
AcDbScale
 70
     0
300
1:5
140
1.0
141
5.0
290
     0
  0
SCALE
  5
4C
102
{ACAD_REACTORS
330
47
102
}
330
47
100
AcDbScale
 70
     0
300
1:8
140
1.0
141
8.0
290
     0
  0
SCALE
  5
4D
102
{ACAD_REACTORS
330
47
102
}
330
47
100
AcDbScale
 70
     0
300
1:10
140
1.0
141
10.0
290
     0
  0
SCALE
  5
4E
102
{ACAD_REACTORS
330
47
102
}
330
47
100
AcDbScale
 70
     0
300
1:16
140
1.0
141
16.0
290
     0
  0
SCALE
  5
4F
102
{ACAD_REACTORS
330
47
102
}
330
47
100
AcDbScale
 70
     0
300
1:20
140
1.0
141
20.0
290
     0
  0
SCALE
  5
50
102
{ACAD_REACTORS
330
47
102
}
330
47
100
AcDbScale
 70
     0
300
1:30
140
1.0
141
30.0
290
     0
  0
SCALE
  5
51
102
{ACAD_REACTORS
330
47
102
}
330
47
100
AcDbScale
 70
     0
300
1:40
140
1.0
141
40.0
290
     0
  0
SCALE
  5
52
102
{ACAD_REACTORS
330
47
102
}
330
47
100
AcDbScale
 70
     0
300
1:50
140
1.0
141
50.0
290
     0
  0
SCALE
  5
53
102
{ACAD_REACTORS
330
47
102
}
330
47
100
AcDbScale
 70
     0
300
1:100
140
1.0
141
100.0
290
     0
  0
SCALE
  5
54
102
{ACAD_REACTORS
330
47
102
}
330
47
100
AcDbScale
 70
     0
300
2:1
140
2.0
141
1.0
290
     0
  0
SCALE
  5
55
102
{ACAD_REACTORS
330
47
102
}
330
47
100
AcDbScale
 70
     0
300
4:1
140
4.0
141
1.0
290
     0
  0
SCALE
  5
56
102
{ACAD_REACTORS
330
47
102
}
330
47
100
AcDbScale
 70
     0
300
8:1
140
8.0
141
1.0
290
     0
  0
SCALE
  5
57
102
{ACAD_REACTORS
330
47
102
}
330
47
100
AcDbScale
 70
     0
300
10:1
140
10.0
141
1.0
290
     0
  0
SCALE
  5
58
102
{ACAD_REACTORS
330
47
102
}
330
47
100
AcDbScale
 70
     0
300
100:1
140
100.0
141
1.0
290
     0
  0
SCALE
  5
59
102
{ACAD_REACTORS
330
47
102
}
330
47
100
AcDbScale
 70
     0
300
1/128" = 1'-0"
140
0.0078125
141
12.0
290
     0
  0
SCALE
  5
5A
102
{ACAD_REACTORS
330
47
102
}
330
47
100
AcDbScale
 70
     0
300
1/64" = 1'-0"
140
0.015625
141
12.0
290
     0
  0
SCALE
  5
5B
102
{ACAD_REACTORS
330
47
102
}
330
47
100
AcDbScale
 70
     0
300
1/32" = 1'-0"
140
0.03125
141
12.0
290
     0
  0
SCALE
  5
5C
102
{ACAD_REACTORS
330
47
102
}
330
47
100
AcDbScale
 70
     0
300
1/16" = 1'-0"
140
0.0625
141
12.0
290
     0
  0
SCALE
  5
5D
102
{ACAD_REACTORS
330
47
102
}
330
47
100
AcDbScale
 70
     0
300
3/32" = 1'-0"
140
0.09375
141
12.0
290
     0
  0
SCALE
  5
5E
102
{ACAD_REACTORS
330
47
102
}
330
47
100
AcDbScale
 70
     0
300
1/8" = 1'-0"
140
0.125
141
12.0
290
     0
  0
SCALE
  5
5F
102
{ACAD_REACTORS
330
47
102
}
330
47
100
AcDbScale
 70
     0
300
3/16" = 1'-0"
140
0.1875
141
12.0
290
     0
  0
SCALE
  5
60
102
{ACAD_REACTORS
330
47
102
}
330
47
100
AcDbScale
 70
     0
300
1/4" = 1'-0"
140
0.25
141
12.0
290
     0
  0
SCALE
  5
61
102
{ACAD_REACTORS
330
47
102
}
330
47
100
AcDbScale
 70
     0
300
3/8" = 1'-0"
140
0.375
141
12.0
290
     0
  0
SCALE
  5
62
102
{ACAD_REACTORS
330
47
102
}
330
47
100
AcDbScale
 70
     0
300
1/2" = 1'-0"
140
0.5
141
12.0
290
     0
  0
SCALE
  5
63
102
{ACAD_REACTORS
330
47
102
}
330
47
100
AcDbScale
 70
     0
300
3/4" = 1'-0"
140
0.75
141
12.0
290
     0
  0
SCALE
  5
64
102
{ACAD_REACTORS
330
47
102
}
330
47
100
AcDbScale
 70
     0
300
1" = 1'-0"
140
1.0
141
12.0
290
     0
  0
SCALE
  5
65
102
{ACAD_REACTORS
330
47
102
}
330
47
100
AcDbScale
 70
     0
300
1-1/2" = 1'-0"
140
1.5
141
12.0
290
     0
  0
SCALE
  5
66
102
{ACAD_REACTORS
330
47
102
}
330
47
100
AcDbScale
 70
     0
300
3" = 1'-0"
140
3.0
141
12.0
290
     0
  0
SCALE
  5
67
102
{ACAD_REACTORS
330
47
102
}
330
47
100
AcDbScale
 70
     0
300
6" = 1'-0"
140
6.0
141
12.0
290
     0
  0
SCALE
  5
68
102
{ACAD_REACTORS
330
47
102
}
330
47
100
AcDbScale
 70
     0
300
1'-0" = 1'-0"
140
12.0
141
12.0
290
     0
  0
TABLESTYLE
  5
6A
102
{ACAD_REACTORS
330
69
102
}
102
{ACAD_XDICTIONARY
360
1EA
102
}
330
69
100
AcDbTableStyle
  3
Standard
 70
     0
 71
     0
 40
0.06
 41
0.06
280
     0
281
     0
  7
Standard
140
0.18
170
     2
 62
     0
 63
   257
283
     0
 90
        4
 91
        0
  1

274
    -2
284
     1
 64
     0
275
    -2
285
     1
 65
     0
276
    -2
286
     1
 66
     0
277
    -2
287
     1
 67
     0
278
    -2
288
     1
 68
     0
279
    -2
289
     1
 69
     0
  7
Standard
140
0.25
170
     5
 62
     0
 63
   257
283
     0
 90
        4
 91
        0
  1

274
    -2
284
     1
 64
     0
275
    -2
285
     1
 65
     0
276
    -2
286
     1
 66
     0
277
    -2
287
     1
 67
     0
278
    -2
288
     1
 68
     0
279
    -2
289
     1
 69
     0
  7
Standard
140
0.18
170
     5
 62
     0
 63
   257
283
     0
 90
        4
 91
        0
  1

274
    -2
284
     1
 64
     0
275
    -2
285
     1
 65
     0
276
    -2
286
     1
 66
     0
277
    -2
287
     1
 67
     0
278
    -2
288
     1
 68
     0
279
    -2
289
     1
 69
     0
  0
VISUALSTYLE
  5
2F
102
{ACAD_REACTORS
330
2A
102
}
330
2A
100
AcDbVisualStyle
  2
2dWireframe
 70
     4
177
     3
291
     0
 70
    58
 90
        0
176
     1
 90
        2
176
     1
 90
        0
176
     1
 90
        0
176
     1
 40
0.6
176
     1
 40
30.0
176
     1
 62
     7
420
 16777215
176
     1
 90
        1
176
     1
 90
        4
176
     1
 62
     7
176
     1
 62
   257
176
     1
 90
        1
176
     1
 90
        1
176
     1
 40
1.0
176
     1
 90
        0
176
     1
 62
   257
176
     1
 40
1.0
176
     1
 90
        1
176
     1
 90
        6
176
     1
 90
        2
176
     1
 62
     7
176
     1
 90
        5
176
     1
 90
        0
176
     1
 90
        0
176
     1
290
     0
176
     1
 90
        1
176
     1
 40
0.0
176
     1
 90
        0
176
     1
290
     1
176
     1
290
     1
176
     1
290
     0
176
     1
290
     0
176
     1
290
     0
176
     1
290
     0
176
     1
290
     0
176
     1
290
     0
176
     1
290
     0
176
     1
 90
       50
176
     1
 40
0.0
176
     1
 40
1.0
176
     1
 90
        0
176
     1
 62
    18
420
        0
176
     1
 90
       50
176
     1
 90
        3
176
     1
 62
     5
420
      255
176
     1
290
     0
176
     1
 90
       50
176
     1
 90
       50
176
     1
 90
       50
176
     1
290
     0
176
     1
 90
       50
176
     1
 62
   256
176
     0
 40
1.0
176
     0
 90
        2
176
     1
  1
strokes_ogs.tif
176
     1
290
     0
176
     1
 40
1.0
176
     1
 40
1.0
176
     1
  0
VISUALSTYLE
  5
32
102
{ACAD_REACTORS
330
2A
102
}
330
2A
100
AcDbVisualStyle
  2
Basic
 70
     7
177
     3
291
     1
 70
    58
 90
        1
176
     1
 90
        0
176
     1
 90
        1
176
     1
 90
        0
176
     1
 40
0.6
176
     1
 40
30.0
176
     1
 62
     7
420
 16777215
176
     1
 90
        0
176
     1
 90
        4
176
     1
 62
     7
176
     1
 62
   257
176
     1
 90
        1
176
     1
 90
        1
176
     1
 40
1.0
176
     1
 90
        8
176
     1
 62
     7
176
     1
 40
1.0
176
     1
 90
        1
176
     1
 90
        6
176
     1
 90
        2
176
     1
 62
     7
176
     1
 90
        5
176
     1
 90
        0
176
     1
 90
        0
176
     1
290
     0
176
     1
 90
        1
176
     1
 40
0.0
176
     1
 90
        0
176
     1
290
     0
176
     1
290
     1
176
     1
290
     1
176
     1
290
     0
176
     1
290
     0
176
     1
290
     0
176
     1
290
     0
176
     1
290
     0
176
     1
290
     0
176
     1
 90
       50
176
     1
 40
0.0
176
     1
 40
1.0
176
     1
 90
        0
176
     1
 62
    18
420
        0
176
     1
 90
       50
176
     1
 90
        3
176
     1
 62
     5
420
      255
176
     1
290
     0
176
     1
 90
       50
176
     1
 90
       50
176
     1
 90
       50
176
     1
290
     0
176
     1
 90
       50
176
     1
 62
   256
176
     0
 40
1.0
176
     0
 90
        2
176
     1
  1
strokes_ogs.tif
176
     1
290
     0
176
     1
 40
1.0
176
     1
 40
1.0
176
     1
  0
VISUALSTYLE
  5
36
102
{ACAD_REACTORS
330
2A
102
}
330
2A
100
AcDbVisualStyle
  2
Brighten
 70
    12
177
     3
291
     1
 70
    58
 90
        2
176
     1
 90
        2
176
     1
 90
        0
176
     1
 90
        0
176
     1
 40
0.6
176
     1
 40
30.0
176
     1
 62
     7
420
 16777215
176
     1
 90
        1
176
     1
 90
        4
176
     1
 62
     7
176
     1
 62
   257
176
     1
 90
        1
176
     1
 90
        1
176
     1
 40
1.0
176
     1
 90
        8
176
     1
 62
     7
176
     1
 40
1.0
176
     1
 90
        1
176
     1
 90
        6
176
     1
 90
        2
176
     1
 62
     7
176
     1
 90
        5
176
     1
 90
        0
176
     1
 90
        0
176
     1
290
     0
176
     1
 90
        1
176
     1
 40
50.0
176
     1
 90
        0
176
     1
290
     0
176
     1
290
     1
176
     1
290
     1
176
     1
290
     0
176
     1
290
     0
176
     1
290
     0
176
     1
290
     0
176
     1
290
     0
176
     1
290
     0
176
     1
 90
       50
176
     1
 40
0.0
176
     1
 40
1.0
176
     1
 90
        0
176
     1
 62
    18
420
        0
176
     1
 90
       50
176
     1
 90
        3
176
     1
 62
     5
420
      255
176
     1
290
     0
176
     1
 90
       50
176
     1
 90
       50
176
     1
 90
       50
176
     1
290
     0
176
     1
 90
       50
176
     1
 62
   256
176
     0
 40
1.0
176
     0
 90
        2
176
     1
  1
strokes_ogs.tif
176
     1
290
     0
176
     1
 40
1.0
176
     1
 40
1.0
176
     1
  0
VISUALSTYLE
  5
3A
102
{ACAD_REACTORS
330
2A
102
}
330
2A
100
AcDbVisualStyle
  2
ColorChange
 70
    16
177
     3
291
     1
 70
    58
 90
        2
176
     1
 90
        2
176
     1
 90
        3
176
     1
 90
        0
176
     1
 40
0.6
176
     1
 40
30.0
176
     1
 62
     8
420
  8421504
176
     1
 90
        1
176
     1
 90
        4
176
     1
 62
     7
176
     1
 62
   257
176
     1
 90
        1
176
     1
 90
        1
176
     1
 40
1.0
176
     1
 90
        8
176
     1
 62
     8
420
  8421504
176
     1
 40
1.0
176
     1
 90
        1
176
     1
 90
        6
176
     1
 90
        2
176
     1
 62
     7
176
     1
 90
        5
176
     1
 90
        0
176
     1
 90
        0
176
     1
290
     0
176
     1
 90
        1
176
     1
 40
0.0
176
     1
 90
        0
176
     1
290
     0
176
     1
290
     1
176
     1
290
     1
176
     1
290
     0
176
     1
290
     0
176
     1
290
     0
176
     1
290
     0
176
     1
290
     0
176
     1
290
     0
176
     1
 90
       50
176
     1
 40
0.0
176
     1
 40
1.0
176
     1
 90
        0
176
     1
 62
    18
420
        0
176
     1
 90
       50
176
     1
 90
        3
176
     1
 62
     5
420
      255
176
     1
290
     0
176
     1
 90
       50
176
     1
 90
       50
176
     1
 90
       50
176
     1
290
     0
176
     1
 90
       50
176
     1
 62
   256
176
     0
 40
1.0
176
     0
 90
        2
176
     1
  1
strokes_ogs.tif
176
     1
290
     0
176
     1
 40
1.0
176
     1
 40
1.0
176
     1
  0
VISUALSTYLE
  5
34
102
{ACAD_REACTORS
330
2A
102
}
330
2A
100
AcDbVisualStyle
  2
Conceptual
 70
     9
177
     3
291
     0
 70
    58
 90
        3
176
     1
 90
        2
176
     1
 90
        0
176
     1
 90
        0
176
     1
 40
0.6
176
     1
 40
30.0
176
     1
 62
     7
420
 16777215
176
     1
 90
        2
176
     1
 90
        2
176
     1
 62
     7
176
     1
 62
   257
176
     1
 90
        1
176
     1
 90
        1
176
     1
 40
179.0
176
     1
 90
        8
176
     1
 62
     7
176
     1
 40
1.0
176
     1
 90
        1
176
     1
 90
        6
176
     1
 90
        2
176
     1
 62
     7
176
     1
 90
        3
176
     1
 90
        0
176
     1
 90
        0
176
     1
290
     0
176
     1
 90
        1
176
     1
 40
0.0
176
     1
 90
        0
176
     1
290
     0
176
     1
290
     1
176
     1
290
     1
176
     1
290
     0
176
     1
290
     0
176
     1
290
     0
176
     1
290
     0
176
     1
290
     0
176
     1
290
     0
176
     1
 90
       50
176
     1
 40
0.0
176
     1
 40
1.0
176
     1
 90
        0
176
     1
 62
    18
420
        0
176
     1
 90
       50
176
     1
 90
        3
176
     1
 62
     5
420
      255
176
     1
290
     0
176
     1
 90
       50
176
     1
 90
       50
176
     1
 90
       50
176
     1
290
     0
176
     1
 90
       50
176
     1
 62
   256
176
     0
 40
1.0
176
     0
 90
        2
176
     1
  1
strokes_ogs.tif
176
     1
290
     0
176
     1
 40
1.0
176
     1
 40
1.0
176
     1
  0
VISUALSTYLE
  5
35
102
{ACAD_REACTORS
330
2A
102
}
330
2A
100
AcDbVisualStyle
  2
Dim
 70
    11
177
     3
291
     1
 70
    58
 90
        2
176
     1
 90
        2
176
     1
 90
        0
176
     1
 90
        0
176
     1
 40
0.6
176
     1
 40
30.0
176
     1
 62
     7
420
 16777215
176
     1
 90
        1
176
     1
 90
        4
176
     1
 62
     7
176
     1
 62
   257
176
     1
 90
        1
176
     1
 90
        1
176
     1
 40
1.0
176
     1
 90
        8
176
     1
 62
     7
176
     1
 40
1.0
176
     1
 90
        1
176
     1
 90
        6
176
     1
 90
        2
176
     1
 62
     7
176
     1
 90
        5
176
     1
 90
        0
176
     1
 90
        0
176
     1
290
     0
176
     1
 90
        1
176
     1
 40
-50.0
176
     1
 90
        0
176
     1
290
     0
176
     1
290
     1
176
     1
290
     1
176
     1
290
     0
176
     1
290
     0
176
     1
290
     0
176
     1
290
     0
176
     1
290
     0
176
     1
290
     0
176
     1
 90
       50
176
     1
 40
0.0
176
     1
 40
1.0
176
     1
 90
        0
176
     1
 62
    18
420
        0
176
     1
 90
       50
176
     1
 90
        3
176
     1
 62
     5
420
      255
176
     1
290
     0
176
     1
 90
       50
176
     1
 90
       50
176
     1
 90
       50
176
     1
290
     0
176
     1
 90
       50
176
     1
 62
   256
176
     0
 40
1.0
176
     0
 90
        2
176
     1
  1
strokes_ogs.tif
176
     1
290
     0
176
     1
 40
1.0
176
     1
 40
1.0
176
     1
  0
VISUALSTYLE
  5
3D
102
{ACAD_REACTORS
330
2A
102
}
330
2A
100
AcDbVisualStyle
  2
EdgeColorOff
 70
    22
177
     3
291
     1
 70
    58
 90
        2
176
     0
 90
        2
176
     0
 90
        0
176
     0
 90
        0
176
     0
 40
0.6
176
     0
 40
30.0
176
     0
 62
     7
420
 16777215
176
     0
 90
        1
176
     0
 90
        4
176
     0
 62
     7
176
     0
 62
   257
176
     0
 90
        1
176
     0
 90
        1
176
     0
 40
1.0
176
     0
 90
        8
176
     2
 62
     7
176
     0
 40
1.0
176
     0
 90
        1
176
     0
 90
        6
176
     0
 90
        2
176
     0
 62
     7
176
     0
 90
        5
176
     0
 90
        0
176
     0
 90
        0
176
     0
290
     0
176
     0
 90
        1
176
     0
 40
0.0
176
     0
 90
        0
176
     0
290
     0
176
     0
290
     1
176
     0
290
     1
176
     0
290
     0
176
     0
290
     0
176
     0
290
     0
176
     0
290
     0
176
     0
290
     0
176
     0
290
     0
176
     0
 90
       50
176
     0
 40
0.0
176
     0
 40
1.0
176
     0
 90
        0
176
     0
 62
    18
420
        0
176
     0
 90
       50
176
     0
 90
        3
176
     0
 62
     5
420
      255
176
     0
290
     0
176
     0
 90
       50
176
     0
 90
       50
176
     0
 90
       50
176
     0
290
     0
176
     0
 90
       50
176
     0
 62
   256
176
     0
 40
1.0
176
     0
 90
        2
176
     0
  1
strokes_ogs.tif
176
     0
290
     0
176
     0
 40
1.0
176
     0
 40
1.0
176
     0
  0
VISUALSTYLE
  5
39
102
{ACAD_REACTORS
330
2A
102
}
330
2A
100
AcDbVisualStyle
  2
Facepattern
 70
    15
177
     3
291
     1
 70
    58
 90
        2
176
     1
 90
        2
176
     1
 90
        0
176
     1
 90
        0
176
     1
 40
0.6
176
     1
 40
30.0
176
     1
 62
     7
420
 16777215
176
     1
 90
        1
176
     1
 90
        4
176
     1
 62
     7
176
     1
 62
   257
176
     1
 90
        1
176
     1
 90
        1
176
     1
 40
1.0
176
     1
 90
        8
176
     1
 62
     7
176
     1
 40
1.0
176
     1
 90
        1
176
     1
 90
        6
176
     1
 90
        2
176
     1
 62
     7
176
     1
 90
        5
176
     1
 90
        0
176
     1
 90
        0
176
     1
290
     0
176
     1
 90
        1
176
     1
 40
0.0
176
     1
 90
        0
176
     1
290
     0
176
     1
290
     1
176
     1
290
     1
176
     1
290
     0
176
     1
290
     0
176
     1
290
     0
176
     1
290
     0
176
     1
290
     0
176
     1
290
     0
176
     1
 90
       50
176
     1
 40
0.0
176
     1
 40
1.0
176
     1
 90
        0
176
     1
 62
    18
420
        0
176
     1
 90
       50
176
     1
 90
        3
176
     1
 62
     5
420
      255
176
     1
290
     0
176
     1
 90
       50
176
     1
 90
       50
176
     1
 90
       50
176
     1
290
     0
176
     1
 90
       50
176
     1
 62
   256
176
     0
 40
1.0
176
     0
 90
        2
176
     1
  1
strokes_ogs.tif
176
     1
290
     0
176
     1
 40
1.0
176
     1
 40
1.0
176
     1
  0
VISUALSTYLE
  5
2B
102
{ACAD_REACTORS
330
2A
102
}
330
2A
100
AcDbVisualStyle
  2
Flat
 70
     0
177
     3
291
     1
 70
    58
 90
        2
176
     1
 90
        1
176
     1
 90
        1
176
     1
 90
        2
176
     1
 40
0.6
176
     1
 40
30.0
176
     1
 62
     7
420
 16777215
176
     1
 90
        0
176
     1
 90
        0
176
     1
 62
     7
176
     1
 62
   257
176
     1
 90
        1
176
     1
 90
        1
176
     1
 40
1.0
176
     1
 90
        8
176
     1
 62
     7
176
     1
 40
1.0
176
     1
 90
        1
176
     1
 90
        6
176
     1
 90
        2
176
     1
 62
     7
176
     1
 90
        5
176
     1
 90
        0
176
     1
 90
        0
176
     1
290
     0
176
     1
 90
       13
176
     1
 40
0.0
176
     1
 90
        0
176
     1
290
     0
176
     1
290
     1
176
     1
290
     1
176
     1
290
     0
176
     1
290
     0
176
     1
290
     0
176
     1
290
     0
176
     1
290
     0
176
     1
290
     0
176
     1
 90
       50
176
     1
 40
0.0
176
     1
 40
1.0
176
     1
 90
        0
176
     1
 62
    18
420
        0
176
     1
 90
       50
176
     1
 90
        3
176
     1
 62
     5
420
      255
176
     1
290
     0
176
     1
 90
       50
176
     1
 90
       50
176
     1
 90
       50
176
     1
290
     0
176
     1
 90
       50
176
     1
 62
   256
176
     0
 40
1.0
176
     0
 90
        2
176
     1
  1
strokes_ogs.tif
176
     1
290
     0
176
     1
 40
1.0
176
     1
 40
1.0
176
     1
  0
VISUALSTYLE
  5
2C
102
{ACAD_REACTORS
330
2A
102
}
330
2A
100
AcDbVisualStyle
  2
FlatWithEdges
 70
     1
177
     3
291
     1
 70
    58
 90
        2
176
     1
 90
        1
176
     1
 90
        1
176
     1
 90
        2
176
     1
 40
0.6
176
     1
 40
30.0
176
     1
 62
     7
420
 16777215
176
     1
 90
        1
176
     1
 90
        0
176
     1
 62
     7
176
     1
 62
   257
176
     1
 90
        1
176
     1
 90
        1
176
     1
 40
1.0
176
     1
 90
        0
176
     1
 62
   257
176
     1
 40
1.0
176
     1
 90
        1
176
     1
 90
        6
176
     1
 90
        2
176
     1
 62
     7
176
     1
 90
        5
176
     1
 90
        0
176
     1
 90
        0
176
     1
290
     0
176
     1
 90
       13
176
     1
 40
0.0
176
     1
 90
        0
176
     1
290
     0
176
     1
290
     1
176
     1
290
     1
176
     1
290
     0
176
     1
290
     0
176
     1
290
     0
176
     1
290
     0
176
     1
290
     0
176
     1
290
     0
176
     1
 90
       50
176
     1
 40
0.0
176
     1
 40
1.0
176
     1
 90
        0
176
     1
 62
    18
420
        0
176
     1
 90
       50
176
     1
 90
        3
176
     1
 62
     5
420
      255
176
     1
290
     0
176
     1
 90
       50
176
     1
 90
       50
176
     1
 90
       50
176
     1
290
     0
176
     1
 90
       50
176
     1
 62
   256
176
     0
 40
1.0
176
     0
 90
        2
176
     1
  1
strokes_ogs.tif
176
     1
290
     0
176
     1
 40
1.0
176
     1
 40
1.0
176
     1
  0
VISUALSTYLE
  5
2D
102
{ACAD_REACTORS
330
2A
102
}
330
2A
100
AcDbVisualStyle
  2
Gouraud
 70
     2
177
     3
291
     1
 70
    58
 90
        2
176
     1
 90
        2
176
     1
 90
        1
176
     1
 90
        2
176
     1
 40
0.6
176
     1
 40
30.0
176
     1
 62
     7
420
 16777215
176
     1
 90
        0
176
     1
 90
        0
176
     1
 62
     7
176
     1
 62
   257
176
     1
 90
        1
176
     1
 90
        1
176
     1
 40
1.0
176
     1
 90
        0
176
     1
 62
     7
176
     1
 40
1.0
176
     1
 90
        1
176
     1
 90
        6
176
     1
 90
        2
176
     1
 62
     7
176
     1
 90
        5
176
     1
 90
        0
176
     1
 90
        0
176
     1
290
     0
176
     1
 90
       13
176
     1
 40
0.0
176
     1
 90
        0
176
     1
290
     0
176
     1
290
     1
176
     1
290
     1
176
     1
290
     0
176
     1
290
     0
176
     1
290
     0
176
     1
290
     0
176
     1
290
     0
176
     1
290
     0
176
     1
 90
       50
176
     1
 40
0.0
176
     1
 40
1.0
176
     1
 90
        0
176
     1
 62
    18
420
        0
176
     1
 90
       50
176
     1
 90
        3
176
     1
 62
     5
420
      255
176
     1
290
     0
176
     1
 90
       50
176
     1
 90
       50
176
     1
 90
       50
176
     1
290
     0
176
     1
 90
       50
176
     1
 62
   256
176
     0
 40
1.0
176
     0
 90
        2
176
     1
  1
strokes_ogs.tif
176
     1
290
     0
176
     1
 40
1.0
176
     1
 40
1.0
176
     1
  0
VISUALSTYLE
  5
2E
102
{ACAD_REACTORS
330
2A
102
}
330
2A
100
AcDbVisualStyle
  2
GouraudWithEdges
 70
     3
177
     3
291
     1
 70
    58
 90
        2
176
     1
 90
        2
176
     1
 90
        1
176
     1
 90
        2
176
     1
 40
0.6
176
     1
 40
30.0
176
     1
 62
     7
420
 16777215
176
     1
 90
        1
176
     1
 90
        0
176
     1
 62
     7
176
     1
 62
   257
176
     1
 90
        1
176
     1
 90
        1
176
     1
 40
1.0
176
     1
 90
        0
176
     1
 62
   257
176
     1
 40
1.0
176
     1
 90
        1
176
     1
 90
        6
176
     1
 90
        2
176
     1
 62
     7
176
     1
 90
        5
176
     1
 90
        0
176
     1
 90
        0
176
     1
290
     0
176
     1
 90
       13
176
     1
 40
0.0
176
     1
 90
        0
176
     1
290
     0
176
     1
290
     1
176
     1
290
     1
176
     1
290
     0
176
     1
290
     0
176
     1
290
     0
176
     1
290
     0
176
     1
290
     0
176
     1
290
     0
176
     1
 90
       50
176
     1
 40
0.0
176
     1
 40
1.0
176
     1
 90
        0
176
     1
 62
    18
420
        0
176
     1
 90
       50
176
     1
 90
        3
176
     1
 62
     5
420
      255
176
     1
290
     0
176
     1
 90
       50
176
     1
 90
       50
176
     1
 90
       50
176
     1
290
     0
176
     1
 90
       50
176
     1
 62
   256
176
     0
 40
1.0
176
     0
 90
        2
176
     1
  1
strokes_ogs.tif
176
     1
290
     0
176
     1
 40
1.0
176
     1
 40
1.0
176
     1
  0
VISUALSTYLE
  5
31
102
{ACAD_REACTORS
330
2A
102
}
330
2A
100
AcDbVisualStyle
  2
Hidden
 70
     6
177
     3
291
     0
 70
    58
 90
        1
176
     1
 90
        2
176
     1
 90
        2
176
     1
 90
        0
176
     1
 40
0.6
176
     1
 40
30.0
176
     1
 62
     7
420
 16777215
176
     1
 90
        2
176
     1
 90
        2
176
     1
 62
     7
176
     1
 62
   257
176
     1
 90
        2
176
     1
 90
        1
176
     1
 40
40.0
176
     1
 90
        0
176
     1
 62
   257
176
     1
 40
1.0
176
     1
 90
        1
176
     1
 90
        6
176
     1
 90
        2
176
     1
 62
     7
176
     1
 90
        3
176
     1
 90
        0
176
     1
 90
        0
176
     1
290
     0
176
     1
 90
        1
176
     1
 40
0.0
176
     1
 90
        0
176
     1
290
     0
176
     1
290
     1
176
     1
290
     1
176
     1
290
     0
176
     1
290
     0
176
     1
290
     0
176
     1
290
     0
176
     1
290
     0
176
     1
290
     0
176
     1
 90
       50
176
     1
 40
0.0
176
     1
 40
1.0
176
     1
 90
        0
176
     1
 62
    18
420
        0
176
     1
 90
       50
176
     1
 90
        3
176
     1
 62
     5
420
      255
176
     1
290
     0
176
     1
 90
       50
176
     1
 90
       50
176
     1
 90
       50
176
     1
290
     0
176
     1
 90
       50
176
     1
 62
   256
176
     0
 40
1.0
176
     0
 90
        2
176
     1
  1
strokes_ogs.tif
176
     1
290
     0
176
     1
 40
1.0
176
     1
 40
1.0
176
     1
  0
VISUALSTYLE
  5
3B
102
{ACAD_REACTORS
330
2A
102
}
330
2A
100
AcDbVisualStyle
  2
JitterOff
 70
    20
177
     3
291
     1
 70
    58
 90
        2
176
     0
 90
        2
176
     0
 90
        0
176
     0
 90
        0
176
     0
 40
0.6
176
     0
 40
30.0
176
     0
 62
     7
420
 16777215
176
     0
 90
        1
176
     0
 90
        4
176
     0
 62
     7
176
     0
 62
   257
176
     0
 90
        1
176
     0
 90
        1
176
     0
 40
1.0
176
     0
 90
       10
176
     2
 62
     7
176
     0
 40
1.0
176
     0
 90
        1
176
     0
 90
        6
176
     0
 90
        2
176
     0
 62
     7
176
     0
 90
        5
176
     0
 90
        0
176
     0
 90
        0
176
     0
290
     0
176
     0
 90
        1
176
     0
 40
0.0
176
     0
 90
        0
176
     0
290
     0
176
     0
290
     1
176
     0
290
     1
176
     0
290
     0
176
     0
290
     0
176
     0
290
     0
176
     0
290
     0
176
     0
290
     0
176
     0
290
     0
176
     0
 90
       50
176
     0
 40
0.0
176
     0
 40
1.0
176
     0
 90
        0
176
     0
 62
    18
420
        0
176
     0
 90
       50
176
     0
 90
        3
176
     0
 62
     5
420
      255
176
     0
290
     0
176
     0
 90
       50
176
     0
 90
       50
176
     0
 90
       50
176
     0
290
     0
176
     0
 90
       50
176
     0
 62
   256
176
     0
 40
1.0
176
     0
 90
        2
176
     0
  1
strokes_ogs.tif
176
     0
290
     0
176
     0
 40
1.0
176
     0
 40
1.0
176
     0
  0
VISUALSTYLE
  5
38
102
{ACAD_REACTORS
330
2A
102
}
330
2A
100
AcDbVisualStyle
  2
Linepattern
 70
    14
177
     3
291
     1
 70
    58
 90
        2
176
     1
 90
        2
176
     1
 90
        0
176
     1
 90
        0
176
     1
 40
0.6
176
     1
 40
30.0
176
     1
 62
     7
420
 16777215
176
     1
 90
        1
176
     1
 90
        4
176
     1
 62
     7
176
     1
 62
   257
176
     1
 90
        7
176
     1
 90
        7
176
     1
 40
1.0
176
     1
 90
        8
176
     1
 62
     7
176
     1
 40
1.0
176
     1
 90
        1
176
     1
 90
        6
176
     1
 90
        2
176
     1
 62
     7
176
     1
 90
        5
176
     1
 90
        0
176
     1
 90
        0
176
     1
290
     0
176
     1
 90
        1
176
     1
 40
0.0
176
     1
 90
        0
176
     1
290
     0
176
     1
290
     1
176
     1
290
     1
176
     1
290
     0
176
     1
290
     0
176
     1
290
     0
176
     1
290
     0
176
     1
290
     0
176
     1
290
     0
176
     1
 90
       50
176
     1
 40
0.0
176
     1
 40
1.0
176
     1
 90
        0
176
     1
 62
    18
420
        0
176
     1
 90
       50
176
     1
 90
        3
176
     1
 62
     5
420
      255
176
     1
290
     0
176
     1
 90
       50
176
     1
 90
       50
176
     1
 90
       50
176
     1
290
     0
176
     1
 90
       50
176
     1
 62
   256
176
     0
 40
1.0
176
     0
 90
        2
176
     1
  1
strokes_ogs.tif
176
     1
290
     0
176
     1
 40
1.0
176
     1
 40
1.0
176
     1
  0
VISUALSTYLE
  5
3C
102
{ACAD_REACTORS
330
2A
102
}
330
2A
100
AcDbVisualStyle
  2
OverhangOff
 70
    21
177
     3
291
     1
 70
    58
 90
        2
176
     0
 90
        2
176
     0
 90
        0
176
     0
 90
        0
176
     0
 40
0.6
176
     0
 40
30.0
176
     0
 62
     7
420
 16777215
176
     0
 90
        1
176
     0
 90
        4
176
     0
 62
     7
176
     0
 62
   257
176
     0
 90
        1
176
     0
 90
        1
176
     0
 40
1.0
176
     0
 90
        9
176
     2
 62
     7
176
     0
 40
1.0
176
     0
 90
        1
176
     0
 90
        6
176
     0
 90
        2
176
     0
 62
     7
176
     0
 90
        5
176
     0
 90
        0
176
     0
 90
        0
176
     0
290
     0
176
     0
 90
        1
176
     0
 40
0.0
176
     0
 90
        0
176
     0
290
     0
176
     0
290
     1
176
     0
290
     1
176
     0
290
     0
176
     0
290
     0
176
     0
290
     0
176
     0
290
     0
176
     0
290
     0
176
     0
290
     0
176
     0
 90
       50
176
     0
 40
0.0
176
     0
 40
1.0
176
     0
 90
        0
176
     0
 62
    18
420
        0
176
     0
 90
       50
176
     0
 90
        3
176
     0
 62
     5
420
      255
176
     0
290
     0
176
     0
 90
       50
176
     0
 90
       50
176
     0
 90
       50
176
     0
290
     0
176
     0
 90
       50
176
     0
 62
   256
176
     0
 40
1.0
176
     0
 90
        2
176
     0
  1
strokes_ogs.tif
176
     0
290
     0
176
     0
 40
1.0
176
     0
 40
1.0
176
     0
  0
VISUALSTYLE
  5
33
102
{ACAD_REACTORS
330
2A
102
}
330
2A
100
AcDbVisualStyle
  2
Realistic
 70
     8
177
     3
291
     0
 70
    58
 90
        2
176
     1
 90
        3
176
     1
 90
        0
176
     1
 90
        2
176
     1
 40
0.6
176
     1
 40
30.0
176
     1
 62
     7
420
 16777215
176
     1
 90
        0
176
     1
 90
        0
176
     1
 62
     7
176
     1
 62
   257
176
     1
 90
        1
176
     1
 90
        1
176
     1
 40
1.0
176
     1
 90
        8
176
     1
 62
   257
176
     1
 40
1.0
176
     1
 90
        1
176
     1
 90
        6
176
     1
 90
        2
176
     1
 62
     7
176
     1
 90
        3
176
     1
 90
        0
176
     1
 90
        0
176
     1
290
     0
176
     1
 90
       13
176
     1
 40
0.0
176
     1
 90
        0
176
     1
290
     0
176
     1
290
     1
176
     1
290
     1
176
     1
290
     0
176
     1
290
     0
176
     1
290
     0
176
     1
290
     0
176
     1
290
     0
176
     1
290
     0
176
     1
 90
       50
176
     1
 40
0.0
176
     1
 40
1.0
176
     1
 90
        0
176
     1
 62
    18
420
        0
176
     1
 90
       50
176
     1
 90
        3
176
     1
 62
     5
420
      255
176
     1
290
     0
176
     1
 90
       50
176
     1
 90
       50
176
     1
 90
       50
176
     1
290
     0
176
     1
 90
       50
176
     1
 62
   256
176
     0
 40
1.0
176
     0
 90
        2
176
     1
  1
strokes_ogs.tif
176
     1
290
     0
176
     1
 40
1.0
176
     1
 40
1.0
176
     1
  0
VISUALSTYLE
  5
42
102
{ACAD_REACTORS
330
2A
102
}
330
2A
100
AcDbVisualStyle
  2
Shaded
 70
    27
177
     3
291
     0
 70
    58
 90
        2
176
     1
 90
        2
176
     1
 90
        1
176
     1
 90
        2
176
     1
 40
0.6
176
     1
 40
30.0
176
     1
 62
     7
420
 16777215
176
     1
 90
        0
176
     1
 90
        4
176
     1
 62
     7
176
     1
 62
   257
176
     1
 90
        1
176
     1
 90
        1
176
     1
 40
1.0
176
     1
 90
        8
176
     1
 62
   257
176
     1
 40
1.0
176
     1
 90
        1
176
     1
 90
        6
176
     1
 90
        2
176
     1
 62
     8
420
  7895160
176
     1
 90
        3
176
     1
 90
        0
176
     1
 90
        0
176
     1
290
     0
176
     1
 90
        5
176
     1
 40
0.0
176
     1
 90
        0
176
     1
290
     0
176
     1
290
     1
176
     1
290
     1
176
     1
290
     0
176
     1
290
     0
176
     1
290
     0
176
     1
290
     0
176
     1
290
     0
176
     1
290
     0
176
     1
 90
       50
176
     1
 40
0.0
176
     1
 40
1.0
176
     1
 90
        0
176
     1
 62
    18
420
        0
176
     1
 90
       50
176
     1
 90
        3
176
     1
 62
     5
420
      255
176
     1
290
     0
176
     1
 90
       50
176
     1
 90
       50
176
     1
 90
       50
176
     1
290
     0
176
     1
 90
       50
176
     1
 62
   256
176
     0
 40
1.0
176
     0
 90
        2
176
     1
  1
strokes_ogs.tif
176
     1
290
     0
176
     1
 40
1.0
176
     1
 40
1.0
176
     1
  0
VISUALSTYLE
  5
41
102
{ACAD_REACTORS
330
2A
102
}
330
2A
100
AcDbVisualStyle
  2
Shaded with edges
 70
    26
177
     3
291
     0
 70
    58
 90
        2
176
     1
 90
        2
176
     1
 90
        1
176
     1
 90
        2
176
     1
 40
0.6
176
     1
 40
30.0
176
     1
 62
     7
420
 16777215
176
     1
 90
        1
176
     1
 90
       10
176
     1
 62
     7
176
     1
 62
   257
176
     1
 90
        2
176
     1
 90
        1
176
     1
 40
1.0
176
     1
 90
        8
176
     1
 62
   257
176
     1
 40
1.0
176
     1
 90
        1
176
     1
 90
        6
176
     1
 90
        2
176
     1
 62
     7
176
     1
 90
        3
176
     1
 90
        0
176
     1
 90
        0
176
     1
290
     0
176
     1
 90
        5
176
     1
 40
0.0
176
     1
 90
        0
176
     1
290
     0
176
     1
290
     1
176
     1
290
     1
176
     1
290
     0
176
     1
290
     0
176
     1
290
     0
176
     1
290
     0
176
     1
290
     0
176
     1
290
     0
176
     1
 90
       50
176
     1
 40
0.0
176
     1
 40
1.0
176
     1
 90
        0
176
     1
 62
    18
420
        0
176
     1
 90
       50
176
     1
 90
        3
176
     1
 62
     5
420
      255
176
     1
290
     0
176
     1
 90
       50
176
     1
 90
       50
176
     1
 90
       50
176
     1
290
     0
176
     1
 90
       50
176
     1
 62
   256
176
     0
 40
1.0
176
     0
 90
        2
176
     1
  1
strokes_ogs.tif
176
     1
290
     0
176
     1
 40
1.0
176
     1
 40
1.0
176
     1
  0
VISUALSTYLE
  5
3E
102
{ACAD_REACTORS
330
2A
102
}
330
2A
100
AcDbVisualStyle
  2
Shades of Gray
 70
    23
177
     3
291
     0
 70
    58
 90
        2
176
     1
 90
        2
176
     1
 90
        3
176
     1
 90
        0
176
     1
 40
0.6
176
     1
 40
30.0
176
     1
 62
     7
420
 16777215
176
     1
 90
        2
176
     1
 90
        2
176
     1
 62
     7
176
     1
 62
     7
176
     1
 90
        1
176
     1
 90
        1
176
     1
 40
40.0
176
     1
 90
        8
176
     1
 62
     7
176
     1
 40
1.0
176
     1
 90
        1
176
     1
 90
        6
176
     1
 90
        2
176
     1
 62
     7
176
     1
 90
        3
176
     1
 90
        0
176
     1
 90
        0
176
     1
290
     0
176
     1
 90
        1
176
     1
 40
0.0
176
     1
 90
        0
176
     1
290
     0
176
     1
290
     1
176
     1
290
     1
176
     1
290
     0
176
     1
290
     0
176
     1
290
     0
176
     1
290
     0
176
     1
290
     0
176
     1
290
     0
176
     1
 90
       50
176
     1
 40
0.0
176
     1
 40
1.0
176
     1
 90
        0
176
     1
 62
    18
420
        0
176
     1
 90
       50
176
     1
 90
        3
176
     1
 62
     5
420
      255
176
     1
290
     0
176
     1
 90
       50
176
     1
 90
       50
176
     1
 90
       50
176
     1
290
     0
176
     1
 90
       50
176
     1
 62
   256
176
     0
 40
1.0
176
     0
 90
        2
176
     1
  1
strokes_ogs.tif
176
     1
290
     0
176
     1
 40
1.0
176
     1
 40
1.0
176
     1
  0
VISUALSTYLE
  5
3F
102
{ACAD_REACTORS
330
2A
102
}
330
2A
100
AcDbVisualStyle
  2
Sketchy
 70
    24
177
     3
291
     0
 70
    58
 90
        1
176
     1
 90
        2
176
     1
 90
        2
176
     1
 90
        0
176
     1
 40
0.6
176
     1
 40
30.0
176
     1
 62
     7
420
 16777215
176
     1
 90
        2
176
     1
 90
        2
176
     1
 62
     7
176
     1
 62
     7
176
     1
 90
        1
176
     1
 90
        1
176
     1
 40
40.0
176
     1
 90
       11
176
     1
 62
     7
176
     1
 40
1.0
176
     1
 90
        1
176
     1
 90
        6
176
     1
 90
        2
176
     1
 62
     7
176
     1
 90
        6
176
     1
 90
        0
176
     1
 90
        0
176
     1
290
     0
176
     1
 90
        1
176
     1
 40
0.0
176
     1
 90
        0
176
     1
290
     0
176
     1
290
     1
176
     1
290
     1
176
     1
290
     0
176
     1
290
     0
176
     1
290
     0
176
     1
290
     0
176
     1
290
     0
176
     1
290
     0
176
     1
 90
       50
176
     1
 40
0.0
176
     1
 40
1.0
176
     1
 90
        0
176
     1
 62
    18
420
        0
176
     1
 90
       50
176
     1
 90
        3
176
     1
 62
     5
420
      255
176
     1
290
     0
176
     1
 90
       50
176
     1
 90
       50
176
     1
 90
       50
176
     1
290
     0
176
     1
 90
       50
176
     1
 62
   256
176
     0
 40
1.0
176
     0
 90
        2
176
     1
  1
strokes_ogs.tif
176
     1
290
     0
176
     1
 40
1.0
176
     1
 40
1.0
176
     1
  0
VISUALSTYLE
  5
37
102
{ACAD_REACTORS
330
2A
102
}
330
2A
100
AcDbVisualStyle
  2
Thicken
 70
    13
177
     3
291
     1
 70
    58
 90
        2
176
     1
 90
        2
176
     1
 90
        0
176
     1
 90
        0
176
     1
 40
0.6
176
     1
 40
30.0
176
     1
 62
     7
420
 16777215
176
     1
 90
        1
176
     1
 90
        4
176
     1
 62
     7
176
     1
 62
   257
176
     1
 90
        1
176
     1
 90
        1
176
     1
 40
1.0
176
     1
 90
       12
176
     1
 62
     7
176
     1
 40
1.0
176
     1
 90
        1
176
     1
 90
        6
176
     1
 90
        2
176
     1
 62
     7
176
     1
 90
        5
176
     1
 90
        0
176
     1
 90
        0
176
     1
290
     0
176
     1
 90
        1
176
     1
 40
0.0
176
     1
 90
        0
176
     1
290
     0
176
     1
290
     1
176
     1
290
     1
176
     1
290
     0
176
     1
290
     0
176
     1
290
     0
176
     1
290
     0
176
     1
290
     0
176
     1
290
     0
176
     1
 90
       50
176
     1
 40
0.0
176
     1
 40
1.0
176
     1
 90
        0
176
     1
 62
    18
420
        0
176
     1
 90
       50
176
     1
 90
        3
176
     1
 62
     5
420
      255
176
     1
290
     0
176
     1
 90
       50
176
     1
 90
       50
176
     1
 90
       50
176
     1
290
     0
176
     1
 90
       50
176
     1
 62
   256
176
     0
 40
1.0
176
     0
 90
        2
176
     1
  1
strokes_ogs.tif
176
     1
290
     0
176
     1
 40
1.0
176
     1
 40
1.0
176
     1
  0
VISUALSTYLE
  5
30
102
{ACAD_REACTORS
330
2A
102
}
330
2A
100
AcDbVisualStyle
  2
Wireframe
 70
     5
177
     3
291
     0
 70
    58
 90
        0
176
     1
 90
        2
176
     1
 90
        0
176
     1
 90
        0
176
     1
 40
0.6
176
     1
 40
30.0
176
     1
 62
     7
420
 16777215
176
     1
 90
        1
176
     1
 90
        4
176
     1
 62
     7
176
     1
 62
   257
176
     1
 90
        1
176
     1
 90
        1
176
     1
 40
1.0
176
     1
 90
        0
176
     1
 62
   257
176
     1
 40
1.0
176
     1
 90
        1
176
     1
 90
        6
176
     1
 90
        2
176
     1
 62
     7
176
     1
 90
        3
176
     1
 90
        0
176
     1
 90
        0
176
     1
290
     0
176
     1
 90
        1
176
     1
 40
0.0
176
     1
 90
        0
176
     1
290
     0
176
     1
290
     1
176
     1
290
     1
176
     1
290
     0
176
     1
290
     0
176
     1
290
     0
176
     1
290
     0
176
     1
290
     0
176
     1
290
     0
176
     1
 90
       50
176
     1
 40
0.0
176
     1
 40
1.0
176
     1
 90
        0
176
     1
 62
    18
420
        0
176
     1
 90
       50
176
     1
 90
        3
176
     1
 62
     5
420
      255
176
     1
290
     0
176
     1
 90
       50
176
     1
 90
       50
176
     1
 90
       50
176
     1
290
     0
176
     1
 90
       50
176
     1
 62
   256
176
     0
 40
1.0
176
     0
 90
        2
176
     1
  1
strokes_ogs.tif
176
     1
290
     0
176
     1
 40
1.0
176
     1
 40
1.0
176
     1
  0
VISUALSTYLE
  5
40
102
{ACAD_REACTORS
330
2A
102
}
330
2A
100
AcDbVisualStyle
  2
X-Ray
 70
    25
177
     3
291
     0
 70
    58
 90
        2
176
     1
 90
        2
176
     1
 90
        1
176
     1
 90
        1
176
     1
 40
0.5
176
     1
 40
30.0
176
     1
 62
     7
420
 16777215
176
     1
 90
        1
176
     1
 90
        0
176
     1
 62
     7
176
     1
 62
   257
176
     1
 90
        1
176
     1
 90
        1
176
     1
 40
1.0
176
     1
 90
        8
176
     1
 62
     7
176
     1
 40
1.0
176
     1
 90
        1
176
     1
 90
        6
176
     1
 90
        2
176
     1
 62
     7
176
     1
 90
        3
176
     1
 90
        0
176
     1
 90
        0
176
     1
290
     0
176
     1
 90
       13
176
     1
 40
0.0
176
     1
 90
        0
176
     1
290
     0
176
     1
290
     1
176
     1
290
     1
176
     1
290
     0
176
     1
290
     0
176
     1
290
     0
176
     1
290
     0
176
     1
290
     0
176
     1
290
     0
176
     1
 90
       50
176
     1
 40
0.0
176
     1
 40
1.0
176
     1
 90
        0
176
     1
 62
    18
420
        0
176
     1
 90
       50
176
     1
 90
        3
176
     1
 62
     5
420
      255
176
     1
290
     0
176
     1
 90
       50
176
     1
 90
       50
176
     1
 90
       50
176
     1
290
     0
176
     1
 90
       50
176
     1
 62
   256
176
     0
 40
1.0
176
     0
 90
        2
176
     1
  1
strokes_ogs.tif
176
     1
290
     0
176
     1
 40
1.0
176
     1
 40
1.0
176
     1
  0
DICTIONARYVAR
  5
1E9
102
{ACAD_REACTORS
330
1E8
102
}
330
1E8
100
DictionaryVariables
280
     0
  1
1:1
  0
DICTIONARYVAR
  5
1EE
102
{ACAD_REACTORS
330
1E8
102
}
330
1E8
100
DictionaryVariables
280
     0
  1
Standard
  0
DICTIONARYVAR
  5
1ED
102
{ACAD_REACTORS
330
1E8
102
}
330
1E8
100
DictionaryVariables
280
     0
  1
Standard
  0
DICTIONARY
  5
1EA
330
6A
100
AcDbDictionary
280
     1
281
     1
  3
ACAD_ROUNDTRIP_2008_TABLESTYLE_CELLSTYLEMAP
360
1EB
  0
CELLSTYLEMAP
  5
1EB
102
{ACAD_REACTORS
330
1EA
102
}
330
1EA
100
AcDbCellStyleMap
 90
        3
300
CELLSTYLE
  1
TABLEFORMAT_BEGIN
 90
        5
170
     1
 91
        0
 92
    32768
 62
   257
 93
        1
300
CONTENTFORMAT
  1
CONTENTFORMAT_BEGIN
 90
        0
 91
        0
 92
        4
 93
        0
300

 40
0.0
140
1.0
 94
        5
 62
     0
340
11
144
0.25
309
CONTENTFORMAT_END
171
     1
301
MARGIN
  1
CELLMARGIN_BEGIN
 40
0.06
 40
0.06
 40
0.06
 40
0.06
 40
0.06
 40
0.06
309
CELLMARGIN_END
 94
        6
 95
        1
302
GRIDFORMAT
  1
GRIDFORMAT_BEGIN
 90
        0
 91
        1
 62
     0
 92
       -2
340
14
 93
        0
 40
0.045
309
GRIDFORMAT_END
 95
        2
302
GRIDFORMAT
  1
GRIDFORMAT_BEGIN
 90
        0
 91
        1
 62
     0
 92
       -2
340
14
 93
        0
 40
0.045
309
GRIDFORMAT_END
 95
        4
302
GRIDFORMAT
  1
GRIDFORMAT_BEGIN
 90
        0
 91
        1
 62
     0
 92
       -2
340
14
 93
        0
 40
0.045
309
GRIDFORMAT_END
 95
        8
302
GRIDFORMAT
  1
GRIDFORMAT_BEGIN
 90
        0
 91
        1
 62
     0
 92
       -2
340
14
 93
        0
 40
0.045
309
GRIDFORMAT_END
 95
       16
302
GRIDFORMAT
  1
GRIDFORMAT_BEGIN
 90
        0
 91
        1
 62
     0
 92
       -2
340
14
 93
        0
 40
0.045
309
GRIDFORMAT_END
 95
       32
302
GRIDFORMAT
  1
GRIDFORMAT_BEGIN
 90
        0
 91
        1
 62
     0
 92
       -2
340
14
 93
        0
 40
0.045
309
GRIDFORMAT_END
309
TABLEFORMAT_END
  1
CELLSTYLE_BEGIN
 90
        1
 91
        1
300
_TITLE
309
CELLSTYLE_END
300
CELLSTYLE
  1
TABLEFORMAT_BEGIN
 90
        5
170
     1
 91
        0
 92
        0
 62
   257
 93
        1
300
CONTENTFORMAT
  1
CONTENTFORMAT_BEGIN
 90
        0
 91
        0
 92
        4
 93
        0
300

 40
0.0
140
1.0
 94
        5
 62
     0
340
11
144
0.18
309
CONTENTFORMAT_END
171
     1
301
MARGIN
  1
CELLMARGIN_BEGIN
 40
0.06
 40
0.06
 40
0.06
 40
0.06
 40
0.06
 40
0.06
309
CELLMARGIN_END
 94
        6
 95
        1
302
GRIDFORMAT
  1
GRIDFORMAT_BEGIN
 90
        0
 91
        1
 62
     0
 92
       -2
340
14
 93
        0
 40
0.045
309
GRIDFORMAT_END
 95
        2
302
GRIDFORMAT
  1
GRIDFORMAT_BEGIN
 90
        0
 91
        1
 62
     0
 92
       -2
340
14
 93
        0
 40
0.045
309
GRIDFORMAT_END
 95
        4
302
GRIDFORMAT
  1
GRIDFORMAT_BEGIN
 90
        0
 91
        1
 62
     0
 92
       -2
340
14
 93
        0
 40
0.045
309
GRIDFORMAT_END
 95
        8
302
GRIDFORMAT
  1
GRIDFORMAT_BEGIN
 90
        0
 91
        1
 62
     0
 92
       -2
340
14
 93
        0
 40
0.045
309
GRIDFORMAT_END
 95
       16
302
GRIDFORMAT
  1
GRIDFORMAT_BEGIN
 90
        0
 91
        1
 62
     0
 92
       -2
340
14
 93
        0
 40
0.045
309
GRIDFORMAT_END
 95
       32
302
GRIDFORMAT
  1
GRIDFORMAT_BEGIN
 90
        0
 91
        1
 62
     0
 92
       -2
340
14
 93
        0
 40
0.045
309
GRIDFORMAT_END
309
TABLEFORMAT_END
  1
CELLSTYLE_BEGIN
 90
        2
 91
        1
300
_HEADER
309
CELLSTYLE_END
300
CELLSTYLE
  1
TABLEFORMAT_BEGIN
 90
        5
170
     1
 91
        0
 92
        0
 62
   257
 93
        1
300
CONTENTFORMAT
  1
CONTENTFORMAT_BEGIN
 90
        0
 91
        0
 92
        4
 93
        0
300

 40
0.0
140
1.0
 94
        2
 62
     0
340
11
144
0.18
309
CONTENTFORMAT_END
171
     1
301
MARGIN
  1
CELLMARGIN_BEGIN
 40
0.06
 40
0.06
 40
0.06
 40
0.06
 40
0.06
 40
0.06
309
CELLMARGIN_END
 94
        6
 95
        1
302
GRIDFORMAT
  1
GRIDFORMAT_BEGIN
 90
        0
 91
        1
 62
     0
 92
       -2
340
14
 93
        0
 40
0.045
309
GRIDFORMAT_END
 95
        2
302
GRIDFORMAT
  1
GRIDFORMAT_BEGIN
 90
        0
 91
        1
 62
     0
 92
       -2
340
14
 93
        0
 40
0.045
309
GRIDFORMAT_END
 95
        4
302
GRIDFORMAT
  1
GRIDFORMAT_BEGIN
 90
        0
 91
        1
 62
     0
 92
       -2
340
14
 93
        0
 40
0.045
309
GRIDFORMAT_END
 95
        8
302
GRIDFORMAT
  1
GRIDFORMAT_BEGIN
 90
        0
 91
        1
 62
     0
 92
       -2
340
14
 93
        0
 40
0.045
309
GRIDFORMAT_END
 95
       16
302
GRIDFORMAT
  1
GRIDFORMAT_BEGIN
 90
        0
 91
        1
 62
     0
 92
       -2
340
14
 93
        0
 40
0.045
309
GRIDFORMAT_END
 95
       32
302
GRIDFORMAT
  1
GRIDFORMAT_BEGIN
 90
        0
 91
        1
 62
     0
 92
       -2
340
14
 93
        0
 40
0.045
309
GRIDFORMAT_END
309
TABLEFORMAT_END
  1
CELLSTYLE_BEGIN
 90
        3
 91
        2
300
_DATA
309
CELLSTYLE_END
  0
ENDSEC
  0
EOF