0
SECTION
  2
HEADER
  9
$ACADVER
  1
AC1027
  9
$ACADMAINTVER
 70
     8
  9
$DWGCODEPAGE
  3
ANSI_1252
  9
$REQUIREDVERSIONS
160
                 0
  9
$COMMENTS
  1
File was created by Cadenas
  9
$CUSTOMPROPERTYTAG
  1
NN
  9
$CUSTOMPROPERTY
  1
Set Screw Medium Duty Narrow Slot Take Up Inch Bore
  9
$CUSTOMPROPERTYTAG
  1
NT
  9
$CUSTOMPROPERTY
  1
SC Take-Up Bearings -Narrow Slot -(Medium Duty)
  9
$CUSTOMPROPERTYTAG
  1
NB
  9
$CUSTOMPROPERTY
  1
135106
  9
$CUSTOMPROPERTYTAG
  1
NBSYN
  9
$CUSTOMPROPERTY
  1
$PN.
  9
$CUSTOMPROPERTYTAG
  1
LINA
  9
$CUSTOMPROPERTY
  1
135106
  9
$CUSTOMPROPERTYTAG
  1
SERIES
  9
$CUSTOMPROPERTY
  1
209
  9
$CUSTOMPROPERTYTAG
  1
SS
  9
$CUSTOMPROPERTY
  1
1-1/2
  9
$CUSTOMPROPERTYTAG
  1
PN
  9
$CUSTOMPROPERTY
  1
135106
  9
$CUSTOMPROPERTYTAG
  1
DESCRIPTION
  9
$CUSTOMPROPERTY
  1
NSTU-SCM-108
  9
$CUSTOMPROPERTYTAG
  1
W
  9
$CUSTOMPROPERTY
  1
5.0
  9
$CUSTOMPROPERTYTAG
  1
FS
  9
$CUSTOMPROPERTY
  1
NS400
  9
$CUSTOMPROPERTYTAG
  1
A
  9
$CUSTOMPROPERTY
  1
1.94
  9
$CUSTOMPROPERTYTAG
  1
B
  9
$CUSTOMPROPERTY
  1
5.44
  9
$CUSTOMPROPERTYTAG
  1
C
  9
$CUSTOMPROPERTY
  1
0.313
  9
$CUSTOMPROPERTYTAG
  1
D
  9
$CUSTOMPROPERTY
  1
3.00
  9
$CUSTOMPROPERTYTAG
  1
E
  9
$CUSTOMPROPERTY
  1
3.25
  9
$CUSTOMPROPERTYTAG
  1
F
  9
$CUSTOMPROPERTY
  1
7/8
  9
$CUSTOMPROPERTYTAG
  1
G
  9
$CUSTOMPROPERTY
  1
0.72
  9
$CUSTOMPROPERTYTAG
  1
H
  9
$CUSTOMPROPERTY
  1
1.22
  9
$CUSTOMPROPERTYTAG
  1
J
  9
$CUSTOMPROPERTY
  1
1.63
  9
$CUSTOMPROPERTYTAG
  1
L
  9
$CUSTOMPROPERTY
  1
2.22
  9
$CUSTOMPROPERTYTAG
  1
M
  9
$CUSTOMPROPERTY
  1
4.015 / 3.985
  9
$CUSTOMPROPERTYTAG
  1
N
  9
$CUSTOMPROPERTY
  1
4.75
  9
$CUSTOMPROPERTYTAG
  1
P
  9
$CUSTOMPROPERTY
  1
0.38
  9
$CUSTOMPROPERTYTAG
  1
R
  9
$CUSTOMPROPERTY
  1
0.75
  9
$CUSTOMPROPERTYTAG
  1
S
  9
$CUSTOMPROPERTY
  1
1.19
  9
$CUSTOMPROPERTYTAG
  1
COMPANY
  9
$CUSTOMPROPERTY
  1
baldor
  9
$INSBASE
 10
0.0
 20
0.0
 30
0.0
  9
$EXTMIN
 10
1.000000000000000E+20
 20
1.000000000000000E+20
 30
1.000000000000000E+20
  9
$EXTMAX
 10
-1.000000000000000E+20
 20
-1.000000000000000E+20
 30
-1.000000000000000E+20
  9
$LIMMIN
 10
0.0
 20
0.0
  9
$LIMMAX
 10
12.0
 20
9.0
  9
$ORTHOMODE
 70
     0
  9
$REGENMODE
 70
     1
  9
$FILLMODE
 70
     1
  9
$QTEXTMODE
 70
     0
  9
$MIRRTEXT
 70
     1
  9
$LTSCALE
 40
1.0
  9
$ATTMODE
 70
     1
  9
$TEXTSIZE
 40
0.2
  9
$TRACEWID
 40
0.05
  9
$TEXTSTYLE
  7
Standard
  9
$CLAYER
  8
0
  9
$CELTYPE
  6
ByLayer
  9
$CECOLOR
 62
   256
  9
$CELTSCALE
 40
1.0
  9
$DISPSILH
 70
     0
  9
$DIMSCALE
 40
1.0
  9
$DIMASZ
 40
0.18
  9
$DIMEXO
 40
0.0625
  9
$DIMDLI
 40
0.38
  9
$DIMRND
 40
0.0
  9
$DIMDLE
 40
0.0
  9
$DIMEXE
 40
0.18
  9
$DIMTP
 40
0.0
  9
$DIMTM
 40
0.0
  9
$DIMTXT
 40
0.18
  9
$DIMCEN
 40
0.09
  9
$DIMTSZ
 40
0.0
  9
$DIMTOL
 70
     0
  9
$DIMLIM
 70
     0
  9
$DIMTIH
 70
     1
  9
$DIMTOH
 70
     1
  9
$DIMSE1
 70
     0
  9
$DIMSE2
 70
     0
  9
$DIMTAD
 70
     0
  9
$DIMZIN
 70
     0
  9
$DIMBLK
  1

  9
$DIMASO
 70
     1
  9
$DIMSHO
 70
     1
  9
$DIMPOST
  1

  9
$DIMAPOST
  1

  9
$DIMALT
 70
     0
  9
$DIMALTD
 70
     2
  9
$DIMALTF
 40
25.4
  9
$DIMLFAC
 40
1.0
  9
$DIMTOFL
 70
     0
  9
$DIMTVP
 40
0.0
  9
$DIMTIX
 70
     0
  9
$DIMSOXD
 70
     0
  9
$DIMSAH
 70
     0
  9
$DIMBLK1
  1

  9
$DIMBLK2
  1

  9
$DIMSTYLE
  2
Standard
  9
$DIMCLRD
 70
     0
  9
$DIMCLRE
 70
     0
  9
$DIMCLRT
 70
     0
  9
$DIMTFAC
 40
1.0
  9
$DIMGAP
 40
0.09
  9
$DIMJUST
 70
     0
  9
$DIMSD1
 70
     0
  9
$DIMSD2
 70
     0
  9
$DIMTOLJ
 70
     1
  9
$DIMTZIN
 70
     0
  9
$DIMALTZ
 70
     0
  9
$DIMALTTZ
 70
     0
  9
$DIMUPT
 70
     0
  9
$DIMDEC
 70
     4
  9
$DIMTDEC
 70
     4
  9
$DIMALTU
 70
     2
  9
$DIMALTTD
 70
     2
  9
$DIMTXSTY
  7
Standard
  9
$DIMAUNIT
 70
     0
  9
$DIMADEC
 70
     0
  9
$DIMALTRND
 40
0.0
  9
$DIMAZIN
 70
     0
  9
$DIMDSEP
 70
    46
  9
$DIMATFIT
 70
     3
  9
$DIMFRAC
 70
     0
  9
$DIMLDRBLK
  1

  9
$DIMLUNIT
 70
     2
  9
$DIMLWD
 70
    -2
  9
$DIMLWE
 70
    -2
  9
$DIMTMOVE
 70
     0
  9
$DIMFXL
 40
1.0
  9
$DIMFXLON
 70
     0
  9
$DIMJOGANG
 40
0.7853981633974483
  9
$DIMTFILL
 70
     0
  9
$DIMTFILLCLR
 70
     0
  9
$DIMARCSYM
 70
     0
  9
$DIMLTYPE
  6

  9
$DIMLTEX1
  6

  9
$DIMLTEX2
  6

  9
$DIMTXTDIRECTION
 70
     0
  9
$LUNITS
 70
     2
  9
$LUPREC
 70
     4
  9
$SKETCHINC
 40
0.1
  9
$FILLETRAD
 40
0.5
  9
$AUNITS
 70
     0
  9
$AUPREC
 70
     0
  9
$MENU
  1
.
  9
$ELEVATION
 40
0.0
  9
$PELEVATION
 40
0.0
  9
$THICKNESS
 40
0.0
  9
$LIMCHECK
 70
     0
  9
$CHAMFERA
 40
0.0
  9
$CHAMFERB
 40
0.0
  9
$CHAMFERC
 40
0.0
  9
$CHAMFERD
 40
0.0
  9
$SKPOLY
 70
     0
  9
$TDCREATE
 40
2458168.978685613
  9
$TDUCREATE
 40
2458168.937018947
  9
$TDUPDATE
 40
2458168.978685787
  9
$TDUUPDATE
 40
2458168.93701912
  9
$TDINDWG
 40
0.0000000116
  9
$TDUSRTIMER
 40
0.0000000116
  9
$USRTIMER
 70
     1
  9
$ANGBASE
 50
0.0
  9
$ANGDIR
 70
     0
  9
$PDMODE
 70
     0
  9
$PDSIZE
 40
0.0
  9
$PLINEWID
 40
0.0
  9
$SPLFRAME
 70
     0
  9
$SPLINETYPE
 70
     6
  9
$SPLINESEGS
 70
     8
  9
$HANDSEED
  5
1EC
  9
$SURFTAB1
 70
     6
  9
$SURFTAB2
 70
     6
  9
$SURFTYPE
 70
     6
  9
$SURFU
 70
     6
  9
$SURFV
 70
     6
  9
$UCSBASE
  2

  9
$UCSNAME
  2

  9
$UCSORG
 10
0.0
 20
0.0
 30
0.0
  9
$UCSXDIR
 10
1.0
 20
0.0
 30
0.0
  9
$UCSYDIR
 10
0.0
 20
1.0
 30
0.0
  9
$UCSORTHOREF
  2

  9
$UCSORTHOVIEW
 70
     0
  9
$UCSORGTOP
 10
0.0
 20
0.0
 30
0.0
  9
$UCSORGBOTTOM
 10
0.0
 20
0.0
 30
0.0
  9
$UCSORGLEFT
 10
0.0
 20
0.0
 30
0.0
  9
$UCSORGRIGHT
 10
0.0
 20
0.0
 30
0.0
  9
$UCSORGFRONT
 10
0.0
 20
0.0
 30
0.0
  9
$UCSORGBACK
 10
0.0
 20
0.0
 30
0.0
  9
$PUCSBASE
  2

  9
$PUCSNAME
  2

  9
$PUCSORG
 10
0.0
 20
0.0
 30
0.0
  9
$PUCSXDIR
 10
1.0
 20
0.0
 30
0.0
  9
$PUCSYDIR
 10
0.0
 20
1.0
 30
0.0
  9
$PUCSORTHOREF
  2

  9
$PUCSORTHOVIEW
 70
     0
  9
$PUCSORGTOP
 10
0.0
 20
0.0
 30
0.0
  9
$PUCSORGBOTTOM
 10
0.0
 20
0.0
 30
0.0
  9
$PUCSORGLEFT
 10
0.0
 20
0.0
 30
0.0
  9
$PUCSORGRIGHT
 10
0.0
 20
0.0
 30
0.0
  9
$PUCSORGFRONT
 10
0.0
 20
0.0
 30
0.0
  9
$PUCSORGBACK
 10
0.0
 20
0.0
 30
0.0
  9
$USERI1
 70
     0
  9
$USERI2
 70
     0
  9
$USERI3
 70
     0
  9
$USERI4
 70
     0
  9
$USERI5
 70
     0
  9
$USERR1
 40
0.0
  9
$USERR2
 40
0.0
  9
$USERR3
 40
0.0
  9
$USERR4
 40
0.0
  9
$USERR5
 40
0.0
  9
$WORLDVIEW
 70
     1
  9
$SHADEDGE
 70
     3
  9
$SHADEDIF
 70
    70
  9
$TILEMODE
 70
     1
  9
$MAXACTVP
 70
    64
  9
$PINSBASE
 10
0.0
 20
0.0
 30
0.0
  9
$PLIMCHECK
 70
     0
  9
$PEXTMIN
 10
1.000000000000000E+20
 20
1.000000000000000E+20
 30
1.000000000000000E+20
  9
$PEXTMAX
 10
-1.000000000000000E+20
 20
-1.000000000000000E+20
 30
-1.000000000000000E+20
  9
$PLIMMIN
 10
0.0
 20
0.0
  9
$PLIMMAX
 10
12.0
 20
9.0
  9
$UNITMODE
 70
     0
  9
$VISRETAIN
 70
     1
  9
$PLINEGEN
 70
     0
  9
$PSLTSCALE
 70
     1
  9
$TREEDEPTH
 70
  3020
  9
$CMLSTYLE
  2
Standard
  9
$CMLJUST
 70
     0
  9
$CMLSCALE
 40
1.0
  9
$PROXYGRAPHICS
 70
     1
  9
$MEASUREMENT
 70
     0
  9
$CELWEIGHT
370
    -1
  9
$ENDCAPS
280
     0
  9
$JOINSTYLE
280
     0
  9
$LWDISPLAY
290
     0
  9
$INSUNITS
 70
     1
  9
$HYPERLINKBASE
  1

  9
$STYLESHEET
  1

  9
$XEDIT
290
     1
  9
$CEPSNTYPE
380
     0
  9
$PSTYLEMODE
290
     1
  9
$FINGERPRINTGUID
  2
{4F9811B6-1C37-46C6-AC61-E47C4E465054}
  9
$VERSIONGUID
  2
{FAEB1C32-E019-11D5-929B-00C0DF256EC4}
  9
$EXTNAMES
290
     1
  9
$PSVPSCALE
 40
0.0
  9
$OLESTARTUP
290
     0
  9
$SORTENTS
280
   127
  9
$INDEXCTL
280
     0
  9
$HIDETEXT
280
     1
  9
$XCLIPFRAME
280
     2
  9
$HALOGAP
280
     0
  9
$OBSCOLOR
 70
   257
  9
$OBSLTYPE
280
     0
  9
$INTERSECTIONDISPLAY
280
     0
  9
$INTERSECTIONCOLOR
 70
   257
  9
$DIMASSOC
280
     2
  9
$PROJECTNAME
  1

  9
$CAMERADISPLAY
290
     0
  9
$LENSLENGTH
 40
50.0
  9
$CAMERAHEIGHT
 40
0.0
  9
$STEPSPERSEC
 40
2.0
  9
$STEPSIZE
 40
6.0
  9
$3DDWFPREC
 40
2.0
  9
$PSOLWIDTH
 40
0.25
  9
$PSOLHEIGHT
 40
4.0
  9
$LOFTANG1
 40
1.570796326794897
  9
$LOFTANG2
 40
1.570796326794897
  9
$LOFTMAG1
 40
0.0
  9
$LOFTMAG2
 40
0.0
  9
$LOFTPARAM
 70
     7
  9
$LOFTNORMALS
280
     1
  9
$LATITUDE
 40
37.795
  9
$LONGITUDE
 40
-122.394
  9
$NORTHDIRECTION
 40
0.0
  9
$TIMEZONE
 70
 -8000
  9
$LIGHTGLYPHDISPLAY
280
     1
  9
$TILEMODELIGHTSYNCH
280
     1
  9
$CMATERIAL
347
44
  9
$SOLIDHIST
280
     0
  9
$SHOWHIST
280
     1
  9
$DWFFRAME
280
     2
  9
$DGNFRAME
280
     2
  9
$REALWORLDSCALE
290
     1
  9
$INTERFERECOLOR
 62
   256
  9
$CSHADOW
280
     0
  9
$SHADOWPLANELOCATION
 40
0.0
  0
ENDSEC
  0
SECTION
  2
CLASSES
  0
CLASS
  1
ACDBDICTIONARYWDFLT
  2
AcDbDictionaryWithDefault
  3
ObjectDBX Classes
 90
        0
 91
        4
280
     0
281
     0
  0
CLASS
  1
VISUALSTYLE
  2
AcDbVisualStyle
  3
ObjectDBX Classes
 90
     4095
 91
        4
280
     0
281
     0
  0
CLASS
  1
MATERIAL
  2
AcDbMaterial
  3
ObjectDBX Classes
 90
     1153
 91
        4
280
     0
281
     0
  0
CLASS
  1
SCALE
  2
AcDbScale
  3
ObjectDBX Classes
 90
     1153
 91
        4
280
     0
281
     0
  0
CLASS
  1
TABLESTYLE
  2
AcDbTableStyle
  3
ObjectDBX Classes
 90
     4095
 91
        4
280
     0
281
     0
  0
CLASS
  1
MLEADERSTYLE
  2
AcDbMLeaderStyle
  3
ACDB_MLEADERSTYLE_CLASS
 90
     4095
 91
        4
280
     0
281
     0
  0
CLASS
  1
SUN
  2
AcDbSun
  3
SCENEOE
 90
     1153
 91
        4
280
     0
281
     0
  0
CLASS
  1
DICTIONARYVAR
  2
AcDbDictionaryVar
  3
ObjectDBX Classes
 90
        0
 91
        4
280
     0
281
     0
  0
CLASS
  1
CELLSTYLEMAP
  2
AcDbCellStyleMap
  3
ObjectDBX Classes
 90
     1152
 91
        4
280
     0
281
     0
  0
ENDSEC
  0
SECTION
  2
TABLES
  0
TABLE
  2
VPORT
  5
8
330
0
100
AcDbSymbolTable
 70
     1
  0
VPORT
  5
29
330
8
100
AcDbSymbolTableRecord
100
AcDbViewportTableRecord
  2
*Active
 70
     0
 10
0.0
 20
0.0
 11
1.0
 21
1.0
 12
-0.1952499999999997
 22
0.0
 13
0.0
 23
0.0
 14
0.5
 24
0.5
 15
0.5
 25
0.5
 16
0.0
 26
0.0
 36
1.0
 17
0.0
 27
0.0
 37
0.0
 40
4.845
 41
0.4596842105263156
 42
50.0
 43
0.0
 44
0.0
 50
0.0
 51
0.0
 71
     0
 72
   100
 73
     1
 74
     3
 75
     0
 76
     0
 77
     0
 78
     0
281
     0
 65
     1
110
0.0
120
0.0
130
0.0
111
1.0
121
0.0
131
0.0
112
0.0
122
1.0
132
0.0
 79
     0
146
0.0
348
2F
 60
     3
 61
     5
292
     1
282
     1
141
0.0
142
0.0
 63
   250
361
6D
  0
ENDTAB
  0
TABLE
  2
LTYPE
  5
5
330
0
100
AcDbSymbolTable
 70
     3
  0
LTYPE
  5
14
330
5
100
AcDbSymbolTableRecord
100
AcDbLinetypeTableRecord
  2
ByBlock
 70
     0
  3

 72
    65
 73
     0
 40
0.0
  0
LTYPE
  5
15
330
5
100
AcDbSymbolTableRecord
100
AcDbLinetypeTableRecord
  2
ByLayer
 70
     0
  3

 72
    65
 73
     0
 40
0.0
  0
LTYPE
  5
16
330
5
100
AcDbSymbolTableRecord
100
AcDbLinetypeTableRecord
  2
Continuous
 70
     0
  3
Solid line
 72
    65
 73
     0
 40
0.0
  0
LTYPE
  5
9F
330
5
100
AcDbSymbolTableRecord
100
AcDbLinetypeTableRecord
  2
Dashed
 70
     0
  3

 72
    65
 73
     2
 40
2.0
 49
1.0
 74
     0
 49
-1.0
 74
     0
  0
LTYPE
  5
15B
330
5
100
AcDbSymbolTableRecord
100
AcDbLinetypeTableRecord
  2
Center
 70
     0
  3

 72
    65
 73
     4
 40
1.5
 49
0.45
 74
     0
 49
-0.5
 74
     0
 49
0.05
 74
     0
 49
-0.5
 74
     0
  0
ENDTAB
  0
TABLE
  2
LAYER
  5
2
330
0
100
AcDbSymbolTable
 70
     7
  0
LAYER
  5
10
330
2
100
AcDbSymbolTableRecord
100
AcDbLayerTableRecord
  2
0
 70
     0
 62
     7
  6
Continuous
370
    -3
390
F
347
46
348
0
  0
LAYER
  5
72
330
2
100
AcDbSymbolTableRecord
100
AcDbLayerTableRecord
  2
AM_6
 70
     0
 62
    -2
  6
Continuous
370
    35
390
F
347
46
348
0
  0
LAYER
  5
A0
330
2
100
AcDbSymbolTableRecord
100
AcDbLayerTableRecord
  2
AM_9
 70
     0
 62
     6
  6
Dashed
370
    25
390
F
347
46
348
0
  0
LAYER
  5
158
330
2
100
AcDbSymbolTableRecord
100
AcDbLayerTableRecord
  2
AM_5
 70
     0
 62
     3
  6
Continuous
370
    25
390
F
347
46
348
0
  0
LAYER
  5
15C
330
2
100
AcDbSymbolTableRecord
100
AcDbLayerTableRecord
  2
AM_7
 70
     0
 62
     7
  6
Center
370
    25
390
F
347
46
348
0
  0
LAYER
  5
15F
330
2
100
AcDbSymbolTableRecord
100
AcDbLayerTableRecord
  2
AM_4
 70
     0
 62
     7
  6
Continuous
370
    50
390
F
347
46
348
0
  0
LAYER
  5
1DE
330
2
100
AcDbSymbolTableRecord
100
AcDbLayerTableRecord
  2
ConnectionPoints
 70
     0
 62
     7
  6
Continuous
370
    50
390
F
347
46
348
0
  0
ENDTAB
  0
TABLE
  2
STYLE
  5
3
330
0
100
AcDbSymbolTable
 70
     1
  0
STYLE
  5
11
330
3
100
AcDbSymbolTableRecord
100
AcDbTextStyleTableRecord
  2
Standard
 70
     0
 40
0.0
 41
1.0
 50
0.0
 71
     0
 42
0.2
  3
txt
  4

  0
ENDTAB
  0
TABLE
  2
VIEW
  5
6
330
0
100
AcDbSymbolTable
 70
     0
  0
ENDTAB
  0
TABLE
  2
UCS
  5
7
330
0
100
AcDbSymbolTable
 70
     0
  0
ENDTAB
  0
TABLE
  2
APPID
  5
9
330
0
100
AcDbSymbolTable
 70
     1
  0
APPID
  5
12
330
9
100
AcDbSymbolTableRecord
100
AcDbRegAppTableRecord
  2
ACAD
 70
     0
  0
ENDTAB
  0
TABLE
  2
DIMSTYLE
  5
A
330
0
100
AcDbSymbolTable
 70
     1
100
AcDbDimStyleTable
  0
DIMSTYLE
105
27
330
A
100
AcDbSymbolTableRecord
100
AcDbDimStyleTableRecord
  2
Standard
 70
     0
178
     0
340
11
  0
ENDTAB
  0
TABLE
  2
BLOCK_RECORD
  5
1
330
0
100
AcDbSymbolTable
 70
     5
  0
BLOCK_RECORD
  5
1F
330
1
100
AcDbSymbolTableRecord
100
AcDbBlockTableRecord
  2
*Model_Space
340
22
 70
     0
280
     1
281
     0
  0
BLOCK_RECORD
  5
1B
330
1
100
AcDbSymbolTableRecord
100
AcDbBlockTableRecord
  2
*Paper_Space
340
1E
 70
     0
280
     1
281
     0
  0
BLOCK_RECORD
  5
23
330
1
100
AcDbSymbolTableRecord
100
AcDbBlockTableRecord
  2
*Paper_Space0
340
26
 70
     0
280
     1
281
     0
  0
BLOCK_RECORD
  5
6E
330
1
100
AcDbSymbolTableRecord
100
AcDbBlockTableRecord
  2
1_135106_2
340
0
102
{BLKREFS
331
6F
102
}
 70
     0
280
     1
281
     0
  0
BLOCK_RECORD
  5
8E
330
1
100
AcDbSymbolTableRecord
100
AcDbBlockTableRecord
  2
2_405016_Inch_0_in_135106_2
340
0
102
{BLKREFS
331
8F
102
}
 70
     0
280
     1
281
     0
  0
BLOCK_RECORD
  5
109
330
1
100
AcDbSymbolTableRecord
100
AcDbBlockTableRecord
  2
3_123354_0_in_135106_2
340
0
102
{BLKREFS
331
10A
102
}
 70
     0
280
     1
281
     0
  0
BLOCK_RECORD
  5
176
330
1
100
AcDbSymbolTableRecord
100
AcDbBlockTableRecord
  2
4_135106H_0_in_135106_2
340
0
102
{BLKREFS
331
177
102
}
 70
     0
280
     1
281
     0
  0
ENDTAB
  0
ENDSEC
  0
SECTION
  2
BLOCKS
  0
BLOCK
  5
20
330
1F
100
AcDbEntity
  8
0
100
AcDbBlockBegin
  2
*Model_Space
 70
     0
 10
0.0
 20
0.0
 30
0.0
  3
*Model_Space
  1

  0
ENDBLK
  5
21
330
1F
100
AcDbEntity
  8
0
100
AcDbBlockEnd
  0
BLOCK
  5
1C
330
1B
100
AcDbEntity
 67
     1
  8
0
100
AcDbBlockBegin
  2
*Paper_Space
 70
     0
 10
0.0
 20
0.0
 30
0.0
  3
*Paper_Space
  1

  0
ENDBLK
  5
1D
330
1B
100
AcDbEntity
 67
     1
  8
0
100
AcDbBlockEnd
  0
BLOCK
  5
24
330
23
100
AcDbEntity
  8
0
100
AcDbBlockBegin
  2
*Paper_Space0
 70
     0
 10
0.0
 20
0.0
 30
0.0
  3
*Paper_Space0
  1

  0
ENDBLK
  5
25
330
23
100
AcDbEntity
  8
0
100
AcDbBlockEnd
  0
BLOCK
  5
70
330
6E
100
AcDbEntity
  8
0
100
AcDbBlockBegin
  2
1_135106_2
 70
     2
 10
0.0
 20
0.0
 30
0.0
  3
1_135106_2
  1

  0
ATTDEF
  5
73
330
6E
100
AcDbEntity
  8
AM_6
100
AcDbText
 10
5.8965
 20
2.375
 30
0.0
 40
0.5
  1
Set Screw Medium Duty Narrow Slot Take Up Inch Bore
100
AcDbAttributeDefinition
  3

  2
NN
 70
     8
280
     0
  0
ATTDEF
  5
74
330
6E
100
AcDbEntity
  8
AM_6
100
AcDbText
 10
5.8965
 20
1.875
 30
0.0
 40
0.5
  1
SC Take-Up Bearings -Narrow Slot -(Medium Duty)
100
AcDbAttributeDefinition
  3

  2
NT
 70
     8
280
     0
  0
ATTDEF
  5
75
330
6E
100
AcDbEntity
  8
AM_6
100
AcDbText
 10
5.8965
 20
1.375
 30
0.0
 40
0.5
  1
135106
100
AcDbAttributeDefinition
  3

  2
NB
 70
     8
280
     0
  0
ATTDEF
  5
76
330
6E
100
AcDbEntity
  8
AM_6
100
AcDbText
 10
5.8965
 20
0.875
 30
0.0
 40
0.5
  1
$PN.
100
AcDbAttributeDefinition
  3

  2
NBSYN
 70
     8
280
     0
  0
ATTDEF
  5
77
330
6E
100
AcDbEntity
  8
AM_6
100
AcDbText
 10
5.8965
 20
0.375
 30
0.0
 40
0.5
  1
135106
100
AcDbAttributeDefinition
  3

  2
LINA
 70
     8
280
     0
  0
ATTDEF
  5
78
330
6E
100
AcDbEntity
  8
AM_6
100
AcDbText
 10
5.8965
 20
-0.125
 30
0.0
 40
0.5
  1
209
100
AcDbAttributeDefinition
  3

  2
SERIES
 70
     8
280
     0
  0
ATTDEF
  5
79
330
6E
100
AcDbEntity
  8
AM_6
100
AcDbText
 10
5.8965
 20
-0.625
 30
0.0
 40
0.5
  1
1-1/2
100
AcDbAttributeDefinition
  3

  2
SS
 70
     8
280
     0
  0
ATTDEF
  5
7A
330
6E
100
AcDbEntity
  8
AM_6
100
AcDbText
 10
5.8965
 20
-1.125
 30
0.0
 40
0.5
  1
135106
100
AcDbAttributeDefinition
  3

  2
PN
 70
     8
280
     0
  0
ATTDEF
  5
7B
330
6E
100
AcDbEntity
  8
AM_6
100
AcDbText
 10
5.8965
 20
-1.625
 30
0.0
 40
0.5
  1
NSTU-SCM-108
100
AcDbAttributeDefinition
  3

  2
DESCRIPTION
 70
     8
280
     0
  0
ATTDEF
  5
7C
330
6E
100
AcDbEntity
  8
AM_6
100
AcDbText
 10
5.8965
 20
-2.125
 30
0.0
 40
0.5
  1
5.0
100
AcDbAttributeDefinition
  3

  2
W
 70
     8
280
     0
  0
ATTDEF
  5
7D
330
6E
100
AcDbEntity
  8
AM_6
100
AcDbText
 10
5.8965
 20
-2.625
 30
0.0
 40
0.5
  1
NS400
100
AcDbAttributeDefinition
  3

  2
FS
 70
     8
280
     0
  0
ATTDEF
  5
7E
330
6E
100
AcDbEntity
  8
AM_6
100
AcDbText
 10
5.8965
 20
-3.125
 30
0.0
 40
0.5
  1
1.94
100
AcDbAttributeDefinition
  3

  2
A
 70
     8
280
     0
  0
ATTDEF
  5
7F
330
6E
100
AcDbEntity
  8
AM_6
100
AcDbText
 10
5.8965
 20
-3.625
 30
0.0
 40
0.5
  1
5.44
100
AcDbAttributeDefinition
  3

  2
B
 70
     8
280
     0
  0
ATTDEF
  5
80
330
6E
100
AcDbEntity
  8
AM_6
100
AcDbText
 10
5.8965
 20
-4.125
 30
0.0
 40
0.5
  1
0.313
100
AcDbAttributeDefinition
  3

  2
C
 70
     8
280
     0
  0
ATTDEF
  5
81
330
6E
100
AcDbEntity
  8
AM_6
100
AcDbText
 10
5.8965
 20
-4.625
 30
0.0
 40
0.5
  1
3.00
100
AcDbAttributeDefinition
  3

  2
D
 70
     8
280
     0
  0
ATTDEF
  5
82
330
6E
100
AcDbEntity
  8
AM_6
100
AcDbText
 10
5.8965
 20
-5.125
 30
0.0
 40
0.5
  1
3.25
100
AcDbAttributeDefinition
  3

  2
E
 70
     8
280
     0
  0
ATTDEF
  5
83
330
6E
100
AcDbEntity
  8
AM_6
100
AcDbText
 10
5.8965
 20
-5.625
 30
0.0
 40
0.5
  1
7/8
100
AcDbAttributeDefinition
  3

  2
F
 70
     8
280
     0
  0
ATTDEF
  5
84
330
6E
100
AcDbEntity
  8
AM_6
100
AcDbText
 10
5.8965
 20
-6.125
 30
0.0
 40
0.5
  1
0.72
100
AcDbAttributeDefinition
  3

  2
G
 70
     8
280
     0
  0
ATTDEF
  5
85
330
6E
100
AcDbEntity
  8
AM_6
100
AcDbText
 10
5.8965
 20
-6.625
 30
0.0
 40
0.5
  1
1.22
100
AcDbAttributeDefinition
  3

  2
H
 70
     8
280
     0
  0
ATTDEF
  5
86
330
6E
100
AcDbEntity
  8
AM_6
100
AcDbText
 10
5.8965
 20
-7.125
 30
0.0
 40
0.5
  1
1.63
100
AcDbAttributeDefinition
  3

  2
J
 70
     8
280
     0
  0
ATTDEF
  5
87
330
6E
100
AcDbEntity
  8
AM_6
100
AcDbText
 10
5.8965
 20
-7.625
 30
0.0
 40
0.5
  1
2.22
100
AcDbAttributeDefinition
  3

  2
L
 70
     8
280
     0
  0
ATTDEF
  5
88
330
6E
100
AcDbEntity
  8
AM_6
100
AcDbText
 10
5.8965
 20
-8.125
 30
0.0
 40
0.5
  1
4.015 / 3.985
100
AcDbAttributeDefinition
  3

  2
M
 70
     8
280
     0
  0
ATTDEF
  5
89
330
6E
100
AcDbEntity
  8
AM_6
100
AcDbText
 10
5.8965
 20
-8.625
 30
0.0
 40
0.5
  1
4.75
100
AcDbAttributeDefinition
  3

  2
N
 70
     8
280
     0
  0
ATTDEF
  5
8A
330
6E
100
AcDbEntity
  8
AM_6
100
AcDbText
 10
5.8965
 20
-9.125
 30
0.0
 40
0.5
  1
0.38
100
AcDbAttributeDefinition
  3

  2
P
 70
     8
280
     0
  0
ATTDEF
  5
8B
330
6E
100
AcDbEntity
  8
AM_6
100
AcDbText
 10
5.8965
 20
-9.625
 30
0.0
 40
0.5
  1
0.75
100
AcDbAttributeDefinition
  3

  2
R
 70
     8
280
     0
  0
ATTDEF
  5
8C
330
6E
100
AcDbEntity
  8
AM_6
100
AcDbText
 10
5.8965
 20
-10.125
 30
0.0
 40
0.5
  1
1.19
100
AcDbAttributeDefinition
  3

  2
S
 70
     8
280
     0
  0
ATTDEF
  5
8D
330
6E
100
AcDbEntity
  8
AM_6
100
AcDbText
 10
5.8965
 20
-10.625
 30
0.0
 40
0.5
  1
baldor
100
AcDbAttributeDefinition
  3

  2
COMPANY
 70
     8
280
     0
  0
INSERT
  5
8F
330
6E
100
AcDbEntity
  8
0
100
AcDbBlockReference
  2
2_405016_Inch_0_in_135106_2
 10
0.0
 20
0.0
 30
0.0
  0
INSERT
  5
10A
330
6E
100
AcDbEntity
  8
0
100
AcDbBlockReference
  2
3_123354_0_in_135106_2
 10
0.0
 20
0.0
 30
0.0
  0
INSERT
  5
177
330
6E
100
AcDbEntity
  8
0
100
AcDbBlockReference
  2
4_135106H_0_in_135106_2
 10
0.0
 20
0.0
 30
0.0
  0
ENDBLK
  5
71
330
6E
100
AcDbEntity
  8
0
100
AcDbBlockEnd
  0
BLOCK
  5
90
330
8E
100
AcDbEntity
  8
0
100
AcDbBlockBegin
  2
2_405016_Inch_0_in_135106_2
 70
     2
 10
0.0
 20
0.0
 30
0.0
  3
2_405016_Inch_0_in_135106_2
  1

  0
ATTDEF
  5
92
330
8E
100
AcDbEntity
  8
AM_6
100
AcDbText
 10
5.218750000001661
 20
-0.836925698355158
 30
0.0
 40
0.5
  1
405016 -Inch
100
AcDbAttributeDefinition
  3

  2
NN
 70
     8
280
     0
  0
ATTDEF
  5
93
330
8E
100
AcDbEntity
  8
AM_6
100
AcDbText
 10
5.218750000001661
 20
-1.336925698355158
 30
0.0
 40
0.5
  1
Grease Fitting
100
AcDbAttributeDefinition
  3

  2
NT
 70
     8
280
     0
  0
ATTDEF
  5
94
330
8E
100
AcDbEntity
  8
AM_6
100
AcDbText
 10
5.218750000001661
 20
-1.836925698355158
 30
0.0
 40
0.5
  1
405016-Inch
100
AcDbAttributeDefinition
  3

  2
NB
 70
     8
280
     0
  0
ATTDEF
  5
95
330
8E
100
AcDbEntity
  8
AM_6
100
AcDbText
 10
5.218750000001661
 20
-2.336925698355158
 30
0.0
 40
0.5
  1
$MN.-Inch
100
AcDbAttributeDefinition
  3

  2
NBSYN
 70
     8
280
     0
  0
ATTDEF
  5
96
330
8E
100
AcDbEntity
  8
AM_6
100
AcDbText
 10
5.218750000001661
 20
-2.836925698355158
 30
0.0
 40
0.5
  1
405016
100
AcDbAttributeDefinition
  3

  2
LINA
 70
     8
280
     0
  0
ATTDEF
  5
97
330
8E
100
AcDbEntity
  8
AM_6
100
AcDbText
 10
5.218750000001661
 20
-3.336925698355158
 30
0.0
 40
0.5
  1
405016
100
AcDbAttributeDefinition
  3

  2
MN
 70
     8
280
     0
  0
ATTDEF
  5
98
330
8E
100
AcDbEntity
  8
AM_6
100
AcDbText
 10
5.218750000001661
 20
-3.836925698355158
 30
0.0
 40
0.5
  1
7/16 HEX
100
AcDbAttributeDefinition
  3

  2
H
 70
     8
280
     0
  0
ATTDEF
  5
99
330
8E
100
AcDbEntity
  8
AM_6
100
AcDbText
 10
5.218750000001661
 20
-4.336925698355158
 30
0.0
 40
0.5
  1
0.383
100
AcDbAttributeDefinition
  3

  2
NDR
 70
     8
280
     0
  0
ATTDEF
  5
9A
330
8E
100
AcDbEntity
  8
AM_6
100
AcDbText
 10
5.218750000001661
 20
-4.836925698355158
 30
0.0
 40
0.5
  1
0.337
100
AcDbAttributeDefinition
  3

  2
KDR
 70
     8
280
     0
  0
ATTDEF
  5
9B
330
8E
100
AcDbEntity
  8
AM_6
100
AcDbText
 10
5.218750000001661
 20
-5.336925698355158
 30
0.0
 40
0.5
  1
0.1575
100
AcDbAttributeDefinition
  3

  2
BZE
 70
     8
280
     0
  0
ATTDEF
  5
9C
330
8E
100
AcDbEntity
  8
AM_6
100
AcDbText
 10
5.218750000001661
 20
-5.836925698355158
 30
0.0
 40
0.5
  1
0.4375
100
AcDbAttributeDefinition
  3

  2
HEX
 70
     8
280
     0
  0
ATTDEF
  5
9D
330
8E
100
AcDbEntity
  8
AM_6
100
AcDbText
 10
5.218750000001661
 20
-6.336925698355158
 30
0.0
 40
0.5
  1
0.281250
100
AcDbAttributeDefinition
  3

  2
HEX2
 70
     8
280
     0
  0
ATTDEF
  5
9E
330
8E
100
AcDbEntity
  8
AM_6
100
AcDbText
 10
5.218750000001661
 20
-6.836925698355158
 30
0.0
 40
0.5
  1
baldor
100
AcDbAttributeDefinition
  3

  2
COMPANY
 70
     8
280
     0
  0
LWPOLYLINE
  5
A1
330
8E
100
AcDbEntity
  8
AM_9
100
AcDbPolyline
 90
        5
 70
     0
 43
0.0
 10
-0.1791093260592888
 20
-1.441738809059826
 10
-0.1842540823997055
 20
-1.408670119967152
 10
-0.1862220679364952
 20
-1.374312409178915
 10
-0.1844124966919382
 20
-1.338126446285356
 10
-0.1791093260592888
 20
-1.301113809059826
  0
LINE
  5
A2
330
8E
100
AcDbEntity
  8
AM_9
100
AcDbLine
 10
-0.1510741298357571
 20
-1.29457729571137
 30
0.0
 11
-0.1791093260592888
 21
-1.301113809059826
 31
0.0
  0
LWPOLYLINE
  5
A3
330
8E
100
AcDbEntity
  8
AM_9
100
AcDbPolyline
 90
        5
 70
     0
 43
0.0
 10
-0.1791093260592888
 20
-1.301113809059826
 10
-0.1988355121406939
 20
-1.269688517736611
 10
-0.2156330920108725
 20
-1.236997724328328
 10
-0.2290462109660021
 20
-1.202506153690794
 10
-0.2389369657326277
 20
-1.167169092407284
  0
LINE
  5
A4
330
8E
100
AcDbEntity
  8
AM_9
100
AcDbLine
 10
-0.2099962668917054
 20
-1.160421457656344
 30
0.0
 11
-0.2389369657326277
 21
-1.167169092407284
 31
0.0
  0
LINE
  5
A5
330
8E
100
AcDbEntity
  8
AM_9
100
AcDbLine
 10
-0.2389369657326277
 20
-1.167169092407284
 30
0.0
 11
-0.2711532636537957
 21
-1.171618123437406
 31
0.0
  0
LWPOLYLINE
  5
A6
330
8E
100
AcDbEntity
  8
AM_9
100
AcDbPolyline
 90
        3
 70
     0
 43
0.0
 10
-0.28139190003636
 20
-1.172753048956784
 10
-0.2911775952746243
 20
-1.17355559349426
 10
-0.2987675689889718
 20
-1.173850066725467
  0
LWPOLYLINE
  5
A7
330
8E
100
AcDbEntity
  8
AM_9
100
AcDbPolyline
 90
        5
 70
     0
 43
0.0
 10
-0.2389369657326277
 20
-1.448419092407284
 10
-0.2295338871417797
 20
-1.44799806213629
 10
-0.2166871171046321
 20
-1.446802555641742
 10
-0.1996402057054679
 20
-1.444676787031713
 10
-0.1791093260592888
 20
-1.441738809059826
  0
LINE
  5
A8
330
8E
100
AcDbEntity
  8
AM_9
100
AcDbLine
 10
-0.1510741298357571
 20
-1.43520229571137
 30
0.0
 11
-0.1791093260592888
 21
-1.441738809059826
 31
0.0
  0
LINE
  5
A9
330
8E
100
AcDbEntity
  8
AM_9
100
AcDbLine
 10
-0.452415808934145
 20
-1.461254016496842
 30
0.0
 11
-0.3774664534000949
 21
-1.479780662014441
 31
0.0
  0
LINE
  5
AA
330
8E
100
AcDbEntity
  8
AM_9
100
AcDbLine
 10
-0.4395859245204076
 20
-1.213349390582632
 30
0.0
 11
-0.4986131040655764
 21
-1.263113178260487
 31
0.0
  0
LWPOLYLINE
  5
AB
330
8E
100
AcDbEntity
  8
AM_9
100
AcDbPolyline
 90
        3
 70
     0
 43
0.0
 10
-0.2689146070947223
 20
-1.166889734350518
 10
-0.251275593729576
 20
-1.164238843014548
 10
-0.2360765106845275
 20
-1.162187592413267
  0
LINE
  5
AC
330
8E
100
AcDbEntity
  8
AM_9
100
AcDbLine
 10
-0.4350494034996046
 20
-1.209988562358943
 30
0.0
 11
-0.4400060736696812
 21
-1.213707934624298
 31
0.0
  0
LWPOLYLINE
  5
AD
330
8E
100
AcDbEntity
  8
AM_9
100
AcDbPolyline
 90
       10
 70
     0
 43
0.0
 10
-0.3792184590222948
 20
-1.216966757869293
 10
-0.382795484511828
 20
-1.214133487613333
 10
-0.3901757048695977
 20
-1.209395133913568
 10
-0.3975019754611748
 20
-1.206083826548501
 10
-0.40482705104231
 20
-1.204083217898274
 10
-0.4121530896760884
 20
-1.203354616532125
 10
-0.4201635204805626
 20
-1.204036217069799
 10
-0.4275966975169905
 20
-1.206161973648578
 10
-0.434325906260513
 20
-1.209531375218268
 10
-0.4350494034996046
 20
-1.209988562358943
  0
LWPOLYLINE
  5
AE
330
8E
100
AcDbEntity
  8
AM_9
100
AcDbPolyline
 90
       10
 70
     0
 43
0.0
 10
-0.3779746081250783
 20
-1.479651979480963
 10
-0.3709190236192992
 20
-1.480891943486822
 10
-0.3636199227416266
 20
-1.480931653199374
 10
-0.3558797237162977
 20
-1.479530015891356
 10
-0.3487733618433803
 20
-1.476778969564816
 10
-0.3424090108440597
 20
-1.472878677958025
 10
-0.3367702285846805
 20
-1.467954482931584
 10
-0.331789766083161
 20
-1.462017493789969
 10
-0.3274005799851781
 20
-1.454957022107322
 10
-0.3242181211306998
 20
-1.448173028538248
  0
ELLIPSE
  5
AF
330
8E
100
AcDbEntity
  8
AM_9
100
AcDbEllipse
 10
-0.3994303217889761
 20
-1.344444290038774
 30
0.0
 11
-0.03159560311146643
 21
0.1355139790604256
 31
0.0
210
0.0
220
0.0
230
1.0
 40
0.3659981507706665
 41
0.1897806880062873
 42
4.145181672147543
  0
LWPOLYLINE
  5
B0
330
8E
100
AcDbEntity
  8
AM_9
100
AcDbPolyline
 90
        3
 70
     0
 43
0.0
 10
-0.109375
 20
-1.02
 10
-0.0546875000000001
 20
-0.9914595596074827
 10
-0.0000000000000001
 20
-0.9607787001516928
  0
LWPOLYLINE
  5
B1
330
8E
100
AcDbEntity
  8
AM_9
100
AcDbPolyline
 90
        3
 70
     0
 43
0.0
 10
-0.0000000000000001
 20
-0.9607787001516928
 10
0.0544416102741494
 20
-0.9913260426622648
 10
0.1093749999999998
 20
-1.02
  0
LWPOLYLINE
  5
B2
330
8E
100
AcDbEntity
  8
AM_9
100
AcDbPolyline
 90
        6
 70
     0
 43
0.0
 10
-0.1510741298357571
 20
-1.43520229571137
 10
-0.1564222384464443
 20
-1.435146258798399
 10
-0.1639940363880805
 20
-1.435585121917566
 10
-0.1744063212866123
 20
-1.436646289109958
 10
-0.1876759562813858
 20
-1.438363121169831
 10
-0.2099962668917054
 20
-1.441671457656344
  0
LINE
  5
B3
330
8E
100
AcDbEntity
  8
AM_9
100
AcDbLine
 10
-0.1419624601539892
 20
-1.361354226355192
 30
0.0
 11
-0.1419585098156051
 21
-1.362769408754154
 31
0.0
  0
LWPOLYLINE
  5
B4
330
8E
100
AcDbEntity
  8
AM_9
100
AcDbPolyline
 90
        3
 70
     0
 43
0.0
 10
-0.1510741298357571
 20
-1.29457729571137
 10
-0.1458778226760521
 20
-1.318510622598914
 10
-0.1430508146905286
 20
-1.339447763652076
  0
LINE
  5
B5
330
8E
100
AcDbEntity
  8
AM_9
100
AcDbLine
 10
-0.1782574536135628
 20
-1.210858686560789
 30
0.0
 11
-0.1765789831125443
 21
-1.214205855542361
 31
0.0
  0
LWPOLYLINE
  5
B6
330
8E
100
AcDbEntity
  8
AM_9
100
AcDbPolyline
 90
        3
 70
     0
 43
0.0
 10
-0.1825664812822117
 20
-1.202725956886856
 10
-0.1805491420332304
 20
-1.206456884363538
 10
-0.1782574536135628
 20
-1.210858686560789
  0
LWPOLYLINE
  5
B7
330
8E
100
AcDbEntity
  8
AM_9
100
AcDbPolyline
 90
        3
 70
     0
 43
0.0
 10
-0.2099962668917054
 20
-1.160421457656344
 10
-0.1943573015029059
 20
-1.182992854288234
 10
-0.1825664812822117
 20
-1.202725956886856
  0
LWPOLYLINE
  5
B8
330
8E
100
AcDbEntity
  8
AM_9
100
AcDbPolyline
 90
        3
 70
     0
 43
0.0
 10
-0.2258378743019628
 20
-1.161052666893888
 10
-0.2189176876709015
 20
-1.160510369847584
 10
-0.2099962668917054
 20
-1.160421457656344
  0
LWPOLYLINE
  5
B9
330
8E
100
AcDbEntity
  8
AM_9
100
AcDbPolyline
 90
        3
 70
     0
 43
0.0
 10
-0.1426281925259832
 20
-1.381344783746633
 10
-0.1441228263802215
 20
-1.396595324422914
 10
-0.1510741298357571
 20
-1.43520229571137
  0
LWPOLYLINE
  5
BA
330
8E
100
AcDbEntity
  8
AM_9
100
AcDbPolyline
 90
        3
 70
     0
 43
0.0
 10
-0.1419585098156051
 20
-1.362769408754154
 10
-0.1420496512545707
 20
-1.369566312422038
 10
-0.1422728519961582
 20
-1.37544193733466
  0
LWPOLYLINE
  5
BB
330
8E
100
AcDbEntity
  8
AM_9
100
AcDbPolyline
 90
        3
 70
     0
 43
0.0
 10
-0.1676100259475404
 20
-1.234409386982389
 10
-0.1598729403210871
 20
-1.256768689712644
 10
-0.1510741298357571
 20
-1.29457729571137
  0
LINE
  5
BC
330
8E
100
AcDbEntity
  8
AM_9
100
AcDbLine
 10
-0.1765789831125443
 20
-1.214205855542361
 30
0.0
 11
-0.1722281493461444
 21
-1.223454354626489
 31
0.0
  0
ELLIPSE
  5
BD
330
8E
100
AcDbEntity
  8
AM_9
100
AcDbEllipse
 10
-0.2013892028241885
 20
-1.298270244837341
 30
0.0
 11
-0.03193085011438272
 21
0.1369518580960947
 31
0.0
210
0.0
220
0.0
230
1.0
 40
0.3659981507706674
 41
2.150416404658207
 42
6.139946939636884
  0
LINE
  5
BE
330
8E
100
AcDbEntity
  8
AM_9
100
AcDbLine
 10
-0.3001604473578121
 20
-1.307227923681266
 30
0.0
 11
-0.2987675689889718
 21
-1.314475066725467
 31
0.0
  0
LWPOLYLINE
  5
BF
330
8E
100
AcDbEntity
  8
AM_9
100
AcDbPolyline
 90
        3
 70
     0
 43
0.0
 10
-0.3055458577949631
 20
-1.262852494962034
 10
-0.3030753670497809
 20
-1.288922855181632
 10
-0.3001604473578121
 20
-1.307227923681266
  0
LWPOLYLINE
  5
C0
330
8E
100
AcDbEntity
  8
AM_9
100
AcDbPolyline
 90
        3
 70
     0
 43
0.0
 10
-0.2602304684431209
 20
-1.218067949924796
 10
-0.2616913382589204
 20
-1.2034112730526
 10
-0.2689146070947223
 20
-1.166889734350518
  0
LINE
  5
C1
330
8E
100
AcDbEntity
  8
AM_9
100
AcDbLine
 10
-0.2689146070947223
 20
-1.166889734350518
 30
0.0
 11
-0.2987675689889718
 21
-1.173850066725467
 31
0.0
  0
LWPOLYLINE
  5
C2
330
8E
100
AcDbEntity
  8
AM_9
100
AcDbPolyline
 90
        3
 70
     0
 43
0.0
 10
-0.3001593436617022
 20
-1.181740185070576
 10
-0.3030606061861223
 20
-1.201294122408012
 10
-0.3055458577949631
 20
-1.22863340646832
  0
LINE
  5
C3
330
8E
100
AcDbEntity
  8
AM_9
100
AcDbLine
 10
-0.2987675689889718
 20
-1.173850066725467
 30
0.0
 11
-0.3001593436617022
 21
-1.181740185070576
 31
0.0
  0
LINE
  5
C4
330
8E
100
AcDbEntity
  8
AM_9
100
AcDbLine
 10
-0.2711532636537957
 20
-1.171618123437406
 30
0.0
 11
-0.28139190003636
 21
-1.172753048956784
 31
0.0
  0
ELLIPSE
  5
C5
330
8E
100
AcDbEntity
  8
AM_9
100
AcDbEllipse
 10
-0.2467045921760208
 20
-1.308835701380858
 30
0.0
 11
-0.03193085011438254
 21
0.1369518580960943
 31
0.0
210
0.0
220
0.0
230
1.0
 40
0.3659981507706656
 41
2.1504164046582
 42
6.139946939636895
  0
ELLIPSE
  5
C6
330
8E
100
AcDbEntity
  8
AM_9
100
AcDbEllipse
 10
-0.2467045921760195
 20
-1.308835701380858
 30
0.0
 11
-0.03193085011438369
 21
0.1369518580960978
 31
0.0
210
0.0
220
0.0
230
1.0
 40
0.3659981507706652
 41
1.144545279139747
 42
1.951156734850488
  0
LWPOLYLINE
  5
C7
330
8E
100
AcDbEntity
  8
AM_9
100
AcDbPolyline
 90
        3
 70
     0
 43
0.0
 10
-0.3055458577949631
 20
-1.22863340646832
 10
-0.3064767622622302
 20
-1.245869806845232
 10
-0.3055458577949631
 20
-1.262852494962034
  0
ELLIPSE
  5
C8
330
8E
100
AcDbEntity
  8
AM_9
100
AcDbEllipse
 10
-0.246704592176008
 20
-1.308835701380865
 30
0.0
 11
-0.03193085011439221
 21
0.1369518580961049
 31
0.0
210
0.0
220
0.0
230
1.0
 40
0.3659981507707044
 41
0.0560213022650755
 42
0.8626327579757397
  0
LWPOLYLINE
  5
C9
330
8E
100
AcDbEntity
  8
AM_9
100
AcDbPolyline
 90
       17
 70
     0
 43
0.0
 10
-0.3250054522537825
 20
-1.450024328127204
 10
-0.3249514687372382
 20
-1.44990729075423
 10
-0.3242400506101007
 20
-1.448577296999421
 10
-0.3225688908723704
 20
-1.446024506623539
 10
-0.3197051855048603
 20
-1.442486339679344
 10
-0.3154181628012494
 20
-1.438262281323067
 10
-0.3095352720152931
 20
-1.433756661289348
 10
-0.3020633886536072
 20
-1.429502476397498
 10
-0.2933260733488396
 20
-1.426088891779549
 10
-0.2839576404023222
 20
-1.423966973092757
 10
-0.2747053502837931
 20
-1.423283925196744
 10
-0.2662916206791886
 20
-1.423871205527566
 10
-0.2591974916512729
 20
-1.425335050038131
 10
-0.2536710993155477
 20
-1.427199215864271
 10
-0.2497190202523222
 20
-1.429031883269345
 10
-0.2472014554625989
 20
-1.430508573834097
 10
-0.2459430068086308
 20
-1.431396707613212
  0
LWPOLYLINE
  5
CA
330
8E
100
AcDbEntity
  8
AM_9
100
AcDbPolyline
 90
        4
 70
     0
 43
0.0
 10
-0.245724988250897
 20
-1.431571960916105
 10
-0.2457874988413642
 20
-1.43151646799445
 10
-0.2466033513117961
 20
-1.430717780513569
 10
-0.2471085671185645
 20
-1.430184075314281
  0
LWPOLYLINE
  5
CB
330
8E
100
AcDbEntity
  8
AM_9
100
AcDbPolyline
 90
        3
 70
     0
 43
0.0
 10
-0.3007036787797936
 20
-1.200073749121415
 10
-0.3001952162717558
 20
-1.198543491313364
 10
-0.3001080482840255
 20
-1.198322263717043
  0
LWPOLYLINE
  5
CC
330
8E
100
AcDbEntity
  8
AM_9
100
AcDbPolyline
 90
       17
 70
     0
 43
0.0
 10
-0.3001749121345849
 20
-1.198468934863746
 10
-0.3008782782554675
 20
-1.199786300796032
 10
-0.3025391765981817
 20
-1.202328455854334
 10
-0.3053903561467095
 20
-1.205858488253236
 10
-0.309662783347956
 20
-1.210077700204214
 10
-0.3155300363151038
 20
-1.214582959711051
 10
-0.3229876825065379
 20
-1.218842376404572
 10
-0.3317155248594488
 20
-1.222266532320315
 10
-0.3410814646003777
 20
-1.224402036990202
 10
-0.3503388343686624
 20
-1.225098514241476
 10
-0.3587631456543501
 20
-1.224521717476224
 10
-0.3658714329090738
 20
-1.223064001743094
 10
-0.3714131299236409
 20
-1.221201461984267
 10
-0.3753796830460757
 20
-1.219366787630915
 10
-0.377910084185872
 20
-1.217885493153158
 10
-0.3791797474439926
 20
-1.216990845404769
 10
-0.3793927669547563
 20
-1.216820269763377
  0
LINE
  5
CD
330
8E
100
AcDbEntity
  8
AM_9
100
AcDbLine
 10
-0.1771207715546619
 20
-1.179661692407327
 30
0.0
 11
-0.2263662233581053
 21
-1.191143458059951
 31
0.0
  0
LINE
  5
CE
330
8E
100
AcDbEntity
  8
AM_9
100
AcDbLine
 10
-0.176412182290271
 20
-1.40539703161473
 30
0.0
 11
-0.1343592486638227
 21
-1.395592229115782
 31
0.0
  0
LWPOLYLINE
  5
CF
330
8E
100
AcDbEntity
  8
AM_9
100
AcDbPolyline
 90
       20
 70
     0
 43
0.0
 10
-0.1343659249938089
 20
-1.39559378540361
 10
-0.1293028157827817
 20
-1.392990967168628
 10
-0.1247141396218193
 20
-1.387417196040507
 10
-0.1208880884981782
 20
-1.378797239076489
 10
-0.1181545989145989
 20
-1.367880991490922
 10
-0.1164278875396129
 20
-1.354336212655024
 10
-0.1158549073091555
 20
-1.339330271317741
 10
-0.1164156227038168
 20
-1.322408286749774
 10
-0.1180609686233502
 20
-1.305004703027538
 10
-0.1208367673933812
 20
-1.286607393511457
 10
-0.1245107513506023
 20
-1.268747455120003
 10
-0.1291842652280563
 20
-1.250922481606624
 10
-0.134472979061152
 20
-1.2345960564441
 10
-0.140518627090196
 20
-1.219328872764631
 10
-0.1468270783017121
 20
-1.206370478489194
 10
-0.1535654953592165
 20
-1.195381372029879
 10
-0.1601799433259584
 20
-1.187268942862664
 10
-0.1668493358980662
 20
-1.181820477436415
 10
-0.1731116383367606
 20
-1.179480939756073
 10
-0.1771125901748264
 20
-1.179659785344162
  0
LINE
  5
D0
330
8E
100
AcDbEntity
  8
AM_9
100
AcDbLine
 10
-0.1771125901748264
 20
-1.179659785344162
 30
0.0
 11
-0.1790373738502116
 21
-1.180304054033761
 31
0.0
  0
LWPOLYLINE
  5
D1
330
8E
100
AcDbEntity
  8
AM_9
100
AcDbPolyline
 90
        3
 70
     0
 43
0.0
 10
-0.2689146070947223
 20
-1.307514734350518
 10
-0.2634308483997529
 20
-1.279890958955647
 10
-0.2602304684431306
 20
-1.252287038418517
  0
LWPOLYLINE
  5
D2
330
8E
100
AcDbEntity
  8
AM_9
100
AcDbPolyline
 90
        5
 70
     0
 43
0.0
 10
-0.179037373850178
 20
-1.334695945966246
 10
-0.1733931390117468
 20
-1.350209976006311
 10
-0.1670729780242511
 20
-1.36435797563067
 10
-0.1606047421316796
 20
-1.375955943415793
 10
-0.1545828277793896
 20
-1.384402086009654
  0
ARC
  5
D3
330
8E
100
AcDbEntity
  8
AM_9
100
AcDbCircle
 10
0.0
 20
-1.2575
 30
0.0
 40
0.1999999999999999
100
AcDbArc
 50
219.3523643551631
 51
0.0000008537736463
  0
LWPOLYLINE
  5
D4
330
8E
100
AcDbEntity
  8
AM_9
100
AcDbPolyline
 90
        6
 70
     0
 43
0.0
 10
-0.1545828277793896
 20
-1.384402086009654
 10
-0.1538031670974777
 20
-1.385334802540261
 10
-0.1472336073736394
 20
-1.391712011960484
 10
-0.1407130262602577
 20
-1.395261709638181
 10
-0.1347930597680668
 20
-1.395684256104104
 10
-0.1343659249938089
 20
-1.39559378540361
  0
LINE
  5
D5
330
8E
100
AcDbEntity
  8
AM_9
100
AcDbLine
 10
-0.2360765106845275
 20
-1.162187592413267
 30
0.0
 11
-0.2258378743019628
 21
-1.161052666893888
 31
0.0
  0
ELLIPSE
  5
D6
330
8E
100
AcDbEntity
  8
AM_9
100
AcDbEllipse
 10
-0.2013892028241867
 20
-1.298270244837345
 30
0.0
 11
-0.03193085011438468
 21
0.1369518580960984
 31
0.0
210
0.0
220
0.0
230
1.0
 40
0.3659981507705684
 41
0.056021302265008
 42
0.8626327579757226
  0
LINE
  5
D7
330
8E
100
AcDbEntity
  8
AM_9
100
AcDbLine
 10
-0.2602304684431306
 20
-1.252287038418517
 30
0.0
 11
-0.2602304684431209
 21
-1.218067949924796
 31
0.0
  0
ELLIPSE
  5
D8
330
8E
100
AcDbEntity
  8
AM_9
100
AcDbEllipse
 10
-0.2013892028241903
 20
-1.298270244837341
 30
0.0
 11
-0.03193085011438183
 21
0.1369518580960912
 31
0.0
210
0.0
220
0.0
230
1.0
 40
0.3659981507706604
 41
1.14454527913973
 42
1.951156734850507
  0
LWPOLYLINE
  5
D9
330
8E
100
AcDbEntity
  8
AM_9
100
AcDbPolyline
 90
        3
 70
     0
 43
0.0
 10
-0.2099962668917054
 20
-1.441671457656344
 10
-0.2163479371246913
 20
-1.412339189975666
 10
-0.2258378743019629
 20
-1.383057477599441
  0
LINE
  5
DA
330
8E
100
AcDbEntity
  8
AM_9
100
AcDbLine
 10
-0.2258378743019629
 20
-1.383057477599441
 30
0.0
 11
-0.2360765106845278
 21
-1.359965725501071
 31
0.0
  0
LWPOLYLINE
  5
DB
330
8E
100
AcDbEntity
  8
AM_9
100
AcDbPolyline
 90
        3
 70
     0
 43
0.0
 10
-0.2360765106845278
 20
-1.359965725501071
 10
-0.2462091938631852
 20
-1.341421611213502
 10
-0.2689146070947223
 20
-1.307514734350518
  0
LINE
  5
DC
330
8E
100
AcDbEntity
  8
AM_9
100
AcDbLine
 10
-0.2689146070947223
 20
-1.307514734350518
 30
0.0
 11
-0.2987675689889718
 21
-1.314475066725467
 31
0.0
  0
LWPOLYLINE
  5
DD
330
8E
100
AcDbEntity
  8
AM_9
100
AcDbPolyline
 90
        3
 70
     0
 43
0.0
 10
-0.2987675689889718
 20
-1.314475066725467
 10
-0.2912216284034025
 20
-1.342576183495197
 10
-0.2813919000363599
 20
-1.370531182044589
  0
LINE
  5
DE
330
8E
100
AcDbEntity
  8
AM_9
100
AcDbLine
 10
-0.2813919000363599
 20
-1.370531182044589
 30
0.0
 11
-0.2711532636537957
 21
-1.393622934142958
 31
0.0
  0
LWPOLYLINE
  5
DF
330
8E
100
AcDbEntity
  8
AM_9
100
AcDbPolyline
 90
        3
 70
     0
 43
0.0
 10
-0.2711532636537957
 20
-1.393622934142958
 10
-0.2561815527589921
 20
-1.421327936735335
 10
-0.2389369657326277
 20
-1.448419092407284
  0
LINE
  5
E0
330
8E
100
AcDbEntity
  8
AM_9
100
AcDbLine
 10
-0.2099962668917054
 20
-1.441671457656344
 30
0.0
 11
-0.2389369657326277
 21
-1.448419092407284
 31
0.0
  0
LWPOLYLINE
  5
E1
330
8E
100
AcDbEntity
  8
AM_9
100
AcDbPolyline
 90
        3
 70
     0
 43
0.0
 10
-0.0000000000000001
 20
-0.9198462998483071
 10
-0.0544416102741497
 20
-0.9437405676118847
 10
-0.1093750000000001
 20
-0.9699999999999999
  0
LWPOLYLINE
  5
E2
330
8E
100
AcDbEntity
  8
AM_9
100
AcDbPolyline
 90
        3
 70
     0
 43
0.0
 10
0.1052664663373419
 20
-0.9679526245419932
 10
0.0546874999999999
 20
-0.9438529403925173
 10
-0.0000000000000001
 20
-0.9198462998483071
  0
LINE
  5
E3
330
8E
100
AcDbEntity
  8
AM_9
100
AcDbLine
 10
0.1093749999999999
 20
-0.9699999999999999
 30
0.0
 11
0.1052664663373419
 21
-0.9679526245419932
 31
0.0
  0
LWPOLYLINE
  5
E4
330
8E
100
AcDbEntity
  8
AM_9
100
AcDbPolyline
 90
        3
 70
     0
 43
0.0
 10
0.1093749999999998
 20
-1.02
 10
0.1640624999999999
 20
-1.046147059607482
 10
0.2187499999999999
 20
-1.070153700151693
  0
LWPOLYLINE
  5
E5
330
8E
100
AcDbEntity
  8
AM_9
100
AcDbPolyline
 90
        3
 70
     0
 43
0.0
 10
-0.2187500000000001
 20
-1.070153700151693
 10
-0.1643083897258505
 20
-1.046259432388115
 10
-0.109375
 20
-1.02
  0
LINE
  5
E6
330
8E
100
AcDbEntity
  8
AM_9
100
AcDbLine
 10
-0.0000000000000001
 20
-0.9607787001516928
 30
0.0
 11
-0.0000000000000001
 21
-0.9198462998483071
 31
0.0
  0
LWPOLYLINE
  5
E7
330
8E
100
AcDbEntity
  8
AM_9
100
AcDbPolyline
 90
        3
 70
     0
 43
0.0
 10
0.2187499999999999
 20
-1.029221299848307
 10
0.1643083897258503
 20
-0.9986739573377351
 10
0.1093749999999999
 20
-0.9699999999999999
  0
LWPOLYLINE
  5
E8
330
8E
100
AcDbEntity
  8
AM_9
100
AcDbPolyline
 90
        3
 70
     0
 43
0.0
 10
-0.1133753360966263
 20
-0.9720067012744888
 10
-0.1640625000000001
 20
-0.9985404403925172
 10
-0.2187500000000001
 20
-1.029221299848307
  0
LINE
  5
E9
330
8E
100
AcDbEntity
  8
AM_9
100
AcDbLine
 10
-0.1093750000000001
 20
-0.9699999999999999
 30
0.0
 11
-0.1133753360966263
 21
-0.9720067012744888
 31
0.0
  0
ELLIPSE
  5
EA
330
8E
100
AcDbEntity
  8
AM_9
100
AcDbEllipse
 10
-0.0000000000000001
 20
-1.2575
 30
0.0
 11
-0.2
 21
2.449293598294707E-17
 31
0.0
210
0.0
220
0.0
230
1.0
 40
0.8660254037844395
 41
0.4619460205669643
 42
5.82123928661262
  0
LWPOLYLINE
  5
EB
330
8E
100
AcDbEntity
  8
AM_9
100
AcDbPolyline
 90
        7
 70
     0
 43
0.0
 10
-0.1790373738501785
 20
-1.334695945966246
 10
-0.1842628795203941
 20
-1.318701216295605
 10
-0.1891729979031394
 20
-1.302644458256412
 10
-0.1936098952159724
 20
-1.285877825105296
 10
-0.1971856748420371
 20
-1.268429808725254
 10
-0.1994144431868155
 20
-1.250957633207593
 10
-0.1999999999699529
 20
-1.23725755900097
  0
LINE
  5
EC
330
8E
100
AcDbEntity
  8
AM_9
100
AcDbLine
 10
0.1999999999999998
 20
-1.2575
 30
0.0
 11
0.1999999999999999
 21
-1.1840625
 31
0.0
  0
LWPOLYLINE
  5
ED
330
8E
100
AcDbEntity
  8
AM_9
100
AcDbPolyline
 90
        8
 70
     0
 43
0.0
 10
-0.1999999999699529
 20
-1.23725755900097
 10
-0.1999786710855128
 20
-1.234747492794572
 10
-0.1988321115509053
 20
-1.219477046299115
 10
-0.196164942998426
 20
-1.206547828583382
 10
-0.1920694300574958
 20
-1.195495849846331
 10
-0.1870948030566195
 20
-1.187226804053058
 10
-0.181500594761393
 20
-1.181703487144152
 10
-0.1790373738501785
 20
-1.180304054033754
  0
LINE
  5
EE
330
8E
100
AcDbEntity
  8
AM_9
100
AcDbLine
 10
-0.2187500000000001
 20
-1.288903700151693
 30
0.0
 11
-0.2187500000000001
 21
-1.029221299848307
 31
0.0
  0
LWPOLYLINE
  5
EF
330
8E
100
AcDbEntity
  8
AM_9
100
AcDbPolyline
 90
        3
 70
     0
 43
0.0
 10
-0.109375
 20
-1.348125
 10
-0.1640625000000001
 20
-1.319584559607483
 10
-0.2187500000000001
 20
-1.288903700151693
  0
LINE
  5
F0
330
8E
100
AcDbEntity
  8
AM_9
100
AcDbLine
 10
-0.1052622735105736
 20
-1.35017445780035
 30
0.0
 11
-0.109375
 21
-1.348125
 31
0.0
  0
LWPOLYLINE
  5
F1
330
8E
100
AcDbEntity
  8
AM_9
100
AcDbPolyline
 90
        3
 70
     0
 43
0.0
 10
-0.0000000000000001
 20
-1.398278700151693
 10
-0.0544416102741497
 20
-1.374384432388115
 10
-0.1052622735105736
 20
-1.35017445780035
  0
LWPOLYLINE
  5
F2
330
8E
100
AcDbEntity
  8
AM_9
100
AcDbPolyline
 90
        3
 70
     0
 43
0.0
 10
-0.2187500000000001
 20
-1.247971299848307
 10
-0.1643083897258505
 20
-1.271865567611885
 10
-0.1093750000000001
 20
-1.298125
  0
LINE
  5
F3
330
8E
100
AcDbEntity
  8
AM_9
100
AcDbLine
 10
-0.0000000000000001
 20
-1.398278700151693
 30
0.0
 11
-0.0000000000000001
 21
-1.357346299848307
 31
0.0
  0
LWPOLYLINE
  5
F4
330
8E
100
AcDbEntity
  8
AM_9
100
AcDbPolyline
 90
        3
 70
     0
 43
0.0
 10
0.1093749999999998
 20
-1.348125
 10
0.0546874999999999
 20
-1.374272059607482
 10
-0.0000000000000001
 20
-1.398278700151693
  0
LINE
  5
F5
330
8E
100
AcDbEntity
  8
AM_9
100
AcDbLine
 10
0.1133788550680988
 20
-1.34611652774185
 30
0.0
 11
0.1093749999999998
 21
-1.348125
 31
0.0
  0
LWPOLYLINE
  5
F6
330
8E
100
AcDbEntity
  8
AM_9
100
AcDbPolyline
 90
        3
 70
     0
 43
0.0
 10
0.2187499999999999
 20
-1.288903700151693
 10
0.1643083897258503
 20
-1.319451042662265
 10
0.1133788550680988
 20
-1.34611652774185
  0
LINE
  5
F7
330
8E
100
AcDbEntity
  8
AM_9
100
AcDbLine
 10
0.2187499999999999
 20
-1.288903700151693
 30
0.0
 11
0.2187499999999999
 21
-1.029221299848307
 31
0.0
  0
LWPOLYLINE
  5
F8
330
8E
100
AcDbEntity
  8
AM_9
100
AcDbPolyline
 90
        3
 70
     0
 43
0.0
 10
0.1093749999999999
 20
-1.298125
 10
0.1640624999999999
 20
-1.271977940392517
 10
0.2187499999999999
 20
-1.247971299848307
  0
LWPOLYLINE
  5
F9
330
8E
100
AcDbEntity
  8
AM_9
100
AcDbPolyline
 90
        3
 70
     0
 43
0.0
 10
-0.1093750000000001
 20
-1.298125
 10
-0.0546875000000001
 20
-1.326665440392517
 10
-0.0000000000000001
 20
-1.357346299848307
  0
LWPOLYLINE
  5
FA
330
8E
100
AcDbEntity
  8
AM_9
100
AcDbPolyline
 90
        3
 70
     0
 43
0.0
 10
-0.0000000000000001
 20
-1.357346299848307
 10
0.0544416102741495
 20
-1.326798957337735
 10
0.1093749999999999
 20
-1.298125
  0
LINE
  5
FB
330
8E
100
AcDbEntity
  8
AM_9
100
AcDbLine
 10
0.1999999999999998
 20
-1.1340625
 30
0.0
 11
0.1999999999999998
 21
-1.095
 31
0.0
  0
LINE
  5
FC
330
8E
100
AcDbEntity
  8
AM_9
100
AcDbLine
 10
-0.1851454569549802
 20
-0.9888099125707269
 30
0.0
 11
-0.1912304659644924
 21
-1.086022462287446
 31
0.0
  0
LINE
  5
FD
330
8E
100
AcDbEntity
  8
AM_9
100
AcDbLine
 10
0.1912304659644922
 20
-1.086022462287446
 30
0.0
 11
0.18514545695498
 21
-0.9888099125707269
 31
0.0
  0
ELLIPSE
  5
FE
330
8E
100
AcDbEntity
  8
AM_9
100
AcDbEllipse
 10
-0.0000000000000001
 20
-0.985625
 30
0.0
 11
0.1616637258772237
 21
0.0
 31
0.0
210
0.0
220
0.0
230
1.0
 40
0.8660254037844384
 41
0.0
 42
6.283185307179586
  0
ELLIPSE
  5
FF
330
8E
100
AcDbEntity
  8
AM_9
100
AcDbEllipse
 10
-0.4687500000000015
 20
-1.360606438444093
 30
0.0
 11
-0.02349716402074742
 21
0.1007796617096768
 31
0.0
210
0.0
220
0.0
230
1.0
 40
0.3659981507706702
 41
0.0
 42
6.283185307179586
  0
ELLIPSE
  5
100
330
8E
100
AcDbEntity
  8
AM_9
100
AcDbEllipse
 10
-0.3729962569746144
 20
-1.338281086608686
 30
0.0
 11
-0.0302435153483529
 21
0.1297148559313914
 31
0.0
210
0.0
220
0.0
230
1.0
 40
0.3659981507697818
 41
0.0
 42
6.283185307179586
  0
ELLIPSE
  5
101
330
8E
100
AcDbEntity
  8
AM_9
100
AcDbEllipse
 10
-0.201389202824188
 20
-1.298270244837341
 30
0.0
 11
-0.02497702053391717
 21
0.1071267867773897
 31
0.0
210
0.0
220
0.0
230
1.0
 40
0.3659981507706674
 41
0.0
 42
6.283185307179586
  0
ELLIPSE
  5
102
330
8E
100
AcDbEntity
  8
AM_9
100
AcDbEllipse
 10
0.0000000000000005
 20
-1.1840625
 30
0.0
 11
-0.2000000000000005
 21
2.980232263262474E-9
 31
0.0
210
0.0
220
0.0
230
1.0
 40
0.8660254037844374
 41
0.0
 42
6.283185307179586
  0
ELLIPSE
  5
103
330
8E
100
AcDbEntity
  8
AM_9
100
AcDbEllipse
 10
-0.000000000001728
 20
-1.184062499997598
 30
0.0
 11
-0.2187500000033885
 21
2.678914873176332E-17
 31
0.0
210
0.0
220
0.0
230
1.0
 40
0.8660254037839831
 41
0.0
 42
6.283185307179586
  0
ELLIPSE
  5
104
330
8E
100
AcDbEntity
  8
AM_9
100
AcDbEllipse
 10
-0.0000000000000001
 20
-1.134062499999999
 30
0.0
 11
-0.2187500000000001
 21
3.259629037943325E-9
 31
0.0
210
0.0
220
0.0
230
1.0
 40
0.8660254037844417
 41
0.0
 42
6.283185307179586
  0
ELLIPSE
  5
105
330
8E
100
AcDbEntity
  8
AM_9
100
AcDbEllipse
 10
-0.0000000000000005
 20
-1.1340625
 30
0.0
 11
-0.1999999999999994
 21
2.980232263262459E-9
 31
0.0
210
0.0
220
0.0
230
1.0
 40
0.866025403784439
 41
0.0
 42
6.283185307179586
  0
ELLIPSE
  5
106
330
8E
100
AcDbEntity
  8
AM_9
100
AcDbEllipse
 10
-0.0000000000000001
 20
-1.095
 30
0.0
 11
-0.2000000000000001
 21
2.449293598294708E-17
 31
0.0
210
0.0
220
0.0
230
1.0
 40
0.8660254037844384
 41
0.0
 42
6.283185307179586
  0
ELLIPSE
  5
107
330
8E
100
AcDbEntity
  8
AM_9
100
AcDbEllipse
 10
-0.0000000000000001
 20
-1.095
 30
0.0
 11
-0.1915112338502294
 21
2.853739789488285E-9
 31
0.0
210
0.0
220
0.0
230
1.0
 40
0.8660254037844378
 41
0.0
 42
6.283185307179586
  0
ELLIPSE
  5
108
330
8E
100
AcDbEntity
  8
AM_9
100
AcDbEllipse
 10
-0.0000000000000001
 20
-0.9975017824238808
 30
0.0
 11
-0.1854172907249859
 21
2.270706915929282E-17
 31
0.0
210
0.0
220
0.0
230
1.0
 40
0.8660254037844397
 41
0.0
 42
6.283185307179586
  0
ENDBLK
  5
91
330
8E
100
AcDbEntity
  8
0
100
AcDbBlockEnd
  0
BLOCK
  5
10B
330
109
100
AcDbEntity
  8
0
100
AcDbBlockBegin
  2
3_123354_0_in_135106_2
 70
     2
 10
0.0
 20
0.0
 30
0.0
  3
3_123354_0_in_135106_2
  1

  0
ATTDEF
  5
10D
330
109
100
AcDbEntity
  8
AM_6
100
AcDbText
 10
5.75
 20
1.7801625
 30
0.0
 40
0.5
  1
Set Screw Medium Duty Insert Inch Bore
100
AcDbAttributeDefinition
  3

  2
NN
 70
     8
280
     0
  0
ATTDEF
  5
10E
330
109
100
AcDbEntity
  8
AM_6
100
AcDbText
 10
5.75
 20
1.2801625
 30
0.0
 40
0.5
  1
SC Medium Duty Bearing Inserts (Standard Insert)
100
AcDbAttributeDefinition
  3

  2
NT
 70
     8
280
     0
  0
ATTDEF
  5
10F
330
109
100
AcDbEntity
  8
AM_6
100
AcDbText
 10
5.75
 20
0.7801624999999999
 30
0.0
 40
0.5
  1
123354
100
AcDbAttributeDefinition
  3

  2
NB
 70
     8
280
     0
  0
ATTDEF
  5
110
330
109
100
AcDbEntity
  8
AM_6
100
AcDbText
 10
5.75
 20
0.2801624999999999
 30
0.0
 40
0.5
  1
$PN.
100
AcDbAttributeDefinition
  3

  2
NBSYN
 70
     8
280
     0
  0
ATTDEF
  5
111
330
109
100
AcDbEntity
  8
AM_6
100
AcDbText
 10
5.75
 20
-0.2198375000000001
 30
0.0
 40
0.5
  1
123354
100
AcDbAttributeDefinition
  3

  2
LINA
 70
     8
280
     0
  0
ATTDEF
  5
112
330
109
100
AcDbEntity
  8
AM_6
100
AcDbText
 10
5.75
 20
-0.7198375000000001
 30
0.0
 40
0.5
  1
209
100
AcDbAttributeDefinition
  3

  2
SERIES
 70
     8
280
     0
  0
ATTDEF
  5
113
330
109
100
AcDbEntity
  8
AM_6
100
AcDbText
 10
5.75
 20
-1.2198375
 30
0.0
 40
0.5
  1
1-1/2
100
AcDbAttributeDefinition
  3

  2
SS
 70
     8
280
     0
  0
ATTDEF
  5
114
330
109
100
AcDbEntity
  8
AM_6
100
AcDbText
 10
5.75
 20
-1.7198375
 30
0.0
 40
0.5
  1
123354
100
AcDbAttributeDefinition
  3

  2
PN
 70
     8
280
     0
  0
ATTDEF
  5
115
330
109
100
AcDbEntity
  8
AM_6
100
AcDbText
 10
5.75
 20
-2.2198375
 30
0.0
 40
0.5
  1
INS-SCM-108
100
AcDbAttributeDefinition
  3

  2
DESCRIPTION
 70
     8
280
     0
  0
ATTDEF
  5
116
330
109
100
AcDbEntity
  8
AM_6
100
AcDbText
 10
5.75
 20
-2.7198375
 30
0.0
 40
0.5
  1
1.62
100
AcDbAttributeDefinition
  3

  2
WEIGHT
 70
     8
280
     0
  0
ATTDEF
  5
117
330
109
100
AcDbEntity
  8
AM_6
100
AcDbText
 10
5.75
 20
-3.2198375
 30
0.0
 40
0.5
  1
1.94
100
AcDbAttributeDefinition
  3

  2
A
 70
     8
280
     0
  0
ATTDEF
  5
118
330
109
100
AcDbEntity
  8
AM_6
100
AcDbText
 10
5.75
 20
-3.7198375
 30
0.0
 40
0.5
  1
0.87
100
AcDbAttributeDefinition
  3

  2
C
 70
     8
280
     0
  0
ATTDEF
  5
119
330
109
100
AcDbEntity
  8
AM_6
100
AcDbText
 10
5.75
 20
-4.219837500000001
 30
0.0
 40
0.5
  1
3.3465
100
AcDbAttributeDefinition
  3

  2
D
 70
     8
280
     0
  0
ATTDEF
  5
11A
330
109
100
AcDbEntity
  8
AM_6
100
AcDbText
 10
5.75
 20
-4.719837500000001
 30
0.0
 40
0.5
  1
0.25
100
AcDbAttributeDefinition
  3

  2
J
 70
     8
280
     0
  0
ATTDEF
  5
11B
330
109
100
AcDbEntity
  8
AM_6
100
AcDbText
 10
5.75
 20
-5.219837500000001
 30
0.0
 40
0.5
  1
2.22
100
AcDbAttributeDefinition
  3

  2
L
 70
     8
280
     0
  0
ATTDEF
  5
11C
330
109
100
AcDbEntity
  8
AM_6
100
AcDbText
 10
5.75
 20
-5.719837500000001
 30
0.0
 40
0.5
  1
5/16 - 24
100
AcDbAttributeDefinition
  3

  2
N
 70
     8
280
     0
  0
ATTDEF
  5
11D
330
109
100
AcDbEntity
  8
AM_6
100
AcDbText
 10
5.75
 20
-6.219837500000001
 30
0.0
 40
0.5
  1
0.75
100
AcDbAttributeDefinition
  3

  2
W
 70
     8
280
     0
  0
ATTDEF
  5
11E
330
109
100
AcDbEntity
  8
AM_6
100
AcDbText
 10
5.75
 20
-6.719837500000001
 30
0.0
 40
0.5
  1
1.19
100
AcDbAttributeDefinition
  3

  2
Y
 70
     8
280
     0
  0
ATTDEF
  5
11F
330
109
100
AcDbEntity
  8
AM_6
100
AcDbText
 10
5.75
 20
-7.219837500000001
 30
0.0
 40
0.5
  1
baldor
100
AcDbAttributeDefinition
  3

  2
COMPANY
 70
     8
280
     0
  0
LINE
  5
120
330
109
100
AcDbEntity
  8
AM_9
100
AcDbLine
 10
0.145833333333338
 20
1.669159090909091
 30
0.0
 11
0.145833333333338
 21
1.66683727435443
 31
0.0
  0
LINE
  5
121
330
109
100
AcDbEntity
  8
AM_9
100
AcDbLine
 10
0.354166666666662
 20
1.635387221502906
 30
0.0
 11
0.354166666666662
 21
1.669159090909091
 31
0.0
  0
LINE
  5
122
330
109
100
AcDbEntity
  8
AM_9
100
AcDbLine
 10
0.2750757575757546
 20
1.74825
 30
0.0
 11
0.2249242424242454
 21
1.74825
 31
0.0
  0
LINE
  5
123
330
109
100
AcDbEntity
  8
AM_9
100
AcDbLine
 10
0.3541666666666621
 20
1.669159090909091
 30
0.0
 11
0.1458333333333379
 21
1.669159090909091
 31
0.0
  0
ARC
  5
124
330
109
100
AcDbEntity
  8
AM_9
100
AcDbCircle
 10
0.2249242424242469
 20
1.669159090909091
 30
0.0
 40
0.0790909090909089
100
AcDbArc
 50
90.0
 51
180.0
  0
ARC
  5
125
330
109
100
AcDbEntity
  8
AM_9
100
AcDbCircle
 10
0.2750757575757533
 20
1.669159090909091
 30
0.0
 40
0.0790909090909088
100
AcDbArc
 50
0.0
 51
90.0
  0
ELLIPSE
  5
126
330
109
100
AcDbEntity
  8
AM_9
100
AcDbEllipse
 10
-0.8124999999999998
 20
-0.6716134149584023
 30
0.0
 11
-0.1262000000000003
 21
1.545504260523964E-17
 31
0.0
210
0.0
220
0.0
230
1.0
 40
0.4226182617406895
 41
1.157266673846301
 42
1.98432597974349
  0
ELLIPSE
  5
127
330
109
100
AcDbEntity
  8
AM_9
100
AcDbEllipse
 10
-0.8125
 20
-0.671613414958401
 30
0.0
 11
-0.1262000000000002
 21
1.545504260523962E-17
 31
0.0
210
0.0
220
0.0
230
1.0
 40
0.422618261740696
 41
4.298859327436093
 42
5.125918633333287
  0
LINE
  5
128
330
109
100
AcDbEntity
  8
AM_9
100
AcDbLine
 10
-0.9386999999999999
 20
-0.6796933968140231
 30
0.0
 11
-0.9386999999999999
 21
-0.9891875043623771
 31
0.0
  0
LINE
  5
129
330
109
100
AcDbEntity
  8
AM_9
100
AcDbLine
 10
-0.6863000000000001
 20
-0.9891875043623771
 30
0.0
 11
-0.6863000000000001
 21
-0.6796933968140231
 31
0.0
  0
LWPOLYLINE
  5
12A
330
109
100
AcDbEntity
  8
AM_9
100
AcDbPolyline
 90
        9
 70
     0
 43
0.0
 10
-0.9386999992487887
 20
-0.6797366595063182
 10
-0.9386471046953963
 20
-0.6810608055954229
 10
-0.9363633366151966
 20
-0.6895934787417741
 10
-0.9306432931659637
 20
-0.6972757746982348
 10
-0.9216984300791302
 20
-0.7040442925515752
 10
-0.9096317887023474
 20
-0.7098407697418964
 10
-0.8948779606080021
 20
-0.7145900066619447
 10
-0.8797913865812503
 20
-0.7179261368628381
 10
-0.8632127073045848
 20
-0.7204521828133145
  0
LWPOLYLINE
  5
12B
330
109
100
AcDbEntity
  8
AM_9
100
AcDbPolyline
 90
        9
 70
     0
 43
0.0
 10
-0.6863000007512113
 20
-0.6797250208195352
 10
-0.6863528953046037
 20
-0.6783811301270195
 10
-0.6886366633848036
 20
-0.6691619274354876
 10
-0.6943567068340363
 20
-0.6598027193596816
 10
-0.7033015699208698
 20
-0.650572523919058
 10
-0.7153682112976527
 20
-0.641753990243307
 10
-0.7301220393919982
 20
-0.6337811883682355
 10
-0.74520861341875
 20
-0.627693786410159
 10
-0.761787292695415
 20
-0.6227746471034884
  0
ELLIPSE
  5
12C
330
109
100
AcDbEntity
  8
AM_9
100
AcDbEllipse
 10
-0.8125000000000003
 20
-0.9891875043623771
 30
0.0
 11
-0.1261999999999993
 21
1.545504260523951E-17
 31
0.0
210
0.0
220
0.0
230
1.0
 40
0.4226182617407008
 41
3.522237884282646
 42
5.904370184498033
  0
LINE
  5
12D
330
109
100
AcDbEntity
  8
AM_9
100
AcDbLine
 10
-0.9241393737973383
 20
-0.9643172537133358
 30
0.0
 11
-0.9385887552156864
 21
-0.9759019060170162
 31
0.0
  0
LINE
  5
12E
330
109
100
AcDbEntity
  8
AM_9
100
AcDbLine
 10
-0.686223438735808
 20
-0.9760524777065213
 30
0.0
 11
-0.7008606262026617
 21
-0.9643172537133358
 31
0.0
  0
LWPOLYLINE
  5
12F
330
109
100
AcDbEntity
  8
AM_9
100
AcDbPolyline
 90
        8
 70
     0
 43
0.0
 10
-0.761787292695414
 20
0.115562369817512
 10
-0.7623919313386897
 20
0.1158798400336853
 10
-0.7809175998177064
 20
0.1234899790268433
 10
-0.8005316889761895
 20
0.127621344095471
 10
-0.8188117966207511
 20
0.1280959156163242
 10
-0.8369031289594874
 20
0.1254600698044239
 10
-0.8503784790752433
 20
0.1213473165445873
 10
-0.863212707304586
 20
0.115562369817512
  0
LWPOLYLINE
  5
130
330
109
100
AcDbEntity
  8
AM_9
100
AcDbPolyline
 90
        8
 70
     0
 43
0.0
 10
-0.863212707304586
 20
-0.115562369817512
 10
-0.8626080686613103
 20
-0.1158798400336853
 10
-0.8440824001822936
 20
-0.1234899790268433
 10
-0.8244683110238106
 20
-0.127621344095471
 10
-0.8061882033792489
 20
-0.1280959156163242
 10
-0.7880968710405126
 20
-0.1254600698044239
 10
-0.7746215209247567
 20
-0.1213473165445873
 10
-0.761787292695414
 20
-0.115562369817512
  0
LWPOLYLINE
  5
131
330
109
100
AcDbEntity
  8
AM_9
100
AcDbPolyline
 90
        7
 70
     0
 43
0.0
 10
-0.8632127073045855
 20
-0.7204521828133141
 10
-0.8456832543319953
 20
-0.722509777924969
 10
-0.8264936573565502
 20
-0.7236864229855161
 10
-0.8084211987097359
 20
-0.7239119603651233
 10
-0.7899110792055696
 20
-0.7232849028655092
 10
-0.7756250175960133
 20
-0.7221616385109619
 10
-0.7617872926954141
 20
-0.7204521828133141
  0
LWPOLYLINE
  5
132
330
109
100
AcDbEntity
  8
AM_9
100
AcDbPolyline
 90
        8
 70
     0
 43
0.0
 10
-0.7617872926954141
 20
-0.7204521828133141
 10
-0.7430699143208238
 20
-0.7175202856048017
 10
-0.7263316626337973
 20
-0.7135414782573872
 10
-0.7120678872875782
 20
-0.7084806476988653
 10
-0.7006375229642537
 20
-0.7023559651155488
 10
-0.6924049412233566
 20
-0.6951898484195512
 10
-0.6875791153659472
 20
-0.6871110696793922
 10
-0.6863000007512113
 20
-0.6797250208195352
  0
LWPOLYLINE
  5
133
330
109
100
AcDbEntity
  8
AM_9
100
AcDbPolyline
 90
        7
 70
     0
 43
0.0
 10
-0.7617872926954141
 20
-0.6227746471034885
 10
-0.7731444349793483
 20
-0.6198134029432354
 10
-0.7919797968381198
 20
-0.6166604067995047
 10
-0.8115095528208464
 20
-0.6154928261141208
 10
-0.8293901888053352
 20
-0.6162820849795928
 10
-0.8467895379545055
 20
-0.6187553679442628
 10
-0.8632127073045859
 20
-0.6227746471034885
  0
LWPOLYLINE
  5
134
330
109
100
AcDbEntity
  8
AM_9
100
AcDbPolyline
 90
        8
 70
     0
 43
0.0
 10
-0.8632127073045859
 20
-0.6227746471034885
 10
-0.8819300856791761
 20
-0.6284580415993517
 10
-0.8986683373662027
 20
-0.635607839780265
 10
-0.9129321127124219
 20
-0.6439059620881779
 10
-0.9243624770357463
 20
-0.6529748614258035
 10
-0.9325950587766434
 20
-0.6624509093709502
 10
-0.9374208846340528
 20
-0.6719623988266261
 10
-0.9386999992487887
 20
-0.6797366595063182
  0
LINE
  5
135
330
109
100
AcDbEntity
  8
AM_9
100
AcDbLine
 10
-1.1456
 20
-0.7499999999999999
 30
0.0
 11
0.7056
 21
-0.7499999999999999
 31
0.0
  0
LINE
  5
136
330
109
100
AcDbEntity
  8
AM_9
100
AcDbLine
 10
0.7056
 20
0.7499999999999999
 30
0.0
 11
-1.1456
 21
0.7499999999999999
 31
0.0
  0
LINE
  5
137
330
109
100
AcDbEntity
  8
AM_9
100
AcDbLine
 10
0.7056
 20
-0.7499999999999999
 30
0.0
 11
0.7499999999999999
 21
-0.7944
 31
0.0
  0
LINE
  5
138
330
109
100
AcDbEntity
  8
AM_9
100
AcDbLine
 10
0.7499999999999999
 20
0.7944
 30
0.0
 11
0.7056
 21
0.7499999999999999
 31
0.0
  0
LINE
  5
139
330
109
100
AcDbEntity
  8
AM_9
100
AcDbLine
 10
-1.1456
 20
0.7499999999999999
 30
0.0
 11
-1.19
 21
0.7944
 31
0.0
  0
LINE
  5
13A
330
109
100
AcDbEntity
  8
AM_9
100
AcDbLine
 10
-1.19
 20
-0.7944
 30
0.0
 11
-1.1456
 21
-0.7499999999999999
 31
0.0
  0
LINE
  5
13B
330
109
100
AcDbEntity
  8
AM_9
100
AcDbLine
 10
0.7499999999999999
 20
0.318943568676341
 30
0.0
 11
0.7499999999999999
 21
-0.318943568676341
 31
0.0
  0
ARC
  5
13C
330
109
100
AcDbEntity
  8
AM_9
100
AcDbCircle
 10
-0.8125
 20
0.0
 30
0.0
 40
0.1262
100
AcDbArc
 50
273.3147615871408
 51
86.68523841285916
  0
LINE
  5
13D
330
109
100
AcDbEntity
  8
AM_9
100
AcDbLine
 10
0.7056
 20
0.4078647324787961
 30
0.0
 11
0.7056
 21
-0.4078647324787961
 31
0.0
  0
LINE
  5
13E
330
109
100
AcDbEntity
  8
AM_9
100
AcDbLine
 10
0.435
 20
-1.110000000000001
 30
0.0
 11
0.6260000000000001
 21
-1.110000000000001
 31
0.0
  0
LINE
  5
13F
330
109
100
AcDbEntity
  8
AM_9
100
AcDbLine
 10
0.6260000000000001
 20
1.110000000000001
 30
0.0
 11
0.435
 21
1.110000000000001
 31
0.0
  0
LWPOLYLINE
  5
140
330
109
100
AcDbEntity
  8
AM_9
100
AcDbPolyline
 90
        6
 70
     0
 43
0.0
 10
-0.8027981017285982
 20
0.136038983832471
 10
-0.7956756604748613
 20
0.1354196865023906
 10
-0.7705761484882401
 20
0.1304718188901131
 10
-0.7466753778924269
 20
0.1213964026320267
 10
-0.7286171514261051
 20
0.1110558645659305
 10
-0.7122205915587747
 20
0.0982585557077616
  0
LWPOLYLINE
  5
141
330
109
100
AcDbEntity
  8
AM_9
100
AcDbPolyline
 90
       16
 70
     0
 43
0.0
 10
-0.7122205915587747
 20
0.0982585557077616
 10
-0.6978749620444834
 20
0.0831748329377374
 10
-0.6859474989648886
 20
0.0661140285329157
 10
-0.6759155020513076
 20
0.0450427125561729
 10
-0.6697429635897444
 20
0.0225284482343929
 10
-0.6677649853343917
 20
0.000542711518309
 10
-0.6695568816396433
 20
-0.0214591090386299
 10
-0.6749016446998997
 20
-0.0422381854734859
 10
-0.6835460532305755
 20
-0.0618673402972332
 10
-0.695516718424383
 20
-0.08020773610013
 10
-0.7102345321266819
 20
-0.0964252163679354
 10
-0.7282929233086349
 20
-0.1108332968627618
 10
-0.748409393779197
 20
-0.1222182843786586
 10
-0.7713404520063296
 20
-0.1306905048032786
 10
-0.7953472007226361
 20
-0.1353830172595077
 10
-0.8029414063377399
 20
-0.1360480105538722
  0
LINE
  5
142
330
109
100
AcDbEntity
  8
AM_9
100
AcDbLine
 10
-0.6259999999999998
 20
-1.110000000000001
 30
0.0
 11
-0.435
 21
-1.110000000000001
 31
0.0
  0
LINE
  5
143
330
109
100
AcDbEntity
  8
AM_9
100
AcDbLine
 10
-0.435
 20
1.110000000000001
 30
0.0
 11
-0.6259999999999998
 21
1.110000000000001
 31
0.0
  0
LINE
  5
144
330
109
100
AcDbEntity
  8
AM_9
100
AcDbLine
 10
-0.3000000000000002
 20
-1.589916666666666
 30
0.0
 11
-0.2
 21
-1.589916666666666
 31
0.0
  0
LINE
  5
145
330
109
100
AcDbEntity
  8
AM_9
100
AcDbLine
 10
-0.2
 20
1.589916666666666
 30
0.0
 11
-0.3000000000000002
 21
1.589916666666666
 31
0.0
  0
LINE
  5
146
330
109
100
AcDbEntity
  8
AM_9
100
AcDbLine
 10
-0.4350000000000004
 20
1.576932326544176
 30
0.0
 11
-0.4350000000000004
 21
-1.576932326540932
 31
0.0
  0
ARC
  5
147
330
109
100
AcDbEntity
  8
AM_9
100
AcDbCircle
 10
-0.3850000000000007
 20
-1.576932326544176
 30
0.0
 40
0.0499999999999997
100
AcDbArc
 50
180.0
 51
256.2798930886403
  0
ARC
  5
148
330
109
100
AcDbEntity
  8
AM_9
100
AcDbCircle
 10
-0.3850000000000007
 20
1.576932326544176
 30
0.0
 40
0.0499999999999996
100
AcDbArc
 50
103.7201069113596
 51
180.0
  0
LINE
  5
149
330
109
100
AcDbEntity
  8
AM_9
100
AcDbLine
 10
0.435
 20
1.576932326544167
 30
0.0
 11
0.435
 21
-1.576932326540924
 31
0.0
  0
ARC
  5
14A
330
109
100
AcDbEntity
  8
AM_9
100
AcDbCircle
 10
0.3849999999999998
 20
-1.576932326544167
 30
0.0
 40
0.0500000000000001
100
AcDbArc
 50
283.7200768242542
 51
0.0
  0
ARC
  5
14B
330
109
100
AcDbEntity
  8
AM_9
100
AcDbCircle
 10
0.3849999999999998
 20
1.576932326544167
 30
0.0
 40
0.0500000000000002
100
AcDbArc
 50
0.0
 51
76.27992317574575
  0
LINE
  5
14C
330
109
100
AcDbEntity
  8
AM_9
100
AcDbLine
 10
-0.2999999999999999
 20
1.646136556455752
 30
0.0
 11
-0.2999999999999999
 21
-1.646136556455996
 31
0.0
  0
LINE
  5
14D
330
109
100
AcDbEntity
  8
AM_9
100
AcDbLine
 10
-0.3968589539480947
 20
1.625505623850998
 30
0.0
 11
-0.3968589539480947
 21
-1.625505623851243
 31
0.0
  0
ARC
  5
14E
330
109
100
AcDbEntity
  8
AM_9
100
AcDbCircle
 10
-0.0000000001137213
 20
-0.0000000005341325
 30
0.0
 40
1.673249999454374
100
AcDbArc
 50
256.279926218537
 51
259.6714882668628
  0
ARC
  5
14F
330
109
100
AcDbEntity
  8
AM_9
100
AcDbCircle
 10
-0.0000000001137651
 20
0.0000000005343388
 30
0.0
 40
1.673249999454163
100
AcDbArc
 50
100.3285117331371
 51
103.7200737814633
  0
LINE
  5
150
330
109
100
AcDbEntity
  8
AM_9
100
AcDbLine
 10
-0.1999999999999997
 20
1.661254213689163
 30
0.0
 11
-0.1999999999999997
 21
-1.661254213689161
 31
0.0
  0
LINE
  5
151
330
109
100
AcDbEntity
  8
AM_9
100
AcDbLine
 10
0.3968589284413285
 20
1.625505630078346
 30
0.0
 11
0.3968589284413285
 21
-1.625505630078343
 31
0.0
  0
ARC
  5
152
330
109
100
AcDbEntity
  8
AM_9
100
AcDbCircle
 10
-0.0000000000000088
 20
0.0000000000001386
 30
0.0
 40
1.673250000000134
100
AcDbArc
 50
263.1351448840007
 51
283.7200728818474
  0
ARC
  5
153
330
109
100
AcDbEntity
  8
AM_9
100
AcDbCircle
 10
-0.0000000000023812
 20
-0.0000000000106533
 30
0.0
 40
1.673250000010912
100
AcDbArc
 50
76.27992711815908
 51
77.79125357995258
  0
ARC
  5
154
330
109
100
AcDbEntity
  8
AM_9
100
AcDbCircle
 10
-0.000000000000008
 20
-0.0000000000001761
 30
0.0
 40
1.673250000000172
100
AcDbArc
 50
84.98958193030496
 51
96.86485511599915
  0
LINE
  5
155
330
109
100
AcDbEntity
  8
AM_9
100
AcDbLine
 10
0.3541666666586424
 20
1.635338354814141
 30
0.0
 11
0.1458333333411297
 21
1.666882779737369
 31
0.0
  0
LINE
  5
156
330
109
100
AcDbEntity
  8
AM_9
100
AcDbLine
 10
0.3216129707963229
 20
1.640307404926705
 30
0.0
 11
0.3240928047363688
 21
1.63992940875129
 31
0.0
  0
LINE
  5
157
330
109
100
AcDbEntity
  8
AM_9
100
AcDbLine
 10
0.1458333333411297
 20
1.666882779737369
 30
0.0
 11
0.1511548082943736
 21
1.666084470820239
 31
0.0
  0
ARC
  5
159
330
109
100
AcDbEntity
  8
AM_5
100
AcDbCircle
 10
-0.8125
 20
0.0
 30
0.0
 40
0.15625
100
AcDbArc
 50
75.00000000000001
 51
14.99999999999997
  0
ARC
  5
15A
330
109
100
AcDbEntity
  8
AM_5
100
AcDbCircle
 10
-0.8775
 20
0.0
 30
0.0
 40
0.15625
100
AcDbArc
 50
75.00000000000001
 51
14.99999999999997
  0
LINE
  5
15D
330
109
100
AcDbEntity
  8
AM_7
100
AcDbLine
 10
0.25
 20
1.7801625
 30
0.0
 11
0.25
 21
1.0780875
 31
0.0
  0
LINE
  5
15E
330
109
100
AcDbEntity
  8
AM_7
100
AcDbLine
 10
-0.8125000000000001
 20
-0.1325099999999998
 30
0.0
 11
-0.8125000000000001
 21
0.13251
 31
0.0
  0
ELLIPSE
  5
160
330
109
100
AcDbEntity
  8
AM_4
100
AcDbEllipse
 10
-0.8125
 20
-0.9891875043623772
 30
0.0
 11
-0.1261999999999999
 21
1.545504260523958E-17
 31
0.0
210
0.0
220
0.0
230
1.0
 40
0.422618261740698
 41
5.904370184498029
 42
9.805423191462236
  0
LWPOLYLINE
  5
161
330
109
100
AcDbEntity
  8
AM_4
100
AcDbPolyline
 90
       15
 70
     0
 43
0.0
 10
-0.9387705076717041
 20
-0.9760476264547017
 10
-0.9342841078518541
 20
-0.9726723214064199
 10
-0.9203026746507067
 20
-0.9642051672477137
 10
-0.9037709684549408
 20
-0.9567262055550225
 10
-0.8839729396070055
 20
-0.9501668026266096
 10
-0.8623921389297827
 20
-0.9452117215957299
 10
-0.8383683876326675
 20
-0.9419441890502899
 10
-0.813654349128514
 20
-0.9407631532819213
 10
-0.7882285077333319
 20
-0.9418037311322138
 10
-0.7634862467963308
 20
-0.9450525531018446
 10
-0.740123417381894
 20
-0.9504232242364535
 10
-0.7188786827703703
 20
-0.9576618776294186
 10
-0.7009334471287424
 20
-0.9662509676011336
 10
-0.6863054630017079
 20
-0.9759868119286279
 10
-0.6862168719442957
 20
-0.9760577425748047
  0
LWPOLYLINE
  5
162
330
109
100
AcDbEntity
  8
AM_4
100
AcDbPolyline
 90
        5
 70
     0
 43
0.0
 10
-0.6862168719442957
 20
-0.9760577425748047
 10
-0.6761083455380101
 20
-0.985898480532971
 10
-0.6698128931047916
 20
-0.996102041102364
 10
-0.6680307208941755
 20
-1.002394741042015
 10
-0.6678929566295905
 20
-1.008563927654076
  0
LINE
  5
163
330
109
100
AcDbEntity
  8
AM_4
100
AcDbLine
 10
-1.19
 20
1.0656
 30
0.0
 11
-1.19
 21
-1.0656
 31
0.0
  0
LINE
  5
164
330
109
100
AcDbEntity
  8
AM_4
100
AcDbLine
 10
-1.19
 20
-1.0656
 30
0.0
 11
-1.1456
 21
-1.11
 31
0.0
  0
LINE
  5
165
330
109
100
AcDbEntity
  8
AM_4
100
AcDbLine
 10
-1.1456
 20
1.11
 30
0.0
 11
-1.19
 21
1.0656
 31
0.0
  0
LINE
  5
166
330
109
100
AcDbEntity
  8
AM_4
100
AcDbLine
 10
0.7499999999999999
 20
-0.318943568676341
 30
0.0
 11
0.7499999999999999
 21
-1.0656
 31
0.0
  0
LINE
  5
167
330
109
100
AcDbEntity
  8
AM_4
100
AcDbLine
 10
0.7499999999999999
 20
1.0656
 30
0.0
 11
0.7499999999999999
 21
0.318943568676341
 31
0.0
  0
LINE
  5
168
330
109
100
AcDbEntity
  8
AM_4
100
AcDbLine
 10
0.7499999999999999
 20
1.0656
 30
0.0
 11
0.7056
 21
1.11
 31
0.0
  0
LINE
  5
169
330
109
100
AcDbEntity
  8
AM_4
100
AcDbLine
 10
0.7056
 20
-1.11
 30
0.0
 11
0.7499999999999999
 21
-1.0656
 31
0.0
  0
ARC
  5
16A
330
109
100
AcDbEntity
  8
AM_4
100
AcDbCircle
 10
-0.8125
 20
0.0
 30
0.0
 40
0.1262
100
AcDbArc
 50
86.68523841285916
 51
273.3147615871408
  0
LINE
  5
16B
330
109
100
AcDbEntity
  8
AM_4
100
AcDbLine
 10
0.7056
 20
-0.4078647324787961
 30
0.0
 11
0.7056
 21
-1.110000000000001
 31
0.0
  0
LINE
  5
16C
330
109
100
AcDbEntity
  8
AM_4
100
AcDbLine
 10
0.7056
 20
1.11
 30
0.0
 11
0.7056
 21
0.4078647324787961
 31
0.0
  0
LINE
  5
16D
330
109
100
AcDbEntity
  8
AM_4
100
AcDbLine
 10
0.6260000000000001
 20
-1.110000000000001
 30
0.0
 11
0.7056
 21
-1.110000000000001
 31
0.0
  0
LINE
  5
16E
330
109
100
AcDbEntity
  8
AM_4
100
AcDbLine
 10
0.7056
 20
1.110000000000001
 30
0.0
 11
0.6260000000000001
 21
1.110000000000001
 31
0.0
  0
LINE
  5
16F
330
109
100
AcDbEntity
  8
AM_4
100
AcDbLine
 10
-1.1456
 20
1.11
 30
0.0
 11
-1.1456
 21
-1.110000000000001
 31
0.0
  0
LWPOLYLINE
  5
170
330
109
100
AcDbEntity
  8
AM_4
100
AcDbPolyline
 90
       21
 70
     0
 43
0.0
 10
-0.8029414063377399
 20
-0.1360480105538722
 10
-0.8206887826571188
 20
-0.1361142125053187
 10
-0.8458032189300446
 20
-0.1326784540715911
 10
-0.8702060498077462
 20
-0.1249984297535091
 10
-0.8929381309417551
 20
-0.1133049427586943
 10
-0.9129349345350933
 20
-0.0980952185514955
 10
-0.9299479098034078
 20
-0.0796216580111123
 10
-0.9427538177626804
 20
-0.0593667329768036
 10
-0.9517595408259387
 20
-0.0371530792826173
 10
-0.9563374864346521
 20
-0.0151382355868015
 10
-0.9570418228407084
 20
0.0073402049622564
 10
-0.9539939076036907
 20
0.028664218014788
 10
-0.9474782346552424
 20
0.0491896003623785
 10
-0.9376209526609697
 20
0.0684635328144208
 10
-0.9248279904752296
 20
0.0859218744067615
 10
-0.908678083660569
 20
0.101818254855416
 10
-0.8902194976004539
 20
0.1149780218734291
 10
-0.8686734138688097
 20
0.1256210625477423
 10
-0.8456917941774577
 20
0.132703290228519
 10
-0.820796801920004
 20
0.1361088500720095
 10
-0.8027981017285982
 20
0.136038983832471
  0
LWPOLYLINE
  5
171
330
109
100
AcDbEntity
  8
AM_4
100
AcDbPolyline
 90
       23
 70
     0
 43
0.0
 10
-0.6678929566295905
 20
-1.008563927654076
 10
-0.6707413646864634
 20
-1.017305175613567
 10
-0.6770773969564022
 20
-1.025383149155777
 10
-0.686754436181806
 20
-1.032643923495482
 10
-0.6993825165145616
 20
-1.038969762706963
 10
-0.715367180273844
 20
-1.04451631400719
 10
-0.7336803230992205
 20
-1.048962713175657
 10
-0.7550990295496153
 20
-1.052471194026624
 10
-0.7779818513854846
 20
-1.05477480470768
 10
-0.8028231615140315
 20
-1.055908605870942
 10
-0.8279278241043059
 20
-1.055763797069537
 10
-0.8530686902430242
 20
-1.054289180084715
 10
-0.8770508560964674
 20
-1.051467169388528
 10
-0.8989854265596527
 20
-1.047291042851122
 10
-0.9183662353993347
 20
-1.041738133987394
 10
-0.9339494863539519
 20
-1.035064077522568
 10
-0.9459404041318289
 20
-1.0271671840546
 10
-0.9534243864208134
 20
-1.018719720431344
 10
-0.9569826777936403
 20
-1.009484035271725
 10
-0.9565284889407469
 20
-1.000238480121391
 10
-0.95243604829782
 20
-0.9907860420221161
 10
-0.9449252577764455
 20
-0.9815376448463453
 10
-0.9387705076717041
 20
-0.9760476264547017
  0
LINE
  5
172
330
109
100
AcDbEntity
  8
AM_4
100
AcDbLine
 10
-1.1456
 20
-1.110000000000001
 30
0.0
 11
-0.6259999999999998
 21
-1.110000000000001
 31
0.0
  0
LINE
  5
173
330
109
100
AcDbEntity
  8
AM_4
100
AcDbLine
 10
-0.6259999999999998
 20
1.110000000000001
 30
0.0
 11
-1.1456
 21
1.110000000000001
 31
0.0
  0
ARC
  5
174
330
109
100
AcDbEntity
  8
AM_5
100
AcDbCircle
 10
-0.8124999999999999
 20
0.0
 30
0.0
 40
0.1562499999999999
100
AcDbArc
 50
345.0
 51
284.9999999999999
  0
ARC
  5
175
330
109
100
AcDbEntity
  8
AM_5
100
AcDbCircle
 10
-0.8775
 20
0.0
 30
0.0
 40
0.15625
100
AcDbArc
 50
345.0
 51
285.0
  0
ENDBLK
  5
10C
330
109
100
AcDbEntity
  8
0
100
AcDbBlockEnd
  0
BLOCK
  5
178
330
176
100
AcDbEntity
  8
0
100
AcDbBlockBegin
  2
4_135106H_0_in_135106_2
 70
     2
 10
0.0
 20
0.0
 30
0.0
  3
4_135106H_0_in_135106_2
  1

  0
ATTDEF
  5
17A
330
176
100
AcDbEntity
  8
AM_6
100
AcDbText
 10
5.8965
 20
2.375
 30
0.0
 40
0.5
  1
NSTU-SCM -Inch - housing
100
AcDbAttributeDefinition
  3

  2
NN
 70
     8
280
     0
  0
ATTDEF
  5
17B
330
176
100
AcDbEntity
  8
AM_6
100
AcDbText
 10
5.8965
 20
1.875
 30
0.0
 40
0.5
  1
SC Take-Up Bearings -Narrow Slot -(Medium Duty)
100
AcDbAttributeDefinition
  3

  2
NT
 70
     8
280
     0
  0
ATTDEF
  5
17C
330
176
100
AcDbEntity
  8
AM_6
100
AcDbText
 10
5.8965
 20
1.375
 30
0.0
 40
0.5
  1
135106H
100
AcDbAttributeDefinition
  3

  2
NB
 70
     8
280
     0
  0
ATTDEF
  5
17D
330
176
100
AcDbEntity
  8
AM_6
100
AcDbText
 10
5.8965
 20
0.875
 30
0.0
 40
0.5
  1
$PN.H
100
AcDbAttributeDefinition
  3

  2
NBSYN
 70
     8
280
     0
  0
ATTDEF
  5
17E
330
176
100
AcDbEntity
  8
AM_6
100
AcDbText
 10
5.8965
 20
0.375
 30
0.0
 40
0.5
  1
135106
100
AcDbAttributeDefinition
  3

  2
LINA
 70
     8
280
     0
  0
ATTDEF
  5
17F
330
176
100
AcDbEntity
  8
AM_6
100
AcDbText
 10
5.8965
 20
-0.125
 30
0.0
 40
0.5
  1
209
100
AcDbAttributeDefinition
  3

  2
SERIES
 70
     8
280
     0
  0
ATTDEF
  5
180
330
176
100
AcDbEntity
  8
AM_6
100
AcDbText
 10
5.8965
 20
-0.625
 30
0.0
 40
0.5
  1
1-1/2
100
AcDbAttributeDefinition
  3

  2
SS
 70
     8
280
     0
  0
ATTDEF
  5
181
330
176
100
AcDbEntity
  8
AM_6
100
AcDbText
 10
5.8965
 20
-1.125
 30
0.0
 40
0.5
  1
135106
100
AcDbAttributeDefinition
  3

  2
PN
 70
     8
280
     0
  0
ATTDEF
  5
182
330
176
100
AcDbEntity
  8
AM_6
100
AcDbText
 10
5.8965
 20
-1.625
 30
0.0
 40
0.5
  1
NSTU-SCM-108
100
AcDbAttributeDefinition
  3

  2
DESCRIPTION
 70
     8
280
     0
  0
ATTDEF
  5
183
330
176
100
AcDbEntity
  8
AM_6
100
AcDbText
 10
5.8965
 20
-2.125
 30
0.0
 40
0.5
  1
5.0
100
AcDbAttributeDefinition
  3

  2
W
 70
     8
280
     0
  0
ATTDEF
  5
184
330
176
100
AcDbEntity
  8
AM_6
100
AcDbText
 10
5.8965
 20
-2.625
 30
0.0
 40
0.5
  1
NS400
100
AcDbAttributeDefinition
  3

  2
FS
 70
     8
280
     0
  0
ATTDEF
  5
185
330
176
100
AcDbEntity
  8
AM_6
100
AcDbText
 10
5.8965
 20
-3.125
 30
0.0
 40
0.5
  1
1.94
100
AcDbAttributeDefinition
  3

  2
A
 70
     8
280
     0
  0
ATTDEF
  5
186
330
176
100
AcDbEntity
  8
AM_6
100
AcDbText
 10
5.8965
 20
-3.625
 30
0.0
 40
0.5
  1
5.44
100
AcDbAttributeDefinition
  3

  2
B
 70
     8
280
     0
  0
ATTDEF
  5
187
330
176
100
AcDbEntity
  8
AM_6
100
AcDbText
 10
5.8965
 20
-4.125
 30
0.0
 40
0.5
  1
0.313
100
AcDbAttributeDefinition
  3

  2
C
 70
     8
280
     0
  0
ATTDEF
  5
188
330
176
100
AcDbEntity
  8
AM_6
100
AcDbText
 10
5.8965
 20
-4.625
 30
0.0
 40
0.5
  1
3.00
100
AcDbAttributeDefinition
  3

  2
D
 70
     8
280
     0
  0
ATTDEF
  5
189
330
176
100
AcDbEntity
  8
AM_6
100
AcDbText
 10
5.8965
 20
-5.125
 30
0.0
 40
0.5
  1
3.25
100
AcDbAttributeDefinition
  3

  2
E
 70
     8
280
     0
  0
ATTDEF
  5
18A
330
176
100
AcDbEntity
  8
AM_6
100
AcDbText
 10
5.8965
 20
-5.625
 30
0.0
 40
0.5
  1
7/8
100
AcDbAttributeDefinition
  3

  2
F
 70
     8
280
     0
  0
ATTDEF
  5
18B
330
176
100
AcDbEntity
  8
AM_6
100
AcDbText
 10
5.8965
 20
-6.125
 30
0.0
 40
0.5
  1
0.72
100
AcDbAttributeDefinition
  3

  2
G
 70
     8
280
     0
  0
ATTDEF
  5
18C
330
176
100
AcDbEntity
  8
AM_6
100
AcDbText
 10
5.8965
 20
-6.625
 30
0.0
 40
0.5
  1
1.22
100
AcDbAttributeDefinition
  3

  2
H
 70
     8
280
     0
  0
ATTDEF
  5
18D
330
176
100
AcDbEntity
  8
AM_6
100
AcDbText
 10
5.8965
 20
-7.125
 30
0.0
 40
0.5
  1
1.63
100
AcDbAttributeDefinition
  3

  2
J
 70
     8
280
     0
  0
ATTDEF
  5
18E
330
176
100
AcDbEntity
  8
AM_6
100
AcDbText
 10
5.8965
 20
-7.625
 30
0.0
 40
0.5
  1
2.22
100
AcDbAttributeDefinition
  3

  2
L
 70
     8
280
     0
  0
ATTDEF
  5
18F
330
176
100
AcDbEntity
  8
AM_6
100
AcDbText
 10
5.8965
 20
-8.125
 30
0.0
 40
0.5
  1
4.015 / 3.985
100
AcDbAttributeDefinition
  3

  2
M
 70
     8
280
     0
  0
ATTDEF
  5
190
330
176
100
AcDbEntity
  8
AM_6
100
AcDbText
 10
5.8965
 20
-8.625
 30
0.0
 40
0.5
  1
4.75
100
AcDbAttributeDefinition
  3

  2
N
 70
     8
280
     0
  0
ATTDEF
  5
191
330
176
100
AcDbEntity
  8
AM_6
100
AcDbText
 10
5.8965
 20
-9.125
 30
0.0
 40
0.5
  1
0.38
100
AcDbAttributeDefinition
  3

  2
P
 70
     8
280
     0
  0
ATTDEF
  5
192
330
176
100
AcDbEntity
  8
AM_6
100
AcDbText
 10
5.8965
 20
-9.625
 30
0.0
 40
0.5
  1
0.75
100
AcDbAttributeDefinition
  3

  2
R
 70
     8
280
     0
  0
ATTDEF
  5
193
330
176
100
AcDbEntity
  8
AM_6
100
AcDbText
 10
5.8965
 20
-10.125
 30
0.0
 40
0.5
  1
1.19
100
AcDbAttributeDefinition
  3

  2
S
 70
     8
280
     0
  0
ATTDEF
  5
194
330
176
100
AcDbEntity
  8
AM_6
100
AcDbText
 10
5.8965
 20
-10.625
 30
0.0
 40
0.5
  1
4450
100
AcDbAttributeDefinition
  3

  2
CAPS
 70
     8
280
     0
  0
ATTDEF
  5
195
330
176
100
AcDbEntity
  8
AM_6
100
AcDbText
 10
5.8965
 20
-11.125
 30
0.0
 40
0.5
  1
7891
100
AcDbAttributeDefinition
  3

  2
CAPD
 70
     8
280
     0
  0
ATTDEF
  5
196
330
176
100
AcDbEntity
  8
AM_6
100
AcDbText
 10
5.8965
 20
-11.625
 30
0.0
 40
0.5
  1
baldor
100
AcDbAttributeDefinition
  3

  2
COMPANY
 70
     8
280
     0
  0
LWPOLYLINE
  5
197
330
176
100
AcDbEntity
  8
AM_9
100
AcDbPolyline
 90
       11
 70
     0
 43
0.0
 10
-0.0000000000000001
 20
-0.9625246767943221
 10
0.0251472386343072
 20
-0.964449861325595
 10
0.0495848304115182
 20
-0.9701087670198877
 10
0.0726031092832865
 20
-0.979373768658949
 10
0.0935785146472018
 20
-0.9919051768009504
 10
0.1119124484993174
 20
-1.007383458626252
 10
0.1270951394762362
 20
-1.025281620014414
 10
0.1386589592351825
 20
-1.045109726622176
 10
0.1463097585476123
 20
-1.066237939772788
 10
0.1497687133342408
 20
-1.088021837504301
 10
0.149999999324958
 20
-1.094987675837873
  0
ELLIPSE
  5
198
330
176
100
AcDbEntity
  8
AM_9
100
AcDbEllipse
 10
-0.0000000000000002
 20
-0.9199999999999999
 30
0.0
 11
0.1499999999999998
 21
0.0
 31
0.0
210
0.0
220
0.0
230
1.0
 40
0.8660254037844379
 41
1.570796326794897
 42
6.283185307179586
  0
LINE
  5
199
330
176
100
AcDbEntity
  8
AM_9
100
AcDbLine
 10
0.1499999999999998
 20
-1.094983516012123
 30
0.0
 11
0.1499999999999998
 21
-0.9200000000000002
 31
0.0
  0
LINE
  5
19A
330
176
100
AcDbEntity
  8
AM_9
100
AcDbLine
 10
-0.15
 20
-0.9200000000000002
 30
0.0
 11
-0.15
 21
-1.094997052199467
 31
0.0
  0
ELLIPSE
  5
19B
330
176
100
AcDbEntity
  8
AM_9
100
AcDbEllipse
 10
0.0000000000000001
 20
-0.9199999999999999
 30
0.0
 11
0.1499999999999998
 21
0.0
 31
0.0
210
0.0
220
0.0
230
1.0
 40
0.8660254037844379
 41
0.0
 42
1.570796326794897
  0
LWPOLYLINE
  5
19C
330
176
100
AcDbEntity
  8
AM_9
100
AcDbPolyline
 90
       20
 70
     0
 43
0.0
 10
0.149999999324958
 20
-1.094987675837873
 10
0.1490107139410318
 20
-1.109861040976436
 10
0.1440100214554
 20
-1.131095289569072
 10
0.1349702192340757
 20
-1.151187938220247
 10
0.1220815689419353
 20
-1.169589208417995
 10
0.1057657516007578
 20
-1.185822898848994
 10
0.0863955026080877
 20
-1.19945938104943
 10
0.0645864818867161
 20
-1.210150904958655
 10
0.040923796440336
 20
-1.217583050665352
 10
0.0161023001109368
 20
-1.221611308342253
 10
-0.0091306064789006
 20
-1.222088820250617
 10
-0.0341057276708743
 20
-1.219062958722783
 10
-0.0580823203790058
 20
-1.212571077478803
 10
-0.0804257297236246
 20
-1.202821347290771
 10
-0.1005096728065954
 20
-1.189994682583669
 10
-0.1177661607409683
 20
-1.174471389703512
 10
-0.1316856413736531
 20
-1.156586064709705
 10
-0.1418901350889909
 20
-1.136865142378717
 10
-0.1480297040524972
 20
-1.115836536527073
 10
-0.1499999998495336
 20
-1.094994181466326
  0
LWPOLYLINE
  5
19D
330
176
100
AcDbEntity
  8
AM_9
100
AcDbPolyline
 90
       12
 70
     0
 43
0.0
 10
-0.1499999998495336
 20
-1.094994181466326
 10
-0.1499962464390964
 20
-1.094080882534274
 10
-0.1476826198908843
 20
-1.072249536693697
 10
-0.1412228418719716
 20
-1.05092367630517
 10
-0.1307451544188755
 20
-1.030735768921771
 10
-0.1166007453829474
 20
-1.012262806758855
 10
-0.0991021349087289
 20
-0.9960548485719124
 10
-0.0788113367592861
 20
-0.9826103311635914
 10
-0.0562436124878117
 20
-0.97237909094745
 10
-0.0320838073911225
 20
-0.9656487795945331
 10
-0.0161356663902842
 20
-0.9633106378157303
 10
-0.0000000000000001
 20
-0.9625246767943221
  0
LINE
  5
19E
330
176
100
AcDbEntity
  8
AM_9
100
AcDbLine
 10
-0.1878000000000001
 20
-1.675224779693759
 30
0.0
 11
0.626
 21
-1.675224779693759
 31
0.0
  0
LINE
  5
19F
330
176
100
AcDbEntity
  8
AM_9
100
AcDbLine
 10
-0.1878000000000001
 20
-1.74825
 30
0.0
 11
0.626
 21
-1.74825
 31
0.0
  0
LINE
  5
1A0
330
176
100
AcDbEntity
  8
AM_9
100
AcDbLine
 10
-0.1878000000000001
 20
-1.74825
 30
0.0
 11
-0.1878000000000001
 21
-1.596798535351282
 31
0.0
  0
LINE
  5
1A1
330
176
100
AcDbEntity
  8
AM_9
100
AcDbLine
 10
-0.1878000000000001
 20
1.596798535351282
 30
0.0
 11
-0.1878000000000001
 21
1.74825
 31
0.0
  0
LINE
  5
1A2
330
176
100
AcDbEntity
  8
AM_9
100
AcDbLine
 10
-0.1878000000000001
 20
1.675224779693758
 30
0.0
 11
0.626
 21
1.675224779693758
 31
0.0
  0
LINE
  5
1A3
330
176
100
AcDbEntity
  8
AM_9
100
AcDbLine
 10
0.2249242424242454
 20
1.74825
 30
0.0
 11
-0.1878000000000001
 21
1.74825
 31
0.0
  0
LINE
  5
1A4
330
176
100
AcDbEntity
  8
AM_9
100
AcDbLine
 10
0.626
 20
1.74825
 30
0.0
 11
0.2750757575757546
 21
1.74825
 31
0.0
  0
LINE
  5
1A5
330
176
100
AcDbEntity
  8
AM_9
100
AcDbLine
 10
-0.1878000000000001
 20
1.596798535351282
 30
0.0
 11
0.626
 21
1.596798535351282
 31
0.0
  0
LINE
  5
1A6
330
176
100
AcDbEntity
  8
AM_9
100
AcDbLine
 10
0.626
 20
-1.596798535351282
 30
0.0
 11
-0.1878000000000001
 21
-1.596798535351282
 31
0.0
  0
LINE
  5
1A7
330
176
100
AcDbEntity
  8
AM_9
100
AcDbLine
 10
-0.626
 20
-1.67325
 30
0.0
 11
-0.1878000000000001
 21
-1.67325
 31
0.0
  0
LINE
  5
1A8
330
176
100
AcDbEntity
  8
AM_9
100
AcDbLine
 10
-0.1878000000000001
 20
1.67325
 30
0.0
 11
-0.626
 21
1.67325
 31
0.0
  0
LINE
  5
1A9
330
176
100
AcDbEntity
  8
AM_9
100
AcDbLine
 10
-0.6259999999999998
 20
-0.5218706736347616
 30
0.0
 11
-0.6259999999999998
 21
0.5218706736347615
 31
0.0
  0
LINE
  5
1AA
330
176
100
AcDbEntity
  8
AM_9
100
AcDbLine
 10
0.6260000000000001
 20
0.5218706736347616
 30
0.0
 11
0.6260000000000001
 21
-0.5218706736347615
 31
0.0
  0
LINE
  5
1AB
330
176
100
AcDbEntity
  8
AM_9
100
AcDbLine
 10
-0.3923736194461882
 20
-0.7143304156779954
 30
0.0
 11
-0.3923736194461882
 21
0.7143304156779954
 31
0.0
  0
LINE
  5
1AC
330
176
100
AcDbEntity
  8
AM_9
100
AcDbLine
 10
0.3923736194461882
 20
-0.7143304156779954
 30
0.0
 11
0.3923736194461882
 21
0.7143304156779954
 31
0.0
  0
LINE
  5
1AD
330
176
100
AcDbEntity
  8
AM_9
100
AcDbLine
 10
0.3942856976681977
 20
-0.19
 30
0.0
 11
0.7926400775033671
 21
-0.19
 31
0.0
  0
LINE
  5
1AE
330
176
100
AcDbEntity
  8
AM_9
100
AcDbLine
 10
0.7927006851445462
 20
0.19
 30
0.0
 11
0.3944182410204066
 21
0.19
 31
0.0
  0
LINE
  5
1AF
330
176
100
AcDbEntity
  8
AM_9
100
AcDbLine
 10
-0.7927006851445461
 20
-0.19
 30
0.0
 11
-0.3944182410204063
 21
-0.19
 31
0.0
  0
LINE
  5
1B0
330
176
100
AcDbEntity
  8
AM_9
100
AcDbLine
 10
-0.3942856976681975
 20
0.19
 30
0.0
 11
-0.792640077503367
 21
0.19
 31
0.0
  0
LINE
  5
1B1
330
176
100
AcDbEntity
  8
AM_7
100
AcDbLine
 10
0.0000000000000002
 20
-0.85575
 30
0.0
 11
0.0000000000000002
 21
0.85575
 31
0.0
  0
LINE
  5
1B2
330
176
100
AcDbEntity
  8
AM_7
100
AcDbLine
 10
0.8965000000000001
 20
0.0
 30
0.0
 11
-1.287
 21
0.0
 31
0.0
  0
LINE
  5
1B3
330
176
100
AcDbEntity
  8
AM_4
100
AcDbLine
 10
-0.1564999999999999
 20
-2.0075
 30
0.0
 11
0.1565000000000001
 21
-2.0075
 31
0.0
  0
LINE
  5
1B4
330
176
100
AcDbEntity
  8
AM_4
100
AcDbLine
 10
-0.1564999999999999
 20
-2.375
 30
0.0
 11
-0.1564999999999999
 21
-2.0075
 31
0.0
  0
LINE
  5
1B5
330
176
100
AcDbEntity
  8
AM_4
100
AcDbLine
 10
0.1565000000000001
 20
-2.0075
 30
0.0
 11
0.1565000000000001
 21
-2.375
 31
0.0
  0
LINE
  5
1B6
330
176
100
AcDbEntity
  8
AM_4
100
AcDbLine
 10
-0.4694999999999999
 20
-1.567166300838042
 30
0.0
 11
-0.4694999999999999
 21
-2.312400000000001
 31
0.0
  0
LINE
  5
1B7
330
176
100
AcDbEntity
  8
AM_4
100
AcDbLine
 10
0.4695000000000001
 20
-2.312399999999999
 30
0.0
 11
0.4695000000000001
 21
-1.567166300838042
 31
0.0
  0
LINE
  5
1B8
330
176
100
AcDbEntity
  8
AM_4
100
AcDbLine
 10
-0.4694999999999999
 20
2.3124
 30
0.0
 11
-0.4694999999999999
 21
1.567166300838042
 31
0.0
  0
LINE
  5
1B9
330
176
100
AcDbEntity
  8
AM_4
100
AcDbLine
 10
0.4695000000000001
 20
1.567166300838042
 30
0.0
 11
0.4695000000000001
 21
2.312400000000001
 31
0.0
  0
LINE
  5
1BA
330
176
100
AcDbEntity
  8
AM_4
100
AcDbLine
 10
-0.1564999999999999
 20
2.0075
 30
0.0
 11
-0.1564999999999999
 21
2.375
 31
0.0
  0
LINE
  5
1BB
330
176
100
AcDbEntity
  8
AM_4
100
AcDbLine
 10
0.1565000000000001
 20
2.0075
 30
0.0
 11
-0.1564999999999999
 21
2.0075
 31
0.0
  0
LINE
  5
1BC
330
176
100
AcDbEntity
  8
AM_4
100
AcDbLine
 10
0.1565000000000001
 20
2.375
 30
0.0
 11
0.1565000000000001
 21
2.0075
 31
0.0
  0
LWPOLYLINE
  5
1BD
330
176
100
AcDbEntity
  8
AM_4
100
AcDbPolyline
 90
       19
 70
     0
 43
0.0
 10
0.4069000000000004
 20
2.375
 10
0.4123559494960038
 20
2.374761788100543
 10
0.4177703759219502
 20
2.374048965338564
 10
0.4231020722234182
 20
2.372866956725696
 10
0.4283104609721872
 20
2.371224758061198
 10
0.4333559031849682
 20
2.369134867468494
 10
0.4382000000000003
 20
2.366613190276906
 10
0.4428058849155758
 20
2.363678917972491
 10
0.4471385043663777
 20
2.360354382139248
 10
0.4511648845022782
 20
2.356664884502278
 10
0.4548543821392483
 20
2.352638504366377
 10
0.4581789179724912
 20
2.348305884915576
 10
0.4611131902769062
 20
2.3437
 10
0.4636348674684946
 20
2.338855903184968
 10
0.4657247580611982
 20
2.333810460972187
 10
0.4673669567256959
 20
2.328602072223418
 10
0.4685489653385645
 20
2.32327037592195
 10
0.4692617881005436
 20
2.317855949496003
 10
0.4695000000000003
 20
2.312400002085833
  0
LINE
  5
1BE
330
176
100
AcDbEntity
  8
AM_4
100
AcDbLine
 10
0.4695000000000001
 20
2.312400000000001
 30
0.0
 11
0.1565000000000001
 21
2.3124
 31
0.0
  0
LINE
  5
1BF
330
176
100
AcDbEntity
  8
AM_4
100
AcDbLine
 10
0.1565000000000001
 20
2.375
 30
0.0
 11
0.4069000000000004
 21
2.375
 31
0.0
  0
LWPOLYLINE
  5
1C0
330
176
100
AcDbEntity
  8
AM_4
100
AcDbPolyline
 90
       19
 70
     0
 43
0.0
 10
-0.4694999999999996
 20
2.3124
 10
-0.4692617881005429
 20
2.317855949496003
 10
-0.4685489653385639
 20
2.32327037592195
 10
-0.4673669567256953
 20
2.328602072223418
 10
-0.4657247580611975
 20
2.333810460972186
 10
-0.463634867468494
 20
2.338855903184967
 10
-0.4611131902769055
 20
2.3437
 10
-0.4581789179724905
 20
2.348305884915575
 10
-0.4548543821392477
 20
2.352638504366377
 10
-0.4511648845022775
 20
2.356664884502278
 10
-0.4471385043663769
 20
2.360354382139248
 10
-0.442805884915575
 20
2.363678917972491
 10
-0.4381999999999996
 20
2.366613190276905
 10
-0.4333559031849674
 20
2.369134867468494
 10
-0.4283104609721864
 20
2.371224758061198
 10
-0.4231020722234173
 20
2.372866956725696
 10
-0.4177703759219493
 20
2.374048965338564
 10
-0.4123559494960028
 20
2.374761788100543
 10
-0.4068999999999995
 20
2.375
  0
LINE
  5
1C1
330
176
100
AcDbEntity
  8
AM_4
100
AcDbLine
 10
-0.4068999999999998
 20
2.375
 30
0.0
 11
-0.1564999999999999
 21
2.375
 31
0.0
  0
LINE
  5
1C2
330
176
100
AcDbEntity
  8
AM_4
100
AcDbLine
 10
-0.1564999999999999
 20
2.3124
 30
0.0
 11
-0.4694999999999999
 21
2.3124
 31
0.0
  0
LWPOLYLINE
  5
1C3
330
176
100
AcDbEntity
  8
AM_4
100
AcDbPolyline
 90
       19
 70
     0
 43
0.0
 10
0.4694999999999994
 20
-2.3124
 10
0.4692617881005426
 20
-2.317855949496003
 10
0.4685489653385636
 20
-2.32327037592195
 10
0.4673669567256951
 20
-2.328602072223418
 10
0.4657247580611972
 20
-2.333810460972187
 10
0.4636348674684937
 20
-2.338855903184968
 10
0.4611131902769053
 20
-2.3437
 10
0.4581789179724903
 20
-2.348305884915576
 10
0.4548543821392474
 20
-2.352638504366377
 10
0.4511648845022774
 20
-2.356664884502278
 10
0.4471385043663769
 20
-2.360354382139248
 10
0.442805884915575
 20
-2.363678917972491
 10
0.4381999999999995
 20
-2.366613190276906
 10
0.4333559031849673
 20
-2.369134867468494
 10
0.4283104609721864
 20
-2.371224758061198
 10
0.4231020722234173
 20
-2.372866956725696
 10
0.4177703759219494
 20
-2.374048965338564
 10
0.412355949496003
 20
-2.374761788100543
 10
0.4068999999999997
 20
-2.375
  0
LINE
  5
1C4
330
176
100
AcDbEntity
  8
AM_4
100
AcDbLine
 10
0.1565000000000001
 20
-2.375
 30
0.0
 11
0.4068999999999995
 21
-2.375
 31
0.0
  0
LINE
  5
1C5
330
176
100
AcDbEntity
  8
AM_4
100
AcDbLine
 10
0.4695000000000001
 20
-2.312399999999999
 30
0.0
 11
0.1565000000000001
 21
-2.312400000000001
 31
0.0
  0
LINE
  5
1C6
330
176
100
AcDbEntity
  8
AM_4
100
AcDbLine
 10
-0.1564999999999999
 20
-2.3124
 30
0.0
 11
-0.4694999999999999
 21
-2.312400000000001
 31
0.0
  0
LWPOLYLINE
  5
1C7
330
176
100
AcDbEntity
  8
AM_4
100
AcDbPolyline
 90
       19
 70
     0
 43
0.0
 10
-0.4068999999999989
 20
-2.375
 10
-0.4123559494960023
 20
-2.374761788100543
 10
-0.4177703759219487
 20
-2.374048965338564
 10
-0.4231020722234167
 20
-2.372866956725696
 10
-0.4283104609721857
 20
-2.371224758061198
 10
-0.4333559031849667
 20
-2.369134867468495
 10
-0.4381999999999989
 20
-2.366613190276906
 10
-0.4428058849155744
 20
-2.363678917972491
 10
-0.4471385043663763
 20
-2.360354382139248
 10
-0.4511648845022768
 20
-2.356664884502278
 10
-0.4548543821392469
 20
-2.352638504366378
 10
-0.4581789179724899
 20
-2.348305884915576
 10
-0.4611131902769049
 20
-2.343700000000001
 10
-0.4636348674684934
 20
-2.338855903184969
 10
-0.465724758061197
 20
-2.333810460972188
 10
-0.4673669567256948
 20
-2.328602072223418
 10
-0.4685489653385634
 20
-2.32327037592195
 10
-0.4692617881005425
 20
-2.317855949496004
 10
-0.4694999999999993
 20
-2.312400000000001
  0
LINE
  5
1C8
330
176
100
AcDbEntity
  8
AM_4
100
AcDbLine
 10
-0.4068999999999995
 20
-2.375
 30
0.0
 11
-0.1564999999999999
 21
-2.375
 31
0.0
  0
LINE
  5
1C9
330
176
100
AcDbEntity
  8
AM_4
100
AcDbLine
 10
-0.3923736194461881
 20
1.595650337636665
 30
0.0
 11
0.3923736194461883
 21
1.595650337636665
 31
0.0
  0
LINE
  5
1CA
330
176
100
AcDbEntity
  8
AM_4
100
AcDbLine
 10
0.3923736194461882
 20
-1.595650337636665
 30
0.0
 11
-0.3923736194461881
 21
-1.595650337636665
 31
0.0
  0
LINE
  5
1CB
330
176
100
AcDbEntity
  8
AM_4
100
AcDbLine
 10
-0.3923736194461881
 20
1.595650337636665
 30
0.0
 11
-0.3923736194461881
 21
0.7143304156779954
 31
0.0
  0
LINE
  5
1CC
330
176
100
AcDbEntity
  8
AM_4
100
AcDbLine
 10
-0.4694999999999999
 20
1.567166300838042
 30
0.0
 11
-0.3923736194461881
 21
1.595650337636665
 31
0.0
  0
LINE
  5
1CD
330
176
100
AcDbEntity
  8
AM_4
100
AcDbLine
 10
-0.3923736194461881
 20
-1.595650337636665
 30
0.0
 11
-0.4694999999999999
 21
-1.567166300838042
 31
0.0
  0
LINE
  5
1CE
330
176
100
AcDbEntity
  8
AM_4
100
AcDbLine
 10
-0.3923736194461881
 20
-0.7143304156779954
 30
0.0
 11
-0.3923736194461881
 21
-1.595650337636665
 31
0.0
  0
LINE
  5
1CF
330
176
100
AcDbEntity
  8
AM_4
100
AcDbLine
 10
-0.6259999999999998
 20
-0.5218706736347616
 30
0.0
 11
-0.626
 21
-2.1274
 31
0.0
  0
LINE
  5
1D0
330
176
100
AcDbEntity
  8
AM_4
100
AcDbLine
 10
-0.626
 20
-2.1274
 30
0.0
 11
-0.4695
 21
-2.169334048615471
 31
0.0
  0
LINE
  5
1D1
330
176
100
AcDbEntity
  8
AM_4
100
AcDbLine
 10
-0.4695
 20
2.169334048615471
 30
0.0
 11
-0.626
 21
2.1274
 31
0.0
  0
LINE
  5
1D2
330
176
100
AcDbEntity
  8
AM_4
100
AcDbLine
 10
-0.626
 20
2.1274
 30
0.0
 11
-0.6259999999999998
 21
0.5218706736347616
 31
0.0
  0
LINE
  5
1D3
330
176
100
AcDbEntity
  8
AM_4
100
AcDbLine
 10
0.6260000000000001
 20
-0.5218706736347616
 30
0.0
 11
0.626
 21
-2.1274
 31
0.0
  0
LINE
  5
1D4
330
176
100
AcDbEntity
  8
AM_4
100
AcDbLine
 10
0.3923736194461884
 20
-0.7143304156779954
 30
0.0
 11
0.3923736194461882
 21
-1.595650337636665
 31
0.0
  0
LINE
  5
1D5
330
176
100
AcDbEntity
  8
AM_4
100
AcDbLine
 10
0.4695000000000001
 20
-1.567166300838042
 30
0.0
 11
0.3923736194461882
 21
-1.595650337636665
 31
0.0
  0
LINE
  5
1D6
330
176
100
AcDbEntity
  8
AM_4
100
AcDbLine
 10
0.3923736194461883
 20
1.595650337636665
 30
0.0
 11
0.4695000000000001
 21
1.567166300838042
 31
0.0
  0
LINE
  5
1D7
330
176
100
AcDbEntity
  8
AM_4
100
AcDbLine
 10
0.3923736194461883
 20
1.595650337636665
 30
0.0
 11
0.3923736194461884
 21
0.7143304156779954
 31
0.0
  0
LINE
  5
1D8
330
176
100
AcDbEntity
  8
AM_4
100
AcDbLine
 10
0.626
 20
2.1274
 30
0.0
 11
0.4695
 21
2.169334048615471
 31
0.0
  0
LINE
  5
1D9
330
176
100
AcDbEntity
  8
AM_4
100
AcDbLine
 10
0.4695
 20
-2.169334048615471
 30
0.0
 11
0.626
 21
-2.1274
 31
0.0
  0
LINE
  5
1DA
330
176
100
AcDbEntity
  8
AM_4
100
AcDbLine
 10
0.626
 20
2.1274
 30
0.0
 11
0.6260000000000001
 21
0.5218706736347616
 31
0.0
  0
CIRCLE
  5
1DB
330
176
100
AcDbEntity
  8
AM_4
100
AcDbCircle
 10
0.0000000000000002
 20
0.0
 30
0.0
 40
0.815
  0
CIRCLE
  5
1DC
330
176
100
AcDbEntity
  8
AM_4
100
AcDbCircle
 10
0.0000000000000002
 20
0.0
 30
0.0
 40
0.4375
  0
CIRCLE
  5
1DD
330
176
100
AcDbEntity
  8
AM_4
100
AcDbCircle
 10
0.0000000000000002
 20
0.0
 30
0.0
 40
0.7106666666666666
  0
ENDBLK
  5
179
330
176
100
AcDbEntity
  8
0
100
AcDbBlockEnd
  0
ENDSEC
  0
SECTION
  2
ENTITIES
  0
INSERT
  5
6F
330
1F
100
AcDbEntity
  8
0
100
AcDbBlockReference
  2
1_135106_2
 10
0.0
 20
0.0
 30
0.0
  0
POINT
  5
1DF
330
1F
100
AcDbEntity
  8
ConnectionPoints
100
AcDbPoint
 10
0.75
 20
0.0
 30
0.0
  0
POINT
  5
1E0
330
1F
100
AcDbEntity
  8
ConnectionPoints
100
AcDbPoint
 10
-1.19
 20
0.0
 30
0.0000000000000001
  0
POINT
  5
1E1
330
1F
100
AcDbEntity
  8
ConnectionPoints
100
AcDbPoint
 10
-0.0000000000000001
 20
-1.095
 30
-1.896595634287921
  0
POINT
  5
1E2
330
1F
100
AcDbEntity
  8
ConnectionPoints
100
AcDbPoint
 10
-1.19
 20
0.0
 30
0.0000000000000001
  0
ENDSEC
  0
SECTION
  2
OBJECTS
  0
DICTIONARY
  5
C
330
0
100
AcDbDictionary
281
     1
  3
ACAD_DETAILVIEWSTYLE
350
1EA
  3
ACAD_GROUP
350
D
  3
ACAD_LAYOUT
350
1A
  3
ACAD_MATERIAL
350
43
  3
ACAD_MLEADERSTYLE
350
6B
  3
ACAD_MLINESTYLE
350
17
  3
ACAD_PLOTSETTINGS
350
19
  3
ACAD_PLOTSTYLENAME
350
E
  3
ACAD_SCALELIST
350
47
  3
ACAD_SECTIONVIEWSTYLE
350
1EB
  3
ACAD_TABLESTYLE
350
69
  3
ACAD_VISUALSTYLE
350
2A
  3
ACDB_RECOMPOSE_DATA
350
1E7
  3
AcDbVariableDictionary
350
1E3
  0
SUN
  5
6D
330
29
100
AcDbSun
 90
        1
290
     0
 63
     7
421
 16777215
 40
1.0
291
     1
 91
  2455826
 92
 54000000
292
     0
 70
     2
 71
   256
280
     1
  0
DICTIONARY
  5
1EA
102
{ACAD_REACTORS
330
C
102
}
330
C
100
AcDbDictionary
281
     1
  0
DICTIONARY
  5
D
102
{ACAD_REACTORS
330
C
102
}
330
C
100
AcDbDictionary
281
     1
  0
DICTIONARY
  5
1A
102
{ACAD_REACTORS
330
C
102
}
330
C
100
AcDbDictionary
281
     1
  3
Layout1
350
1E
  3
Layout2
350
26
  3
Model
350
22
  0
DICTIONARY
  5
43
102
{ACAD_REACTORS
330
C
102
}
330
C
100
AcDbDictionary
281
     1
  3
ByBlock
350
45
  3
ByLayer
350
44
  3
Global
350
46
  0
DICTIONARY
  5
6B
102
{ACAD_REACTORS
330
C
102
}
330
C
100
AcDbDictionary
281
     1
  3
Standard
350
6C
  0
DICTIONARY
  5
17
102
{ACAD_REACTORS
330
C
102
}
330
C
100
AcDbDictionary
281
     1
  3
Standard
350
18
  0
DICTIONARY
  5
19
102
{ACAD_REACTORS
330
C
102
}
330
C
100
AcDbDictionary
281
     1
  0
ACDBDICTIONARYWDFLT
  5
E
102
{ACAD_REACTORS
330
C
102
}
330
C
100
AcDbDictionary
281
     1
  3
Normal
350
F
100
AcDbDictionaryWithDefault
340
F
  0
DICTIONARY
  5
47
102
{ACAD_REACTORS
330
C
102
}
330
C
100
AcDbDictionary
281
     1
  3
A0
350
48
  3
A1
350
49
  3
A2
350
4A
  3
A3
350
4B
  3
A4
350
4C
  3
A5
350
4D
  3
A6
350
4E
  3
A7
350
4F
  3
A8
350
50
  3
A9
350
51
  3
B0
350
52
  3
B1
350
53
  3
B2
350
54
  3
B3
350
55
  3
B4
350
56
  3
B5
350
57
  3
B6
350
58
  3
B7
350
59
  3
B8
350
5A
  3
B9
350
5B
  3
C0
350
5C
  3
C1
350
5D
  3
C2
350
5E
  3
C3
350
5F
  3
C4
350
60
  3
C5
350
61
  3
C6
350
62
  3
C7
350
63
  3
C8
350
64
  3
C9
350
65
  3
D0
350
66
  3
D1
350
67
  3
D2
350
68
  0
DICTIONARY
  5
1EB
102
{ACAD_REACTORS
330
C
102
}
330
C
100
AcDbDictionary
281
     1
  0
DICTIONARY
  5
69
102
{ACAD_REACTORS
330
C
102
}
330
C
100
AcDbDictionary
281
     1
  3
Standard
350
6A
  0
DICTIONARY
  5
2A
102
{ACAD_REACTORS
330
C
102
}
330
C
100
AcDbDictionary
281
     1
  3
2dWireframe
350
2F
  3
Basic
350
32
  3
Brighten
350
36
  3
ColorChange
350
3A
  3
Conceptual
350
34
  3
Dim
350
35
  3
EdgeColorOff
350
3D
  3
Facepattern
350
39
  3
Flat
350
2B
  3
FlatWithEdges
350
2C
  3
Gouraud
350
2D
  3
GouraudWithEdges
350
2E
  3
Hidden
350
31
  3
JitterOff
350
3B
  3
Linepattern
350
38
  3
OverhangOff
350
3C
  3
Realistic
350
33
  3
Shaded
350
42
  3
Shaded with edges
350
41
  3
Shades of Gray
350
3E
  3
Sketchy
350
3F
  3
Thicken
350
37
  3
Wireframe
350
30
  3
X-Ray
350
40
  0
XRECORD
  5
1E7
102
{ACAD_REACTORS
330
C
102
}
330
C
100
AcDbXrecord
280
     1
 90
        1
330
6A
  0
DICTIONARY
  5
1E3
102
{ACAD_REACTORS
330
C
102
}
330
C
100
AcDbDictionary
281
     1
  3
CANNOSCALE
350
1E4
  3
CMLEADERSTYLE
350
1E9
  3
CTABLESTYLE
350
1E8
  0
LAYOUT
  5
1E
102
{ACAD_REACTORS
330
1A
102
}
330
1A
100
AcDbPlotSettings
  1

  2
none_device
  4

  6

 40
0.0
 41
0.0
 42
0.0
 43
0.0
 44
0.0
 45
0.0
 46
0.0
 47
0.0
 48
0.0
 49
0.0
140
0.0
141
0.0
142
1.0
143
1.0
 70
   688
 72
     0
 73
     0
 74
     5
  7

 75
    16
 76
     0
 77
     2
 78
   300
147
1.0
148
0.0
149
0.0
100
AcDbLayout
  1
Layout1
 70
     1
 71
     1
 10
0.0
 20
0.0
 11
12.0
 21
9.0
 12
0.0
 22
0.0
 32
0.0
 14
1.000000000000000E+20
 24
1.000000000000000E+20
 34
1.000000000000000E+20
 15
-1.000000000000000E+20
 25
-1.000000000000000E+20
 35
-1.000000000000000E+20
146
0.0
 13
0.0
 23
0.0
 33
0.0
 16
1.0
 26
0.0
 36
0.0
 17
0.0
 27
1.0
 37
0.0
 76
     0
330
1B
  0
LAYOUT
  5
26
102
{ACAD_REACTORS
330
1A
102
}
330
1A
100
AcDbPlotSettings
  1

  2
none_device
  4

  6

 40
0.0
 41
0.0
 42
0.0
 43
0.0
 44
0.0
 45
0.0
 46
0.0
 47
0.0
 48
0.0
 49
0.0
140
0.0
141
0.0
142
1.0
143
1.0
 70
   688
 72
     0
 73
     0
 74
     5
  7

 75
    16
 76
     0
 77
     2
 78
   300
147
1.0
148
0.0
149
0.0
100
AcDbLayout
  1
Layout2
 70
     1
 71
     2
 10
0.0
 20
0.0
 11
0.0
 21
0.0
 12
0.0
 22
0.0
 32
0.0
 14
0.0
 24
0.0
 34
0.0
 15
0.0
 25
0.0
 35
0.0
146
0.0
 13
0.0
 23
0.0
 33
0.0
 16
1.0
 26
0.0
 36
0.0
 17
0.0
 27
1.0
 37
0.0
 76
     0
330
23
  0
LAYOUT
  5
22
102
{ACAD_REACTORS
330
1A
102
}
330
1A
100
AcDbPlotSettings
  1

  2
none_device
  4
Letter_(8.50_x_11.00_Inches)
  6

 40
6.35
 41
6.35
 42
6.35000508
 43
6.35000508
 44
215.9
 45
279.4
 46
0.0
 47
0.0
 48
0.0
 49
0.0
140
0.0
141
0.0
142
1.0
143
1.0
 70
  1712
 72
     0
 73
     0
 74
     0
  7

 75
     0
 76
     0
 77
     2
 78
   300
147
1.0
148
0.0
149
0.0
100
AcDbLayout
  1
Model
 70
     1
 71
     0
 10
0.0
 20
0.0
 11
12.0
 21
9.0
 12
0.0
 22
0.0
 32
0.0
 14
1.000000000000000E+20
 24
1.000000000000000E+20
 34
1.000000000000000E+20
 15
-1.000000000000000E+20
 25
-1.000000000000000E+20
 35
-1.000000000000000E+20
146
0.0
 13
0.0
 23
0.0
 33
0.0
 16
1.0
 26
0.0
 36
0.0
 17
0.0
 27
1.0
 37
0.0
 76
     0
330
1F
331
29
  0
MATERIAL
  5
45
102
{ACAD_REACTORS
330
43
102
}
330
43
100
AcDbMaterial
  1
ByBlock
 72
     1
 94
      127
  0
MATERIAL
  5
44
102
{ACAD_REACTORS
330
43
102
}
330
43
100
AcDbMaterial
  1
ByLayer
 72
     1
 94
      127
  0
MATERIAL
  5
46
102
{ACAD_REACTORS
330
43
102
}
330
43
100
AcDbMaterial
  1
Global
 72
     1
 94
      127
  0
MLEADERSTYLE
  5
6C
102
{ACAD_REACTORS
330
6B
102
}
330
6B
100
AcDbMLeaderStyle
179
     2
170
     2
171
     1
172
     0
 90
        2
 40
0.0
 41
0.0
173
     1
 91
-1056964608
340
14
 92
       -2
290
     1
 42
0.09
291
     1
 43
0.36
  3
Standard
341
0
 44
0.18
300

342
11
174
     1
178
     6
175
     1
176
     0
 93
-1056964608
 45
0.18
292
     0
297
     0
 46
0.18
343
0
 94
-1056964608
 47
1.0
 49
1.0
140
1.0
293
     1
141
0.0
294
     1
177
     0
142
1.0
295
     0
296
     0
143
0.125
271
     0
272
     9
273
     9
298
     0
  0
MLINESTYLE
  5
18
102
{ACAD_REACTORS
330
17
102
}
330
17
100
AcDbMlineStyle
  2
Standard
 70
     0
  3

 62
   256
 51
90.0
 52
90.0
 71
     2
 49
0.5
 62
   256
  6
BYLAYER
 49
-0.5
 62
   256
  6
BYLAYER
  0
ACDBPLACEHOLDER
  5
F
102
{ACAD_REACTORS
330
E
102
}
330
E
  0
SCALE
  5
48
102
{ACAD_REACTORS
330
47
102
}
330
47
100
AcDbScale
 70
     0
300
1:1
140
1.0
141
1.0
290
     1
  0
SCALE
  5
49
102
{ACAD_REACTORS
330
47
102
}
330
47
100
AcDbScale
 70
     0
300
1:2
140
1.0
141
2.0
290
     0
  0
SCALE
  5
4A
102
{ACAD_REACTORS
330
47
102
}
330
47
100
AcDbScale
 70
     0
300
1:4
140
1.0
141
4.0
290
     0
  0
SCALE
  5
4B
102
{ACAD_REACTORS
330
47
102
}
330
47
100
AcDbScale
 70
     0
300
1:5
140
1.0
141
5.0
290
     0
  0
SCALE
  5
4C
102
{ACAD_REACTORS
330
47
102
}
330
47
100
AcDbScale
 70
     0
300
1:8
140
1.0
141
8.0
290
     0
  0
SCALE
  5
4D
102
{ACAD_REACTORS
330
47
102
}
330
47
100
AcDbScale
 70
     0
300
1:10
140
1.0
141
10.0
290
     0
  0
SCALE
  5
4E
102
{ACAD_REACTORS
330
47
102
}
330
47
100
AcDbScale
 70
     0
300
1:16
140
1.0
141
16.0
290
     0
  0
SCALE
  5
4F
102
{ACAD_REACTORS
330
47
102
}
330
47
100
AcDbScale
 70
     0
300
1:20
140
1.0
141
20.0
290
     0
  0
SCALE
  5
50
102
{ACAD_REACTORS
330
47
102
}
330
47
100
AcDbScale
 70
     0
300
1:30
140
1.0
141
30.0
290
     0
  0
SCALE
  5
51
102
{ACAD_REACTORS
330
47
102
}
330
47
100
AcDbScale
 70
     0
300
1:40
140
1.0
141
40.0
290
     0
  0
SCALE
  5
52
102
{ACAD_REACTORS
330
47
102
}
330
47
100
AcDbScale
 70
     0
300
1:50
140
1.0
141
50.0
290
     0
  0
SCALE
  5
53
102
{ACAD_REACTORS
330
47
102
}
330
47
100
AcDbScale
 70
     0
300
1:100
140
1.0
141
100.0
290
     0
  0
SCALE
  5
54
102
{ACAD_REACTORS
330
47
102
}
330
47
100
AcDbScale
 70
     0
300
2:1
140
2.0
141
1.0
290
     0
  0
SCALE
  5
55
102
{ACAD_REACTORS
330
47
102
}
330
47
100
AcDbScale
 70
     0
300
4:1
140
4.0
141
1.0
290
     0
  0
SCALE
  5
56
102
{ACAD_REACTORS
330
47
102
}
330
47
100
AcDbScale
 70
     0
300
8:1
140
8.0
141
1.0
290
     0
  0
SCALE
  5
57
102
{ACAD_REACTORS
330
47
102
}
330
47
100
AcDbScale
 70
     0
300
10:1
140
10.0
141
1.0
290
     0
  0
SCALE
  5
58
102
{ACAD_REACTORS
330
47
102
}
330
47
100
AcDbScale
 70
     0
300
100:1
140
100.0
141
1.0
290
     0
  0
SCALE
  5
59
102
{ACAD_REACTORS
330
47
102
}
330
47
100
AcDbScale
 70
     0
300
1/128" = 1'-0"
140
0.0078125
141
12.0
290
     0
  0
SCALE
  5
5A
102
{ACAD_REACTORS
330
47
102
}
330
47
100
AcDbScale
 70
     0
300
1/64" = 1'-0"
140
0.015625
141
12.0
290
     0
  0
SCALE
  5
5B
102
{ACAD_REACTORS
330
47
102
}
330
47
100
AcDbScale
 70
     0
300
1/32" = 1'-0"
140
0.03125
141
12.0
290
     0
  0
SCALE
  5
5C
102
{ACAD_REACTORS
330
47
102
}
330
47
100
AcDbScale
 70
     0
300
1/16" = 1'-0"
140
0.0625
141
12.0
290
     0
  0
SCALE
  5
5D
102
{ACAD_REACTORS
330
47
102
}
330
47
100
AcDbScale
 70
     0
300
3/32" = 1'-0"
140
0.09375
141
12.0
290
     0
  0
SCALE
  5
5E
102
{ACAD_REACTORS
330
47
102
}
330
47
100
AcDbScale
 70
     0
300
1/8" = 1'-0"
140
0.125
141
12.0
290
     0
  0
SCALE
  5
5F
102
{ACAD_REACTORS
330
47
102
}
330
47
100
AcDbScale
 70
     0
300
3/16" = 1'-0"
140
0.1875
141
12.0
290
     0
  0
SCALE
  5
60
102
{ACAD_REACTORS
330
47
102
}
330
47
100
AcDbScale
 70
     0
300
1/4" = 1'-0"
140
0.25
141
12.0
290
     0
  0
SCALE
  5
61
102
{ACAD_REACTORS
330
47
102
}
330
47
100
AcDbScale
 70
     0
300
3/8" = 1'-0"
140
0.375
141
12.0
290
     0
  0
SCALE
  5
62
102
{ACAD_REACTORS
330
47
102
}
330
47
100
AcDbScale
 70
     0
300
1/2" = 1'-0"
140
0.5
141
12.0
290
     0
  0
SCALE
  5
63
102
{ACAD_REACTORS
330
47
102
}
330
47
100
AcDbScale
 70
     0
300
3/4" = 1'-0"
140
0.75
141
12.0
290
     0
  0
SCALE
  5
64
102
{ACAD_REACTORS
330
47
102
}
330
47
100
AcDbScale
 70
     0
300
1" = 1'-0"
140
1.0
141
12.0
290
     0
  0
SCALE
  5
65
102
{ACAD_REACTORS
330
47
102
}
330
47
100
AcDbScale
 70
     0
300
1-1/2" = 1'-0"
140
1.5
141
12.0
290
     0
  0
SCALE
  5
66
102
{ACAD_REACTORS
330
47
102
}
330
47
100
AcDbScale
 70
     0
300
3" = 1'-0"
140
3.0
141
12.0
290
     0
  0
SCALE
  5
67
102
{ACAD_REACTORS
330
47
102
}
330
47
100
AcDbScale
 70
     0
300
6" = 1'-0"
140
6.0
141
12.0
290
     0
  0
SCALE
  5
68
102
{ACAD_REACTORS
330
47
102
}
330
47
100
AcDbScale
 70
     0
300
1'-0" = 1'-0"
140
12.0
141
12.0
290
     0
  0
TABLESTYLE
  5
6A
102
{ACAD_REACTORS
330
69
102
}
102
{ACAD_XDICTIONARY
360
1E5
102
}
330
69
100
AcDbTableStyle
  3
Standard
 70
     0
 71
     0
 40
0.06
 41
0.06
280
     0
281
     0
  7
Standard
140
0.18
170
     2
 62
     0
 63
   257
283
     0
 90
        4
 91
        0
  1

274
    -2
284
     1
 64
     0
275
    -2
285
     1
 65
     0
276
    -2
286
     1
 66
     0
277
    -2
287
     1
 67
     0
278
    -2
288
     1
 68
     0
279
    -2
289
     1
 69
     0
  7
Standard
140
0.25
170
     5
 62
     0
 63
   257
283
     0
 90
        4
 91
        0
  1

274
    -2
284
     1
 64
     0
275
    -2
285
     1
 65
     0
276
    -2
286
     1
 66
     0
277
    -2
287
     1
 67
     0
278
    -2
288
     1
 68
     0
279
    -2
289
     1
 69
     0
  7
Standard
140
0.18
170
     5
 62
     0
 63
   257
283
     0
 90
        4
 91
        0
  1

274
    -2
284
     1
 64
     0
275
    -2
285
     1
 65
     0
276
    -2
286
     1
 66
     0
277
    -2
287
     1
 67
     0
278
    -2
288
     1
 68
     0
279
    -2
289
     1
 69
     0
  0
VISUALSTYLE
  5
2F
102
{ACAD_REACTORS
330
2A
102
}
330
2A
100
AcDbVisualStyle
  2
2dWireframe
 70
     4
177
     3
291
     0
 70
    58
 90
        0
176
     1
 90
        2
176
     1
 90
        0
176
     1
 90
        0
176
     1
 40
0.6
176
     1
 40
30.0
176
     1
 62
     7
420
 16777215
176
     1
 90
        1
176
     1
 90
        4
176
     1
 62
     7
176
     1
 62
   257
176
     1
 90
        1
176
     1
 90
        1
176
     1
 40
1.0
176
     1
 90
        0
176
     1
 62
   257
176
     1
 40
1.0
176
     1
 90
        1
176
     1
 90
        6
176
     1
 90
        2
176
     1
 62
     7
176
     1
 90
        5
176
     1
 90
        0
176
     1
 90
        0
176
     1
290
     0
176
     1
 90
        1
176
     1
 40
0.0
176
     1
 90
        0
176
     1
290
     1
176
     1
290
     1
176
     1
290
     0
176
     1
290
     0
176
     1
290
     0
176
     1
290
     0
176
     1
290
     0
176
     1
290
     0
176
     1
290
     0
176
     1
 90
       50
176
     1
 40
0.0
176
     1
 40
1.0
176
     1
 90
        0
176
     1
 62
    18
420
        0
176
     1
 90
       50
176
     1
 90
        3
176
     1
 62
     5
420
      255
176
     1
290
     0
176
     1
 90
       50
176
     1
 90
       50
176
     1
 90
       50
176
     1
290
     0
176
     1
 90
       50
176
     1
 62
   256
176
     0
 40
1.0
176
     0
 90
        2
176
     1
  1
strokes_ogs.tif
176
     1
290
     0
176
     1
 40
1.0
176
     1
 40
1.0
176
     1
  0
VISUALSTYLE
  5
32
102
{ACAD_REACTORS
330
2A
102
}
330
2A
100
AcDbVisualStyle
  2
Basic
 70
     7
177
     3
291
     1
 70
    58
 90
        1
176
     1
 90
        0
176
     1
 90
        1
176
     1
 90
        0
176
     1
 40
0.6
176
     1
 40
30.0
176
     1
 62
     7
420
 16777215
176
     1
 90
        0
176
     1
 90
        4
176
     1
 62
     7
176
     1
 62
   257
176
     1
 90
        1
176
     1
 90
        1
176
     1
 40
1.0
176
     1
 90
        8
176
     1
 62
     7
176
     1
 40
1.0
176
     1
 90
        1
176
     1
 90
        6
176
     1
 90
        2
176
     1
 62
     7
176
     1
 90
        5
176
     1
 90
        0
176
     1
 90
        0
176
     1
290
     0
176
     1
 90
        1
176
     1
 40
0.0
176
     1
 90
        0
176
     1
290
     0
176
     1
290
     1
176
     1
290
     1
176
     1
290
     0
176
     1
290
     0
176
     1
290
     0
176
     1
290
     0
176
     1
290
     0
176
     1
290
     0
176
     1
 90
       50
176
     1
 40
0.0
176
     1
 40
1.0
176
     1
 90
        0
176
     1
 62
    18
420
        0
176
     1
 90
       50
176
     1
 90
        3
176
     1
 62
     5
420
      255
176
     1
290
     0
176
     1
 90
       50
176
     1
 90
       50
176
     1
 90
       50
176
     1
290
     0
176
     1
 90
       50
176
     1
 62
   256
176
     0
 40
1.0
176
     0
 90
        2
176
     1
  1
strokes_ogs.tif
176
     1
290
     0
176
     1
 40
1.0
176
     1
 40
1.0
176
     1
  0
VISUALSTYLE
  5
36
102
{ACAD_REACTORS
330
2A
102
}
330
2A
100
AcDbVisualStyle
  2
Brighten
 70
    12
177
     3
291
     1
 70
    58
 90
        2
176
     1
 90
        2
176
     1
 90
        0
176
     1
 90
        0
176
     1
 40
0.6
176
     1
 40
30.0
176
     1
 62
     7
420
 16777215
176
     1
 90
        1
176
     1
 90
        4
176
     1
 62
     7
176
     1
 62
   257
176
     1
 90
        1
176
     1
 90
        1
176
     1
 40
1.0
176
     1
 90
        8
176
     1
 62
     7
176
     1
 40
1.0
176
     1
 90
        1
176
     1
 90
        6
176
     1
 90
        2
176
     1
 62
     7
176
     1
 90
        5
176
     1
 90
        0
176
     1
 90
        0
176
     1
290
     0
176
     1
 90
        1
176
     1
 40
50.0
176
     1
 90
        0
176
     1
290
     0
176
     1
290
     1
176
     1
290
     1
176
     1
290
     0
176
     1
290
     0
176
     1
290
     0
176
     1
290
     0
176
     1
290
     0
176
     1
290
     0
176
     1
 90
       50
176
     1
 40
0.0
176
     1
 40
1.0
176
     1
 90
        0
176
     1
 62
    18
420
        0
176
     1
 90
       50
176
     1
 90
        3
176
     1
 62
     5
420
      255
176
     1
290
     0
176
     1
 90
       50
176
     1
 90
       50
176
     1
 90
       50
176
     1
290
     0
176
     1
 90
       50
176
     1
 62
   256
176
     0
 40
1.0
176
     0
 90
        2
176
     1
  1
strokes_ogs.tif
176
     1
290
     0
176
     1
 40
1.0
176
     1
 40
1.0
176
     1
  0
VISUALSTYLE
  5
3A
102
{ACAD_REACTORS
330
2A
102
}
330
2A
100
AcDbVisualStyle
  2
ColorChange
 70
    16
177
     3
291
     1
 70
    58
 90
        2
176
     1
 90
        2
176
     1
 90
        3
176
     1
 90
        0
176
     1
 40
0.6
176
     1
 40
30.0
176
     1
 62
     8
420
  8421504
176
     1
 90
        1
176
     1
 90
        4
176
     1
 62
     7
176
     1
 62
   257
176
     1
 90
        1
176
     1
 90
        1
176
     1
 40
1.0
176
     1
 90
        8
176
     1
 62
     8
420
  8421504
176
     1
 40
1.0
176
     1
 90
        1
176
     1
 90
        6
176
     1
 90
        2
176
     1
 62
     7
176
     1
 90
        5
176
     1
 90
        0
176
     1
 90
        0
176
     1
290
     0
176
     1
 90
        1
176
     1
 40
0.0
176
     1
 90
        0
176
     1
290
     0
176
     1
290
     1
176
     1
290
     1
176
     1
290
     0
176
     1
290
     0
176
     1
290
     0
176
     1
290
     0
176
     1
290
     0
176
     1
290
     0
176
     1
 90
       50
176
     1
 40
0.0
176
     1
 40
1.0
176
     1
 90
        0
176
     1
 62
    18
420
        0
176
     1
 90
       50
176
     1
 90
        3
176
     1
 62
     5
420
      255
176
     1
290
     0
176
     1
 90
       50
176
     1
 90
       50
176
     1
 90
       50
176
     1
290
     0
176
     1
 90
       50
176
     1
 62
   256
176
     0
 40
1.0
176
     0
 90
        2
176
     1
  1
strokes_ogs.tif
176
     1
290
     0
176
     1
 40
1.0
176
     1
 40
1.0
176
     1
  0
VISUALSTYLE
  5
34
102
{ACAD_REACTORS
330
2A
102
}
330
2A
100
AcDbVisualStyle
  2
Conceptual
 70
     9
177
     3
291
     0
 70
    58
 90
        3
176
     1
 90
        2
176
     1
 90
        0
176
     1
 90
        0
176
     1
 40
0.6
176
     1
 40
30.0
176
     1
 62
     7
420
 16777215
176
     1
 90
        2
176
     1
 90
        2
176
     1
 62
     7
176
     1
 62
   257
176
     1
 90
        1
176
     1
 90
        1
176
     1
 40
179.0
176
     1
 90
        8
176
     1
 62
     7
176
     1
 40
1.0
176
     1
 90
        1
176
     1
 90
        6
176
     1
 90
        2
176
     1
 62
     7
176
     1
 90
        3
176
     1
 90
        0
176
     1
 90
        0
176
     1
290
     0
176
     1
 90
        1
176
     1
 40
0.0
176
     1
 90
        0
176
     1
290
     0
176
     1
290
     1
176
     1
290
     1
176
     1
290
     0
176
     1
290
     0
176
     1
290
     0
176
     1
290
     0
176
     1
290
     0
176
     1
290
     0
176
     1
 90
       50
176
     1
 40
0.0
176
     1
 40
1.0
176
     1
 90
        0
176
     1
 62
    18
420
        0
176
     1
 90
       50
176
     1
 90
        3
176
     1
 62
     5
420
      255
176
     1
290
     0
176
     1
 90
       50
176
     1
 90
       50
176
     1
 90
       50
176
     1
290
     0
176
     1
 90
       50
176
     1
 62
   256
176
     0
 40
1.0
176
     0
 90
        2
176
     1
  1
strokes_ogs.tif
176
     1
290
     0
176
     1
 40
1.0
176
     1
 40
1.0
176
     1
  0
VISUALSTYLE
  5
35
102
{ACAD_REACTORS
330
2A
102
}
330
2A
100
AcDbVisualStyle
  2
Dim
 70
    11
177
     3
291
     1
 70
    58
 90
        2
176
     1
 90
        2
176
     1
 90
        0
176
     1
 90
        0
176
     1
 40
0.6
176
     1
 40
30.0
176
     1
 62
     7
420
 16777215
176
     1
 90
        1
176
     1
 90
        4
176
     1
 62
     7
176
     1
 62
   257
176
     1
 90
        1
176
     1
 90
        1
176
     1
 40
1.0
176
     1
 90
        8
176
     1
 62
     7
176
     1
 40
1.0
176
     1
 90
        1
176
     1
 90
        6
176
     1
 90
        2
176
     1
 62
     7
176
     1
 90
        5
176
     1
 90
        0
176
     1
 90
        0
176
     1
290
     0
176
     1
 90
        1
176
     1
 40
-50.0
176
     1
 90
        0
176
     1
290
     0
176
     1
290
     1
176
     1
290
     1
176
     1
290
     0
176
     1
290
     0
176
     1
290
     0
176
     1
290
     0
176
     1
290
     0
176
     1
290
     0
176
     1
 90
       50
176
     1
 40
0.0
176
     1
 40
1.0
176
     1
 90
        0
176
     1
 62
    18
420
        0
176
     1
 90
       50
176
     1
 90
        3
176
     1
 62
     5
420
      255
176
     1
290
     0
176
     1
 90
       50
176
     1
 90
       50
176
     1
 90
       50
176
     1
290
     0
176
     1
 90
       50
176
     1
 62
   256
176
     0
 40
1.0
176
     0
 90
        2
176
     1
  1
strokes_ogs.tif
176
     1
290
     0
176
     1
 40
1.0
176
     1
 40
1.0
176
     1
  0
VISUALSTYLE
  5
3D
102
{ACAD_REACTORS
330
2A
102
}
330
2A
100
AcDbVisualStyle
  2
EdgeColorOff
 70
    22
177
     3
291
     1
 70
    58
 90
        2
176
     0
 90
        2
176
     0
 90
        0
176
     0
 90
        0
176
     0
 40
0.6
176
     0
 40
30.0
176
     0
 62
     7
420
 16777215
176
     0
 90
        1
176
     0
 90
        4
176
     0
 62
     7
176
     0
 62
   257
176
     0
 90
        1
176
     0
 90
        1
176
     0
 40
1.0
176
     0
 90
        8
176
     2
 62
     7
176
     0
 40
1.0
176
     0
 90
        1
176
     0
 90
        6
176
     0
 90
        2
176
     0
 62
     7
176
     0
 90
        5
176
     0
 90
        0
176
     0
 90
        0
176
     0
290
     0
176
     0
 90
        1
176
     0
 40
0.0
176
     0
 90
        0
176
     0
290
     0
176
     0
290
     1
176
     0
290
     1
176
     0
290
     0
176
     0
290
     0
176
     0
290
     0
176
     0
290
     0
176
     0
290
     0
176
     0
290
     0
176
     0
 90
       50
176
     0
 40
0.0
176
     0
 40
1.0
176
     0
 90
        0
176
     0
 62
    18
420
        0
176
     0
 90
       50
176
     0
 90
        3
176
     0
 62
     5
420
      255
176
     0
290
     0
176
     0
 90
       50
176
     0
 90
       50
176
     0
 90
       50
176
     0
290
     0
176
     0
 90
       50
176
     0
 62
   256
176
     0
 40
1.0
176
     0
 90
        2
176
     0
  1
strokes_ogs.tif
176
     0
290
     0
176
     0
 40
1.0
176
     0
 40
1.0
176
     0
  0
VISUALSTYLE
  5
39
102
{ACAD_REACTORS
330
2A
102
}
330
2A
100
AcDbVisualStyle
  2
Facepattern
 70
    15
177
     3
291
     1
 70
    58
 90
        2
176
     1
 90
        2
176
     1
 90
        0
176
     1
 90
        0
176
     1
 40
0.6
176
     1
 40
30.0
176
     1
 62
     7
420
 16777215
176
     1
 90
        1
176
     1
 90
        4
176
     1
 62
     7
176
     1
 62
   257
176
     1
 90
        1
176
     1
 90
        1
176
     1
 40
1.0
176
     1
 90
        8
176
     1
 62
     7
176
     1
 40
1.0
176
     1
 90
        1
176
     1
 90
        6
176
     1
 90
        2
176
     1
 62
     7
176
     1
 90
        5
176
     1
 90
        0
176
     1
 90
        0
176
     1
290
     0
176
     1
 90
        1
176
     1
 40
0.0
176
     1
 90
        0
176
     1
290
     0
176
     1
290
     1
176
     1
290
     1
176
     1
290
     0
176
     1
290
     0
176
     1
290
     0
176
     1
290
     0
176
     1
290
     0
176
     1
290
     0
176
     1
 90
       50
176
     1
 40
0.0
176
     1
 40
1.0
176
     1
 90
        0
176
     1
 62
    18
420
        0
176
     1
 90
       50
176
     1
 90
        3
176
     1
 62
     5
420
      255
176
     1
290
     0
176
     1
 90
       50
176
     1
 90
       50
176
     1
 90
       50
176
     1
290
     0
176
     1
 90
       50
176
     1
 62
   256
176
     0
 40
1.0
176
     0
 90
        2
176
     1
  1
strokes_ogs.tif
176
     1
290
     0
176
     1
 40
1.0
176
     1
 40
1.0
176
     1
  0
VISUALSTYLE
  5
2B
102
{ACAD_REACTORS
330
2A
102
}
330
2A
100
AcDbVisualStyle
  2
Flat
 70
     0
177
     3
291
     1
 70
    58
 90
        2
176
     1
 90
        1
176
     1
 90
        1
176
     1
 90
        2
176
     1
 40
0.6
176
     1
 40
30.0
176
     1
 62
     7
420
 16777215
176
     1
 90
        0
176
     1
 90
        0
176
     1
 62
     7
176
     1
 62
   257
176
     1
 90
        1
176
     1
 90
        1
176
     1
 40
1.0
176
     1
 90
        8
176
     1
 62
     7
176
     1
 40
1.0
176
     1
 90
        1
176
     1
 90
        6
176
     1
 90
        2
176
     1
 62
     7
176
     1
 90
        5
176
     1
 90
        0
176
     1
 90
        0
176
     1
290
     0
176
     1
 90
       13
176
     1
 40
0.0
176
     1
 90
        0
176
     1
290
     0
176
     1
290
     1
176
     1
290
     1
176
     1
290
     0
176
     1
290
     0
176
     1
290
     0
176
     1
290
     0
176
     1
290
     0
176
     1
290
     0
176
     1
 90
       50
176
     1
 40
0.0
176
     1
 40
1.0
176
     1
 90
        0
176
     1
 62
    18
420
        0
176
     1
 90
       50
176
     1
 90
        3
176
     1
 62
     5
420
      255
176
     1
290
     0
176
     1
 90
       50
176
     1
 90
       50
176
     1
 90
       50
176
     1
290
     0
176
     1
 90
       50
176
     1
 62
   256
176
     0
 40
1.0
176
     0
 90
        2
176
     1
  1
strokes_ogs.tif
176
     1
290
     0
176
     1
 40
1.0
176
     1
 40
1.0
176
     1
  0
VISUALSTYLE
  5
2C
102
{ACAD_REACTORS
330
2A
102
}
330
2A
100
AcDbVisualStyle
  2
FlatWithEdges
 70
     1
177
     3
291
     1
 70
    58
 90
        2
176
     1
 90
        1
176
     1
 90
        1
176
     1
 90
        2
176
     1
 40
0.6
176
     1
 40
30.0
176
     1
 62
     7
420
 16777215
176
     1
 90
        1
176
     1
 90
        0
176
     1
 62
     7
176
     1
 62
   257
176
     1
 90
        1
176
     1
 90
        1
176
     1
 40
1.0
176
     1
 90
        0
176
     1
 62
   257
176
     1
 40
1.0
176
     1
 90
        1
176
     1
 90
        6
176
     1
 90
        2
176
     1
 62
     7
176
     1
 90
        5
176
     1
 90
        0
176
     1
 90
        0
176
     1
290
     0
176
     1
 90
       13
176
     1
 40
0.0
176
     1
 90
        0
176
     1
290
     0
176
     1
290
     1
176
     1
290
     1
176
     1
290
     0
176
     1
290
     0
176
     1
290
     0
176
     1
290
     0
176
     1
290
     0
176
     1
290
     0
176
     1
 90
       50
176
     1
 40
0.0
176
     1
 40
1.0
176
     1
 90
        0
176
     1
 62
    18
420
        0
176
     1
 90
       50
176
     1
 90
        3
176
     1
 62
     5
420
      255
176
     1
290
     0
176
     1
 90
       50
176
     1
 90
       50
176
     1
 90
       50
176
     1
290
     0
176
     1
 90
       50
176
     1
 62
   256
176
     0
 40
1.0
176
     0
 90
        2
176
     1
  1
strokes_ogs.tif
176
     1
290
     0
176
     1
 40
1.0
176
     1
 40
1.0
176
     1
  0
VISUALSTYLE
  5
2D
102
{ACAD_REACTORS
330
2A
102
}
330
2A
100
AcDbVisualStyle
  2
Gouraud
 70
     2
177
     3
291
     1
 70
    58
 90
        2
176
     1
 90
        2
176
     1
 90
        1
176
     1
 90
        2
176
     1
 40
0.6
176
     1
 40
30.0
176
     1
 62
     7
420
 16777215
176
     1
 90
        0
176
     1
 90
        0
176
     1
 62
     7
176
     1
 62
   257
176
     1
 90
        1
176
     1
 90
        1
176
     1
 40
1.0
176
     1
 90
        0
176
     1
 62
     7
176
     1
 40
1.0
176
     1
 90
        1
176
     1
 90
        6
176
     1
 90
        2
176
     1
 62
     7
176
     1
 90
        5
176
     1
 90
        0
176
     1
 90
        0
176
     1
290
     0
176
     1
 90
       13
176
     1
 40
0.0
176
     1
 90
        0
176
     1
290
     0
176
     1
290
     1
176
     1
290
     1
176
     1
290
     0
176
     1
290
     0
176
     1
290
     0
176
     1
290
     0
176
     1
290
     0
176
     1
290
     0
176
     1
 90
       50
176
     1
 40
0.0
176
     1
 40
1.0
176
     1
 90
        0
176
     1
 62
    18
420
        0
176
     1
 90
       50
176
     1
 90
        3
176
     1
 62
     5
420
      255
176
     1
290
     0
176
     1
 90
       50
176
     1
 90
       50
176
     1
 90
       50
176
     1
290
     0
176
     1
 90
       50
176
     1
 62
   256
176
     0
 40
1.0
176
     0
 90
        2
176
     1
  1
strokes_ogs.tif
176
     1
290
     0
176
     1
 40
1.0
176
     1
 40
1.0
176
     1
  0
VISUALSTYLE
  5
2E
102
{ACAD_REACTORS
330
2A
102
}
330
2A
100
AcDbVisualStyle
  2
GouraudWithEdges
 70
     3
177
     3
291
     1
 70
    58
 90
        2
176
     1
 90
        2
176
     1
 90
        1
176
     1
 90
        2
176
     1
 40
0.6
176
     1
 40
30.0
176
     1
 62
     7
420
 16777215
176
     1
 90
        1
176
     1
 90
        0
176
     1
 62
     7
176
     1
 62
   257
176
     1
 90
        1
176
     1
 90
        1
176
     1
 40
1.0
176
     1
 90
        0
176
     1
 62
   257
176
     1
 40
1.0
176
     1
 90
        1
176
     1
 90
        6
176
     1
 90
        2
176
     1
 62
     7
176
     1
 90
        5
176
     1
 90
        0
176
     1
 90
        0
176
     1
290
     0
176
     1
 90
       13
176
     1
 40
0.0
176
     1
 90
        0
176
     1
290
     0
176
     1
290
     1
176
     1
290
     1
176
     1
290
     0
176
     1
290
     0
176
     1
290
     0
176
     1
290
     0
176
     1
290
     0
176
     1
290
     0
176
     1
 90
       50
176
     1
 40
0.0
176
     1
 40
1.0
176
     1
 90
        0
176
     1
 62
    18
420
        0
176
     1
 90
       50
176
     1
 90
        3
176
     1
 62
     5
420
      255
176
     1
290
     0
176
     1
 90
       50
176
     1
 90
       50
176
     1
 90
       50
176
     1
290
     0
176
     1
 90
       50
176
     1
 62
   256
176
     0
 40
1.0
176
     0
 90
        2
176
     1
  1
strokes_ogs.tif
176
     1
290
     0
176
     1
 40
1.0
176
     1
 40
1.0
176
     1
  0
VISUALSTYLE
  5
31
102
{ACAD_REACTORS
330
2A
102
}
330
2A
100
AcDbVisualStyle
  2
Hidden
 70
     6
177
     3
291
     0
 70
    58
 90
        1
176
     1
 90
        2
176
     1
 90
        2
176
     1
 90
        0
176
     1
 40
0.6
176
     1
 40
30.0
176
     1
 62
     7
420
 16777215
176
     1
 90
        2
176
     1
 90
        2
176
     1
 62
     7
176
     1
 62
   257
176
     1
 90
        2
176
     1
 90
        1
176
     1
 40
40.0
176
     1
 90
        0
176
     1
 62
   257
176
     1
 40
1.0
176
     1
 90
        1
176
     1
 90
        6
176
     1
 90
        2
176
     1
 62
     7
176
     1
 90
        3
176
     1
 90
        0
176
     1
 90
        0
176
     1
290
     0
176
     1
 90
        1
176
     1
 40
0.0
176
     1
 90
        0
176
     1
290
     0
176
     1
290
     1
176
     1
290
     1
176
     1
290
     0
176
     1
290
     0
176
     1
290
     0
176
     1
290
     0
176
     1
290
     0
176
     1
290
     0
176
     1
 90
       50
176
     1
 40
0.0
176
     1
 40
1.0
176
     1
 90
        0
176
     1
 62
    18
420
        0
176
     1
 90
       50
176
     1
 90
        3
176
     1
 62
     5
420
      255
176
     1
290
     0
176
     1
 90
       50
176
     1
 90
       50
176
     1
 90
       50
176
     1
290
     0
176
     1
 90
       50
176
     1
 62
   256
176
     0
 40
1.0
176
     0
 90
        2
176
     1
  1
strokes_ogs.tif
176
     1
290
     0
176
     1
 40
1.0
176
     1
 40
1.0
176
     1
  0
VISUALSTYLE
  5
3B
102
{ACAD_REACTORS
330
2A
102
}
330
2A
100
AcDbVisualStyle
  2
JitterOff
 70
    20
177
     3
291
     1
 70
    58
 90
        2
176
     0
 90
        2
176
     0
 90
        0
176
     0
 90
        0
176
     0
 40
0.6
176
     0
 40
30.0
176
     0
 62
     7
420
 16777215
176
     0
 90
        1
176
     0
 90
        4
176
     0
 62
     7
176
     0
 62
   257
176
     0
 90
        1
176
     0
 90
        1
176
     0
 40
1.0
176
     0
 90
       10
176
     2
 62
     7
176
     0
 40
1.0
176
     0
 90
        1
176
     0
 90
        6
176
     0
 90
        2
176
     0
 62
     7
176
     0
 90
        5
176
     0
 90
        0
176
     0
 90
        0
176
     0
290
     0
176
     0
 90
        1
176
     0
 40
0.0
176
     0
 90
        0
176
     0
290
     0
176
     0
290
     1
176
     0
290
     1
176
     0
290
     0
176
     0
290
     0
176
     0
290
     0
176
     0
290
     0
176
     0
290
     0
176
     0
290
     0
176
     0
 90
       50
176
     0
 40
0.0
176
     0
 40
1.0
176
     0
 90
        0
176
     0
 62
    18
420
        0
176
     0
 90
       50
176
     0
 90
        3
176
     0
 62
     5
420
      255
176
     0
290
     0
176
     0
 90
       50
176
     0
 90
       50
176
     0
 90
       50
176
     0
290
     0
176
     0
 90
       50
176
     0
 62
   256
176
     0
 40
1.0
176
     0
 90
        2
176
     0
  1
strokes_ogs.tif
176
     0
290
     0
176
     0
 40
1.0
176
     0
 40
1.0
176
     0
  0
VISUALSTYLE
  5
38
102
{ACAD_REACTORS
330
2A
102
}
330
2A
100
AcDbVisualStyle
  2
Linepattern
 70
    14
177
     3
291
     1
 70
    58
 90
        2
176
     1
 90
        2
176
     1
 90
        0
176
     1
 90
        0
176
     1
 40
0.6
176
     1
 40
30.0
176
     1
 62
     7
420
 16777215
176
     1
 90
        1
176
     1
 90
        4
176
     1
 62
     7
176
     1
 62
   257
176
     1
 90
        7
176
     1
 90
        7
176
     1
 40
1.0
176
     1
 90
        8
176
     1
 62
     7
176
     1
 40
1.0
176
     1
 90
        1
176
     1
 90
        6
176
     1
 90
        2
176
     1
 62
     7
176
     1
 90
        5
176
     1
 90
        0
176
     1
 90
        0
176
     1
290
     0
176
     1
 90
        1
176
     1
 40
0.0
176
     1
 90
        0
176
     1
290
     0
176
     1
290
     1
176
     1
290
     1
176
     1
290
     0
176
     1
290
     0
176
     1
290
     0
176
     1
290
     0
176
     1
290
     0
176
     1
290
     0
176
     1
 90
       50
176
     1
 40
0.0
176
     1
 40
1.0
176
     1
 90
        0
176
     1
 62
    18
420
        0
176
     1
 90
       50
176
     1
 90
        3
176
     1
 62
     5
420
      255
176
     1
290
     0
176
     1
 90
       50
176
     1
 90
       50
176
     1
 90
       50
176
     1
290
     0
176
     1
 90
       50
176
     1
 62
   256
176
     0
 40
1.0
176
     0
 90
        2
176
     1
  1
strokes_ogs.tif
176
     1
290
     0
176
     1
 40
1.0
176
     1
 40
1.0
176
     1
  0
VISUALSTYLE
  5
3C
102
{ACAD_REACTORS
330
2A
102
}
330
2A
100
AcDbVisualStyle
  2
OverhangOff
 70
    21
177
     3
291
     1
 70
    58
 90
        2
176
     0
 90
        2
176
     0
 90
        0
176
     0
 90
        0
176
     0
 40
0.6
176
     0
 40
30.0
176
     0
 62
     7
420
 16777215
176
     0
 90
        1
176
     0
 90
        4
176
     0
 62
     7
176
     0
 62
   257
176
     0
 90
        1
176
     0
 90
        1
176
     0
 40
1.0
176
     0
 90
        9
176
     2
 62
     7
176
     0
 40
1.0
176
     0
 90
        1
176
     0
 90
        6
176
     0
 90
        2
176
     0
 62
     7
176
     0
 90
        5
176
     0
 90
        0
176
     0
 90
        0
176
     0
290
     0
176
     0
 90
        1
176
     0
 40
0.0
176
     0
 90
        0
176
     0
290
     0
176
     0
290
     1
176
     0
290
     1
176
     0
290
     0
176
     0
290
     0
176
     0
290
     0
176
     0
290
     0
176
     0
290
     0
176
     0
290
     0
176
     0
 90
       50
176
     0
 40
0.0
176
     0
 40
1.0
176
     0
 90
        0
176
     0
 62
    18
420
        0
176
     0
 90
       50
176
     0
 90
        3
176
     0
 62
     5
420
      255
176
     0
290
     0
176
     0
 90
       50
176
     0
 90
       50
176
     0
 90
       50
176
     0
290
     0
176
     0
 90
       50
176
     0
 62
   256
176
     0
 40
1.0
176
     0
 90
        2
176
     0
  1
strokes_ogs.tif
176
     0
290
     0
176
     0
 40
1.0
176
     0
 40
1.0
176
     0
  0
VISUALSTYLE
  5
33
102
{ACAD_REACTORS
330
2A
102
}
330
2A
100
AcDbVisualStyle
  2
Realistic
 70
     8
177
     3
291
     0
 70
    58
 90
        2
176
     1
 90
        3
176
     1
 90
        0
176
     1
 90
        2
176
     1
 40
0.6
176
     1
 40
30.0
176
     1
 62
     7
420
 16777215
176
     1
 90
        0
176
     1
 90
        0
176
     1
 62
     7
176
     1
 62
   257
176
     1
 90
        1
176
     1
 90
        1
176
     1
 40
1.0
176
     1
 90
        8
176
     1
 62
   257
176
     1
 40
1.0
176
     1
 90
        1
176
     1
 90
        6
176
     1
 90
        2
176
     1
 62
     7
176
     1
 90
        3
176
     1
 90
        0
176
     1
 90
        0
176
     1
290
     0
176
     1
 90
       13
176
     1
 40
0.0
176
     1
 90
        0
176
     1
290
     0
176
     1
290
     1
176
     1
290
     1
176
     1
290
     0
176
     1
290
     0
176
     1
290
     0
176
     1
290
     0
176
     1
290
     0
176
     1
290
     0
176
     1
 90
       50
176
     1
 40
0.0
176
     1
 40
1.0
176
     1
 90
        0
176
     1
 62
    18
420
        0
176
     1
 90
       50
176
     1
 90
        3
176
     1
 62
     5
420
      255
176
     1
290
     0
176
     1
 90
       50
176
     1
 90
       50
176
     1
 90
       50
176
     1
290
     0
176
     1
 90
       50
176
     1
 62
   256
176
     0
 40
1.0
176
     0
 90
        2
176
     1
  1
strokes_ogs.tif
176
     1
290
     0
176
     1
 40
1.0
176
     1
 40
1.0
176
     1
  0
VISUALSTYLE
  5
42
102
{ACAD_REACTORS
330
2A
102
}
330
2A
100
AcDbVisualStyle
  2
Shaded
 70
    27
177
     3
291
     0
 70
    58
 90
        2
176
     1
 90
        2
176
     1
 90
        1
176
     1
 90
        2
176
     1
 40
0.6
176
     1
 40
30.0
176
     1
 62
     7
420
 16777215
176
     1
 90
        0
176
     1
 90
        4
176
     1
 62
     7
176
     1
 62
   257
176
     1
 90
        1
176
     1
 90
        1
176
     1
 40
1.0
176
     1
 90
        8
176
     1
 62
   257
176
     1
 40
1.0
176
     1
 90
        1
176
     1
 90
        6
176
     1
 90
        2
176
     1
 62
     8
420
  7895160
176
     1
 90
        3
176
     1
 90
        0
176
     1
 90
        0
176
     1
290
     0
176
     1
 90
        5
176
     1
 40
0.0
176
     1
 90
        0
176
     1
290
     0
176
     1
290
     1
176
     1
290
     1
176
     1
290
     0
176
     1
290
     0
176
     1
290
     0
176
     1
290
     0
176
     1
290
     0
176
     1
290
     0
176
     1
 90
       50
176
     1
 40
0.0
176
     1
 40
1.0
176
     1
 90
        0
176
     1
 62
    18
420
        0
176
     1
 90
       50
176
     1
 90
        3
176
     1
 62
     5
420
      255
176
     1
290
     0
176
     1
 90
       50
176
     1
 90
       50
176
     1
 90
       50
176
     1
290
     0
176
     1
 90
       50
176
     1
 62
   256
176
     0
 40
1.0
176
     0
 90
        2
176
     1
  1
strokes_ogs.tif
176
     1
290
     0
176
     1
 40
1.0
176
     1
 40
1.0
176
     1
  0
VISUALSTYLE
  5
41
102
{ACAD_REACTORS
330
2A
102
}
330
2A
100
AcDbVisualStyle
  2
Shaded with edges
 70
    26
177
     3
291
     0
 70
    58
 90
        2
176
     1
 90
        2
176
     1
 90
        1
176
     1
 90
        2
176
     1
 40
0.6
176
     1
 40
30.0
176
     1
 62
     7
420
 16777215
176
     1
 90
        1
176
     1
 90
       10
176
     1
 62
     7
176
     1
 62
   257
176
     1
 90
        2
176
     1
 90
        1
176
     1
 40
1.0
176
     1
 90
        8
176
     1
 62
   257
176
     1
 40
1.0
176
     1
 90
        1
176
     1
 90
        6
176
     1
 90
        2
176
     1
 62
     7
176
     1
 90
        3
176
     1
 90
        0
176
     1
 90
        0
176
     1
290
     0
176
     1
 90
        5
176
     1
 40
0.0
176
     1
 90
        0
176
     1
290
     0
176
     1
290
     1
176
     1
290
     1
176
     1
290
     0
176
     1
290
     0
176
     1
290
     0
176
     1
290
     0
176
     1
290
     0
176
     1
290
     0
176
     1
 90
       50
176
     1
 40
0.0
176
     1
 40
1.0
176
     1
 90
        0
176
     1
 62
    18
420
        0
176
     1
 90
       50
176
     1
 90
        3
176
     1
 62
     5
420
      255
176
     1
290
     0
176
     1
 90
       50
176
     1
 90
       50
176
     1
 90
       50
176
     1
290
     0
176
     1
 90
       50
176
     1
 62
   256
176
     0
 40
1.0
176
     0
 90
        2
176
     1
  1
strokes_ogs.tif
176
     1
290
     0
176
     1
 40
1.0
176
     1
 40
1.0
176
     1
  0
VISUALSTYLE
  5
3E
102
{ACAD_REACTORS
330
2A
102
}
330
2A
100
AcDbVisualStyle
  2
Shades of Gray
 70
    23
177
     3
291
     0
 70
    58
 90
        2
176
     1
 90
        2
176
     1
 90
        3
176
     1
 90
        0
176
     1
 40
0.6
176
     1
 40
30.0
176
     1
 62
     7
420
 16777215
176
     1
 90
        2
176
     1
 90
        2
176
     1
 62
     7
176
     1
 62
     7
176
     1
 90
        1
176
     1
 90
        1
176
     1
 40
40.0
176
     1
 90
        8
176
     1
 62
     7
176
     1
 40
1.0
176
     1
 90
        1
176
     1
 90
        6
176
     1
 90
        2
176
     1
 62
     7
176
     1
 90
        3
176
     1
 90
        0
176
     1
 90
        0
176
     1
290
     0
176
     1
 90
        1
176
     1
 40
0.0
176
     1
 90
        0
176
     1
290
     0
176
     1
290
     1
176
     1
290
     1
176
     1
290
     0
176
     1
290
     0
176
     1
290
     0
176
     1
290
     0
176
     1
290
     0
176
     1
290
     0
176
     1
 90
       50
176
     1
 40
0.0
176
     1
 40
1.0
176
     1
 90
        0
176
     1
 62
    18
420
        0
176
     1
 90
       50
176
     1
 90
        3
176
     1
 62
     5
420
      255
176
     1
290
     0
176
     1
 90
       50
176
     1
 90
       50
176
     1
 90
       50
176
     1
290
     0
176
     1
 90
       50
176
     1
 62
   256
176
     0
 40
1.0
176
     0
 90
        2
176
     1
  1
strokes_ogs.tif
176
     1
290
     0
176
     1
 40
1.0
176
     1
 40
1.0
176
     1
  0
VISUALSTYLE
  5
3F
102
{ACAD_REACTORS
330
2A
102
}
330
2A
100
AcDbVisualStyle
  2
Sketchy
 70
    24
177
     3
291
     0
 70
    58
 90
        1
176
     1
 90
        2
176
     1
 90
        2
176
     1
 90
        0
176
     1
 40
0.6
176
     1
 40
30.0
176
     1
 62
     7
420
 16777215
176
     1
 90
        2
176
     1
 90
        2
176
     1
 62
     7
176
     1
 62
     7
176
     1
 90
        1
176
     1
 90
        1
176
     1
 40
40.0
176
     1
 90
       11
176
     1
 62
     7
176
     1
 40
1.0
176
     1
 90
        1
176
     1
 90
        6
176
     1
 90
        2
176
     1
 62
     7
176
     1
 90
        6
176
     1
 90
        0
176
     1
 90
        0
176
     1
290
     0
176
     1
 90
        1
176
     1
 40
0.0
176
     1
 90
        0
176
     1
290
     0
176
     1
290
     1
176
     1
290
     1
176
     1
290
     0
176
     1
290
     0
176
     1
290
     0
176
     1
290
     0
176
     1
290
     0
176
     1
290
     0
176
     1
 90
       50
176
     1
 40
0.0
176
     1
 40
1.0
176
     1
 90
        0
176
     1
 62
    18
420
        0
176
     1
 90
       50
176
     1
 90
        3
176
     1
 62
     5
420
      255
176
     1
290
     0
176
     1
 90
       50
176
     1
 90
       50
176
     1
 90
       50
176
     1
290
     0
176
     1
 90
       50
176
     1
 62
   256
176
     0
 40
1.0
176
     0
 90
        2
176
     1
  1
strokes_ogs.tif
176
     1
290
     0
176
     1
 40
1.0
176
     1
 40
1.0
176
     1
  0
VISUALSTYLE
  5
37
102
{ACAD_REACTORS
330
2A
102
}
330
2A
100
AcDbVisualStyle
  2
Thicken
 70
    13
177
     3
291
     1
 70
    58
 90
        2
176
     1
 90
        2
176
     1
 90
        0
176
     1
 90
        0
176
     1
 40
0.6
176
     1
 40
30.0
176
     1
 62
     7
420
 16777215
176
     1
 90
        1
176
     1
 90
        4
176
     1
 62
     7
176
     1
 62
   257
176
     1
 90
        1
176
     1
 90
        1
176
     1
 40
1.0
176
     1
 90
       12
176
     1
 62
     7
176
     1
 40
1.0
176
     1
 90
        1
176
     1
 90
        6
176
     1
 90
        2
176
     1
 62
     7
176
     1
 90
        5
176
     1
 90
        0
176
     1
 90
        0
176
     1
290
     0
176
     1
 90
        1
176
     1
 40
0.0
176
     1
 90
        0
176
     1
290
     0
176
     1
290
     1
176
     1
290
     1
176
     1
290
     0
176
     1
290
     0
176
     1
290
     0
176
     1
290
     0
176
     1
290
     0
176
     1
290
     0
176
     1
 90
       50
176
     1
 40
0.0
176
     1
 40
1.0
176
     1
 90
        0
176
     1
 62
    18
420
        0
176
     1
 90
       50
176
     1
 90
        3
176
     1
 62
     5
420
      255
176
     1
290
     0
176
     1
 90
       50
176
     1
 90
       50
176
     1
 90
       50
176
     1
290
     0
176
     1
 90
       50
176
     1
 62
   256
176
     0
 40
1.0
176
     0
 90
        2
176
     1
  1
strokes_ogs.tif
176
     1
290
     0
176
     1
 40
1.0
176
     1
 40
1.0
176
     1
  0
VISUALSTYLE
  5
30
102
{ACAD_REACTORS
330
2A
102
}
330
2A
100
AcDbVisualStyle
  2
Wireframe
 70
     5
177
     3
291
     0
 70
    58
 90
        0
176
     1
 90
        2
176
     1
 90
        0
176
     1
 90
        0
176
     1
 40
0.6
176
     1
 40
30.0
176
     1
 62
     7
420
 16777215
176
     1
 90
        1
176
     1
 90
        4
176
     1
 62
     7
176
     1
 62
   257
176
     1
 90
        1
176
     1
 90
        1
176
     1
 40
1.0
176
     1
 90
        0
176
     1
 62
   257
176
     1
 40
1.0
176
     1
 90
        1
176
     1
 90
        6
176
     1
 90
        2
176
     1
 62
     7
176
     1
 90
        3
176
     1
 90
        0
176
     1
 90
        0
176
     1
290
     0
176
     1
 90
        1
176
     1
 40
0.0
176
     1
 90
        0
176
     1
290
     0
176
     1
290
     1
176
     1
290
     1
176
     1
290
     0
176
     1
290
     0
176
     1
290
     0
176
     1
290
     0
176
     1
290
     0
176
     1
290
     0
176
     1
 90
       50
176
     1
 40
0.0
176
     1
 40
1.0
176
     1
 90
        0
176
     1
 62
    18
420
        0
176
     1
 90
       50
176
     1
 90
        3
176
     1
 62
     5
420
      255
176
     1
290
     0
176
     1
 90
       50
176
     1
 90
       50
176
     1
 90
       50
176
     1
290
     0
176
     1
 90
       50
176
     1
 62
   256
176
     0
 40
1.0
176
     0
 90
        2
176
     1
  1
strokes_ogs.tif
176
     1
290
     0
176
     1
 40
1.0
176
     1
 40
1.0
176
     1
  0
VISUALSTYLE
  5
40
102
{ACAD_REACTORS
330
2A
102
}
330
2A
100
AcDbVisualStyle
  2
X-Ray
 70
    25
177
     3
291
     0
 70
    58
 90
        2
176
     1
 90
        2
176
     1
 90
        1
176
     1
 90
        1
176
     1
 40
0.5
176
     1
 40
30.0
176
     1
 62
     7
420
 16777215
176
     1
 90
        1
176
     1
 90
        0
176
     1
 62
     7
176
     1
 62
   257
176
     1
 90
        1
176
     1
 90
        1
176
     1
 40
1.0
176
     1
 90
        8
176
     1
 62
     7
176
     1
 40
1.0
176
     1
 90
        1
176
     1
 90
        6
176
     1
 90
        2
176
     1
 62
     7
176
     1
 90
        3
176
     1
 90
        0
176
     1
 90
        0
176
     1
290
     0
176
     1
 90
       13
176
     1
 40
0.0
176
     1
 90
        0
176
     1
290
     0
176
     1
290
     1
176
     1
290
     1
176
     1
290
     0
176
     1
290
     0
176
     1
290
     0
176
     1
290
     0
176
     1
290
     0
176
     1
290
     0
176
     1
 90
       50
176
     1
 40
0.0
176
     1
 40
1.0
176
     1
 90
        0
176
     1
 62
    18
420
        0
176
     1
 90
       50
176
     1
 90
        3
176
     1
 62
     5
420
      255
176
     1
290
     0
176
     1
 90
       50
176
     1
 90
       50
176
     1
 90
       50
176
     1
290
     0
176
     1
 90
       50
176
     1
 62
   256
176
     0
 40
1.0
176
     0
 90
        2
176
     1
  1
strokes_ogs.tif
176
     1
290
     0
176
     1
 40
1.0
176
     1
 40
1.0
176
     1
  0
DICTIONARYVAR
  5
1E4
102
{ACAD_REACTORS
330
1E3
102
}
330
1E3
100
DictionaryVariables
280
     0
  1
1:1
  0
DICTIONARYVAR
  5
1E9
102
{ACAD_REACTORS
330
1E3
102
}
330
1E3
100
DictionaryVariables
280
     0
  1
Standard
  0
DICTIONARYVAR
  5
1E8
102
{ACAD_REACTORS
330
1E3
102
}
330
1E3
100
DictionaryVariables
280
     0
  1
Standard
  0
DICTIONARY
  5
1E5
330
6A
100
AcDbDictionary
280
     1
281
     1
  3
ACAD_ROUNDTRIP_2008_TABLESTYLE_CELLSTYLEMAP
360
1E6
  0
CELLSTYLEMAP
  5
1E6
102
{ACAD_REACTORS
330
1E5
102
}
330
1E5
100
AcDbCellStyleMap
 90
        3
300
CELLSTYLE
  1
TABLEFORMAT_BEGIN
 90
        5
170
     1
 91
        0
 92
    32768
 62
   257
 93
        1
300
CONTENTFORMAT
  1
CONTENTFORMAT_BEGIN
 90
        0
 91
        0
 92
        4
 93
        0
300

 40
0.0
140
1.0
 94
        5
 62
     0
340
11
144
0.25
309
CONTENTFORMAT_END
171
     1
301
MARGIN
  1
CELLMARGIN_BEGIN
 40
0.06
 40
0.06
 40
0.06
 40
0.06
 40
0.06
 40
0.06
309
CELLMARGIN_END
 94
        6
 95
        1
302
GRIDFORMAT
  1
GRIDFORMAT_BEGIN
 90
        0
 91
        1
 62
     0
 92
       -2
340
14
 93
        0
 40
0.045
309
GRIDFORMAT_END
 95
        2
302
GRIDFORMAT
  1
GRIDFORMAT_BEGIN
 90
        0
 91
        1
 62
     0
 92
       -2
340
14
 93
        0
 40
0.045
309
GRIDFORMAT_END
 95
        4
302
GRIDFORMAT
  1
GRIDFORMAT_BEGIN
 90
        0
 91
        1
 62
     0
 92
       -2
340
14
 93
        0
 40
0.045
309
GRIDFORMAT_END
 95
        8
302
GRIDFORMAT
  1
GRIDFORMAT_BEGIN
 90
        0
 91
        1
 62
     0
 92
       -2
340
14
 93
        0
 40
0.045
309
GRIDFORMAT_END
 95
       16
302
GRIDFORMAT
  1
GRIDFORMAT_BEGIN
 90
        0
 91
        1
 62
     0
 92
       -2
340
14
 93
        0
 40
0.045
309
GRIDFORMAT_END
 95
       32
302
GRIDFORMAT
  1
GRIDFORMAT_BEGIN
 90
        0
 91
        1
 62
     0
 92
       -2
340
14
 93
        0
 40
0.045
309
GRIDFORMAT_END
309
TABLEFORMAT_END
  1
CELLSTYLE_BEGIN
 90
        1
 91
        1
300
_TITLE
309
CELLSTYLE_END
300
CELLSTYLE
  1
TABLEFORMAT_BEGIN
 90
        5
170
     1
 91
        0
 92
        0
 62
   257
 93
        1
300
CONTENTFORMAT
  1
CONTENTFORMAT_BEGIN
 90
        0
 91
        0
 92
        4
 93
        0
300

 40
0.0
140
1.0
 94
        5
 62
     0
340
11
144
0.18
309
CONTENTFORMAT_END
171
     1
301
MARGIN
  1
CELLMARGIN_BEGIN
 40
0.06
 40
0.06
 40
0.06
 40
0.06
 40
0.06
 40
0.06
309
CELLMARGIN_END
 94
        6
 95
        1
302
GRIDFORMAT
  1
GRIDFORMAT_BEGIN
 90
        0
 91
        1
 62
     0
 92
       -2
340
14
 93
        0
 40
0.045
309
GRIDFORMAT_END
 95
        2
302
GRIDFORMAT
  1
GRIDFORMAT_BEGIN
 90
        0
 91
        1
 62
     0
 92
       -2
340
14
 93
        0
 40
0.045
309
GRIDFORMAT_END
 95
        4
302
GRIDFORMAT
  1
GRIDFORMAT_BEGIN
 90
        0
 91
        1
 62
     0
 92
       -2
340
14
 93
        0
 40
0.045
309
GRIDFORMAT_END
 95
        8
302
GRIDFORMAT
  1
GRIDFORMAT_BEGIN
 90
        0
 91
        1
 62
     0
 92
       -2
340
14
 93
        0
 40
0.045
309
GRIDFORMAT_END
 95
       16
302
GRIDFORMAT
  1
GRIDFORMAT_BEGIN
 90
        0
 91
        1
 62
     0
 92
       -2
340
14
 93
        0
 40
0.045
309
GRIDFORMAT_END
 95
       32
302
GRIDFORMAT
  1
GRIDFORMAT_BEGIN
 90
        0
 91
        1
 62
     0
 92
       -2
340
14
 93
        0
 40
0.045
309
GRIDFORMAT_END
309
TABLEFORMAT_END
  1
CELLSTYLE_BEGIN
 90
        2
 91
        1
300
_HEADER
309
CELLSTYLE_END
300
CELLSTYLE
  1
TABLEFORMAT_BEGIN
 90
        5
170
     1
 91
        0
 92
        0
 62
   257
 93
        1
300
CONTENTFORMAT
  1
CONTENTFORMAT_BEGIN
 90
        0
 91
        0
 92
        4
 93
        0
300

 40
0.0
140
1.0
 94
        2
 62
     0
340
11
144
0.18
309
CONTENTFORMAT_END
171
     1
301
MARGIN
  1
CELLMARGIN_BEGIN
 40
0.06
 40
0.06
 40
0.06
 40
0.06
 40
0.06
 40
0.06
309
CELLMARGIN_END
 94
        6
 95
        1
302
GRIDFORMAT
  1
GRIDFORMAT_BEGIN
 90
        0
 91
        1
 62
     0
 92
       -2
340
14
 93
        0
 40
0.045
309
GRIDFORMAT_END
 95
        2
302
GRIDFORMAT
  1
GRIDFORMAT_BEGIN
 90
        0
 91
        1
 62
     0
 92
       -2
340
14
 93
        0
 40
0.045
309
GRIDFORMAT_END
 95
        4
302
GRIDFORMAT
  1
GRIDFORMAT_BEGIN
 90
        0
 91
        1
 62
     0
 92
       -2
340
14
 93
        0
 40
0.045
309
GRIDFORMAT_END
 95
        8
302
GRIDFORMAT
  1
GRIDFORMAT_BEGIN
 90
        0
 91
        1
 62
     0
 92
       -2
340
14
 93
        0
 40
0.045
309
GRIDFORMAT_END
 95
       16
302
GRIDFORMAT
  1
GRIDFORMAT_BEGIN
 90
        0
 91
        1
 62
     0
 92
       -2
340
14
 93
        0
 40
0.045
309
GRIDFORMAT_END
 95
       32
302
GRIDFORMAT
  1
GRIDFORMAT_BEGIN
 90
        0
 91
        1
 62
     0
 92
       -2
340
14
 93
        0
 40
0.045
309
GRIDFORMAT_END
309
TABLEFORMAT_END
  1
CELLSTYLE_BEGIN
 90
        3
 91
        2
300
_DATA
309
CELLSTYLE_END
  0
ENDSEC
  0
EOF