0
SECTION
  2
HEADER
  9
$ACADVER
  1
AC1027
  9
$ACADMAINTVER
 70
     8
  9
$DWGCODEPAGE
  3
ANSI_1252
  9
$REQUIREDVERSIONS
160
                 0
  9
$COMMENTS
  1
File was created by Cadenas
  9
$CUSTOMPROPERTYTAG
  1
NN
  9
$CUSTOMPROPERTY
  1
Sleevoil Plain/Externally Cooled Standard and Short  Series Pillow Blocks Inch Bore
  9
$CUSTOMPROPERTYTAG
  1
NT
  9
$CUSTOMPROPERTY
  1
SLEEVOIL
  9
$CUSTOMPROPERTYTAG
  1
NB
  9
$CUSTOMPROPERTY
  1
134206
  9
$CUSTOMPROPERTYTAG
  1
NBSYN
  9
$CUSTOMPROPERTY
  1
$PN.
  9
$CUSTOMPROPERTYTAG
  1
LINA
  9
$CUSTOMPROPERTY
  1
134206
  9
$CUSTOMPROPERTYTAG
  1
SS
  9
$CUSTOMPROPERTY
  1
8
  9
$CUSTOMPROPERTYTAG
  1
TYPE
  9
$CUSTOMPROPERTY
  1
STL Expansion Pillow Blocks
  9
$CUSTOMPROPERTYTAG
  1
PN
  9
$CUSTOMPROPERTY
  1
134206
  9
$CUSTOMPROPERTYTAG
  1
WEIGHT
  9
$CUSTOMPROPERTY
  1
1298
  9
$CUSTOMPROPERTYTAG
  1
SCPN
  9
$CUSTOMPROPERTY
  1
133297
  9
$CUSTOMPROPERTYTAG
  1
SCWT
  9
$CUSTOMPROPERTY
  1
48.7
  9
$CUSTOMPROPERTYTAG
  1
A
  9
$CUSTOMPROPERTY
  1
27-3/4
  9
$CUSTOMPROPERTYTAG
  1
B
  9
$CUSTOMPROPERTY
  1
34
  9
$CUSTOMPROPERTYTAG
  1
C
  9
$CUSTOMPROPERTY
  1
14-1/2
  9
$CUSTOMPROPERTYTAG
  1
DMIN
  9
$CUSTOMPROPERTY
  1
25-5/8
  9
$CUSTOMPROPERTYTAG
  1
DMAX
  9
$CUSTOMPROPERTY
  1
28-7/8
  9
$CUSTOMPROPERTYTAG
  1
E
  9
$CUSTOMPROPERTY
  1
7-1/2
  9
$CUSTOMPROPERTYTAG
  1
F
  9
$CUSTOMPROPERTY
  1
1-3/4
  9
$CUSTOMPROPERTYTAG
  1
G
  9
$CUSTOMPROPERTY
  1
3-1/2
  9
$CUSTOMPROPERTYTAG
  1
H
  9
$CUSTOMPROPERTY
  1
5-7/8
  9
$CUSTOMPROPERTYTAG
  1
J
  9
$CUSTOMPROPERTY
  1
21-5/16
  9
$CUSTOMPROPERTYTAG
  1
K
  9
$CUSTOMPROPERTY
  1
22-1/2
  9
$CUSTOMPROPERTYTAG
  1
L
  9
$CUSTOMPROPERTY
  1
16
  9
$CUSTOMPROPERTYTAG
  1
M
  9
$CUSTOMPROPERTY
  1
10-3/4
  9
$CUSTOMPROPERTYTAG
  1
N
  9
$CUSTOMPROPERTY
  1
11
  9
$CUSTOMPROPERTYTAG
  1
N1
  9
$CUSTOMPROPERTY
  1
5-3/4
  9
$CUSTOMPROPERTYTAG
  1
P
  9
$CUSTOMPROPERTY
  1
19
  9
$CUSTOMPROPERTYTAG
  1
Q
  9
$CUSTOMPROPERTY
  1
2
  9
$CUSTOMPROPERTYTAG
  1
PLXC
  9
$CUSTOMPROPERTY
  1
1-1/4
  9
$CUSTOMPROPERTYTAG
  1
WC
  9
$CUSTOMPROPERTY
  1
3/4
  9
$CUSTOMPROPERTYTAG
  1
T
  9
$CUSTOMPROPERTY
  1
5-1/4
  9
$CUSTOMPROPERTYTAG
  1
U
  9
$CUSTOMPROPERTY
  1
4-9/16
  9
$CUSTOMPROPERTYTAG
  1
U1
  9
$CUSTOMPROPERTY
  1
1-1/4
  9
$CUSTOMPROPERTYTAG
  1
U2
  9
$CUSTOMPROPERTY
  1
1-1/4
  9
$CUSTOMPROPERTYTAG
  1
V
  9
$CUSTOMPROPERTY
  1
5
  9
$CUSTOMPROPERTYTAG
  1
W
  9
$CUSTOMPROPERTY
  1
9-5/8
  9
$CUSTOMPROPERTYTAG
  1
X
  9
$CUSTOMPROPERTY
  1
14-13/16
  9
$CUSTOMPROPERTYTAG
  1
YPLXC
  9
$CUSTOMPROPERTY
  1
1-3/4
  9
$CUSTOMPROPERTYTAG
  1
YWC
  9
$CUSTOMPROPERTY
  1
1-1/4
  9
$CUSTOMPROPERTYTAG
  1
Y1PLXC
  9
$CUSTOMPROPERTY
  1
2
  9
$CUSTOMPROPERTYTAG
  1
Y1WC
  9
$CUSTOMPROPERTY
  1
1-1/4
  9
$CUSTOMPROPERTYTAG
  1
Z
  9
$CUSTOMPROPERTY
  1
5-1/4
  9
$CUSTOMPROPERTYTAG
  1
A1
  9
$CUSTOMPROPERTY
  1
1-1/4
  9
$CUSTOMPROPERTYTAG
  1
B1
  9
$CUSTOMPROPERTY
  1
12
  9
$CUSTOMPROPERTYTAG
  1
TC
  9
$CUSTOMPROPERTY
  1
11-1/2 x 3-3/16
  9
$CUSTOMPROPERTYTAG
  1
O
  9
$CUSTOMPROPERTY
  1
320
  9
$CUSTOMPROPERTYTAG
  1
COMPANY
  9
$CUSTOMPROPERTY
  1
baldor
  9
$INSBASE
 10
0.0
 20
0.0
 30
0.0
  9
$EXTMIN
 10
1.000000000000000E+20
 20
1.000000000000000E+20
 30
1.000000000000000E+20
  9
$EXTMAX
 10
-1.000000000000000E+20
 20
-1.000000000000000E+20
 30
-1.000000000000000E+20
  9
$LIMMIN
 10
0.0
 20
0.0
  9
$LIMMAX
 10
12.0
 20
9.0
  9
$ORTHOMODE
 70
     0
  9
$REGENMODE
 70
     1
  9
$FILLMODE
 70
     1
  9
$QTEXTMODE
 70
     0
  9
$MIRRTEXT
 70
     1
  9
$LTSCALE
 40
1.0
  9
$ATTMODE
 70
     1
  9
$TEXTSIZE
 40
0.2
  9
$TRACEWID
 40
0.05
  9
$TEXTSTYLE
  7
Standard
  9
$CLAYER
  8
0
  9
$CELTYPE
  6
ByLayer
  9
$CECOLOR
 62
   256
  9
$CELTSCALE
 40
1.0
  9
$DISPSILH
 70
     0
  9
$DIMSCALE
 40
1.0
  9
$DIMASZ
 40
0.18
  9
$DIMEXO
 40
0.0625
  9
$DIMDLI
 40
0.38
  9
$DIMRND
 40
0.0
  9
$DIMDLE
 40
0.0
  9
$DIMEXE
 40
0.18
  9
$DIMTP
 40
0.0
  9
$DIMTM
 40
0.0
  9
$DIMTXT
 40
0.18
  9
$DIMCEN
 40
0.09
  9
$DIMTSZ
 40
0.0
  9
$DIMTOL
 70
     0
  9
$DIMLIM
 70
     0
  9
$DIMTIH
 70
     1
  9
$DIMTOH
 70
     1
  9
$DIMSE1
 70
     0
  9
$DIMSE2
 70
     0
  9
$DIMTAD
 70
     0
  9
$DIMZIN
 70
     0
  9
$DIMBLK
  1

  9
$DIMASO
 70
     1
  9
$DIMSHO
 70
     1
  9
$DIMPOST
  1

  9
$DIMAPOST
  1

  9
$DIMALT
 70
     0
  9
$DIMALTD
 70
     2
  9
$DIMALTF
 40
25.4
  9
$DIMLFAC
 40
1.0
  9
$DIMTOFL
 70
     0
  9
$DIMTVP
 40
0.0
  9
$DIMTIX
 70
     0
  9
$DIMSOXD
 70
     0
  9
$DIMSAH
 70
     0
  9
$DIMBLK1
  1

  9
$DIMBLK2
  1

  9
$DIMSTYLE
  2
Standard
  9
$DIMCLRD
 70
     0
  9
$DIMCLRE
 70
     0
  9
$DIMCLRT
 70
     0
  9
$DIMTFAC
 40
1.0
  9
$DIMGAP
 40
0.09
  9
$DIMJUST
 70
     0
  9
$DIMSD1
 70
     0
  9
$DIMSD2
 70
     0
  9
$DIMTOLJ
 70
     1
  9
$DIMTZIN
 70
     0
  9
$DIMALTZ
 70
     0
  9
$DIMALTTZ
 70
     0
  9
$DIMUPT
 70
     0
  9
$DIMDEC
 70
     4
  9
$DIMTDEC
 70
     4
  9
$DIMALTU
 70
     2
  9
$DIMALTTD
 70
     2
  9
$DIMTXSTY
  7
Standard
  9
$DIMAUNIT
 70
     0
  9
$DIMADEC
 70
     0
  9
$DIMALTRND
 40
0.0
  9
$DIMAZIN
 70
     0
  9
$DIMDSEP
 70
    46
  9
$DIMATFIT
 70
     3
  9
$DIMFRAC
 70
     0
  9
$DIMLDRBLK
  1

  9
$DIMLUNIT
 70
     2
  9
$DIMLWD
 70
    -2
  9
$DIMLWE
 70
    -2
  9
$DIMTMOVE
 70
     0
  9
$DIMFXL
 40
1.0
  9
$DIMFXLON
 70
     0
  9
$DIMJOGANG
 40
0.7853981633974483
  9
$DIMTFILL
 70
     0
  9
$DIMTFILLCLR
 70
     0
  9
$DIMARCSYM
 70
     0
  9
$DIMLTYPE
  6

  9
$DIMLTEX1
  6

  9
$DIMLTEX2
  6

  9
$DIMTXTDIRECTION
 70
     0
  9
$LUNITS
 70
     2
  9
$LUPREC
 70
     4
  9
$SKETCHINC
 40
0.1
  9
$FILLETRAD
 40
0.5
  9
$AUNITS
 70
     0
  9
$AUPREC
 70
     0
  9
$MENU
  1
.
  9
$ELEVATION
 40
0.0
  9
$PELEVATION
 40
0.0
  9
$THICKNESS
 40
0.0
  9
$LIMCHECK
 70
     0
  9
$CHAMFERA
 40
0.0
  9
$CHAMFERB
 40
0.0
  9
$CHAMFERC
 40
0.0
  9
$CHAMFERD
 40
0.0
  9
$SKPOLY
 70
     0
  9
$TDCREATE
 40
2458168.979622708
  9
$TDUCREATE
 40
2458168.937956042
  9
$TDUPDATE
 40
2458168.979622894
  9
$TDUUPDATE
 40
2458168.937956227
  9
$TDINDWG
 40
0.0000000116
  9
$TDUSRTIMER
 40
0.0000000116
  9
$USRTIMER
 70
     1
  9
$ANGBASE
 50
0.0
  9
$ANGDIR
 70
     0
  9
$PDMODE
 70
     0
  9
$PDSIZE
 40
0.0
  9
$PLINEWID
 40
0.0
  9
$SPLFRAME
 70
     0
  9
$SPLINETYPE
 70
     6
  9
$SPLINESEGS
 70
     8
  9
$HANDSEED
  5
21B
  9
$SURFTAB1
 70
     6
  9
$SURFTAB2
 70
     6
  9
$SURFTYPE
 70
     6
  9
$SURFU
 70
     6
  9
$SURFV
 70
     6
  9
$UCSBASE
  2

  9
$UCSNAME
  2

  9
$UCSORG
 10
0.0
 20
0.0
 30
0.0
  9
$UCSXDIR
 10
1.0
 20
0.0
 30
0.0
  9
$UCSYDIR
 10
0.0
 20
1.0
 30
0.0
  9
$UCSORTHOREF
  2

  9
$UCSORTHOVIEW
 70
     0
  9
$UCSORGTOP
 10
0.0
 20
0.0
 30
0.0
  9
$UCSORGBOTTOM
 10
0.0
 20
0.0
 30
0.0
  9
$UCSORGLEFT
 10
0.0
 20
0.0
 30
0.0
  9
$UCSORGRIGHT
 10
0.0
 20
0.0
 30
0.0
  9
$UCSORGFRONT
 10
0.0
 20
0.0
 30
0.0
  9
$UCSORGBACK
 10
0.0
 20
0.0
 30
0.0
  9
$PUCSBASE
  2

  9
$PUCSNAME
  2

  9
$PUCSORG
 10
0.0
 20
0.0
 30
0.0
  9
$PUCSXDIR
 10
1.0
 20
0.0
 30
0.0
  9
$PUCSYDIR
 10
0.0
 20
1.0
 30
0.0
  9
$PUCSORTHOREF
  2

  9
$PUCSORTHOVIEW
 70
     0
  9
$PUCSORGTOP
 10
0.0
 20
0.0
 30
0.0
  9
$PUCSORGBOTTOM
 10
0.0
 20
0.0
 30
0.0
  9
$PUCSORGLEFT
 10
0.0
 20
0.0
 30
0.0
  9
$PUCSORGRIGHT
 10
0.0
 20
0.0
 30
0.0
  9
$PUCSORGFRONT
 10
0.0
 20
0.0
 30
0.0
  9
$PUCSORGBACK
 10
0.0
 20
0.0
 30
0.0
  9
$USERI1
 70
     0
  9
$USERI2
 70
     0
  9
$USERI3
 70
     0
  9
$USERI4
 70
     0
  9
$USERI5
 70
     0
  9
$USERR1
 40
0.0
  9
$USERR2
 40
0.0
  9
$USERR3
 40
0.0
  9
$USERR4
 40
0.0
  9
$USERR5
 40
0.0
  9
$WORLDVIEW
 70
     1
  9
$SHADEDGE
 70
     3
  9
$SHADEDIF
 70
    70
  9
$TILEMODE
 70
     1
  9
$MAXACTVP
 70
    64
  9
$PINSBASE
 10
0.0
 20
0.0
 30
0.0
  9
$PLIMCHECK
 70
     0
  9
$PEXTMIN
 10
1.000000000000000E+20
 20
1.000000000000000E+20
 30
1.000000000000000E+20
  9
$PEXTMAX
 10
-1.000000000000000E+20
 20
-1.000000000000000E+20
 30
-1.000000000000000E+20
  9
$PLIMMIN
 10
0.0
 20
0.0
  9
$PLIMMAX
 10
12.0
 20
9.0
  9
$UNITMODE
 70
     0
  9
$VISRETAIN
 70
     1
  9
$PLINEGEN
 70
     0
  9
$PSLTSCALE
 70
     1
  9
$TREEDEPTH
 70
  3020
  9
$CMLSTYLE
  2
Standard
  9
$CMLJUST
 70
     0
  9
$CMLSCALE
 40
1.0
  9
$PROXYGRAPHICS
 70
     1
  9
$MEASUREMENT
 70
     0
  9
$CELWEIGHT
370
    -1
  9
$ENDCAPS
280
     0
  9
$JOINSTYLE
280
     0
  9
$LWDISPLAY
290
     0
  9
$INSUNITS
 70
     1
  9
$HYPERLINKBASE
  1

  9
$STYLESHEET
  1

  9
$XEDIT
290
     1
  9
$CEPSNTYPE
380
     0
  9
$PSTYLEMODE
290
     1
  9
$FINGERPRINTGUID
  2
{E286D3CE-CF6B-434C-8131-4D1729A8788B}
  9
$VERSIONGUID
  2
{FAEB1C32-E019-11D5-929B-00C0DF256EC4}
  9
$EXTNAMES
290
     1
  9
$PSVPSCALE
 40
0.0
  9
$OLESTARTUP
290
     0
  9
$SORTENTS
280
   127
  9
$INDEXCTL
280
     0
  9
$HIDETEXT
280
     1
  9
$XCLIPFRAME
280
     2
  9
$HALOGAP
280
     0
  9
$OBSCOLOR
 70
   257
  9
$OBSLTYPE
280
     0
  9
$INTERSECTIONDISPLAY
280
     0
  9
$INTERSECTIONCOLOR
 70
   257
  9
$DIMASSOC
280
     2
  9
$PROJECTNAME
  1

  9
$CAMERADISPLAY
290
     0
  9
$LENSLENGTH
 40
50.0
  9
$CAMERAHEIGHT
 40
0.0
  9
$STEPSPERSEC
 40
2.0
  9
$STEPSIZE
 40
6.0
  9
$3DDWFPREC
 40
2.0
  9
$PSOLWIDTH
 40
0.25
  9
$PSOLHEIGHT
 40
4.0
  9
$LOFTANG1
 40
1.570796326794897
  9
$LOFTANG2
 40
1.570796326794897
  9
$LOFTMAG1
 40
0.0
  9
$LOFTMAG2
 40
0.0
  9
$LOFTPARAM
 70
     7
  9
$LOFTNORMALS
280
     1
  9
$LATITUDE
 40
37.795
  9
$LONGITUDE
 40
-122.394
  9
$NORTHDIRECTION
 40
0.0
  9
$TIMEZONE
 70
 -8000
  9
$LIGHTGLYPHDISPLAY
280
     1
  9
$TILEMODELIGHTSYNCH
280
     1
  9
$CMATERIAL
347
44
  9
$SOLIDHIST
280
     0
  9
$SHOWHIST
280
     1
  9
$DWFFRAME
280
     2
  9
$DGNFRAME
280
     2
  9
$REALWORLDSCALE
290
     1
  9
$INTERFERECOLOR
 62
   256
  9
$CSHADOW
280
     0
  9
$SHADOWPLANELOCATION
 40
0.0
  0
ENDSEC
  0
SECTION
  2
CLASSES
  0
CLASS
  1
ACDBDICTIONARYWDFLT
  2
AcDbDictionaryWithDefault
  3
ObjectDBX Classes
 90
        0
 91
        4
280
     0
281
     0
  0
CLASS
  1
VISUALSTYLE
  2
AcDbVisualStyle
  3
ObjectDBX Classes
 90
     4095
 91
        4
280
     0
281
     0
  0
CLASS
  1
MATERIAL
  2
AcDbMaterial
  3
ObjectDBX Classes
 90
     1153
 91
        4
280
     0
281
     0
  0
CLASS
  1
SCALE
  2
AcDbScale
  3
ObjectDBX Classes
 90
     1153
 91
        4
280
     0
281
     0
  0
CLASS
  1
TABLESTYLE
  2
AcDbTableStyle
  3
ObjectDBX Classes
 90
     4095
 91
        4
280
     0
281
     0
  0
CLASS
  1
MLEADERSTYLE
  2
AcDbMLeaderStyle
  3
ACDB_MLEADERSTYLE_CLASS
 90
     4095
 91
        4
280
     0
281
     0
  0
CLASS
  1
SUN
  2
AcDbSun
  3
SCENEOE
 90
     1153
 91
        4
280
     0
281
     0
  0
CLASS
  1
DICTIONARYVAR
  2
AcDbDictionaryVar
  3
ObjectDBX Classes
 90
        0
 91
        4
280
     0
281
     0
  0
CLASS
  1
CELLSTYLEMAP
  2
AcDbCellStyleMap
  3
ObjectDBX Classes
 90
     1152
 91
        4
280
     0
281
     0
  0
ENDSEC
  0
SECTION
  2
TABLES
  0
TABLE
  2
VPORT
  5
8
330
0
100
AcDbSymbolTable
 70
     1
  0
VPORT
  5
29
330
8
100
AcDbSymbolTableRecord
100
AcDbViewportTableRecord
  2
*Active
 70
     0
 10
0.0
 20
0.0
 11
1.0
 21
1.0
 12
0.0
 22
-0.0817968750000002
 13
0.0
 23
0.0
 14
0.5
 24
0.5
 15
0.5
 25
0.5
 16
0.0
 26
0.0
 36
1.0
 17
0.0
 27
0.0
 37
0.0
 40
21.763134375
 41
1.430653299451495
 42
50.0
 43
0.0
 44
0.0
 50
0.0
 51
0.0
 71
     0
 72
   100
 73
     1
 74
     3
 75
     0
 76
     0
 77
     0
 78
     0
281
     0
 65
     1
110
0.0
120
0.0
130
0.0
111
1.0
121
0.0
131
0.0
112
0.0
122
1.0
132
0.0
 79
     0
146
0.0
348
2F
 60
     3
 61
     5
292
     1
282
     1
141
0.0
142
0.0
 63
   250
361
6D
  0
ENDTAB
  0
TABLE
  2
LTYPE
  5
5
330
0
100
AcDbSymbolTable
 70
     3
  0
LTYPE
  5
14
330
5
100
AcDbSymbolTableRecord
100
AcDbLinetypeTableRecord
  2
ByBlock
 70
     0
  3

 72
    65
 73
     0
 40
0.0
  0
LTYPE
  5
15
330
5
100
AcDbSymbolTableRecord
100
AcDbLinetypeTableRecord
  2
ByLayer
 70
     0
  3

 72
    65
 73
     0
 40
0.0
  0
LTYPE
  5
16
330
5
100
AcDbSymbolTableRecord
100
AcDbLinetypeTableRecord
  2
Continuous
 70
     0
  3
Solid line
 72
    65
 73
     0
 40
0.0
  0
LTYPE
  5
F8
330
5
100
AcDbSymbolTableRecord
100
AcDbLinetypeTableRecord
  2
Dashed
 70
     0
  3

 72
    65
 73
     2
 40
2.0
 49
1.0
 74
     0
 49
-1.0
 74
     0
  0
LTYPE
  5
189
330
5
100
AcDbSymbolTableRecord
100
AcDbLinetypeTableRecord
  2
Center
 70
     0
  3

 72
    65
 73
     4
 40
1.5
 49
0.45
 74
     0
 49
-0.5
 74
     0
 49
0.05
 74
     0
 49
-0.5
 74
     0
  0
ENDTAB
  0
TABLE
  2
LAYER
  5
2
330
0
100
AcDbSymbolTable
 70
     6
  0
LAYER
  5
10
330
2
100
AcDbSymbolTableRecord
100
AcDbLayerTableRecord
  2
0
 70
     0
 62
     7
  6
Continuous
370
    -3
390
F
347
46
348
0
  0
LAYER
  5
72
330
2
100
AcDbSymbolTableRecord
100
AcDbLayerTableRecord
  2
AM_6
 70
     0
 62
    -2
  6
Continuous
370
    35
390
F
347
46
348
0
  0
LAYER
  5
F9
330
2
100
AcDbSymbolTableRecord
100
AcDbLayerTableRecord
  2
AM_9
 70
     0
 62
     6
  6
Dashed
370
    25
390
F
347
46
348
0
  0
LAYER
  5
104
330
2
100
AcDbSymbolTableRecord
100
AcDbLayerTableRecord
  2
AM_4
 70
     0
 62
     7
  6
Continuous
370
    50
390
F
347
46
348
0
  0
LAYER
  5
18A
330
2
100
AcDbSymbolTableRecord
100
AcDbLayerTableRecord
  2
AM_7
 70
     0
 62
     7
  6
Center
370
    25
390
F
347
46
348
0
  0
LAYER
  5
210
330
2
100
AcDbSymbolTableRecord
100
AcDbLayerTableRecord
  2
ConnectionPoints
 70
     0
 62
     7
  6
Continuous
370
    50
390
F
347
46
348
0
  0
ENDTAB
  0
TABLE
  2
STYLE
  5
3
330
0
100
AcDbSymbolTable
 70
     1
  0
STYLE
  5
11
330
3
100
AcDbSymbolTableRecord
100
AcDbTextStyleTableRecord
  2
Standard
 70
     0
 40
0.0
 41
1.0
 50
0.0
 71
     0
 42
0.2
  3
txt
  4

  0
ENDTAB
  0
TABLE
  2
VIEW
  5
6
330
0
100
AcDbSymbolTable
 70
     0
  0
ENDTAB
  0
TABLE
  2
UCS
  5
7
330
0
100
AcDbSymbolTable
 70
     0
  0
ENDTAB
  0
TABLE
  2
APPID
  5
9
330
0
100
AcDbSymbolTable
 70
     1
  0
APPID
  5
12
330
9
100
AcDbSymbolTableRecord
100
AcDbRegAppTableRecord
  2
ACAD
 70
     0
  0
ENDTAB
  0
TABLE
  2
DIMSTYLE
  5
A
330
0
100
AcDbSymbolTable
 70
     1
100
AcDbDimStyleTable
  0
DIMSTYLE
105
27
330
A
100
AcDbSymbolTableRecord
100
AcDbDimStyleTableRecord
  2
Standard
 70
     0
178
     0
340
11
  0
ENDTAB
  0
TABLE
  2
BLOCK_RECORD
  5
1
330
0
100
AcDbSymbolTable
 70
     4
  0
BLOCK_RECORD
  5
1F
330
1
100
AcDbSymbolTableRecord
100
AcDbBlockTableRecord
  2
*Model_Space
340
22
 70
     0
280
     1
281
     0
  0
BLOCK_RECORD
  5
1B
330
1
100
AcDbSymbolTableRecord
100
AcDbBlockTableRecord
  2
*Paper_Space
340
1E
 70
     0
280
     1
281
     0
  0
BLOCK_RECORD
  5
23
330
1
100
AcDbSymbolTableRecord
100
AcDbBlockTableRecord
  2
*Paper_Space0
340
26
 70
     0
280
     1
281
     0
  0
BLOCK_RECORD
  5
6E
330
1
100
AcDbSymbolTableRecord
100
AcDbBlockTableRecord
  2
1_134206_2
340
0
102
{BLKREFS
331
6F
102
}
 70
     0
280
     1
281
     0
  0
BLOCK_RECORD
  5
A2
330
1
100
AcDbSymbolTableRecord
100
AcDbBlockTableRecord
  2
2_134206I_0_in_134206_2
340
0
102
{BLKREFS
331
A3
102
}
 70
     0
280
     1
281
     0
  0
BLOCK_RECORD
  5
119
330
1
100
AcDbSymbolTableRecord
100
AcDbBlockTableRecord
  2
3_134206B_0_in_134206_2
340
0
102
{BLKREFS
331
11A
102
}
 70
     0
280
     1
281
     0
  0
ENDTAB
  0
ENDSEC
  0
SECTION
  2
BLOCKS
  0
BLOCK
  5
20
330
1F
100
AcDbEntity
  8
0
100
AcDbBlockBegin
  2
*Model_Space
 70
     0
 10
0.0
 20
0.0
 30
0.0
  3
*Model_Space
  1

  0
ENDBLK
  5
21
330
1F
100
AcDbEntity
  8
0
100
AcDbBlockEnd
  0
BLOCK
  5
1C
330
1B
100
AcDbEntity
 67
     1
  8
0
100
AcDbBlockBegin
  2
*Paper_Space
 70
     0
 10
0.0
 20
0.0
 30
0.0
  3
*Paper_Space
  1

  0
ENDBLK
  5
1D
330
1B
100
AcDbEntity
 67
     1
  8
0
100
AcDbBlockEnd
  0
BLOCK
  5
24
330
23
100
AcDbEntity
  8
0
100
AcDbBlockBegin
  2
*Paper_Space0
 70
     0
 10
0.0
 20
0.0
 30
0.0
  3
*Paper_Space0
  1

  0
ENDBLK
  5
25
330
23
100
AcDbEntity
  8
0
100
AcDbBlockEnd
  0
BLOCK
  5
70
330
6E
100
AcDbEntity
  8
0
100
AcDbBlockBegin
  2
1_134206_2
 70
     2
 10
0.0
 20
0.0
 30
0.0
  3
1_134206_2
  1

  0
ATTDEF
  5
73
330
6E
100
AcDbEntity
  8
AM_6
100
AcDbText
 10
20.2625
 20
10.58640625
 30
0.0
 40
0.5
  1
Sleevoil Plain/Externally Cooled Standard and Short  Series Pillow Blocks Inch Bore
100
AcDbAttributeDefinition
  3

  2
NN
 70
     8
280
     0
  0
ATTDEF
  5
74
330
6E
100
AcDbEntity
  8
AM_6
100
AcDbText
 10
20.2625
 20
10.08640625
 30
0.0
 40
0.5
  1
SLEEVOIL
100
AcDbAttributeDefinition
  3

  2
NT
 70
     8
280
     0
  0
ATTDEF
  5
75
330
6E
100
AcDbEntity
  8
AM_6
100
AcDbText
 10
20.2625
 20
9.58640625
 30
0.0
 40
0.5
  1
134206
100
AcDbAttributeDefinition
  3

  2
NB
 70
     8
280
     0
  0
ATTDEF
  5
76
330
6E
100
AcDbEntity
  8
AM_6
100
AcDbText
 10
20.2625
 20
9.08640625
 30
0.0
 40
0.5
  1
$PN.
100
AcDbAttributeDefinition
  3

  2
NBSYN
 70
     8
280
     0
  0
ATTDEF
  5
77
330
6E
100
AcDbEntity
  8
AM_6
100
AcDbText
 10
20.2625
 20
8.58640625
 30
0.0
 40
0.5
  1
134206
100
AcDbAttributeDefinition
  3

  2
LINA
 70
     8
280
     0
  0
ATTDEF
  5
78
330
6E
100
AcDbEntity
  8
AM_6
100
AcDbText
 10
20.2625
 20
8.08640625
 30
0.0
 40
0.5
  1
8
100
AcDbAttributeDefinition
  3

  2
SS
 70
     8
280
     0
  0
ATTDEF
  5
79
330
6E
100
AcDbEntity
  8
AM_6
100
AcDbText
 10
20.2625
 20
7.58640625
 30
0.0
 40
0.5
  1
STL Expansion Pillow Blocks
100
AcDbAttributeDefinition
  3

  2
TYPE
 70
     8
280
     0
  0
ATTDEF
  5
7A
330
6E
100
AcDbEntity
  8
AM_6
100
AcDbText
 10
20.2625
 20
7.08640625
 30
0.0
 40
0.5
  1
134206
100
AcDbAttributeDefinition
  3

  2
PN
 70
     8
280
     0
  0
ATTDEF
  5
7B
330
6E
100
AcDbEntity
  8
AM_6
100
AcDbText
 10
20.2625
 20
6.58640625
 30
0.0
 40
0.5
  1
1298
100
AcDbAttributeDefinition
  3

  2
WEIGHT
 70
     8
280
     0
  0
ATTDEF
  5
7C
330
6E
100
AcDbEntity
  8
AM_6
100
AcDbText
 10
20.2625
 20
6.08640625
 30
0.0
 40
0.5
  1
133297
100
AcDbAttributeDefinition
  3

  2
SCPN
 70
     8
280
     0
  0
ATTDEF
  5
7D
330
6E
100
AcDbEntity
  8
AM_6
100
AcDbText
 10
20.2625
 20
5.58640625
 30
0.0
 40
0.5
  1
48.7
100
AcDbAttributeDefinition
  3

  2
SCWT
 70
     8
280
     0
  0
ATTDEF
  5
7E
330
6E
100
AcDbEntity
  8
AM_6
100
AcDbText
 10
20.2625
 20
5.08640625
 30
0.0
 40
0.5
  1
27-3/4
100
AcDbAttributeDefinition
  3

  2
A
 70
     8
280
     0
  0
ATTDEF
  5
7F
330
6E
100
AcDbEntity
  8
AM_6
100
AcDbText
 10
20.2625
 20
4.58640625
 30
0.0
 40
0.5
  1
34
100
AcDbAttributeDefinition
  3

  2
B
 70
     8
280
     0
  0
ATTDEF
  5
80
330
6E
100
AcDbEntity
  8
AM_6
100
AcDbText
 10
20.2625
 20
4.08640625
 30
0.0
 40
0.5
  1
14-1/2
100
AcDbAttributeDefinition
  3

  2
C
 70
     8
280
     0
  0
ATTDEF
  5
81
330
6E
100
AcDbEntity
  8
AM_6
100
AcDbText
 10
20.2625
 20
3.58640625
 30
0.0
 40
0.5
  1
25-5/8
100
AcDbAttributeDefinition
  3

  2
DMIN
 70
     8
280
     0
  0
ATTDEF
  5
82
330
6E
100
AcDbEntity
  8
AM_6
100
AcDbText
 10
20.2625
 20
3.08640625
 30
0.0
 40
0.5
  1
28-7/8
100
AcDbAttributeDefinition
  3

  2
DMAX
 70
     8
280
     0
  0
ATTDEF
  5
83
330
6E
100
AcDbEntity
  8
AM_6
100
AcDbText
 10
20.2625
 20
2.58640625
 30
0.0
 40
0.5
  1
7-1/2
100
AcDbAttributeDefinition
  3

  2
E
 70
     8
280
     0
  0
ATTDEF
  5
84
330
6E
100
AcDbEntity
  8
AM_6
100
AcDbText
 10
20.2625
 20
2.08640625
 30
0.0
 40
0.5
  1
1-3/4
100
AcDbAttributeDefinition
  3

  2
F
 70
     8
280
     0
  0
ATTDEF
  5
85
330
6E
100
AcDbEntity
  8
AM_6
100
AcDbText
 10
20.2625
 20
1.58640625
 30
0.0
 40
0.5
  1
3-1/2
100
AcDbAttributeDefinition
  3

  2
G
 70
     8
280
     0
  0
ATTDEF
  5
86
330
6E
100
AcDbEntity
  8
AM_6
100
AcDbText
 10
20.2625
 20
1.08640625
 30
0.0
 40
0.5
  1
5-7/8
100
AcDbAttributeDefinition
  3

  2
H
 70
     8
280
     0
  0
ATTDEF
  5
87
330
6E
100
AcDbEntity
  8
AM_6
100
AcDbText
 10
20.2625
 20
0.5864062499999996
 30
0.0
 40
0.5
  1
21-5/16
100
AcDbAttributeDefinition
  3

  2
J
 70
     8
280
     0
  0
ATTDEF
  5
88
330
6E
100
AcDbEntity
  8
AM_6
100
AcDbText
 10
20.2625
 20
0.0864062499999996
 30
0.0
 40
0.5
  1
22-1/2
100
AcDbAttributeDefinition
  3

  2
K
 70
     8
280
     0
  0
ATTDEF
  5
89
330
6E
100
AcDbEntity
  8
AM_6
100
AcDbText
 10
20.2625
 20
-0.4135937500000004
 30
0.0
 40
0.5
  1
16
100
AcDbAttributeDefinition
  3

  2
L
 70
     8
280
     0
  0
ATTDEF
  5
8A
330
6E
100
AcDbEntity
  8
AM_6
100
AcDbText
 10
20.2625
 20
-0.9135937500000004
 30
0.0
 40
0.5
  1
10-3/4
100
AcDbAttributeDefinition
  3

  2
M
 70
     8
280
     0
  0
ATTDEF
  5
8B
330
6E
100
AcDbEntity
  8
AM_6
100
AcDbText
 10
20.2625
 20
-1.41359375
 30
0.0
 40
0.5
  1
11
100
AcDbAttributeDefinition
  3

  2
N
 70
     8
280
     0
  0
ATTDEF
  5
8C
330
6E
100
AcDbEntity
  8
AM_6
100
AcDbText
 10
20.2625
 20
-1.91359375
 30
0.0
 40
0.5
  1
5-3/4
100
AcDbAttributeDefinition
  3

  2
N1
 70
     8
280
     0
  0
ATTDEF
  5
8D
330
6E
100
AcDbEntity
  8
AM_6
100
AcDbText
 10
20.2625
 20
-2.41359375
 30
0.0
 40
0.5
  1
19
100
AcDbAttributeDefinition
  3

  2
P
 70
     8
280
     0
  0
ATTDEF
  5
8E
330
6E
100
AcDbEntity
  8
AM_6
100
AcDbText
 10
20.2625
 20
-2.91359375
 30
0.0
 40
0.5
  1
2
100
AcDbAttributeDefinition
  3

  2
Q
 70
     8
280
     0
  0
ATTDEF
  5
8F
330
6E
100
AcDbEntity
  8
AM_6
100
AcDbText
 10
20.2625
 20
-3.41359375
 30
0.0
 40
0.5
  1
1-1/4
100
AcDbAttributeDefinition
  3

  2
PLXC
 70
     8
280
     0
  0
ATTDEF
  5
90
330
6E
100
AcDbEntity
  8
AM_6
100
AcDbText
 10
20.2625
 20
-3.91359375
 30
0.0
 40
0.5
  1
3/4
100
AcDbAttributeDefinition
  3

  2
WC
 70
     8
280
     0
  0
ATTDEF
  5
91
330
6E
100
AcDbEntity
  8
AM_6
100
AcDbText
 10
20.2625
 20
-4.41359375
 30
0.0
 40
0.5
  1
5-1/4
100
AcDbAttributeDefinition
  3

  2
T
 70
     8
280
     0
  0
ATTDEF
  5
92
330
6E
100
AcDbEntity
  8
AM_6
100
AcDbText
 10
20.2625
 20
-4.91359375
 30
0.0
 40
0.5
  1
4-9/16
100
AcDbAttributeDefinition
  3

  2
U
 70
     8
280
     0
  0
ATTDEF
  5
93
330
6E
100
AcDbEntity
  8
AM_6
100
AcDbText
 10
20.2625
 20
-5.41359375
 30
0.0
 40
0.5
  1
1-1/4
100
AcDbAttributeDefinition
  3

  2
U1
 70
     8
280
     0
  0
ATTDEF
  5
94
330
6E
100
AcDbEntity
  8
AM_6
100
AcDbText
 10
20.2625
 20
-5.91359375
 30
0.0
 40
0.5
  1
1-1/4
100
AcDbAttributeDefinition
  3

  2
U2
 70
     8
280
     0
  0
ATTDEF
  5
95
330
6E
100
AcDbEntity
  8
AM_6
100
AcDbText
 10
20.2625
 20
-6.41359375
 30
0.0
 40
0.5
  1
5
100
AcDbAttributeDefinition
  3

  2
V
 70
     8
280
     0
  0
ATTDEF
  5
96
330
6E
100
AcDbEntity
  8
AM_6
100
AcDbText
 10
20.2625
 20
-6.91359375
 30
0.0
 40
0.5
  1
9-5/8
100
AcDbAttributeDefinition
  3

  2
W
 70
     8
280
     0
  0
ATTDEF
  5
97
330
6E
100
AcDbEntity
  8
AM_6
100
AcDbText
 10
20.2625
 20
-7.41359375
 30
0.0
 40
0.5
  1
14-13/16
100
AcDbAttributeDefinition
  3

  2
X
 70
     8
280
     0
  0
ATTDEF
  5
98
330
6E
100
AcDbEntity
  8
AM_6
100
AcDbText
 10
20.2625
 20
-7.91359375
 30
0.0
 40
0.5
  1
1-3/4
100
AcDbAttributeDefinition
  3

  2
YPLXC
 70
     8
280
     0
  0
ATTDEF
  5
99
330
6E
100
AcDbEntity
  8
AM_6
100
AcDbText
 10
20.2625
 20
-8.41359375
 30
0.0
 40
0.5
  1
1-1/4
100
AcDbAttributeDefinition
  3

  2
YWC
 70
     8
280
     0
  0
ATTDEF
  5
9A
330
6E
100
AcDbEntity
  8
AM_6
100
AcDbText
 10
20.2625
 20
-8.91359375
 30
0.0
 40
0.5
  1
2
100
AcDbAttributeDefinition
  3

  2
Y1PLXC
 70
     8
280
     0
  0
ATTDEF
  5
9B
330
6E
100
AcDbEntity
  8
AM_6
100
AcDbText
 10
20.2625
 20
-9.41359375
 30
0.0
 40
0.5
  1
1-1/4
100
AcDbAttributeDefinition
  3

  2
Y1WC
 70
     8
280
     0
  0
ATTDEF
  5
9C
330
6E
100
AcDbEntity
  8
AM_6
100
AcDbText
 10
20.2625
 20
-9.91359375
 30
0.0
 40
0.5
  1
5-1/4
100
AcDbAttributeDefinition
  3

  2
Z
 70
     8
280
     0
  0
ATTDEF
  5
9D
330
6E
100
AcDbEntity
  8
AM_6
100
AcDbText
 10
20.2625
 20
-10.41359375
 30
0.0
 40
0.5
  1
1-1/4
100
AcDbAttributeDefinition
  3

  2
A1
 70
     8
280
     0
  0
ATTDEF
  5
9E
330
6E
100
AcDbEntity
  8
AM_6
100
AcDbText
 10
20.2625
 20
-10.91359375
 30
0.0
 40
0.5
  1
12
100
AcDbAttributeDefinition
  3

  2
B1
 70
     8
280
     0
  0
ATTDEF
  5
9F
330
6E
100
AcDbEntity
  8
AM_6
100
AcDbText
 10
20.2625
 20
-11.41359375
 30
0.0
 40
0.5
  1
11-1/2 x 3-3/16
100
AcDbAttributeDefinition
  3

  2
TC
 70
     8
280
     0
  0
ATTDEF
  5
A0
330
6E
100
AcDbEntity
  8
AM_6
100
AcDbText
 10
20.2625
 20
-11.91359375
 30
0.0
 40
0.5
  1
320
100
AcDbAttributeDefinition
  3

  2
O
 70
     8
280
     0
  0
ATTDEF
  5
A1
330
6E
100
AcDbEntity
  8
AM_6
100
AcDbText
 10
20.2625
 20
-12.41359375
 30
0.0
 40
0.5
  1
baldor
100
AcDbAttributeDefinition
  3

  2
COMPANY
 70
     8
280
     0
  0
INSERT
  5
A3
330
6E
100
AcDbEntity
  8
0
100
AcDbBlockReference
  2
2_134206I_0_in_134206_2
 10
0.0
 20
0.0
 30
0.0
  0
INSERT
  5
11A
330
6E
100
AcDbEntity
  8
0
100
AcDbBlockReference
  2
3_134206B_0_in_134206_2
 10
0.0
 20
0.0
 30
0.0
  0
ENDBLK
  5
71
330
6E
100
AcDbEntity
  8
0
100
AcDbBlockEnd
  0
BLOCK
  5
A4
330
A2
100
AcDbEntity
  8
0
100
AcDbBlockBegin
  2
2_134206I_0_in_134206_2
 70
     2
 10
0.0
 20
0.0
 30
0.0
  3
2_134206I_0_in_134206_2
  1

  0
ATTDEF
  5
A6
330
A2
100
AcDbEntity
  8
AM_6
100
AcDbText
 10
18.875
 20
6.785714285714286
 30
0.0
 40
0.5
  1
3-15/16" THRU 8", PLAIN/EXTERNALLY COOLED STANDARD AND SHORT SERIES PILLOW BLOCK - INSERT
100
AcDbAttributeDefinition
  3

  2
NN
 70
     8
280
     0
  0
ATTDEF
  5
A7
330
A2
100
AcDbEntity
  8
AM_6
100
AcDbText
 10
18.875
 20
6.285714285714286
 30
0.0
 40
0.5
  1
SLEEVOIL
100
AcDbAttributeDefinition
  3

  2
NT
 70
     8
280
     0
  0
ATTDEF
  5
A8
330
A2
100
AcDbEntity
  8
AM_6
100
AcDbText
 10
18.875
 20
5.785714285714286
 30
0.0
 40
0.5
  1
134206I
100
AcDbAttributeDefinition
  3

  2
NB
 70
     8
280
     0
  0
ATTDEF
  5
A9
330
A2
100
AcDbEntity
  8
AM_6
100
AcDbText
 10
18.875
 20
5.285714285714286
 30
0.0
 40
0.5
  1
$PN.
100
AcDbAttributeDefinition
  3

  2
NBSYN
 70
     8
280
     0
  0
ATTDEF
  5
AA
330
A2
100
AcDbEntity
  8
AM_6
100
AcDbText
 10
18.875
 20
4.785714285714286
 30
0.0
 40
0.5
  1
134206I
100
AcDbAttributeDefinition
  3

  2
LINA
 70
     8
280
     0
  0
ATTDEF
  5
AB
330
A2
100
AcDbEntity
  8
AM_6
100
AcDbText
 10
18.875
 20
4.285714285714286
 30
0.0
 40
0.5
  1
8
100
AcDbAttributeDefinition
  3

  2
SS
 70
     8
280
     0
  0
ATTDEF
  5
AC
330
A2
100
AcDbEntity
  8
AM_6
100
AcDbText
 10
18.875
 20
3.785714285714286
 30
0.0
 40
0.5
  1
STL Expansion Pillow Blocks
100
AcDbAttributeDefinition
  3

  2
TYPE
 70
     8
280
     0
  0
ATTDEF
  5
AD
330
A2
100
AcDbEntity
  8
AM_6
100
AcDbText
 10
18.875
 20
3.285714285714286
 30
0.0
 40
0.5
  1
8.00000
100
AcDbAttributeDefinition
  3

  2
SS1
 70
     8
280
     0
  0
ATTDEF
  5
AE
330
A2
100
AcDbEntity
  8
AM_6
100
AcDbText
 10
18.875
 20
2.785714285714286
 30
0.0
 40
0.5
  1
134228I
100
AcDbAttributeDefinition
  3

  2
PNSTLNE
 70
     8
280
     0
  0
ATTDEF
  5
AF
330
A2
100
AcDbEntity
  8
AM_6
100
AcDbText
 10
18.875
 20
2.285714285714286
 30
0.0
 40
0.5
  1
134206I
100
AcDbAttributeDefinition
  3

  2
PNSTLE
 70
     8
280
     0
  0
ATTDEF
  5
B0
330
A2
100
AcDbEntity
  8
AM_6
100
AcDbText
 10
18.875
 20
1.785714285714286
 30
0.0
 40
0.5
  1
134213I
100
AcDbAttributeDefinition
  3

  2
PNSSL
 70
     8
280
     0
  0
ATTDEF
  5
B1
330
A2
100
AcDbEntity
  8
AM_6
100
AcDbText
 10
18.875
 20
1.285714285714286
 30
0.0
 40
0.5
  1
1395
100
AcDbAttributeDefinition
  3

  2
WEIGHTSTLNE
 70
     8
280
     0
  0
ATTDEF
  5
B2
330
A2
100
AcDbEntity
  8
AM_6
100
AcDbText
 10
18.875
 20
0.7857142857142865
 30
0.0
 40
0.5
  1
1298
100
AcDbAttributeDefinition
  3

  2
WEIGHTSTLE
 70
     8
280
     0
  0
ATTDEF
  5
B3
330
A2
100
AcDbEntity
  8
AM_6
100
AcDbText
 10
18.875
 20
0.2857142857142865
 30
0.0
 40
0.5
  1
1256
100
AcDbAttributeDefinition
  3

  2
WEIGHTSSL
 70
     8
280
     0
  0
ATTDEF
  5
B4
330
A2
100
AcDbEntity
  8
AM_6
100
AcDbText
 10
18.875
 20
-0.2142857142857135
 30
0.0
 40
0.5
  1
27-3/4
100
AcDbAttributeDefinition
  3

  2
ASTL
 70
     8
280
     0
  0
ATTDEF
  5
B5
330
A2
100
AcDbEntity
  8
AM_6
100
AcDbText
 10
18.875
 20
-0.7142857142857135
 30
0.0
 40
0.5
  1
21
100
AcDbAttributeDefinition
  3

  2
ASSL
 70
     8
280
     0
  0
ATTDEF
  5
B6
330
A2
100
AcDbEntity
  8
AM_6
100
AcDbText
 10
18.875
 20
-1.214285714285714
 30
0.0
 40
0.5
  1
27.75000
100
AcDbAttributeDefinition
  3

  2
AASTL
 70
     8
280
     0
  0
ATTDEF
  5
B7
330
A2
100
AcDbEntity
  8
AM_6
100
AcDbText
 10
18.875
 20
-1.714285714285714
 30
0.0
 40
0.5
  1
21.00000
100
AcDbAttributeDefinition
  3

  2
AASSL
 70
     8
280
     0
  0
ATTDEF
  5
B8
330
A2
100
AcDbEntity
  8
AM_6
100
AcDbText
 10
18.875
 20
-2.214285714285714
 30
0.0
 40
0.5
  1
34
100
AcDbAttributeDefinition
  3

  2
B
 70
     8
280
     0
  0
ATTDEF
  5
B9
330
A2
100
AcDbEntity
  8
AM_6
100
AcDbText
 10
18.875
 20
-2.714285714285714
 30
0.0
 40
0.5
  1
34.00000
100
AcDbAttributeDefinition
  3

  2
BB
 70
     8
280
     0
  0
ATTDEF
  5
BA
330
A2
100
AcDbEntity
  8
AM_6
100
AcDbText
 10
18.875
 20
-3.214285714285714
 30
0.0
 40
0.5
  1
14-1/2
100
AcDbAttributeDefinition
  3

  2
C
 70
     8
280
     0
  0
ATTDEF
  5
BB
330
A2
100
AcDbEntity
  8
AM_6
100
AcDbText
 10
18.875
 20
-3.714285714285714
 30
0.0
 40
0.5
  1
14.50000
100
AcDbAttributeDefinition
  3

  2
C1
 70
     8
280
     0
  0
ATTDEF
  5
BC
330
A2
100
AcDbEntity
  8
AM_6
100
AcDbText
 10
18.875
 20
-4.214285714285714
 30
0.0
 40
0.5
  1
25-5/8
100
AcDbAttributeDefinition
  3

  2
DMIN
 70
     8
280
     0
  0
ATTDEF
  5
BD
330
A2
100
AcDbEntity
  8
AM_6
100
AcDbText
 10
18.875
 20
-4.714285714285714
 30
0.0
 40
0.5
  1
25.62500
100
AcDbAttributeDefinition
  3

  2
DMIN1
 70
     8
280
     0
  0
ATTDEF
  5
BE
330
A2
100
AcDbEntity
  8
AM_6
100
AcDbText
 10
18.875
 20
-5.214285714285714
 30
0.0
 40
0.5
  1
28-7/8
100
AcDbAttributeDefinition
  3

  2
DMAX
 70
     8
280
     0
  0
ATTDEF
  5
BF
330
A2
100
AcDbEntity
  8
AM_6
100
AcDbText
 10
18.875
 20
-5.714285714285714
 30
0.0
 40
0.5
  1
28.87500
100
AcDbAttributeDefinition
  3

  2
DMAX1
 70
     8
280
     0
  0
ATTDEF
  5
C0
330
A2
100
AcDbEntity
  8
AM_6
100
AcDbText
 10
18.875
 20
-6.214285714285714
 30
0.0
 40
0.5
  1
7-1/2
100
AcDbAttributeDefinition
  3

  2
E
 70
     8
280
     0
  0
ATTDEF
  5
C1
330
A2
100
AcDbEntity
  8
AM_6
100
AcDbText
 10
18.875
 20
-6.714285714285714
 30
0.0
 40
0.5
  1
7.50000
100
AcDbAttributeDefinition
  3

  2
E1
 70
     8
280
     0
  0
ATTDEF
  5
C2
330
A2
100
AcDbEntity
  8
AM_6
100
AcDbText
 10
18.875
 20
-7.214285714285714
 30
0.0
 40
0.5
  1
1-3/4
100
AcDbAttributeDefinition
  3

  2
F
 70
     8
280
     0
  0
ATTDEF
  5
C3
330
A2
100
AcDbEntity
  8
AM_6
100
AcDbText
 10
18.875
 20
-7.714285714285714
 30
0.0
 40
0.5
  1
1.75000
100
AcDbAttributeDefinition
  3

  2
F1
 70
     8
280
     0
  0
ATTDEF
  5
C4
330
A2
100
AcDbEntity
  8
AM_6
100
AcDbText
 10
18.875
 20
-8.214285714285714
 30
0.0
 40
0.5
  1
3-1/2
100
AcDbAttributeDefinition
  3

  2
G
 70
     8
280
     0
  0
ATTDEF
  5
C5
330
A2
100
AcDbEntity
  8
AM_6
100
AcDbText
 10
18.875
 20
-8.714285714285714
 30
0.0
 40
0.5
  1
3.50000
100
AcDbAttributeDefinition
  3

  2
G1
 70
     8
280
     0
  0
ATTDEF
  5
C6
330
A2
100
AcDbEntity
  8
AM_6
100
AcDbText
 10
18.875
 20
-9.214285714285714
 30
0.0
 40
0.5
  1
5-7/8
100
AcDbAttributeDefinition
  3

  2
HSTL
 70
     8
280
     0
  0
ATTDEF
  5
C7
330
A2
100
AcDbEntity
  8
AM_6
100
AcDbText
 10
18.875
 20
-9.714285714285714
 30
0.0
 40
0.5
  1
4
100
AcDbAttributeDefinition
  3

  2
HSSL
 70
     8
280
     0
  0
ATTDEF
  5
C8
330
A2
100
AcDbEntity
  8
AM_6
100
AcDbText
 10
18.875
 20
-10.21428571428571
 30
0.0
 40
0.5
  1
5.87500
100
AcDbAttributeDefinition
  3

  2
H1STL
 70
     8
280
     0
  0
ATTDEF
  5
C9
330
A2
100
AcDbEntity
  8
AM_6
100
AcDbText
 10
18.875
 20
-10.71428571428571
 30
0.0
 40
0.5
  1
4.00000
100
AcDbAttributeDefinition
  3

  2
H1SSL
 70
     8
280
     0
  0
ATTDEF
  5
CA
330
A2
100
AcDbEntity
  8
AM_6
100
AcDbText
 10
18.875
 20
-11.21428571428571
 30
0.0
 40
0.5
  1
21-5/16
100
AcDbAttributeDefinition
  3

  2
JSTL
 70
     8
280
     0
  0
ATTDEF
  5
CB
330
A2
100
AcDbEntity
  8
AM_6
100
AcDbText
 10
18.875
 20
-11.71428571428571
 30
0.0
 40
0.5
  1
23-1/2
100
AcDbAttributeDefinition
  3

  2
JSSL
 70
     8
280
     0
  0
ATTDEF
  5
CC
330
A2
100
AcDbEntity
  8
AM_6
100
AcDbText
 10
18.875
 20
-12.21428571428571
 30
0.0
 40
0.5
  1
21.31250
100
AcDbAttributeDefinition
  3

  2
J1STL
 70
     8
280
     0
  0
ATTDEF
  5
CD
330
A2
100
AcDbEntity
  8
AM_6
100
AcDbText
 10
18.875
 20
-12.71428571428571
 30
0.0
 40
0.5
  1
23.50000
100
AcDbAttributeDefinition
  3

  2
J1SSL
 70
     8
280
     0
  0
ATTDEF
  5
CE
330
A2
100
AcDbEntity
  8
AM_6
100
AcDbText
 10
18.875
 20
-13.21428571428571
 30
0.0
 40
0.5
  1
22-1/2
100
AcDbAttributeDefinition
  3

  2
K
 70
     8
280
     0
  0
ATTDEF
  5
CF
330
A2
100
AcDbEntity
  8
AM_6
100
AcDbText
 10
18.875
 20
-13.71428571428571
 30
0.0
 40
0.5
  1
22.50000
100
AcDbAttributeDefinition
  3

  2
K1
 70
     8
280
     0
  0
ATTDEF
  5
D0
330
A2
100
AcDbEntity
  8
AM_6
100
AcDbText
 10
18.875
 20
-14.21428571428571
 30
0.0
 40
0.5
  1
16
100
AcDbAttributeDefinition
  3

  2
L
 70
     8
280
     0
  0
ATTDEF
  5
D1
330
A2
100
AcDbEntity
  8
AM_6
100
AcDbText
 10
18.875
 20
-14.71428571428571
 30
0.0
 40
0.5
  1
16.00000
100
AcDbAttributeDefinition
  3

  2
L1
 70
     8
280
     0
  0
ATTDEF
  5
D2
330
A2
100
AcDbEntity
  8
AM_6
100
AcDbText
 10
18.875
 20
-15.21428571428571
 30
0.0
 40
0.5
  1
10-3/4
100
AcDbAttributeDefinition
  3

  2
M
 70
     8
280
     0
  0
ATTDEF
  5
D3
330
A2
100
AcDbEntity
  8
AM_6
100
AcDbText
 10
18.875
 20
-15.71428571428571
 30
0.0
 40
0.5
  1
10.75000
100
AcDbAttributeDefinition
  3

  2
M1
 70
     8
280
     0
  0
ATTDEF
  5
D4
330
A2
100
AcDbEntity
  8
AM_6
100
AcDbText
 10
18.875
 20
-16.21428571428572
 30
0.0
 40
0.5
  1
11
100
AcDbAttributeDefinition
  3

  2
N
 70
     8
280
     0
  0
ATTDEF
  5
D5
330
A2
100
AcDbEntity
  8
AM_6
100
AcDbText
 10
18.875
 20
-16.71428571428572
 30
0.0
 40
0.5
  1
11.00000
100
AcDbAttributeDefinition
  3

  2
NN
 70
     8
280
     0
  0
ATTDEF
  5
D6
330
A2
100
AcDbEntity
  8
AM_6
100
AcDbText
 10
18.875
 20
-17.21428571428572
 30
0.0
 40
0.5
  1
5-3/4
100
AcDbAttributeDefinition
  3

  2
N1
 70
     8
280
     0
  0
ATTDEF
  5
D7
330
A2
100
AcDbEntity
  8
AM_6
100
AcDbText
 10
18.875
 20
-17.71428571428572
 30
0.0
 40
0.5
  1
5.75000
100
AcDbAttributeDefinition
  3

  2
N1N
 70
     8
280
     0
  0
ATTDEF
  5
D8
330
A2
100
AcDbEntity
  8
AM_6
100
AcDbText
 10
18.875
 20
-18.21428571428572
 30
0.0
 40
0.5
  1
19
100
AcDbAttributeDefinition
  3

  2
P
 70
     8
280
     0
  0
ATTDEF
  5
D9
330
A2
100
AcDbEntity
  8
AM_6
100
AcDbText
 10
18.875
 20
-18.71428571428572
 30
0.0
 40
0.5
  1
19.00000
100
AcDbAttributeDefinition
  3

  2
P1
 70
     8
280
     0
  0
ATTDEF
  5
DA
330
A2
100
AcDbEntity
  8
AM_6
100
AcDbText
 10
18.875
 20
-19.21428571428572
 30
0.0
 40
0.5
  1
2
100
AcDbAttributeDefinition
  3

  2
Q
 70
     8
280
     0
  0
ATTDEF
  5
DB
330
A2
100
AcDbEntity
  8
AM_6
100
AcDbText
 10
18.875
 20
-19.71428571428572
 30
0.0
 40
0.5
  1
2.00000
100
AcDbAttributeDefinition
  3

  2
Q1
 70
     8
280
     0
  0
ATTDEF
  5
DC
330
A2
100
AcDbEntity
  8
AM_6
100
AcDbText
 10
18.875
 20
-20.21428571428572
 30
0.0
 40
0.5
  1
1-1/4
100
AcDbAttributeDefinition
  3

  2
PLXC
 70
     8
280
     0
  0
ATTDEF
  5
DD
330
A2
100
AcDbEntity
  8
AM_6
100
AcDbText
 10
18.875
 20
-20.71428571428572
 30
0.0
 40
0.5
  1
3/4
100
AcDbAttributeDefinition
  3

  2
WC
 70
     8
280
     0
  0
ATTDEF
  5
DE
330
A2
100
AcDbEntity
  8
AM_6
100
AcDbText
 10
18.875
 20
-21.21428571428572
 30
0.0
 40
0.5
  1
5-1/4
100
AcDbAttributeDefinition
  3

  2
TSTL
 70
     8
280
     0
  0
ATTDEF
  5
DF
330
A2
100
AcDbEntity
  8
AM_6
100
AcDbText
 10
18.875
 20
-21.71428571428572
 30
0.0
 40
0.5
  1
4
100
AcDbAttributeDefinition
  3

  2
TSSL
 70
     8
280
     0
  0
ATTDEF
  5
E0
330
A2
100
AcDbEntity
  8
AM_6
100
AcDbText
 10
18.875
 20
-22.21428571428572
 30
0.0
 40
0.5
  1
5.25000
100
AcDbAttributeDefinition
  3

  2
T1STL
 70
     8
280
     0
  0
ATTDEF
  5
E1
330
A2
100
AcDbEntity
  8
AM_6
100
AcDbText
 10
18.875
 20
-22.71428571428572
 30
0.0
 40
0.5
  1
4.00000
100
AcDbAttributeDefinition
  3

  2
T1SSL
 70
     8
280
     0
  0
ATTDEF
  5
E2
330
A2
100
AcDbEntity
  8
AM_6
100
AcDbText
 10
18.875
 20
-23.21428571428572
 30
0.0
 40
0.5
  1
4-9/16
100
AcDbAttributeDefinition
  3

  2
U
 70
     8
280
     0
  0
ATTDEF
  5
E3
330
A2
100
AcDbEntity
  8
AM_6
100
AcDbText
 10
18.875
 20
-23.71428571428572
 30
0.0
 40
0.5
  1
4.56250
100
AcDbAttributeDefinition
  3

  2
UU
 70
     8
280
     0
  0
ATTDEF
  5
E4
330
A2
100
AcDbEntity
  8
AM_6
100
AcDbText
 10
18.875
 20
-24.21428571428572
 30
0.0
 40
0.5
  1
1-1/4
100
AcDbAttributeDefinition
  3

  2
U1
 70
     8
280
     0
  0
ATTDEF
  5
E5
330
A2
100
AcDbEntity
  8
AM_6
100
AcDbText
 10
18.875
 20
-24.71428571428572
 30
0.0
 40
0.5
  1
1-1/4
100
AcDbAttributeDefinition
  3

  2
U2
 70
     8
280
     0
  0
ATTDEF
  5
E6
330
A2
100
AcDbEntity
  8
AM_6
100
AcDbText
 10
18.875
 20
-25.21428571428572
 30
0.0
 40
0.5
  1
5
100
AcDbAttributeDefinition
  3

  2
V
 70
     8
280
     0
  0
ATTDEF
  5
E7
330
A2
100
AcDbEntity
  8
AM_6
100
AcDbText
 10
18.875
 20
-25.71428571428572
 30
0.0
 40
0.5
  1
5.00000
100
AcDbAttributeDefinition
  3

  2
V1
 70
     8
280
     0
  0
ATTDEF
  5
E8
330
A2
100
AcDbEntity
  8
AM_6
100
AcDbText
 10
18.875
 20
-26.21428571428572
 30
0.0
 40
0.5
  1
9-5/8
100
AcDbAttributeDefinition
  3

  2
W
 70
     8
280
     0
  0
ATTDEF
  5
E9
330
A2
100
AcDbEntity
  8
AM_6
100
AcDbText
 10
18.875
 20
-26.71428571428572
 30
0.0
 40
0.5
  1
9.62500
100
AcDbAttributeDefinition
  3

  2
W1
 70
     8
280
     0
  0
ATTDEF
  5
EA
330
A2
100
AcDbEntity
  8
AM_6
100
AcDbText
 10
18.875
 20
-27.21428571428572
 30
0.0
 40
0.5
  1
14-13/16
100
AcDbAttributeDefinition
  3

  2
X
 70
     8
280
     0
  0
ATTDEF
  5
EB
330
A2
100
AcDbEntity
  8
AM_6
100
AcDbText
 10
18.875
 20
-27.71428571428572
 30
0.0
 40
0.5
  1
14.81250
100
AcDbAttributeDefinition
  3

  2
X1
 70
     8
280
     0
  0
ATTDEF
  5
EC
330
A2
100
AcDbEntity
  8
AM_6
100
AcDbText
 10
18.875
 20
-28.21428571428572
 30
0.0
 40
0.5
  1
1-3/4
100
AcDbAttributeDefinition
  3

  2
YPLXC
 70
     8
280
     0
  0
ATTDEF
  5
ED
330
A2
100
AcDbEntity
  8
AM_6
100
AcDbText
 10
18.875
 20
-28.71428571428572
 30
0.0
 40
0.5
  1
1-1/4
100
AcDbAttributeDefinition
  3

  2
YWC
 70
     8
280
     0
  0
ATTDEF
  5
EE
330
A2
100
AcDbEntity
  8
AM_6
100
AcDbText
 10
18.875
 20
-29.21428571428572
 30
0.0
 40
0.5
  1
2
100
AcDbAttributeDefinition
  3

  2
Y1PLXC
 70
     8
280
     0
  0
ATTDEF
  5
EF
330
A2
100
AcDbEntity
  8
AM_6
100
AcDbText
 10
18.875
 20
-29.71428571428572
 30
0.0
 40
0.5
  1
1-1/4
100
AcDbAttributeDefinition
  3

  2
Y1WC
 70
     8
280
     0
  0
ATTDEF
  5
F0
330
A2
100
AcDbEntity
  8
AM_6
100
AcDbText
 10
18.875
 20
-30.21428571428572
 30
0.0
 40
0.5
  1
5-1/4
100
AcDbAttributeDefinition
  3

  2
Z
 70
     8
280
     0
  0
ATTDEF
  5
F1
330
A2
100
AcDbEntity
  8
AM_6
100
AcDbText
 10
18.875
 20
-30.71428571428572
 30
0.0
 40
0.5
  1
5.25000
100
AcDbAttributeDefinition
  3

  2
Z1
 70
     8
280
     0
  0
ATTDEF
  5
F2
330
A2
100
AcDbEntity
  8
AM_6
100
AcDbText
 10
18.875
 20
-31.21428571428572
 30
0.0
 40
0.5
  1
1-1/4
100
AcDbAttributeDefinition
  3

  2
A1
 70
     8
280
     0
  0
ATTDEF
  5
F3
330
A2
100
AcDbEntity
  8
AM_6
100
AcDbText
 10
18.875
 20
-31.71428571428572
 30
0.0
 40
0.5
  1
12
100
AcDbAttributeDefinition
  3

  2
B1
 70
     8
280
     0
  0
ATTDEF
  5
F4
330
A2
100
AcDbEntity
  8
AM_6
100
AcDbText
 10
18.875
 20
-32.21428571428572
 30
0.0
 40
0.5
  1
11-1/2 x 3-3/16
100
AcDbAttributeDefinition
  3

  2
TC
 70
     8
280
     0
  0
ATTDEF
  5
F5
330
A2
100
AcDbEntity
  8
AM_6
100
AcDbText
 10
18.875
 20
-32.71428571428572
 30
0.0
 40
0.5
  1
320
100
AcDbAttributeDefinition
  3

  2
O
 70
     8
280
     0
  0
ATTDEF
  5
F6
330
A2
100
AcDbEntity
  8
AM_6
100
AcDbText
 10
18.875
 20
-33.21428571428572
 30
0.0
 40
0.5
  1
19.25000
100
AcDbAttributeDefinition
  3

  2
LL
 70
     8
280
     0
  0
ATTDEF
  5
F7
330
A2
100
AcDbEntity
  8
AM_6
100
AcDbText
 10
18.875
 20
-33.71428571428572
 30
0.0
 40
0.5
  1
baldor
100
AcDbAttributeDefinition
  3

  2
COMPANY
 70
     8
280
     0
  0
LINE
  5
FA
330
A2
100
AcDbEntity
  8
AM_9
100
AcDbLine
 10
13.875
 20
4.0
 30
0.0
 11
-13.875
 21
4.0
 31
0.0
  0
LINE
  5
FB
330
A2
100
AcDbEntity
  8
AM_9
100
AcDbLine
 10
-13.875
 20
-4.0
 30
0.0
 11
13.875
 21
-4.0
 31
0.0
  0
LINE
  5
FC
330
A2
100
AcDbEntity
  8
AM_9
100
AcDbLine
 10
-12.61363636363636
 20
0.16
 30
0.0
 11
-2.775000000000005
 21
0.1599999999999999
 31
0.0
  0
LINE
  5
FD
330
A2
100
AcDbEntity
  8
AM_9
100
AcDbLine
 10
12.61363636363637
 20
0.16
 30
0.0
 11
2.775000000000006
 21
0.1599999999999999
 31
0.0
  0
LINE
  5
FE
330
A2
100
AcDbEntity
  8
AM_9
100
AcDbLine
 10
-2.775000000000005
 20
-0.1599999999999999
 30
0.0
 11
-12.61363636363636
 21
-0.16
 31
0.0
  0
LINE
  5
FF
330
A2
100
AcDbEntity
  8
AM_9
100
AcDbLine
 10
2.775000000000006
 20
-0.1599999999999999
 30
0.0
 11
12.61363636363637
 21
-0.16
 31
0.0
  0
LINE
  5
100
330
A2
100
AcDbEntity
  8
AM_9
100
AcDbLine
 10
2.775000000000006
 20
-0.1599999999999999
 30
0.0
 11
2.775000000000006
 21
0.1599999999999999
 31
0.0
  0
LINE
  5
101
330
A2
100
AcDbEntity
  8
AM_9
100
AcDbLine
 10
-2.775000000000005
 20
-0.1599999999999999
 30
0.0
 11
-2.775000000000005
 21
0.1599999999999999
 31
0.0
  0
LINE
  5
102
330
A2
100
AcDbEntity
  8
AM_9
100
AcDbLine
 10
12.61363636363637
 20
6.785714285714286
 30
0.0
 11
-12.61363636363636
 21
6.785714285714286
 31
0.0
  0
LINE
  5
103
330
A2
100
AcDbEntity
  8
AM_9
100
AcDbLine
 10
-12.61363636363636
 20
-6.785714285714286
 30
0.0
 11
12.61363636363637
 21
-6.785714285714286
 31
0.0
  0
LINE
  5
105
330
A2
100
AcDbEntity
  8
AM_4
100
AcDbLine
 10
13.875
 20
0.16
 30
0.0
 11
12.61363636363637
 21
0.16
 31
0.0
  0
LINE
  5
106
330
A2
100
AcDbEntity
  8
AM_4
100
AcDbLine
 10
13.875
 20
0.16
 30
0.0
 11
13.875
 21
6.230714285714287
 31
0.0
  0
ARC
  5
107
330
A2
100
AcDbEntity
  8
AM_4
100
AcDbCircle
 10
13.32
 20
6.230714285714287
 30
0.0
 40
0.5549999999999997
100
AcDbArc
 50
0.0
 51
90.0
  0
LINE
  5
108
330
A2
100
AcDbEntity
  8
AM_4
100
AcDbLine
 10
-13.875
 20
0.1599999999999999
 30
0.0
 11
-12.61363636363636
 21
0.16
 31
0.0
  0
LINE
  5
109
330
A2
100
AcDbEntity
  8
AM_4
100
AcDbLine
 10
-12.61363636363636
 20
-0.16
 30
0.0
 11
-13.875
 21
-0.1599999999999999
 31
0.0
  0
LINE
  5
10A
330
A2
100
AcDbEntity
  8
AM_4
100
AcDbLine
 10
12.61363636363637
 20
-0.16
 30
0.0
 11
13.875
 21
-0.16
 31
0.0
  0
LINE
  5
10B
330
A2
100
AcDbEntity
  8
AM_4
100
AcDbLine
 10
13.32000000000001
 20
0.16
 30
0.0
 11
13.32000000000001
 21
6.785714285714286
 31
0.0
  0
LINE
  5
10C
330
A2
100
AcDbEntity
  8
AM_4
100
AcDbLine
 10
-12.61363636363636
 20
6.785714285714286
 30
0.0
 11
-13.32
 21
6.785714285714286
 31
0.0
  0
LINE
  5
10D
330
A2
100
AcDbEntity
  8
AM_4
100
AcDbLine
 10
13.32000000000001
 20
6.785714285714286
 30
0.0
 11
12.61363636363637
 21
6.785714285714286
 31
0.0
  0
LINE
  5
10E
330
A2
100
AcDbEntity
  8
AM_4
100
AcDbLine
 10
12.61363636363637
 20
-6.785714285714286
 30
0.0
 11
13.32000000000001
 21
-6.785714285714286
 31
0.0
  0
LINE
  5
10F
330
A2
100
AcDbEntity
  8
AM_4
100
AcDbLine
 10
-13.32
 20
-6.785714285714286
 30
0.0
 11
-12.61363636363636
 21
-6.785714285714286
 31
0.0
  0
LINE
  5
110
330
A2
100
AcDbEntity
  8
AM_4
100
AcDbLine
 10
-13.31999999999999
 20
0.16
 30
0.0
 11
-13.32
 21
6.785714285714286
 31
0.0
  0
LINE
  5
111
330
A2
100
AcDbEntity
  8
AM_4
100
AcDbLine
 10
-13.875
 20
0.1599999999999999
 30
0.0
 11
-13.875
 21
6.230714285714287
 31
0.0
  0
ARC
  5
112
330
A2
100
AcDbEntity
  8
AM_4
100
AcDbCircle
 10
-13.32
 20
6.230714285714285
 30
0.0
 40
0.5550000000000015
100
AcDbArc
 50
90.0
 51
180.0
  0
LINE
  5
113
330
A2
100
AcDbEntity
  8
AM_4
100
AcDbLine
 10
13.875
 20
-6.230714285714287
 30
0.0
 11
13.875
 21
-0.16
 31
0.0
  0
ARC
  5
114
330
A2
100
AcDbEntity
  8
AM_4
100
AcDbCircle
 10
13.32
 20
-6.230714285714287
 30
0.0
 40
0.5549999999999997
100
AcDbArc
 50
270.0
 51
0.0
  0
LINE
  5
115
330
A2
100
AcDbEntity
  8
AM_4
100
AcDbLine
 10
13.32000000000001
 20
-6.785714285714286
 30
0.0
 11
13.32000000000001
 21
-0.16
 31
0.0
  0
LINE
  5
116
330
A2
100
AcDbEntity
  8
AM_4
100
AcDbLine
 10
-13.875
 20
-6.230714285714287
 30
0.0
 11
-13.875
 21
-0.1599999999999999
 31
0.0
  0
ARC
  5
117
330
A2
100
AcDbEntity
  8
AM_4
100
AcDbCircle
 10
-13.32
 20
-6.230714285714285
 30
0.0
 40
0.5550000000000015
100
AcDbArc
 50
180.0
 51
270.0
  0
LINE
  5
118
330
A2
100
AcDbEntity
  8
AM_4
100
AcDbLine
 10
-13.32
 20
-6.785714285714286
 30
0.0
 11
-13.31999999999999
 21
-0.16
 31
0.0
  0
ENDBLK
  5
A5
330
A2
100
AcDbEntity
  8
0
100
AcDbBlockEnd
  0
BLOCK
  5
11B
330
119
100
AcDbEntity
  8
0
100
AcDbBlockBegin
  2
3_134206B_0_in_134206_2
 70
     2
 10
0.0
 20
0.0
 30
0.0
  3
3_134206B_0_in_134206_2
  1

  0
ATTDEF
  5
11D
330
119
100
AcDbEntity
  8
AM_6
100
AcDbText
 10
20.2625
 20
10.58640625
 30
0.0
 40
0.5
  1
3-15/16" THRU 8", PLAIN/EXTERNALLY COOLED STANDARD AND SHORT SERIES PILLOW BLOCK - body
100
AcDbAttributeDefinition
  3

  2
NN
 70
     8
280
     0
  0
ATTDEF
  5
11E
330
119
100
AcDbEntity
  8
AM_6
100
AcDbText
 10
20.2625
 20
10.08640625
 30
0.0
 40
0.5
  1
SLEEVOIL
100
AcDbAttributeDefinition
  3

  2
NT
 70
     8
280
     0
  0
ATTDEF
  5
11F
330
119
100
AcDbEntity
  8
AM_6
100
AcDbText
 10
20.2625
 20
9.58640625
 30
0.0
 40
0.5
  1
134206B
100
AcDbAttributeDefinition
  3

  2
NB
 70
     8
280
     0
  0
ATTDEF
  5
120
330
119
100
AcDbEntity
  8
AM_6
100
AcDbText
 10
20.2625
 20
9.08640625
 30
0.0
 40
0.5
  1
$PN.
100
AcDbAttributeDefinition
  3

  2
NBSYN
 70
     8
280
     0
  0
ATTDEF
  5
121
330
119
100
AcDbEntity
  8
AM_6
100
AcDbText
 10
20.2625
 20
8.58640625
 30
0.0
 40
0.5
  1
134206B
100
AcDbAttributeDefinition
  3

  2
LINA
 70
     8
280
     0
  0
ATTDEF
  5
122
330
119
100
AcDbEntity
  8
AM_6
100
AcDbText
 10
20.2625
 20
8.08640625
 30
0.0
 40
0.5
  1
8
100
AcDbAttributeDefinition
  3

  2
SS
 70
     8
280
     0
  0
ATTDEF
  5
123
330
119
100
AcDbEntity
  8
AM_6
100
AcDbText
 10
20.2625
 20
7.58640625
 30
0.0
 40
0.5
  1
STL Expansion Pillow Blocks
100
AcDbAttributeDefinition
  3

  2
TYPE
 70
     8
280
     0
  0
ATTDEF
  5
124
330
119
100
AcDbEntity
  8
AM_6
100
AcDbText
 10
20.2625
 20
7.08640625
 30
0.0
 40
0.5
  1
8.00000
100
AcDbAttributeDefinition
  3

  2
SS1
 70
     8
280
     0
  0
ATTDEF
  5
125
330
119
100
AcDbEntity
  8
AM_6
100
AcDbText
 10
20.2625
 20
6.58640625
 30
0.0
 40
0.5
  1
134228B
100
AcDbAttributeDefinition
  3

  2
PNSTLNE
 70
     8
280
     0
  0
ATTDEF
  5
126
330
119
100
AcDbEntity
  8
AM_6
100
AcDbText
 10
20.2625
 20
6.08640625
 30
0.0
 40
0.5
  1
134206B
100
AcDbAttributeDefinition
  3

  2
PNSTLE
 70
     8
280
     0
  0
ATTDEF
  5
127
330
119
100
AcDbEntity
  8
AM_6
100
AcDbText
 10
20.2625
 20
5.58640625
 30
0.0
 40
0.5
  1
134213B
100
AcDbAttributeDefinition
  3

  2
PNSSL
 70
     8
280
     0
  0
ATTDEF
  5
128
330
119
100
AcDbEntity
  8
AM_6
100
AcDbText
 10
20.2625
 20
5.08640625
 30
0.0
 40
0.5
  1
1395
100
AcDbAttributeDefinition
  3

  2
WEIGHTSTLNE
 70
     8
280
     0
  0
ATTDEF
  5
129
330
119
100
AcDbEntity
  8
AM_6
100
AcDbText
 10
20.2625
 20
4.58640625
 30
0.0
 40
0.5
  1
1298
100
AcDbAttributeDefinition
  3

  2
WEIGHTSTLE
 70
     8
280
     0
  0
ATTDEF
  5
12A
330
119
100
AcDbEntity
  8
AM_6
100
AcDbText
 10
20.2625
 20
4.08640625
 30
0.0
 40
0.5
  1
1256
100
AcDbAttributeDefinition
  3

  2
WEIGHTSSL
 70
     8
280
     0
  0
ATTDEF
  5
12B
330
119
100
AcDbEntity
  8
AM_6
100
AcDbText
 10
20.2625
 20
3.58640625
 30
0.0
 40
0.5
  1
27-3/4
100
AcDbAttributeDefinition
  3

  2
ASTL
 70
     8
280
     0
  0
ATTDEF
  5
12C
330
119
100
AcDbEntity
  8
AM_6
100
AcDbText
 10
20.2625
 20
3.08640625
 30
0.0
 40
0.5
  1
21
100
AcDbAttributeDefinition
  3

  2
ASSL
 70
     8
280
     0
  0
ATTDEF
  5
12D
330
119
100
AcDbEntity
  8
AM_6
100
AcDbText
 10
20.2625
 20
2.58640625
 30
0.0
 40
0.5
  1
27.75000
100
AcDbAttributeDefinition
  3

  2
AASTL
 70
     8
280
     0
  0
ATTDEF
  5
12E
330
119
100
AcDbEntity
  8
AM_6
100
AcDbText
 10
20.2625
 20
2.08640625
 30
0.0
 40
0.5
  1
21.00000
100
AcDbAttributeDefinition
  3

  2
AASSL
 70
     8
280
     0
  0
ATTDEF
  5
12F
330
119
100
AcDbEntity
  8
AM_6
100
AcDbText
 10
20.2625
 20
1.58640625
 30
0.0
 40
0.5
  1
34
100
AcDbAttributeDefinition
  3

  2
B
 70
     8
280
     0
  0
ATTDEF
  5
130
330
119
100
AcDbEntity
  8
AM_6
100
AcDbText
 10
20.2625
 20
1.08640625
 30
0.0
 40
0.5
  1
34.00000
100
AcDbAttributeDefinition
  3

  2
BB
 70
     8
280
     0
  0
ATTDEF
  5
131
330
119
100
AcDbEntity
  8
AM_6
100
AcDbText
 10
20.2625
 20
0.5864062499999996
 30
0.0
 40
0.5
  1
14-1/2
100
AcDbAttributeDefinition
  3

  2
C
 70
     8
280
     0
  0
ATTDEF
  5
132
330
119
100
AcDbEntity
  8
AM_6
100
AcDbText
 10
20.2625
 20
0.0864062499999996
 30
0.0
 40
0.5
  1
14.50000
100
AcDbAttributeDefinition
  3

  2
C1
 70
     8
280
     0
  0
ATTDEF
  5
133
330
119
100
AcDbEntity
  8
AM_6
100
AcDbText
 10
20.2625
 20
-0.4135937500000004
 30
0.0
 40
0.5
  1
25-5/8
100
AcDbAttributeDefinition
  3

  2
DMIN
 70
     8
280
     0
  0
ATTDEF
  5
134
330
119
100
AcDbEntity
  8
AM_6
100
AcDbText
 10
20.2625
 20
-0.9135937500000004
 30
0.0
 40
0.5
  1
25.62500
100
AcDbAttributeDefinition
  3

  2
DMIN1
 70
     8
280
     0
  0
ATTDEF
  5
135
330
119
100
AcDbEntity
  8
AM_6
100
AcDbText
 10
20.2625
 20
-1.41359375
 30
0.0
 40
0.5
  1
28-7/8
100
AcDbAttributeDefinition
  3

  2
DMAX
 70
     8
280
     0
  0
ATTDEF
  5
136
330
119
100
AcDbEntity
  8
AM_6
100
AcDbText
 10
20.2625
 20
-1.91359375
 30
0.0
 40
0.5
  1
28.87500
100
AcDbAttributeDefinition
  3

  2
DMAX1
 70
     8
280
     0
  0
ATTDEF
  5
137
330
119
100
AcDbEntity
  8
AM_6
100
AcDbText
 10
20.2625
 20
-2.41359375
 30
0.0
 40
0.5
  1
7-1/2
100
AcDbAttributeDefinition
  3

  2
E
 70
     8
280
     0
  0
ATTDEF
  5
138
330
119
100
AcDbEntity
  8
AM_6
100
AcDbText
 10
20.2625
 20
-2.91359375
 30
0.0
 40
0.5
  1
7.50000
100
AcDbAttributeDefinition
  3

  2
E1
 70
     8
280
     0
  0
ATTDEF
  5
139
330
119
100
AcDbEntity
  8
AM_6
100
AcDbText
 10
20.2625
 20
-3.41359375
 30
0.0
 40
0.5
  1
1-3/4
100
AcDbAttributeDefinition
  3

  2
F
 70
     8
280
     0
  0
ATTDEF
  5
13A
330
119
100
AcDbEntity
  8
AM_6
100
AcDbText
 10
20.2625
 20
-3.91359375
 30
0.0
 40
0.5
  1
1.75000
100
AcDbAttributeDefinition
  3

  2
F1
 70
     8
280
     0
  0
ATTDEF
  5
13B
330
119
100
AcDbEntity
  8
AM_6
100
AcDbText
 10
20.2625
 20
-4.41359375
 30
0.0
 40
0.5
  1
3-1/2
100
AcDbAttributeDefinition
  3

  2
GSTL
 70
     8
280
     0
  0
ATTDEF
  5
13C
330
119
100
AcDbEntity
  8
AM_6
100
AcDbText
 10
20.2625
 20
-4.91359375
 30
0.0
 40
0.5
  1
3-1/2
100
AcDbAttributeDefinition
  3

  2
GSSL
 70
     8
280
     0
  0
ATTDEF
  5
13D
330
119
100
AcDbEntity
  8
AM_6
100
AcDbText
 10
20.2625
 20
-5.41359375
 30
0.0
 40
0.5
  1
3.50000
100
AcDbAttributeDefinition
  3

  2
G1STL
 70
     8
280
     0
  0
ATTDEF
  5
13E
330
119
100
AcDbEntity
  8
AM_6
100
AcDbText
 10
20.2625
 20
-5.91359375
 30
0.0
 40
0.5
  1
3.50000
100
AcDbAttributeDefinition
  3

  2
G1SSL
 70
     8
280
     0
  0
ATTDEF
  5
13F
330
119
100
AcDbEntity
  8
AM_6
100
AcDbText
 10
20.2625
 20
-6.41359375
 30
0.0
 40
0.5
  1
5-7/8
100
AcDbAttributeDefinition
  3

  2
HSTL
 70
     8
280
     0
  0
ATTDEF
  5
140
330
119
100
AcDbEntity
  8
AM_6
100
AcDbText
 10
20.2625
 20
-6.91359375
 30
0.0
 40
0.5
  1
4
100
AcDbAttributeDefinition
  3

  2
HSSL
 70
     8
280
     0
  0
ATTDEF
  5
141
330
119
100
AcDbEntity
  8
AM_6
100
AcDbText
 10
20.2625
 20
-7.41359375
 30
0.0
 40
0.5
  1
5.87500
100
AcDbAttributeDefinition
  3

  2
H1STL
 70
     8
280
     0
  0
ATTDEF
  5
142
330
119
100
AcDbEntity
  8
AM_6
100
AcDbText
 10
20.2625
 20
-7.91359375
 30
0.0
 40
0.5
  1
4.00000
100
AcDbAttributeDefinition
  3

  2
H1SSL
 70
     8
280
     0
  0
ATTDEF
  5
143
330
119
100
AcDbEntity
  8
AM_6
100
AcDbText
 10
20.2625
 20
-8.41359375
 30
0.0
 40
0.5
  1
21-5/16
100
AcDbAttributeDefinition
  3

  2
JSTL
 70
     8
280
     0
  0
ATTDEF
  5
144
330
119
100
AcDbEntity
  8
AM_6
100
AcDbText
 10
20.2625
 20
-8.91359375
 30
0.0
 40
0.5
  1
23-1/2
100
AcDbAttributeDefinition
  3

  2
JSSL
 70
     8
280
     0
  0
ATTDEF
  5
145
330
119
100
AcDbEntity
  8
AM_6
100
AcDbText
 10
20.2625
 20
-9.41359375
 30
0.0
 40
0.5
  1
21.31250
100
AcDbAttributeDefinition
  3

  2
J1STL
 70
     8
280
     0
  0
ATTDEF
  5
146
330
119
100
AcDbEntity
  8
AM_6
100
AcDbText
 10
20.2625
 20
-9.91359375
 30
0.0
 40
0.5
  1
23.50000
100
AcDbAttributeDefinition
  3

  2
J1SSL
 70
     8
280
     0
  0
ATTDEF
  5
147
330
119
100
AcDbEntity
  8
AM_6
100
AcDbText
 10
20.2625
 20
-10.41359375
 30
0.0
 40
0.5
  1
22-1/2
100
AcDbAttributeDefinition
  3

  2
K
 70
     8
280
     0
  0
ATTDEF
  5
148
330
119
100
AcDbEntity
  8
AM_6
100
AcDbText
 10
20.2625
 20
-10.91359375
 30
0.0
 40
0.5
  1
22.50000
100
AcDbAttributeDefinition
  3

  2
K1
 70
     8
280
     0
  0
ATTDEF
  5
149
330
119
100
AcDbEntity
  8
AM_6
100
AcDbText
 10
20.2625
 20
-11.41359375
 30
0.0
 40
0.5
  1
16
100
AcDbAttributeDefinition
  3

  2
L
 70
     8
280
     0
  0
ATTDEF
  5
14A
330
119
100
AcDbEntity
  8
AM_6
100
AcDbText
 10
20.2625
 20
-11.91359375
 30
0.0
 40
0.5
  1
16.00000
100
AcDbAttributeDefinition
  3

  2
L1
 70
     8
280
     0
  0
ATTDEF
  5
14B
330
119
100
AcDbEntity
  8
AM_6
100
AcDbText
 10
20.2625
 20
-12.41359375
 30
0.0
 40
0.5
  1
10-3/4
100
AcDbAttributeDefinition
  3

  2
M
 70
     8
280
     0
  0
ATTDEF
  5
14C
330
119
100
AcDbEntity
  8
AM_6
100
AcDbText
 10
20.2625
 20
-12.91359375
 30
0.0
 40
0.5
  1
10.75000
100
AcDbAttributeDefinition
  3

  2
M1
 70
     8
280
     0
  0
ATTDEF
  5
14D
330
119
100
AcDbEntity
  8
AM_6
100
AcDbText
 10
20.2625
 20
-13.41359375
 30
0.0
 40
0.5
  1
11
100
AcDbAttributeDefinition
  3

  2
N
 70
     8
280
     0
  0
ATTDEF
  5
14E
330
119
100
AcDbEntity
  8
AM_6
100
AcDbText
 10
20.2625
 20
-13.91359375
 30
0.0
 40
0.5
  1
11.00000
100
AcDbAttributeDefinition
  3

  2
NN
 70
     8
280
     0
  0
ATTDEF
  5
14F
330
119
100
AcDbEntity
  8
AM_6
100
AcDbText
 10
20.2625
 20
-14.41359375
 30
0.0
 40
0.5
  1
5-3/4
100
AcDbAttributeDefinition
  3

  2
N1
 70
     8
280
     0
  0
ATTDEF
  5
150
330
119
100
AcDbEntity
  8
AM_6
100
AcDbText
 10
20.2625
 20
-14.91359375
 30
0.0
 40
0.5
  1
5.75000
100
AcDbAttributeDefinition
  3

  2
N1N
 70
     8
280
     0
  0
ATTDEF
  5
151
330
119
100
AcDbEntity
  8
AM_6
100
AcDbText
 10
20.2625
 20
-15.41359375
 30
0.0
 40
0.5
  1
19
100
AcDbAttributeDefinition
  3

  2
P
 70
     8
280
     0
  0
ATTDEF
  5
152
330
119
100
AcDbEntity
  8
AM_6
100
AcDbText
 10
20.2625
 20
-15.91359375
 30
0.0
 40
0.5
  1
19.00000
100
AcDbAttributeDefinition
  3

  2
P1
 70
     8
280
     0
  0
ATTDEF
  5
153
330
119
100
AcDbEntity
  8
AM_6
100
AcDbText
 10
20.2625
 20
-16.41359375
 30
0.0
 40
0.5
  1
2
100
AcDbAttributeDefinition
  3

  2
Q
 70
     8
280
     0
  0
ATTDEF
  5
154
330
119
100
AcDbEntity
  8
AM_6
100
AcDbText
 10
20.2625
 20
-16.91359375
 30
0.0
 40
0.5
  1
2.00000
100
AcDbAttributeDefinition
  3

  2
Q1
 70
     8
280
     0
  0
ATTDEF
  5
155
330
119
100
AcDbEntity
  8
AM_6
100
AcDbText
 10
20.2625
 20
-17.41359375
 30
0.0
 40
0.5
  1
1-1/4
100
AcDbAttributeDefinition
  3

  2
PLXC
 70
     8
280
     0
  0
ATTDEF
  5
156
330
119
100
AcDbEntity
  8
AM_6
100
AcDbText
 10
20.2625
 20
-17.91359375
 30
0.0
 40
0.5
  1
3/4
100
AcDbAttributeDefinition
  3

  2
WC
 70
     8
280
     0
  0
ATTDEF
  5
157
330
119
100
AcDbEntity
  8
AM_6
100
AcDbText
 10
20.2625
 20
-18.41359375
 30
0.0
 40
0.5
  1
5-1/4
100
AcDbAttributeDefinition
  3

  2
TSTL
 70
     8
280
     0
  0
ATTDEF
  5
158
330
119
100
AcDbEntity
  8
AM_6
100
AcDbText
 10
20.2625
 20
-18.91359375
 30
0.0
 40
0.5
  1
4
100
AcDbAttributeDefinition
  3

  2
TSSL
 70
     8
280
     0
  0
ATTDEF
  5
159
330
119
100
AcDbEntity
  8
AM_6
100
AcDbText
 10
20.2625
 20
-19.41359375
 30
0.0
 40
0.5
  1
5.25000
100
AcDbAttributeDefinition
  3

  2
T1STL
 70
     8
280
     0
  0
ATTDEF
  5
15A
330
119
100
AcDbEntity
  8
AM_6
100
AcDbText
 10
20.2625
 20
-19.91359375
 30
0.0
 40
0.5
  1
4.00000
100
AcDbAttributeDefinition
  3

  2
T1SSL
 70
     8
280
     0
  0
ATTDEF
  5
15B
330
119
100
AcDbEntity
  8
AM_6
100
AcDbText
 10
20.2625
 20
-20.41359375
 30
0.0
 40
0.5
  1
4-9/16
100
AcDbAttributeDefinition
  3

  2
U
 70
     8
280
     0
  0
ATTDEF
  5
15C
330
119
100
AcDbEntity
  8
AM_6
100
AcDbText
 10
20.2625
 20
-20.91359375
 30
0.0
 40
0.5
  1
4.56250
100
AcDbAttributeDefinition
  3

  2
UU
 70
     8
280
     0
  0
ATTDEF
  5
15D
330
119
100
AcDbEntity
  8
AM_6
100
AcDbText
 10
20.2625
 20
-21.41359375
 30
0.0
 40
0.5
  1
1-1/4
100
AcDbAttributeDefinition
  3

  2
U1
 70
     8
280
     0
  0
ATTDEF
  5
15E
330
119
100
AcDbEntity
  8
AM_6
100
AcDbText
 10
20.2625
 20
-21.91359375
 30
0.0
 40
0.5
  1
1-1/4
100
AcDbAttributeDefinition
  3

  2
U2
 70
     8
280
     0
  0
ATTDEF
  5
15F
330
119
100
AcDbEntity
  8
AM_6
100
AcDbText
 10
20.2625
 20
-22.41359375
 30
0.0
 40
0.5
  1
5
100
AcDbAttributeDefinition
  3

  2
V
 70
     8
280
     0
  0
ATTDEF
  5
160
330
119
100
AcDbEntity
  8
AM_6
100
AcDbText
 10
20.2625
 20
-22.91359375
 30
0.0
 40
0.5
  1
5.00000
100
AcDbAttributeDefinition
  3

  2
V1
 70
     8
280
     0
  0
ATTDEF
  5
161
330
119
100
AcDbEntity
  8
AM_6
100
AcDbText
 10
20.2625
 20
-23.41359375
 30
0.0
 40
0.5
  1
9-5/8
100
AcDbAttributeDefinition
  3

  2
W
 70
     8
280
     0
  0
ATTDEF
  5
162
330
119
100
AcDbEntity
  8
AM_6
100
AcDbText
 10
20.2625
 20
-23.91359375
 30
0.0
 40
0.5
  1
9.62500
100
AcDbAttributeDefinition
  3

  2
W1
 70
     8
280
     0
  0
ATTDEF
  5
163
330
119
100
AcDbEntity
  8
AM_6
100
AcDbText
 10
20.2625
 20
-24.41359375
 30
0.0
 40
0.5
  1
14-13/16
100
AcDbAttributeDefinition
  3

  2
X
 70
     8
280
     0
  0
ATTDEF
  5
164
330
119
100
AcDbEntity
  8
AM_6
100
AcDbText
 10
20.2625
 20
-24.91359375
 30
0.0
 40
0.5
  1
14.81250
100
AcDbAttributeDefinition
  3

  2
X1
 70
     8
280
     0
  0
ATTDEF
  5
165
330
119
100
AcDbEntity
  8
AM_6
100
AcDbText
 10
20.2625
 20
-25.41359375
 30
0.0
 40
0.5
  1
1-3/4
100
AcDbAttributeDefinition
  3

  2
YPLXC
 70
     8
280
     0
  0
ATTDEF
  5
166
330
119
100
AcDbEntity
  8
AM_6
100
AcDbText
 10
20.2625
 20
-25.91359375
 30
0.0
 40
0.5
  1
1-1/4
100
AcDbAttributeDefinition
  3

  2
YWC
 70
     8
280
     0
  0
ATTDEF
  5
167
330
119
100
AcDbEntity
  8
AM_6
100
AcDbText
 10
20.2625
 20
-26.41359375
 30
0.0
 40
0.5
  1
2
100
AcDbAttributeDefinition
  3

  2
Y1PLXC
 70
     8
280
     0
  0
ATTDEF
  5
168
330
119
100
AcDbEntity
  8
AM_6
100
AcDbText
 10
20.2625
 20
-26.91359375
 30
0.0
 40
0.5
  1
1-1/4
100
AcDbAttributeDefinition
  3

  2
Y1WC
 70
     8
280
     0
  0
ATTDEF
  5
169
330
119
100
AcDbEntity
  8
AM_6
100
AcDbText
 10
20.2625
 20
-27.41359375
 30
0.0
 40
0.5
  1
5-1/4
100
AcDbAttributeDefinition
  3

  2
Z
 70
     8
280
     0
  0
ATTDEF
  5
16A
330
119
100
AcDbEntity
  8
AM_6
100
AcDbText
 10
20.2625
 20
-27.91359375
 30
0.0
 40
0.5
  1
5.25000
100
AcDbAttributeDefinition
  3

  2
Z1
 70
     8
280
     0
  0
ATTDEF
  5
16B
330
119
100
AcDbEntity
  8
AM_6
100
AcDbText
 10
20.2625
 20
-28.41359375
 30
0.0
 40
0.5
  1
1-1/4
100
AcDbAttributeDefinition
  3

  2
A1
 70
     8
280
     0
  0
ATTDEF
  5
16C
330
119
100
AcDbEntity
  8
AM_6
100
AcDbText
 10
20.2625
 20
-28.91359375
 30
0.0
 40
0.5
  1
12
100
AcDbAttributeDefinition
  3

  2
B1
 70
     8
280
     0
  0
ATTDEF
  5
16D
330
119
100
AcDbEntity
  8
AM_6
100
AcDbText
 10
20.2625
 20
-29.41359375
 30
0.0
 40
0.5
  1
11-1/2 x 3-3/16
100
AcDbAttributeDefinition
  3

  2
TC
 70
     8
280
     0
  0
ATTDEF
  5
16E
330
119
100
AcDbEntity
  8
AM_6
100
AcDbText
 10
20.2625
 20
-29.91359375
 30
0.0
 40
0.5
  1
320
100
AcDbAttributeDefinition
  3

  2
O
 70
     8
280
     0
  0
ATTDEF
  5
16F
330
119
100
AcDbEntity
  8
AM_6
100
AcDbText
 10
20.2625
 20
-30.41359375
 30
0.0
 40
0.5
  1
19.25000
100
AcDbAttributeDefinition
  3

  2
LL
 70
     8
280
     0
  0
ATTDEF
  5
170
330
119
100
AcDbEntity
  8
AM_6
100
AcDbText
 10
20.2625
 20
-30.91359375
 30
0.0
 40
0.5
  1
baldor
100
AcDbAttributeDefinition
  3

  2
COMPANY
 70
     8
280
     0
  0
LINE
  5
171
330
119
100
AcDbEntity
  8
AM_9
100
AcDbLine
 10
-12.61363636363636
 20
-6.785714285714286
 30
0.0
 11
12.61363636363636
 21
-6.785714285714286
 31
0.0
  0
LINE
  5
172
330
119
100
AcDbEntity
  8
AM_9
100
AcDbLine
 10
12.61363636363636
 20
6.785714285714286
 30
0.0
 11
-12.61363636363636
 21
6.785714285714286
 31
0.0
  0
LINE
  5
173
330
119
100
AcDbEntity
  8
AM_9
100
AcDbLine
 10
4.583333333333332
 20
5.251322584729388
 30
0.0
 11
4.583333333333332
 21
8.260869565217392
 31
0.0
  0
LINE
  5
174
330
119
100
AcDbEntity
  8
AM_9
100
AcDbLine
 10
7.483333333333333
 20
5.25132258472938
 30
0.0
 11
7.483333333333333
 21
8.260869565217392
 31
0.0
  0
LINE
  5
175
330
119
100
AcDbEntity
  8
AM_9
100
AcDbLine
 10
7.488944761072433
 20
5.049110879218827
 30
0.0
 11
7.483333333333333
 21
5.251322584729376
 31
0.0
  0
LINE
  5
176
330
119
100
AcDbEntity
  8
AM_9
100
AcDbLine
 10
-7.483333333333333
 20
5.251322584729398
 30
0.0
 11
-7.483333333333333
 21
8.260869565217392
 31
0.0
  0
LINE
  5
177
330
119
100
AcDbEntity
  8
AM_9
100
AcDbLine
 10
-4.583333333333333
 20
5.25132258472938
 30
0.0
 11
-4.583333333333333
 21
8.260869565217392
 31
0.0
  0
LINE
  5
178
330
119
100
AcDbEntity
  8
AM_9
100
AcDbLine
 10
-4.577721905594234
 20
5.049110879218822
 30
0.0
 11
-4.583333333333333
 21
5.251322584729379
 31
0.0
  0
LINE
  5
179
330
119
100
AcDbEntity
  8
AM_9
100
AcDbLine
 10
4.583333333333332
 20
5.251322584729388
 30
0.0
 11
4.577721905594233
 21
5.049110879218829
 31
0.0
  0
LINE
  5
17A
330
119
100
AcDbEntity
  8
AM_9
100
AcDbLine
 10
-7.483333333333333
 20
5.251322584729398
 30
0.0
 11
-7.488944761072433
 21
5.049110879218822
 31
0.0
  0
LINE
  5
17B
330
119
100
AcDbEntity
  8
AM_9
100
AcDbLine
 10
5.039418473576359
 20
-7.8125
 30
0.0
 11
2.460581526423643
 21
-7.8125
 31
0.0
  0
LINE
  5
17C
330
119
100
AcDbEntity
  8
AM_9
100
AcDbLine
 10
-2.460581526423641
 20
-7.8125
 30
0.0
 11
-5.039418473576357
 21
-7.8125
 31
0.0
  0
LINE
  5
17D
330
119
100
AcDbEntity
  8
AM_9
100
AcDbLine
 10
-4.624999999999999
 20
-4.875
 30
0.0
 11
-4.624999999999999
 21
-10.75
 31
0.0
  0
LINE
  5
17E
330
119
100
AcDbEntity
  8
AM_9
100
AcDbLine
 10
-2.874999999999999
 20
-4.875000000000001
 30
0.0
 11
-2.874999999999999
 21
-10.75
 31
0.0
  0
LINE
  5
17F
330
119
100
AcDbEntity
  8
AM_9
100
AcDbLine
 10
-4.627083333333332
 20
-4.875000000000001
 30
0.0
 11
-4.627083333333332
 21
-10.75
 31
0.0
  0
LINE
  5
180
330
119
100
AcDbEntity
  8
AM_9
100
AcDbLine
 10
-2.872916666666666
 20
-10.75
 30
0.0
 11
-2.872916666666666
 21
-4.875000000000001
 31
0.0
  0
LINE
  5
181
330
119
100
AcDbEntity
  8
AM_9
100
AcDbLine
 10
2.875000000000001
 20
-4.875
 30
0.0
 11
2.875000000000001
 21
-10.75
 31
0.0
  0
LINE
  5
182
330
119
100
AcDbEntity
  8
AM_9
100
AcDbLine
 10
4.625000000000002
 20
-4.875000000000001
 30
0.0
 11
4.625000000000002
 21
-10.75
 31
0.0
  0
LINE
  5
183
330
119
100
AcDbEntity
  8
AM_9
100
AcDbLine
 10
2.872916666666668
 20
-4.875000000000001
 30
0.0
 11
2.872916666666668
 21
-10.75
 31
0.0
  0
LINE
  5
184
330
119
100
AcDbEntity
  8
AM_9
100
AcDbLine
 10
4.627083333333335
 20
-10.75
 30
0.0
 11
4.627083333333335
 21
-4.875000000000001
 31
0.0
  0
LWPOLYLINE
  5
185
330
119
100
AcDbEntity
  8
AM_9
100
AcDbPolyline
 90
        3
 70
     0
 43
0.0
 10
-2.37642009482676
 20
-4.87542708985113
 10
-2.256924677155815
 20
-5.154578088920615
 10
-2.184553162749415
 20
-5.365343746599727
  0
LWPOLYLINE
  5
186
330
119
100
AcDbEntity
  8
AM_9
100
AcDbPolyline
 90
        4
 70
     0
 43
0.0
 10
-5.315690556963026
 20
-5.366144729131481
 10
-5.251434832715565
 20
-5.176743824241542
 10
-5.131721740786042
 20
-4.891833982561451
 10
-5.123476280322552
 20
-4.875208660256752
  0
LWPOLYLINE
  5
187
330
119
100
AcDbEntity
  8
AM_9
100
AcDbPolyline
 90
        3
 70
     0
 43
0.0
 10
5.12357990517324
 20
-4.875427089851129
 10
5.243075322844192
 20
-5.154578088920632
 10
5.315446837250585
 20
-5.365343746599727
  0
LWPOLYLINE
  5
188
330
119
100
AcDbEntity
  8
AM_9
100
AcDbPolyline
 90
        4
 70
     0
 43
0.0
 10
2.184309443036975
 20
-5.366144729131481
 10
2.248565167284435
 20
-5.176743824241543
 10
2.368278259213959
 20
-4.891833982561452
 10
2.376523719677449
 20
-4.875208660256752
  0
LINE
  5
18B
330
119
100
AcDbEntity
  8
AM_7
100
AcDbLine
 10
6.033333333333333
 20
8.8698695652174
 30
0.0
 11
6.033333333333333
 21
8.231869565217403
 31
0.0
  0
LINE
  5
18C
330
119
100
AcDbEntity
  8
AM_7
100
AcDbLine
 10
-6.033333333333333
 20
8.8698695652174
 30
0.0
 11
-6.033333333333333
 21
8.231869565217403
 31
0.0
  0
LINE
  5
18D
330
119
100
AcDbEntity
  8
AM_7
100
AcDbLine
 10
-10.40625
 20
10.58640625
 30
0.0
 11
-10.40625
 21
9.489375
 31
0.0
  0
LINE
  5
18E
330
119
100
AcDbEntity
  8
AM_7
100
AcDbLine
 10
10.40625
 20
10.58640625
 30
0.0
 11
10.40625
 21
9.489375
 31
0.0
  0
LINE
  5
18F
330
119
100
AcDbEntity
  8
AM_7
100
AcDbLine
 10
15.2625
 20
0.0
 30
0.0
 11
-15.2625
 21
0.0
 31
0.0
  0
LINE
  5
190
330
119
100
AcDbEntity
  8
AM_7
100
AcDbLine
 10
-10.90828125
 20
10.084375
 30
0.0
 11
-9.90421875
 21
10.084375
 31
0.0
  0
LINE
  5
191
330
119
100
AcDbEntity
  8
AM_7
100
AcDbLine
 10
9.904218750000002
 20
10.084375
 30
0.0
 11
10.90828125
 21
10.084375
 31
0.0
  0
ARC
  5
192
330
119
100
AcDbEntity
  8
AM_4
100
AcDbCircle
 10
-10.40625
 20
10.084375
 30
0.0
 40
0.4781250000000008
100
AcDbArc
 50
308.9039933486531
 51
231.1555004348805
  0
CIRCLE
  5
193
330
119
100
AcDbEntity
  8
AM_4
100
AcDbCircle
 10
-10.40625
 20
10.084375
 30
0.0
 40
0.2656250000000012
  0
ARC
  5
194
330
119
100
AcDbEntity
  8
AM_4
100
AcDbCircle
 10
10.40625
 20
10.084375
 30
0.0
 40
0.4781250000000014
100
AcDbArc
 50
308.9039933486525
 51
231.1555004348812
  0
CIRCLE
  5
195
330
119
100
AcDbEntity
  8
AM_4
100
AcDbCircle
 10
10.40625
 20
10.084375
 30
0.0
 40
0.2656250000000012
  0
LINE
  5
196
330
119
100
AcDbEntity
  8
AM_4
100
AcDbLine
 10
10.86168806779721
 20
9.712499999999997
 30
0.0
 11
9.950811932202788
 21
9.712499999999997
 31
0.0
  0
LINE
  5
197
330
119
100
AcDbEntity
  8
AM_4
100
AcDbLine
 10
9.950811932202788
 20
9.712499999999997
 30
0.0
 11
9.828124999999995
 21
9.5
 31
0.0
  0
LINE
  5
198
330
119
100
AcDbEntity
  8
AM_4
100
AcDbLine
 10
10.98437500000001
 20
9.5
 30
0.0
 11
10.86168806779721
 21
9.712499999999997
 31
0.0
  0
LINE
  5
199
330
119
100
AcDbEntity
  8
AM_4
100
AcDbLine
 10
-10.86168806779721
 20
9.7125
 30
0.0
 11
-9.950811932202788
 21
9.7125
 31
0.0
  0
LINE
  5
19A
330
119
100
AcDbEntity
  8
AM_4
100
AcDbLine
 10
-10.86168806779721
 20
9.7125
 30
0.0
 11
-10.98437500000001
 21
9.5
 31
0.0
  0
LINE
  5
19B
330
119
100
AcDbEntity
  8
AM_4
100
AcDbLine
 10
-9.828124999999995
 20
9.5
 30
0.0
 11
-9.950811932202788
 21
9.7125
 31
0.0
  0
LINE
  5
19C
330
119
100
AcDbEntity
  8
AM_4
100
AcDbLine
 10
-11.5625
 20
9.5
 30
0.0
 11
-11.5625
 21
7.916666666666667
 31
0.0
  0
LINE
  5
19D
330
119
100
AcDbEntity
  8
AM_4
100
AcDbLine
 10
-10.78195945945946
 20
9.5
 30
0.0
 11
-10.78195945945946
 21
7.859459975794209
 31
0.0
  0
LINE
  5
19E
330
119
100
AcDbEntity
  8
AM_4
100
AcDbLine
 10
-9.25
 20
9.5
 30
0.0
 11
-9.25
 21
9.45238065251463
 31
0.0
  0
LINE
  5
19F
330
119
100
AcDbEntity
  8
AM_4
100
AcDbLine
 10
11.5625
 20
7.916666666666667
 30
0.0
 11
11.5625
 21
9.5
 31
0.0
  0
LINE
  5
1A0
330
119
100
AcDbEntity
  8
AM_4
100
AcDbLine
 10
10.78195945945943
 20
9.5
 30
0.0
 11
10.78195945945943
 21
7.859459975794209
 31
0.0
  0
LINE
  5
1A1
330
119
100
AcDbEntity
  8
AM_4
100
AcDbLine
 10
9.25
 20
9.5
 30
0.0
 11
9.25
 21
9.45238065251463
 31
0.0
  0
LWPOLYLINE
  5
1A2
330
119
100
AcDbEntity
  8
AM_4
100
AcDbPolyline
 90
       10
 70
     0
 43
0.0
 10
10.78195945945943
 20
7.859459975794208
 10
10.93642492963278
 20
7.864668132279387
 10
11.08543742565455
 20
7.872561814918575
 10
11.21648582882003
 20
7.881825927038363
 10
11.33342676628191
 20
7.89192110866302
 10
11.42686799286266
 20
7.901222460104075
 10
11.49898940973557
 20
7.909149005786815
 10
11.54361241114445
 20
7.914378468881486
 10
11.56215996006635
 20
7.916625078946923
 10
11.56249999999885
 20
7.916666666666528
  0
LINE
  5
1A3
330
119
100
AcDbEntity
  8
AM_4
100
AcDbLine
 10
10.46571428571429
 20
7.859459975794208
 30
0.0
 11
10.78195945945943
 21
7.859459975794209
 31
0.0
  0
LINE
  5
1A4
330
119
100
AcDbEntity
  8
AM_4
100
AcDbLine
 10
10.46571428571429
 20
-7.916666666666667
 30
0.0
 11
12.05863636363636
 21
-7.916666666666667
 31
0.0
  0
LINE
  5
1A5
330
119
100
AcDbEntity
  8
AM_4
100
AcDbLine
 10
12.05863636363636
 20
7.916666666666667
 30
0.0
 11
11.56071701893386
 21
7.916666666666667
 31
0.0
  0
LINE
  5
1A6
330
119
100
AcDbEntity
  8
AM_4
100
AcDbLine
 10
12.61363636363636
 20
7.36166667493681
 30
0.0
 11
12.61363636363636
 21
-7.36166667493681
 31
0.0
  0
ARC
  5
1A7
330
119
100
AcDbEntity
  8
AM_4
100
AcDbCircle
 10
12.05863636363636
 20
-7.361666666666664
 30
0.0
 40
0.5550000000000033
100
AcDbArc
 50
270.0
 51
0.0
  0
ARC
  5
1A8
330
119
100
AcDbEntity
  8
AM_4
100
AcDbCircle
 10
12.05863636363636
 20
7.361666666666664
 30
0.0
 40
0.5550000000000033
100
AcDbArc
 50
0.0
 51
90.0
  0
LINE
  5
1A9
330
119
100
AcDbEntity
  8
AM_4
100
AcDbLine
 10
12.05863636363636
 20
7.916666666666667
 30
0.0
 11
12.05863636363636
 21
-7.916666666666667
 31
0.0
  0
LINE
  5
1AA
330
119
100
AcDbEntity
  8
AM_4
100
AcDbLine
 10
-10.78195945945946
 20
7.859459975794209
 30
0.0
 11
-10.46571428571429
 21
7.859459975794209
 31
0.0
  0
LINE
  5
1AB
330
119
100
AcDbEntity
  8
AM_4
100
AcDbLine
 10
-12.05863636363636
 20
-7.916666666666667
 30
0.0
 11
-10.46571428571429
 21
-7.916666666666667
 31
0.0
  0
LINE
  5
1AC
330
119
100
AcDbEntity
  8
AM_4
100
AcDbLine
 10
-11.56071701893386
 20
7.916666666666667
 30
0.0
 11
-12.05863636363636
 21
7.916666666666667
 31
0.0
  0
LWPOLYLINE
  5
1AD
330
119
100
AcDbEntity
  8
AM_4
100
AcDbPolyline
 90
       10
 70
     0
 43
0.0
 10
-11.56249999999885
 20
7.916666666666528
 10
-11.55317963232154
 20
7.915531970778134
 10
-11.51664400410906
 20
7.91118830672116
 10
-11.45571457228546
 20
7.904314849018744
 10
-11.36866920083528
 20
7.895300616919428
 10
-11.26202423420526
 20
7.885552496565357
 10
-11.13317881287309
 20
7.875685530717066
 10
-10.99229280793989
 20
7.867297849786673
 10
-10.83570117549486
 20
7.860928097510855
 10
-10.78195945945946
 20
7.85945997579421
  0
LINE
  5
1AE
330
119
100
AcDbEntity
  8
AM_4
100
AcDbLine
 10
-12.61363636363636
 20
7.361666666666667
 30
0.0
 11
-12.61363636363636
 21
-7.361666666666667
 31
0.0
  0
ARC
  5
1AF
330
119
100
AcDbEntity
  8
AM_4
100
AcDbCircle
 10
-12.05863636363636
 20
-7.361666666666668
 30
0.0
 40
0.5549999999999997
100
AcDbArc
 50
180.0
 51
270.0
  0
ARC
  5
1B0
330
119
100
AcDbEntity
  8
AM_4
100
AcDbCircle
 10
-12.05863636363636
 20
7.361666666666668
 30
0.0
 40
0.5549999999999997
100
AcDbArc
 50
90.0
 51
180.0
  0
LINE
  5
1B1
330
119
100
AcDbEntity
  8
AM_4
100
AcDbLine
 10
-12.05863636363636
 20
7.916666666666668
 30
0.0
 11
-12.05863636363636
 21
-7.916666666666668
 31
0.0
  0
LINE
  5
1B2
330
119
100
AcDbEntity
  8
AM_4
100
AcDbLine
 10
-6.758333333333335
 20
8.840869565217393
 30
0.0
 11
-6.846107984134263
 21
8.753094914416465
 31
0.0
  0
LINE
  5
1B3
330
119
100
AcDbEntity
  8
AM_4
100
AcDbLine
 10
6.846107984134263
 20
8.753094914416465
 30
0.0
 11
6.758333333333335
 21
8.840869565217393
 31
0.0
  0
LINE
  5
1B4
330
119
100
AcDbEntity
  8
AM_4
100
AcDbLine
 10
6.758333333333335
 20
8.840869565217393
 30
0.0
 11
5.308333333333333
 21
8.840869565217393
 31
0.0
  0
LINE
  5
1B5
330
119
100
AcDbEntity
  8
AM_4
100
AcDbLine
 10
5.308333333333333
 20
8.840869565217393
 30
0.0
 11
5.220558682532404
 21
8.753094914416463
 31
0.0
  0
LINE
  5
1B6
330
119
100
AcDbEntity
  8
AM_4
100
AcDbLine
 10
-5.220558682532404
 20
8.753094914416463
 30
0.0
 11
-5.308333333333333
 21
8.840869565217393
 31
0.0
  0
LINE
  5
1B7
330
119
100
AcDbEntity
  8
AM_4
100
AcDbLine
 10
10.46571428571429
 20
7.859459975794208
 30
0.0
 11
10.46571428571429
 21
-7.916666666666667
 31
0.0
  0
LWPOLYLINE
  5
1B8
330
119
100
AcDbEntity
  8
AM_4
100
AcDbPolyline
 90
        7
 70
     0
 43
0.0
 10
9.910714285714286
 20
8.418232362622875
 10
9.939442135208685
 20
8.240843730944928
 10
10.02829246845582
 20
8.074377070264548
 10
10.16700767580548
 20
7.947328034870237
 10
10.27264338721409
 20
7.894376067925204
 10
10.45448248348599
 20
7.859574466437999
 10
10.46571428571429
 20
7.859459975794208
  0
ARC
  5
1B9
330
119
100
AcDbEntity
  8
AM_4
100
AcDbCircle
 10
10.46571428571428
 20
-8.471666666666666
 30
0.0
 40
0.5549999999999988
100
AcDbArc
 50
90.0
 51
180.0
  0
LWPOLYLINE
  5
1BA
330
119
100
AcDbEntity
  8
AM_4
100
AcDbPolyline
 90
        7
 70
     0
 43
0.0
 10
-10.46571428571429
 20
7.859459975794209
 10
-10.3006820562959
 20
7.884746503866937
 10
-10.19607925597794
 20
7.929864317677086
 10
-10.05062712996003
 20
8.047374147114569
 10
-9.952200709631567
 20
8.20631747422932
 10
-9.911439243699466
 20
8.389693722279953
 10
-9.910714285714286
 20
8.418232362622875
  0
LINE
  5
1BB
330
119
100
AcDbEntity
  8
AM_4
100
AcDbLine
 10
-10.46571428571429
 20
7.859459975794209
 30
0.0
 11
-10.46571428571429
 21
-7.916666666666667
 31
0.0
  0
ARC
  5
1BC
330
119
100
AcDbEntity
  8
AM_4
100
AcDbCircle
 10
-10.46571428571428
 20
-8.471666666666662
 30
0.0
 40
0.5549999999999962
100
AcDbArc
 50
0.0
 51
90.0
  0
LINE
  5
1BD
330
119
100
AcDbEntity
  8
AM_4
100
AcDbLine
 10
-6.846107984134263
 20
8.753094914416465
 30
0.0
 11
-6.846107984134263
 21
8.260869565217392
 31
0.0
  0
LWPOLYLINE
  5
1BE
330
119
100
AcDbEntity
  8
AM_4
100
AcDbPolyline
 90
        3
 70
     0
 43
0.0
 10
-6.846107984134263
 20
8.753094914416465
 10
-6.749406534492256
 20
8.830468762588932
 10
-6.729766243205474
 20
8.840869565217393
  0
LINE
  5
1BF
330
119
100
AcDbEntity
  8
AM_4
100
AcDbLine
 10
-6.439720658733798
 20
8.753094914416463
 30
0.0
 11
-6.439720658733798
 21
8.260869565217392
 31
0.0
  0
LWPOLYLINE
  5
1C0
330
119
100
AcDbEntity
  8
AM_4
100
AcDbPolyline
 90
        3
 70
     0
 43
0.0
 10
-5.85962948979045
 20
8.840869565217393
 10
-5.741622392870005
 20
8.803933053738628
 10
-5.626946007932869
 20
8.753094914416463
  0
LINE
  5
1C1
330
119
100
AcDbEntity
  8
AM_4
100
AcDbLine
 10
-5.308333333333333
 20
8.840869565217393
 30
0.0
 11
-6.758333333333335
 21
8.840869565217393
 31
0.0
  0
LWPOLYLINE
  5
1C2
330
119
100
AcDbEntity
  8
AM_4
100
AcDbPolyline
 90
        3
 70
     0
 43
0.0
 10
-6.556062399662586
 20
8.840869565217393
 10
-6.501210080668338
 20
8.807072924382476
 10
-6.439720658733798
 20
8.753094914416463
  0
LWPOLYLINE
  5
1C3
330
119
100
AcDbEntity
  8
AM_4
100
AcDbPolyline
 90
        3
 70
     0
 43
0.0
 10
-6.439720658733798
 20
8.753094914416463
 10
-6.427570477500464
 20
8.759101382540681
 10
-6.207037176876217
 20
8.840869565217393
  0
LINE
  5
1C4
330
119
100
AcDbEntity
  8
AM_4
100
AcDbLine
 10
5.220558682532404
 20
8.753094914416463
 30
0.0
 11
5.220558682532404
 21
8.260869565217392
 31
0.0
  0
LWPOLYLINE
  5
1C5
330
119
100
AcDbEntity
  8
AM_4
100
AcDbPolyline
 90
        3
 70
     0
 43
0.0
 10
5.510604267004079
 20
8.840869565217393
 10
5.56545658599833
 20
8.807072924382476
 10
5.626946007932869
 20
8.753094914416463
  0
LWPOLYLINE
  5
1C6
330
119
100
AcDbEntity
  8
AM_4
100
AcDbPolyline
 90
        3
 70
     0
 43
0.0
 10
5.220558682532404
 20
8.753094914416463
 10
5.317260132174409
 20
8.830468762588932
 10
5.336900423461195
 20
8.840869565217393
  0
LINE
  5
1C7
330
119
100
AcDbEntity
  8
AM_4
100
AcDbLine
 10
-5.626946007932869
 20
8.753094914416463
 30
0.0
 11
-5.626946007932869
 21
8.260869565217392
 31
0.0
  0
LINE
  5
1C8
330
119
100
AcDbEntity
  8
AM_4
100
AcDbLine
 10
-5.220558682532404
 20
8.753094914416463
 30
0.0
 11
-5.220558682532404
 21
8.260869565217392
 31
0.0
  0
LWPOLYLINE
  5
1C9
330
119
100
AcDbEntity
  8
AM_4
100
AcDbPolyline
 90
        3
 70
     0
 43
0.0
 10
-5.336900423461195
 20
8.840869565217393
 10
-5.282048104466944
 20
8.807072924382476
 10
-5.220558682532404
 20
8.753094914416463
  0
LWPOLYLINE
  5
1CA
330
119
100
AcDbEntity
  8
AM_4
100
AcDbPolyline
 90
        3
 70
     0
 43
0.0
 10
-5.626946007932869
 20
8.753094914416463
 10
-5.530244558290864
 20
8.830468762588932
 10
-5.510604267004079
 20
8.840869565217393
  0
LINE
  5
1CB
330
119
100
AcDbEntity
  8
AM_4
100
AcDbLine
 10
5.626946007932869
 20
8.753094914416463
 30
0.0
 11
5.626946007932869
 21
8.260869565217392
 31
0.0
  0
LWPOLYLINE
  5
1CC
330
119
100
AcDbEntity
  8
AM_4
100
AcDbPolyline
 90
        3
 70
     0
 43
0.0
 10
6.207037176876217
 20
8.840869565217393
 10
6.325044273796663
 20
8.803933053738628
 10
6.439720658733798
 20
8.753094914416463
  0
LWPOLYLINE
  5
1CD
330
119
100
AcDbEntity
  8
AM_4
100
AcDbPolyline
 90
        3
 70
     0
 43
0.0
 10
5.626946007932869
 20
8.753094914416463
 10
5.639096189166203
 20
8.759101382540681
 10
5.85962948979045
 20
8.840869565217393
  0
LINE
  5
1CE
330
119
100
AcDbEntity
  8
AM_4
100
AcDbLine
 10
6.439720658733798
 20
8.753094914416463
 30
0.0
 11
6.439720658733798
 21
8.260869565217392
 31
0.0
  0
LINE
  5
1CF
330
119
100
AcDbEntity
  8
AM_4
100
AcDbLine
 10
6.846107984134263
 20
8.753094914416465
 30
0.0
 11
6.846107984134263
 21
8.260869565217392
 31
0.0
  0
LWPOLYLINE
  5
1D0
330
119
100
AcDbEntity
  8
AM_4
100
AcDbPolyline
 90
        3
 70
     0
 43
0.0
 10
6.729766243205474
 20
8.840869565217393
 10
6.784618562199724
 20
8.807072924382476
 10
6.846107984134263
 20
8.753094914416465
  0
LWPOLYLINE
  5
1D1
330
119
100
AcDbEntity
  8
AM_4
100
AcDbPolyline
 90
        3
 70
     0
 43
0.0
 10
6.439720658733798
 20
8.753094914416463
 10
6.536422108375803
 20
8.830468762588932
 10
6.556062399662586
 20
8.840869565217393
  0
LINE
  5
1D2
330
119
100
AcDbEntity
  8
AM_4
100
AcDbLine
 10
7.249999999999999
 20
-5.279148083617241
 30
0.0
 11
9.910714285714286
 21
-5.279148083617241
 31
0.0
  0
LINE
  5
1D3
330
119
100
AcDbEntity
  8
AM_4
100
AcDbLine
 10
7.249999999999999
 20
-9.5
 30
0.0
 11
9.910714285714286
 21
-9.5
 31
0.0
  0
LINE
  5
1D4
330
119
100
AcDbEntity
  8
AM_4
100
AcDbLine
 10
-7.249999999999999
 20
-9.5
 30
0.0
 11
-9.910714285714286
 21
-9.5
 31
0.0
  0
LINE
  5
1D5
330
119
100
AcDbEntity
  8
AM_4
100
AcDbLine
 10
-7.249999999999999
 20
-5.279148083617241
 30
0.0
 11
-9.910714285714286
 21
-5.279148083617241
 31
0.0
  0
LINE
  5
1D6
330
119
100
AcDbEntity
  8
AM_4
100
AcDbLine
 10
7.488947368421052
 20
5.047386190231358
 30
0.0
 11
7.488947368421052
 21
8.260869565217392
 31
0.0
  0
LINE
  5
1D7
330
119
100
AcDbEntity
  8
AM_4
100
AcDbLine
 10
4.577719298245613
 20
8.260869565217392
 30
0.0
 11
4.577719298245613
 21
5.047386190231359
 31
0.0
  0
LWPOLYLINE
  5
1D8
330
119
100
AcDbEntity
  8
AM_4
100
AcDbPolyline
 90
       11
 70
     0
 43
0.0
 10
4.577721905594233
 20
5.049110879218829
 10
4.583537523276147
 20
4.834887522205388
 10
4.625830794814806
 20
4.40589362483047
 10
4.701139645346834
 20
3.969443776033002
 10
4.845176891085059
 20
3.359214834984236
 10
5.026305000518259
 20
2.739222442397403
 10
5.234982288512433
 20
2.113501413892006
 10
5.461667069933573
 20
1.486086565087543
 10
5.742704670546641
 20
0.7455959501096686
 10
6.031923461424889
 20
0.0036017899887392
 10
6.033333333333333
 20
0.0
  0
LINE
  5
1D9
330
119
100
AcDbEntity
  8
AM_4
100
AcDbLine
 10
1.25
 20
8.260869565217392
 30
0.0
 11
7.488947368421052
 21
8.260869565217392
 31
0.0
  0
LINE
  5
1DA
330
119
100
AcDbEntity
  8
AM_4
100
AcDbLine
 10
9.910714285714286
 20
8.894409761192701
 30
0.0
 11
9.910714285714286
 21
-9.5
 31
0.0
  0
LWPOLYLINE
  5
1DB
330
119
100
AcDbEntity
  8
AM_4
100
AcDbPolyline
 90
        6
 70
     0
 43
0.0
 10
9.910714285714286
 20
8.894409761192701
 10
9.88742776306308
 20
9.054376532607352
 10
9.804075778935315
 20
9.223308029980098
 10
9.669764962327697
 20
9.354484202169402
 10
9.500329480032233
 20
9.433111683141458
 10
9.355714285714283
 20
9.45238065251289
  0
LWPOLYLINE
  5
1DC
330
119
100
AcDbEntity
  8
AM_4
100
AcDbPolyline
 90
        7
 70
     0
 43
0.0
 10
-9.355714285714289
 20
9.45238065251289
 10
-9.4790288210334
 20
9.438437748371918
 10
-9.650293455299293
 20
9.367320628590267
 10
-9.788765380073789
 20
9.243428991046192
 10
-9.8790824003258
 20
9.080129970589734
 10
-9.910713658576894
 20
8.895248845685785
 10
-9.910714285714286
 20
8.894409761192701
  0
LINE
  5
1DD
330
119
100
AcDbEntity
  8
AM_4
100
AcDbLine
 10
-9.910714285714286
 20
8.894409761192701
 30
0.0
 11
-9.910714285714286
 21
-9.5
 31
0.0
  0
LINE
  5
1DE
330
119
100
AcDbEntity
  8
AM_4
100
AcDbLine
 10
-4.577719298245614
 20
5.047386190231355
 30
0.0
 11
-4.577719298245614
 21
8.260869565217392
 31
0.0
  0
LINE
  5
1DF
330
119
100
AcDbEntity
  8
AM_4
100
AcDbLine
 10
-7.488947368421052
 20
8.260869565217392
 30
0.0
 11
-7.488947368421052
 21
5.047386190231353
 31
0.0
  0
LWPOLYLINE
  5
1E0
330
119
100
AcDbEntity
  8
AM_4
100
AcDbPolyline
 90
       11
 70
     0
 43
0.0
 10
-7.488944761072433
 20
5.049110879218822
 10
-7.483129143390521
 20
4.834887522205401
 10
-7.440835871851863
 20
4.405893624830483
 10
-7.365527021319836
 20
3.969443776033017
 10
-7.221489775581613
 20
3.35921483498425
 10
-7.040361666148414
 20
2.739222442397419
 10
-6.831684378154243
 20
2.113501413892021
 10
-6.604999596733108
 20
1.486086565087557
 10
-6.323961995924511
 20
0.7455959501862192
 10
-6.034743205245619
 20
0.0036017899872531
 10
-6.033333333333332
 20
0.0
  0
LINE
  5
1E1
330
119
100
AcDbEntity
  8
AM_4
100
AcDbLine
 10
-7.488947368421052
 20
8.260869565217392
 30
0.0
 11
-1.25
 21
8.260869565218453
 31
0.0
  0
LINE
  5
1E2
330
119
100
AcDbEntity
  8
AM_4
100
AcDbLine
 10
-9.25
 20
9.45238065251463
 30
0.0
 11
-9.355714285714289
 21
9.45238065251289
 31
0.0
  0
LINE
  5
1E3
330
119
100
AcDbEntity
  8
AM_4
100
AcDbLine
 10
-9.355714285714289
 20
9.45238065251289
 30
0.0
 11
-9.355714285714285
 21
-3.800000000000004
 31
0.0
  0
LINE
  5
1E4
330
119
100
AcDbEntity
  8
AM_4
100
AcDbLine
 10
-9.355714285714285
 20
-3.800000000000004
 30
0.0
 11
-9.910714285714286
 21
-3.800000000000004
 31
0.0
  0
LINE
  5
1E5
330
119
100
AcDbEntity
  8
AM_4
100
AcDbLine
 10
-7.249999999999999
 20
-4.649256672356322
 30
0.0
 11
-9.910714285714286
 21
-4.649256672356322
 31
0.0
  0
LINE
  5
1E6
330
119
100
AcDbEntity
  8
AM_4
100
AcDbLine
 10
7.249999999999999
 20
-4.649256672356322
 30
0.0
 11
9.910714285714286
 21
-4.649256672356322
 31
0.0
  0
LINE
  5
1E7
330
119
100
AcDbEntity
  8
AM_4
100
AcDbLine
 10
9.35571428571426
 20
-3.800000000000004
 30
0.0
 11
9.910714285714286
 21
-3.800000000000004
 31
0.0
  0
LINE
  5
1E8
330
119
100
AcDbEntity
  8
AM_4
100
AcDbLine
 10
9.355714285714283
 20
9.45238065251289
 30
0.0
 11
9.35571428571426
 21
-3.800000000000004
 31
0.0
  0
LINE
  5
1E9
330
119
100
AcDbEntity
  8
AM_4
100
AcDbLine
 10
9.355714285714283
 20
9.45238065251289
 30
0.0
 11
9.25
 21
9.45238065251463
 31
0.0
  0
LINE
  5
1EA
330
119
100
AcDbEntity
  8
AM_4
100
AcDbLine
 10
1.25
 20
8.260869565217392
 30
0.0
 11
1.25
 21
9.246168704386704
 31
0.0
  0
LINE
  5
1EB
330
119
100
AcDbEntity
  8
AM_4
100
AcDbLine
 10
1.25
 20
9.246168704386704
 30
0.0
 11
4.583333333333333
 21
9.246168704386704
 31
0.0
  0
LINE
  5
1EC
330
119
100
AcDbEntity
  8
AM_4
100
AcDbLine
 10
4.583333333333332
 20
8.260869565217392
 30
0.0
 11
4.583333333333333
 21
9.246168704386704
 31
0.0
  0
LWPOLYLINE
  5
1ED
330
119
100
AcDbEntity
  8
AM_4
100
AcDbPolyline
 90
       11
 70
     0
 43
0.0
 10
6.033333333333333
 20
0.0
 10
6.034743205241793
 20
0.0036017899887329
 10
6.323961996119238
 20
0.745595950109966
 10
6.604999596733089
 20
1.486086565087524
 10
6.831684378154229
 20
2.113501413891989
 10
7.040361666148402
 20
2.739222442397388
 10
7.221489775581603
 20
3.359214834984223
 10
7.365527021319829
 20
3.969443776032991
 10
7.440835871851859
 20
4.405893624830458
 10
7.483129143390518
 20
4.834887522205375
 10
7.488944761072433
 20
5.049110879218827
  0
LINE
  5
1EE
330
119
100
AcDbEntity
  8
AM_4
100
AcDbLine
 10
-4.583333333333333
 20
8.260869565217392
 30
0.0
 11
-4.583333333333334
 21
9.246168704386704
 31
0.0
  0
LINE
  5
1EF
330
119
100
AcDbEntity
  8
AM_4
100
AcDbLine
 10
-4.583333333333334
 20
9.246168704386704
 30
0.0
 11
-1.25
 21
9.246168704386704
 31
0.0
  0
LINE
  5
1F0
330
119
100
AcDbEntity
  8
AM_4
100
AcDbLine
 10
-1.25
 20
8.260869565218453
 30
0.0
 11
-1.25
 21
9.246168704386704
 31
0.0
  0
LWPOLYLINE
  5
1F1
330
119
100
AcDbEntity
  8
AM_4
100
AcDbPolyline
 90
       11
 70
     0
 43
0.0
 10
-6.033333333333332
 20
0.0
 10
-6.031923461420907
 20
0.003601789987201
 10
-5.742704670749196
 20
0.7455959501889563
 10
-5.461667069933571
 20
1.486086565087522
 10
-5.234982288512431
 20
2.113501413891989
 10
-5.026305000518261
 20
2.739222442397389
 10
-4.845176891085059
 20
3.359214834984225
 10
-4.701139645346835
 20
3.969443776032994
 10
-4.625830794814807
 20
4.405893624830461
 10
-4.583537523276147
 20
4.834887522205379
 10
-4.577721905594234
 20
5.049110879218822
  0
LINE
  5
1F2
330
119
100
AcDbEntity
  8
AM_4
100
AcDbLine
 10
11.5625
 20
9.5
 30
0.0
 11
-11.5625
 21
9.5
 31
0.0
  0
LINE
  5
1F3
330
119
100
AcDbEntity
  8
AM_4
100
AcDbLine
 10
-7.249999999999997
 20
-0.6737587433619264
 30
0.0
 11
7.250000000000001
 21
-0.6737587433619264
 31
0.0
  0
LWPOLYLINE
  5
1F4
330
119
100
AcDbEntity
  8
AM_4
100
AcDbPolyline
 90
        4
 70
     0
 43
0.0
 10
-2.184553162749415
 20
-5.365343746599727
 10
-2.164074541902283
 20
-5.435491072719299
 10
-2.104416010526419
 20
-5.709672532350749
 10
-2.083333333333332
 20
-5.971971591921299
  0
LWPOLYLINE
  5
1F5
330
119
100
AcDbEntity
  8
AM_4
100
AcDbPolyline
 90
       20
 70
     0
 43
0.0
 10
-5.123476280322552
 20
-4.875208660256752
 10
-4.983604217413204
 20
-4.605075346559758
 10
-4.807601660949038
 20
-4.321838106600207
 10
-4.67450399840247
 20
-4.138086630572942
 10
-4.525801816330354
 20
-3.961287525038475
 10
-4.356692161025872
 20
-3.794743877716156
 10
-4.162863185485626
 20
-3.651590359950414
 10
-4.056909684961784
 20
-3.595239330539522
 10
-3.943689816176049
 20
-3.552893031280222
 10
-3.822761433318032
 20
-3.528878027139911
 10
-3.699228787875441
 20
-3.526616080138103
 10
-3.592699883973256
 20
-3.543392147509024
 10
-3.490171162576109
 20
-3.575334937458175
 10
-3.344374385247181
 20
-3.647204697941203
 10
-3.211843519569179
 20
-3.73853704007837
 10
-2.984306439195476
 20
-3.949525825006691
 10
-2.790727268629666
 20
-4.18383353095451
 10
-2.575577668611341
 20
-4.502864080019051
 10
-2.397774797021345
 20
-4.829398219812096
 10
-2.37642009482676
 20
-4.87542708985113
  0
LWPOLYLINE
  5
1F6
330
119
100
AcDbEntity
  8
AM_4
100
AcDbPolyline
 90
        4
 70
     0
 43
0.0
 10
-5.416666666666666
 20
-5.971971591921299
 10
-5.396633450737813
 20
-5.716645285108998
 10
-5.339882049486491
 20
-5.449975028209024
 10
-5.315690556963026
 20
-5.366144729131481
  0
LINE
  5
1F7
330
119
100
AcDbEntity
  8
AM_4
100
AcDbLine
 10
-2.083333333333332
 20
-5.971971591921299
 30
0.0
 11
-2.083333333333332
 21
-7.8125
 31
0.0
  0
LINE
  5
1F8
330
119
100
AcDbEntity
  8
AM_4
100
AcDbLine
 10
2.083333333333334
 20
-7.8125
 30
0.0
 11
2.083333333333334
 21
-5.971971591921299
 31
0.0
  0
LWPOLYLINE
  5
1F9
330
119
100
AcDbEntity
  8
AM_4
100
AcDbPolyline
 90
        4
 70
     0
 43
0.0
 10
5.315446837250585
 20
-5.365343746599727
 10
5.335925458097721
 20
-5.43549107271931
 10
5.395583989473582
 20
-5.709672532350753
 10
5.416666666666668
 20
-5.971971591921299
  0
LWPOLYLINE
  5
1FA
330
119
100
AcDbEntity
  8
AM_4
100
AcDbPolyline
 90
       20
 70
     0
 43
0.0
 10
2.376523719677449
 20
-4.875208660256752
 10
2.516395782586796
 20
-4.605075346559759
 10
2.692398339050964
 20
-4.321838106600207
 10
2.825496001597533
 20
-4.138086630572943
 10
2.974198183669648
 20
-3.961287525038475
 10
3.143307838974131
 20
-3.794743877716156
 10
3.337136814514378
 20
-3.651590359950415
 10
3.44309031503822
 20
-3.595239330539523
 10
3.556310183823955
 20
-3.552893031280222
 10
3.677238566681972
 20
-3.528878027139911
 10
3.800771212124562
 20
-3.526616080138103
 10
3.907300116026748
 20
-3.543392147509025
 10
4.009828837423894
 20
-3.575334937458178
 10
4.155625614752822
 20
-3.647204697941206
 10
4.288156480430825
 20
-3.738537040078373
 10
4.515693560804529
 20
-3.949525825006696
 10
4.709272731370341
 20
-4.183833530954517
 10
4.924422331388667
 20
-4.502864080019061
 10
5.102225202978663
 20
-4.82939821981211
 10
5.12357990517324
 20
-4.875427089851129
  0
LWPOLYLINE
  5
1FB
330
119
100
AcDbEntity
  8
AM_4
100
AcDbPolyline
 90
        4
 70
     0
 43
0.0
 10
2.083333333333334
 20
-5.971971591921299
 10
2.103366549262189
 20
-5.716645285108998
 10
2.160117950513509
 20
-5.449975028209026
 10
2.184309443036975
 20
-5.366144729131481
  0
LINE
  5
1FC
330
119
100
AcDbEntity
  8
AM_4
100
AcDbLine
 10
5.416666666666668
 20
-5.971971591921299
 30
0.0
 11
5.416666666666668
 21
-7.8125
 31
0.0
  0
LINE
  5
1FD
330
119
100
AcDbEntity
  8
AM_4
100
AcDbLine
 10
-7.249999999999998
 20
-1.012500000000004
 30
0.0
 11
7.250000000000001
 21
-1.012500000000004
 31
0.0
  0
LINE
  5
1FE
330
119
100
AcDbEntity
  8
AM_4
100
AcDbLine
 10
-5.416666666666666
 20
-7.8125
 30
0.0
 11
-5.416666666666666
 21
-5.971971591921299
 31
0.0
  0
LINE
  5
1FF
330
119
100
AcDbEntity
  8
AM_4
100
AcDbLine
 10
-5.312499999999998
 20
-4.875
 30
0.0
 11
-2.1875
 21
-4.875
 31
0.0
  0
LINE
  5
200
330
119
100
AcDbEntity
  8
AM_4
100
AcDbLine
 10
-5.312499999999998
 20
-4.875
 30
0.0
 11
-5.312499999999998
 21
-7.8125
 31
0.0
  0
LINE
  5
201
330
119
100
AcDbEntity
  8
AM_4
100
AcDbLine
 10
-2.1875
 20
-4.875
 30
0.0
 11
-2.1875
 21
-7.8125
 31
0.0
  0
LWPOLYLINE
  5
202
330
119
100
AcDbEntity
  8
AM_4
100
AcDbPolyline
 90
        9
 70
     0
 43
0.0
 10
-5.039418473576357
 20
-7.812500000000002
 10
-4.93574804702893
 20
-7.826045559052518
 10
-4.816489469433075
 20
-7.863933739183089
 10
-4.650056460247399
 20
-7.93879259464247
 10
-4.468972168796797
 20
-8.036847528078562
 10
-4.209657417324321
 20
-8.193750610160981
 10
-3.936405301053067
 20
-8.369815291908864
 10
-3.751309383767082
 20
-8.491636203686177
 10
-3.749999999999999
 20
-8.492499999999994
  0
LINE
  5
203
330
119
100
AcDbEntity
  8
AM_4
100
AcDbLine
 10
-7.249999999999998
 20
-7.812500000000002
 30
0.0
 11
-5.039418473576357
 21
-7.8125
 31
0.0
  0
LINE
  5
204
330
119
100
AcDbEntity
  8
AM_4
100
AcDbLine
 10
5.039418473576359
 20
-7.8125
 30
0.0
 11
7.250000000000001
 21
-7.812500000000002
 31
0.0
  0
LWPOLYLINE
  5
205
330
119
100
AcDbEntity
  8
AM_4
100
AcDbPolyline
 90
        9
 70
     0
 43
0.0
 10
3.750000000000001
 20
-8.4925
 10
3.751309383767306
 20
-8.491636203686516
 10
4.035579434387282
 20
-8.305145368534921
 10
4.322976949595581
 20
-8.123466697575441
 10
4.518443308783752
 20
-8.008829894885002
 10
4.709845818755295
 20
-7.909745479318264
 10
4.836611079714564
 20
-7.856374763227421
 10
4.95655411816101
 20
-7.821503757461615
 10
5.039418473576359
 20
-7.8125
  0
LINE
  5
206
330
119
100
AcDbEntity
  8
AM_4
100
AcDbLine
 10
5.312500000000001
 20
-4.875
 30
0.0
 11
5.312500000000001
 21
-7.8125
 31
0.0
  0
LINE
  5
207
330
119
100
AcDbEntity
  8
AM_4
100
AcDbLine
 10
2.187500000000001
 20
-4.875
 30
0.0
 11
5.312500000000001
 21
-4.875
 31
0.0
  0
LINE
  5
208
330
119
100
AcDbEntity
  8
AM_4
100
AcDbLine
 10
2.187500000000001
 20
-4.875
 30
0.0
 11
2.187500000000001
 21
-7.8125
 31
0.0
  0
LINE
  5
209
330
119
100
AcDbEntity
  8
AM_4
100
AcDbLine
 10
-7.249999999999998
 20
-10.75
 30
0.0
 11
-7.249999999999997
 21
-0.6737587433619264
 31
0.0
  0
LINE
  5
20A
330
119
100
AcDbEntity
  8
AM_4
100
AcDbLine
 10
7.250000000000001
 20
-10.75
 30
0.0
 11
7.250000000000001
 21
-0.6737587433619264
 31
0.0
  0
LINE
  5
20B
330
119
100
AcDbEntity
  8
AM_4
100
AcDbLine
 10
-7.249999999999998
 20
-8.4925
 30
0.0
 11
7.250000000000001
 21
-8.4925
 31
0.0
  0
LINE
  5
20C
330
119
100
AcDbEntity
  8
AM_4
100
AcDbLine
 10
-7.249999999999998
 20
-10.75
 30
0.0
 11
7.250000000000001
 21
-10.75
 31
0.0
  0
LWPOLYLINE
  5
20D
330
119
100
AcDbEntity
  8
AM_4
100
AcDbPolyline
 90
        9
 70
     0
 43
0.0
 10
2.460581526423643
 20
-7.8125
 10
2.544820747783238
 20
-7.821780144863184
 10
2.639555167753451
 20
-7.847964698738917
 10
2.792414275111265
 20
-7.910805126282679
 10
2.959806825150108
 20
-7.996772939108053
 10
3.203344150087637
 20
-8.139591176682599
 10
3.461261560582878
 20
-8.303096798080794
 10
3.748690616232906
 20
-8.491636203686193
 10
3.750000000000001
 20
-8.492499999999994
  0
LINE
  5
20E
330
119
100
AcDbEntity
  8
AM_4
100
AcDbLine
 10
-2.460581526423641
 20
-7.8125
 30
0.0
 11
2.460581526423643
 21
-7.8125
 31
0.0
  0
LWPOLYLINE
  5
20F
330
119
100
AcDbEntity
  8
AM_4
100
AcDbPolyline
 90
        9
 70
     0
 43
0.0
 10
-3.749999999999999
 20
-8.4925
 10
-3.748690616232916
 20
-8.491636203686177
 10
-3.563594698946932
 20
-8.369815291908864
 10
-3.29748667657678
 20
-8.198250518244407
 10
-3.031027831203201
 20
-8.036847528078562
 10
-2.854443524978384
 20
-7.941058429307749
 10
-2.683510530566923
 20
-7.863933739183089
 10
-2.567699237185791
 20
-7.826869338001441
 10
-2.460581526423641
 20
-7.812500000000002
  0
ENDBLK
  5
11C
330
119
100
AcDbEntity
  8
0
100
AcDbBlockEnd
  0
ENDSEC
  0
SECTION
  2
ENTITIES
  0
INSERT
  5
6F
330
1F
100
AcDbEntity
  8
0
100
AcDbBlockReference
  2
1_134206_2
 10
0.0
 20
0.0
 30
0.0
  0
POINT
  5
211
330
1F
100
AcDbEntity
  8
ConnectionPoints
100
AcDbPoint
 10
0.0
 20
0.0
 30
0.0
  0
ENDSEC
  0
SECTION
  2
OBJECTS
  0
DICTIONARY
  5
C
330
0
100
AcDbDictionary
281
     1
  3
ACAD_DETAILVIEWSTYLE
350
219
  3
ACAD_GROUP
350
D
  3
ACAD_LAYOUT
350
1A
  3
ACAD_MATERIAL
350
43
  3
ACAD_MLEADERSTYLE
350
6B
  3
ACAD_MLINESTYLE
350
17
  3
ACAD_PLOTSETTINGS
350
19
  3
ACAD_PLOTSTYLENAME
350
E
  3
ACAD_SCALELIST
350
47
  3
ACAD_SECTIONVIEWSTYLE
350
21A
  3
ACAD_TABLESTYLE
350
69
  3
ACAD_VISUALSTYLE
350
2A
  3
ACDB_RECOMPOSE_DATA
350
216
  3
AcDbVariableDictionary
350
212
  0
SUN
  5
6D
330
29
100
AcDbSun
 90
        1
290
     0
 63
     7
421
 16777215
 40
1.0
291
     1
 91
  2455826
 92
 54000000
292
     0
 70
     2
 71
   256
280
     1
  0
DICTIONARY
  5
219
102
{ACAD_REACTORS
330
C
102
}
330
C
100
AcDbDictionary
281
     1
  0
DICTIONARY
  5
D
102
{ACAD_REACTORS
330
C
102
}
330
C
100
AcDbDictionary
281
     1
  0
DICTIONARY
  5
1A
102
{ACAD_REACTORS
330
C
102
}
330
C
100
AcDbDictionary
281
     1
  3
Layout1
350
1E
  3
Layout2
350
26
  3
Model
350
22
  0
DICTIONARY
  5
43
102
{ACAD_REACTORS
330
C
102
}
330
C
100
AcDbDictionary
281
     1
  3
ByBlock
350
45
  3
ByLayer
350
44
  3
Global
350
46
  0
DICTIONARY
  5
6B
102
{ACAD_REACTORS
330
C
102
}
330
C
100
AcDbDictionary
281
     1
  3
Standard
350
6C
  0
DICTIONARY
  5
17
102
{ACAD_REACTORS
330
C
102
}
330
C
100
AcDbDictionary
281
     1
  3
Standard
350
18
  0
DICTIONARY
  5
19
102
{ACAD_REACTORS
330
C
102
}
330
C
100
AcDbDictionary
281
     1
  0
ACDBDICTIONARYWDFLT
  5
E
102
{ACAD_REACTORS
330
C
102
}
330
C
100
AcDbDictionary
281
     1
  3
Normal
350
F
100
AcDbDictionaryWithDefault
340
F
  0
DICTIONARY
  5
47
102
{ACAD_REACTORS
330
C
102
}
330
C
100
AcDbDictionary
281
     1
  3
A0
350
48
  3
A1
350
49
  3
A2
350
4A
  3
A3
350
4B
  3
A4
350
4C
  3
A5
350
4D
  3
A6
350
4E
  3
A7
350
4F
  3
A8
350
50
  3
A9
350
51
  3
B0
350
52
  3
B1
350
53
  3
B2
350
54
  3
B3
350
55
  3
B4
350
56
  3
B5
350
57
  3
B6
350
58
  3
B7
350
59
  3
B8
350
5A
  3
B9
350
5B
  3
C0
350
5C
  3
C1
350
5D
  3
C2
350
5E
  3
C3
350
5F
  3
C4
350
60
  3
C5
350
61
  3
C6
350
62
  3
C7
350
63
  3
C8
350
64
  3
C9
350
65
  3
D0
350
66
  3
D1
350
67
  3
D2
350
68
  0
DICTIONARY
  5
21A
102
{ACAD_REACTORS
330
C
102
}
330
C
100
AcDbDictionary
281
     1
  0
DICTIONARY
  5
69
102
{ACAD_REACTORS
330
C
102
}
330
C
100
AcDbDictionary
281
     1
  3
Standard
350
6A
  0
DICTIONARY
  5
2A
102
{ACAD_REACTORS
330
C
102
}
330
C
100
AcDbDictionary
281
     1
  3
2dWireframe
350
2F
  3
Basic
350
32
  3
Brighten
350
36
  3
ColorChange
350
3A
  3
Conceptual
350
34
  3
Dim
350
35
  3
EdgeColorOff
350
3D
  3
Facepattern
350
39
  3
Flat
350
2B
  3
FlatWithEdges
350
2C
  3
Gouraud
350
2D
  3
GouraudWithEdges
350
2E
  3
Hidden
350
31
  3
JitterOff
350
3B
  3
Linepattern
350
38
  3
OverhangOff
350
3C
  3
Realistic
350
33
  3
Shaded
350
42
  3
Shaded with edges
350
41
  3
Shades of Gray
350
3E
  3
Sketchy
350
3F
  3
Thicken
350
37
  3
Wireframe
350
30
  3
X-Ray
350
40
  0
XRECORD
  5
216
102
{ACAD_REACTORS
330
C
102
}
330
C
100
AcDbXrecord
280
     1
 90
        1
330
6A
  0
DICTIONARY
  5
212
102
{ACAD_REACTORS
330
C
102
}
330
C
100
AcDbDictionary
281
     1
  3
CANNOSCALE
350
213
  3
CMLEADERSTYLE
350
218
  3
CTABLESTYLE
350
217
  0
LAYOUT
  5
1E
102
{ACAD_REACTORS
330
1A
102
}
330
1A
100
AcDbPlotSettings
  1

  2
none_device
  4

  6

 40
0.0
 41
0.0
 42
0.0
 43
0.0
 44
0.0
 45
0.0
 46
0.0
 47
0.0
 48
0.0
 49
0.0
140
0.0
141
0.0
142
1.0
143
1.0
 70
   688
 72
     0
 73
     0
 74
     5
  7

 75
    16
 76
     0
 77
     2
 78
   300
147
1.0
148
0.0
149
0.0
100
AcDbLayout
  1
Layout1
 70
     1
 71
     1
 10
0.0
 20
0.0
 11
12.0
 21
9.0
 12
0.0
 22
0.0
 32
0.0
 14
1.000000000000000E+20
 24
1.000000000000000E+20
 34
1.000000000000000E+20
 15
-1.000000000000000E+20
 25
-1.000000000000000E+20
 35
-1.000000000000000E+20
146
0.0
 13
0.0
 23
0.0
 33
0.0
 16
1.0
 26
0.0
 36
0.0
 17
0.0
 27
1.0
 37
0.0
 76
     0
330
1B
  0
LAYOUT
  5
26
102
{ACAD_REACTORS
330
1A
102
}
330
1A
100
AcDbPlotSettings
  1

  2
none_device
  4

  6

 40
0.0
 41
0.0
 42
0.0
 43
0.0
 44
0.0
 45
0.0
 46
0.0
 47
0.0
 48
0.0
 49
0.0
140
0.0
141
0.0
142
1.0
143
1.0
 70
   688
 72
     0
 73
     0
 74
     5
  7

 75
    16
 76
     0
 77
     2
 78
   300
147
1.0
148
0.0
149
0.0
100
AcDbLayout
  1
Layout2
 70
     1
 71
     2
 10
0.0
 20
0.0
 11
0.0
 21
0.0
 12
0.0
 22
0.0
 32
0.0
 14
0.0
 24
0.0
 34
0.0
 15
0.0
 25
0.0
 35
0.0
146
0.0
 13
0.0
 23
0.0
 33
0.0
 16
1.0
 26
0.0
 36
0.0
 17
0.0
 27
1.0
 37
0.0
 76
     0
330
23
  0
LAYOUT
  5
22
102
{ACAD_REACTORS
330
1A
102
}
330
1A
100
AcDbPlotSettings
  1

  2
none_device
  4
Letter_(8.50_x_11.00_Inches)
  6

 40
6.35
 41
6.35
 42
6.35000508
 43
6.35000508
 44
215.9
 45
279.4
 46
0.0
 47
0.0
 48
0.0
 49
0.0
140
0.0
141
0.0
142
1.0
143
1.0
 70
  1712
 72
     0
 73
     0
 74
     0
  7

 75
     0
 76
     0
 77
     2
 78
   300
147
1.0
148
0.0
149
0.0
100
AcDbLayout
  1
Model
 70
     1
 71
     0
 10
0.0
 20
0.0
 11
12.0
 21
9.0
 12
0.0
 22
0.0
 32
0.0
 14
1.000000000000000E+20
 24
1.000000000000000E+20
 34
1.000000000000000E+20
 15
-1.000000000000000E+20
 25
-1.000000000000000E+20
 35
-1.000000000000000E+20
146
0.0
 13
0.0
 23
0.0
 33
0.0
 16
1.0
 26
0.0
 36
0.0
 17
0.0
 27
1.0
 37
0.0
 76
     0
330
1F
331
29
  0
MATERIAL
  5
45
102
{ACAD_REACTORS
330
43
102
}
330
43
100
AcDbMaterial
  1
ByBlock
 72
     1
 94
      127
  0
MATERIAL
  5
44
102
{ACAD_REACTORS
330
43
102
}
330
43
100
AcDbMaterial
  1
ByLayer
 72
     1
 94
      127
  0
MATERIAL
  5
46
102
{ACAD_REACTORS
330
43
102
}
330
43
100
AcDbMaterial
  1
Global
 72
     1
 94
      127
  0
MLEADERSTYLE
  5
6C
102
{ACAD_REACTORS
330
6B
102
}
330
6B
100
AcDbMLeaderStyle
179
     2
170
     2
171
     1
172
     0
 90
        2
 40
0.0
 41
0.0
173
     1
 91
-1056964608
340
14
 92
       -2
290
     1
 42
0.09
291
     1
 43
0.36
  3
Standard
341
0
 44
0.18
300

342
11
174
     1
178
     6
175
     1
176
     0
 93
-1056964608
 45
0.18
292
     0
297
     0
 46
0.18
343
0
 94
-1056964608
 47
1.0
 49
1.0
140
1.0
293
     1
141
0.0
294
     1
177
     0
142
1.0
295
     0
296
     0
143
0.125
271
     0
272
     9
273
     9
298
     0
  0
MLINESTYLE
  5
18
102
{ACAD_REACTORS
330
17
102
}
330
17
100
AcDbMlineStyle
  2
Standard
 70
     0
  3

 62
   256
 51
90.0
 52
90.0
 71
     2
 49
0.5
 62
   256
  6
BYLAYER
 49
-0.5
 62
   256
  6
BYLAYER
  0
ACDBPLACEHOLDER
  5
F
102
{ACAD_REACTORS
330
E
102
}
330
E
  0
SCALE
  5
48
102
{ACAD_REACTORS
330
47
102
}
330
47
100
AcDbScale
 70
     0
300
1:1
140
1.0
141
1.0
290
     1
  0
SCALE
  5
49
102
{ACAD_REACTORS
330
47
102
}
330
47
100
AcDbScale
 70
     0
300
1:2
140
1.0
141
2.0
290
     0
  0
SCALE
  5
4A
102
{ACAD_REACTORS
330
47
102
}
330
47
100
AcDbScale
 70
     0
300
1:4
140
1.0
141
4.0
290
     0
  0
SCALE
  5
4B
102
{ACAD_REACTORS
330
47
102
}
330
47
100
AcDbScale
 70
     0
300
1:5
140
1.0
141
5.0
290
     0
  0
SCALE
  5
4C
102
{ACAD_REACTORS
330
47
102
}
330
47
100
AcDbScale
 70
     0
300
1:8
140
1.0
141
8.0
290
     0
  0
SCALE
  5
4D
102
{ACAD_REACTORS
330
47
102
}
330
47
100
AcDbScale
 70
     0
300
1:10
140
1.0
141
10.0
290
     0
  0
SCALE
  5
4E
102
{ACAD_REACTORS
330
47
102
}
330
47
100
AcDbScale
 70
     0
300
1:16
140
1.0
141
16.0
290
     0
  0
SCALE
  5
4F
102
{ACAD_REACTORS
330
47
102
}
330
47
100
AcDbScale
 70
     0
300
1:20
140
1.0
141
20.0
290
     0
  0
SCALE
  5
50
102
{ACAD_REACTORS
330
47
102
}
330
47
100
AcDbScale
 70
     0
300
1:30
140
1.0
141
30.0
290
     0
  0
SCALE
  5
51
102
{ACAD_REACTORS
330
47
102
}
330
47
100
AcDbScale
 70
     0
300
1:40
140
1.0
141
40.0
290
     0
  0
SCALE
  5
52
102
{ACAD_REACTORS
330
47
102
}
330
47
100
AcDbScale
 70
     0
300
1:50
140
1.0
141
50.0
290
     0
  0
SCALE
  5
53
102
{ACAD_REACTORS
330
47
102
}
330
47
100
AcDbScale
 70
     0
300
1:100
140
1.0
141
100.0
290
     0
  0
SCALE
  5
54
102
{ACAD_REACTORS
330
47
102
}
330
47
100
AcDbScale
 70
     0
300
2:1
140
2.0
141
1.0
290
     0
  0
SCALE
  5
55
102
{ACAD_REACTORS
330
47
102
}
330
47
100
AcDbScale
 70
     0
300
4:1
140
4.0
141
1.0
290
     0
  0
SCALE
  5
56
102
{ACAD_REACTORS
330
47
102
}
330
47
100
AcDbScale
 70
     0
300
8:1
140
8.0
141
1.0
290
     0
  0
SCALE
  5
57
102
{ACAD_REACTORS
330
47
102
}
330
47
100
AcDbScale
 70
     0
300
10:1
140
10.0
141
1.0
290
     0
  0
SCALE
  5
58
102
{ACAD_REACTORS
330
47
102
}
330
47
100
AcDbScale
 70
     0
300
100:1
140
100.0
141
1.0
290
     0
  0
SCALE
  5
59
102
{ACAD_REACTORS
330
47
102
}
330
47
100
AcDbScale
 70
     0
300
1/128" = 1'-0"
140
0.0078125
141
12.0
290
     0
  0
SCALE
  5
5A
102
{ACAD_REACTORS
330
47
102
}
330
47
100
AcDbScale
 70
     0
300
1/64" = 1'-0"
140
0.015625
141
12.0
290
     0
  0
SCALE
  5
5B
102
{ACAD_REACTORS
330
47
102
}
330
47
100
AcDbScale
 70
     0
300
1/32" = 1'-0"
140
0.03125
141
12.0
290
     0
  0
SCALE
  5
5C
102
{ACAD_REACTORS
330
47
102
}
330
47
100
AcDbScale
 70
     0
300
1/16" = 1'-0"
140
0.0625
141
12.0
290
     0
  0
SCALE
  5
5D
102
{ACAD_REACTORS
330
47
102
}
330
47
100
AcDbScale
 70
     0
300
3/32" = 1'-0"
140
0.09375
141
12.0
290
     0
  0
SCALE
  5
5E
102
{ACAD_REACTORS
330
47
102
}
330
47
100
AcDbScale
 70
     0
300
1/8" = 1'-0"
140
0.125
141
12.0
290
     0
  0
SCALE
  5
5F
102
{ACAD_REACTORS
330
47
102
}
330
47
100
AcDbScale
 70
     0
300
3/16" = 1'-0"
140
0.1875
141
12.0
290
     0
  0
SCALE
  5
60
102
{ACAD_REACTORS
330
47
102
}
330
47
100
AcDbScale
 70
     0
300
1/4" = 1'-0"
140
0.25
141
12.0
290
     0
  0
SCALE
  5
61
102
{ACAD_REACTORS
330
47
102
}
330
47
100
AcDbScale
 70
     0
300
3/8" = 1'-0"
140
0.375
141
12.0
290
     0
  0
SCALE
  5
62
102
{ACAD_REACTORS
330
47
102
}
330
47
100
AcDbScale
 70
     0
300
1/2" = 1'-0"
140
0.5
141
12.0
290
     0
  0
SCALE
  5
63
102
{ACAD_REACTORS
330
47
102
}
330
47
100
AcDbScale
 70
     0
300
3/4" = 1'-0"
140
0.75
141
12.0
290
     0
  0
SCALE
  5
64
102
{ACAD_REACTORS
330
47
102
}
330
47
100
AcDbScale
 70
     0
300
1" = 1'-0"
140
1.0
141
12.0
290
     0
  0
SCALE
  5
65
102
{ACAD_REACTORS
330
47
102
}
330
47
100
AcDbScale
 70
     0
300
1-1/2" = 1'-0"
140
1.5
141
12.0
290
     0
  0
SCALE
  5
66
102
{ACAD_REACTORS
330
47
102
}
330
47
100
AcDbScale
 70
     0
300
3" = 1'-0"
140
3.0
141
12.0
290
     0
  0
SCALE
  5
67
102
{ACAD_REACTORS
330
47
102
}
330
47
100
AcDbScale
 70
     0
300
6" = 1'-0"
140
6.0
141
12.0
290
     0
  0
SCALE
  5
68
102
{ACAD_REACTORS
330
47
102
}
330
47
100
AcDbScale
 70
     0
300
1'-0" = 1'-0"
140
12.0
141
12.0
290
     0
  0
TABLESTYLE
  5
6A
102
{ACAD_REACTORS
330
69
102
}
102
{ACAD_XDICTIONARY
360
214
102
}
330
69
100
AcDbTableStyle
  3
Standard
 70
     0
 71
     0
 40
0.06
 41
0.06
280
     0
281
     0
  7
Standard
140
0.18
170
     2
 62
     0
 63
   257
283
     0
 90
        4
 91
        0
  1

274
    -2
284
     1
 64
     0
275
    -2
285
     1
 65
     0
276
    -2
286
     1
 66
     0
277
    -2
287
     1
 67
     0
278
    -2
288
     1
 68
     0
279
    -2
289
     1
 69
     0
  7
Standard
140
0.25
170
     5
 62
     0
 63
   257
283
     0
 90
        4
 91
        0
  1

274
    -2
284
     1
 64
     0
275
    -2
285
     1
 65
     0
276
    -2
286
     1
 66
     0
277
    -2
287
     1
 67
     0
278
    -2
288
     1
 68
     0
279
    -2
289
     1
 69
     0
  7
Standard
140
0.18
170
     5
 62
     0
 63
   257
283
     0
 90
        4
 91
        0
  1

274
    -2
284
     1
 64
     0
275
    -2
285
     1
 65
     0
276
    -2
286
     1
 66
     0
277
    -2
287
     1
 67
     0
278
    -2
288
     1
 68
     0
279
    -2
289
     1
 69
     0
  0
VISUALSTYLE
  5
2F
102
{ACAD_REACTORS
330
2A
102
}
330
2A
100
AcDbVisualStyle
  2
2dWireframe
 70
     4
177
     3
291
     0
 70
    58
 90
        0
176
     1
 90
        2
176
     1
 90
        0
176
     1
 90
        0
176
     1
 40
0.6
176
     1
 40
30.0
176
     1
 62
     7
420
 16777215
176
     1
 90
        1
176
     1
 90
        4
176
     1
 62
     7
176
     1
 62
   257
176
     1
 90
        1
176
     1
 90
        1
176
     1
 40
1.0
176
     1
 90
        0
176
     1
 62
   257
176
     1
 40
1.0
176
     1
 90
        1
176
     1
 90
        6
176
     1
 90
        2
176
     1
 62
     7
176
     1
 90
        5
176
     1
 90
        0
176
     1
 90
        0
176
     1
290
     0
176
     1
 90
        1
176
     1
 40
0.0
176
     1
 90
        0
176
     1
290
     1
176
     1
290
     1
176
     1
290
     0
176
     1
290
     0
176
     1
290
     0
176
     1
290
     0
176
     1
290
     0
176
     1
290
     0
176
     1
290
     0
176
     1
 90
       50
176
     1
 40
0.0
176
     1
 40
1.0
176
     1
 90
        0
176
     1
 62
    18
420
        0
176
     1
 90
       50
176
     1
 90
        3
176
     1
 62
     5
420
      255
176
     1
290
     0
176
     1
 90
       50
176
     1
 90
       50
176
     1
 90
       50
176
     1
290
     0
176
     1
 90
       50
176
     1
 62
   256
176
     0
 40
1.0
176
     0
 90
        2
176
     1
  1
strokes_ogs.tif
176
     1
290
     0
176
     1
 40
1.0
176
     1
 40
1.0
176
     1
  0
VISUALSTYLE
  5
32
102
{ACAD_REACTORS
330
2A
102
}
330
2A
100
AcDbVisualStyle
  2
Basic
 70
     7
177
     3
291
     1
 70
    58
 90
        1
176
     1
 90
        0
176
     1
 90
        1
176
     1
 90
        0
176
     1
 40
0.6
176
     1
 40
30.0
176
     1
 62
     7
420
 16777215
176
     1
 90
        0
176
     1
 90
        4
176
     1
 62
     7
176
     1
 62
   257
176
     1
 90
        1
176
     1
 90
        1
176
     1
 40
1.0
176
     1
 90
        8
176
     1
 62
     7
176
     1
 40
1.0
176
     1
 90
        1
176
     1
 90
        6
176
     1
 90
        2
176
     1
 62
     7
176
     1
 90
        5
176
     1
 90
        0
176
     1
 90
        0
176
     1
290
     0
176
     1
 90
        1
176
     1
 40
0.0
176
     1
 90
        0
176
     1
290
     0
176
     1
290
     1
176
     1
290
     1
176
     1
290
     0
176
     1
290
     0
176
     1
290
     0
176
     1
290
     0
176
     1
290
     0
176
     1
290
     0
176
     1
 90
       50
176
     1
 40
0.0
176
     1
 40
1.0
176
     1
 90
        0
176
     1
 62
    18
420
        0
176
     1
 90
       50
176
     1
 90
        3
176
     1
 62
     5
420
      255
176
     1
290
     0
176
     1
 90
       50
176
     1
 90
       50
176
     1
 90
       50
176
     1
290
     0
176
     1
 90
       50
176
     1
 62
   256
176
     0
 40
1.0
176
     0
 90
        2
176
     1
  1
strokes_ogs.tif
176
     1
290
     0
176
     1
 40
1.0
176
     1
 40
1.0
176
     1
  0
VISUALSTYLE
  5
36
102
{ACAD_REACTORS
330
2A
102
}
330
2A
100
AcDbVisualStyle
  2
Brighten
 70
    12
177
     3
291
     1
 70
    58
 90
        2
176
     1
 90
        2
176
     1
 90
        0
176
     1
 90
        0
176
     1
 40
0.6
176
     1
 40
30.0
176
     1
 62
     7
420
 16777215
176
     1
 90
        1
176
     1
 90
        4
176
     1
 62
     7
176
     1
 62
   257
176
     1
 90
        1
176
     1
 90
        1
176
     1
 40
1.0
176
     1
 90
        8
176
     1
 62
     7
176
     1
 40
1.0
176
     1
 90
        1
176
     1
 90
        6
176
     1
 90
        2
176
     1
 62
     7
176
     1
 90
        5
176
     1
 90
        0
176
     1
 90
        0
176
     1
290
     0
176
     1
 90
        1
176
     1
 40
50.0
176
     1
 90
        0
176
     1
290
     0
176
     1
290
     1
176
     1
290
     1
176
     1
290
     0
176
     1
290
     0
176
     1
290
     0
176
     1
290
     0
176
     1
290
     0
176
     1
290
     0
176
     1
 90
       50
176
     1
 40
0.0
176
     1
 40
1.0
176
     1
 90
        0
176
     1
 62
    18
420
        0
176
     1
 90
       50
176
     1
 90
        3
176
     1
 62
     5
420
      255
176
     1
290
     0
176
     1
 90
       50
176
     1
 90
       50
176
     1
 90
       50
176
     1
290
     0
176
     1
 90
       50
176
     1
 62
   256
176
     0
 40
1.0
176
     0
 90
        2
176
     1
  1
strokes_ogs.tif
176
     1
290
     0
176
     1
 40
1.0
176
     1
 40
1.0
176
     1
  0
VISUALSTYLE
  5
3A
102
{ACAD_REACTORS
330
2A
102
}
330
2A
100
AcDbVisualStyle
  2
ColorChange
 70
    16
177
     3
291
     1
 70
    58
 90
        2
176
     1
 90
        2
176
     1
 90
        3
176
     1
 90
        0
176
     1
 40
0.6
176
     1
 40
30.0
176
     1
 62
     8
420
  8421504
176
     1
 90
        1
176
     1
 90
        4
176
     1
 62
     7
176
     1
 62
   257
176
     1
 90
        1
176
     1
 90
        1
176
     1
 40
1.0
176
     1
 90
        8
176
     1
 62
     8
420
  8421504
176
     1
 40
1.0
176
     1
 90
        1
176
     1
 90
        6
176
     1
 90
        2
176
     1
 62
     7
176
     1
 90
        5
176
     1
 90
        0
176
     1
 90
        0
176
     1
290
     0
176
     1
 90
        1
176
     1
 40
0.0
176
     1
 90
        0
176
     1
290
     0
176
     1
290
     1
176
     1
290
     1
176
     1
290
     0
176
     1
290
     0
176
     1
290
     0
176
     1
290
     0
176
     1
290
     0
176
     1
290
     0
176
     1
 90
       50
176
     1
 40
0.0
176
     1
 40
1.0
176
     1
 90
        0
176
     1
 62
    18
420
        0
176
     1
 90
       50
176
     1
 90
        3
176
     1
 62
     5
420
      255
176
     1
290
     0
176
     1
 90
       50
176
     1
 90
       50
176
     1
 90
       50
176
     1
290
     0
176
     1
 90
       50
176
     1
 62
   256
176
     0
 40
1.0
176
     0
 90
        2
176
     1
  1
strokes_ogs.tif
176
     1
290
     0
176
     1
 40
1.0
176
     1
 40
1.0
176
     1
  0
VISUALSTYLE
  5
34
102
{ACAD_REACTORS
330
2A
102
}
330
2A
100
AcDbVisualStyle
  2
Conceptual
 70
     9
177
     3
291
     0
 70
    58
 90
        3
176
     1
 90
        2
176
     1
 90
        0
176
     1
 90
        0
176
     1
 40
0.6
176
     1
 40
30.0
176
     1
 62
     7
420
 16777215
176
     1
 90
        2
176
     1
 90
        2
176
     1
 62
     7
176
     1
 62
   257
176
     1
 90
        1
176
     1
 90
        1
176
     1
 40
179.0
176
     1
 90
        8
176
     1
 62
     7
176
     1
 40
1.0
176
     1
 90
        1
176
     1
 90
        6
176
     1
 90
        2
176
     1
 62
     7
176
     1
 90
        3
176
     1
 90
        0
176
     1
 90
        0
176
     1
290
     0
176
     1
 90
        1
176
     1
 40
0.0
176
     1
 90
        0
176
     1
290
     0
176
     1
290
     1
176
     1
290
     1
176
     1
290
     0
176
     1
290
     0
176
     1
290
     0
176
     1
290
     0
176
     1
290
     0
176
     1
290
     0
176
     1
 90
       50
176
     1
 40
0.0
176
     1
 40
1.0
176
     1
 90
        0
176
     1
 62
    18
420
        0
176
     1
 90
       50
176
     1
 90
        3
176
     1
 62
     5
420
      255
176
     1
290
     0
176
     1
 90
       50
176
     1
 90
       50
176
     1
 90
       50
176
     1
290
     0
176
     1
 90
       50
176
     1
 62
   256
176
     0
 40
1.0
176
     0
 90
        2
176
     1
  1
strokes_ogs.tif
176
     1
290
     0
176
     1
 40
1.0
176
     1
 40
1.0
176
     1
  0
VISUALSTYLE
  5
35
102
{ACAD_REACTORS
330
2A
102
}
330
2A
100
AcDbVisualStyle
  2
Dim
 70
    11
177
     3
291
     1
 70
    58
 90
        2
176
     1
 90
        2
176
     1
 90
        0
176
     1
 90
        0
176
     1
 40
0.6
176
     1
 40
30.0
176
     1
 62
     7
420
 16777215
176
     1
 90
        1
176
     1
 90
        4
176
     1
 62
     7
176
     1
 62
   257
176
     1
 90
        1
176
     1
 90
        1
176
     1
 40
1.0
176
     1
 90
        8
176
     1
 62
     7
176
     1
 40
1.0
176
     1
 90
        1
176
     1
 90
        6
176
     1
 90
        2
176
     1
 62
     7
176
     1
 90
        5
176
     1
 90
        0
176
     1
 90
        0
176
     1
290
     0
176
     1
 90
        1
176
     1
 40
-50.0
176
     1
 90
        0
176
     1
290
     0
176
     1
290
     1
176
     1
290
     1
176
     1
290
     0
176
     1
290
     0
176
     1
290
     0
176
     1
290
     0
176
     1
290
     0
176
     1
290
     0
176
     1
 90
       50
176
     1
 40
0.0
176
     1
 40
1.0
176
     1
 90
        0
176
     1
 62
    18
420
        0
176
     1
 90
       50
176
     1
 90
        3
176
     1
 62
     5
420
      255
176
     1
290
     0
176
     1
 90
       50
176
     1
 90
       50
176
     1
 90
       50
176
     1
290
     0
176
     1
 90
       50
176
     1
 62
   256
176
     0
 40
1.0
176
     0
 90
        2
176
     1
  1
strokes_ogs.tif
176
     1
290
     0
176
     1
 40
1.0
176
     1
 40
1.0
176
     1
  0
VISUALSTYLE
  5
3D
102
{ACAD_REACTORS
330
2A
102
}
330
2A
100
AcDbVisualStyle
  2
EdgeColorOff
 70
    22
177
     3
291
     1
 70
    58
 90
        2
176
     0
 90
        2
176
     0
 90
        0
176
     0
 90
        0
176
     0
 40
0.6
176
     0
 40
30.0
176
     0
 62
     7
420
 16777215
176
     0
 90
        1
176
     0
 90
        4
176
     0
 62
     7
176
     0
 62
   257
176
     0
 90
        1
176
     0
 90
        1
176
     0
 40
1.0
176
     0
 90
        8
176
     2
 62
     7
176
     0
 40
1.0
176
     0
 90
        1
176
     0
 90
        6
176
     0
 90
        2
176
     0
 62
     7
176
     0
 90
        5
176
     0
 90
        0
176
     0
 90
        0
176
     0
290
     0
176
     0
 90
        1
176
     0
 40
0.0
176
     0
 90
        0
176
     0
290
     0
176
     0
290
     1
176
     0
290
     1
176
     0
290
     0
176
     0
290
     0
176
     0
290
     0
176
     0
290
     0
176
     0
290
     0
176
     0
290
     0
176
     0
 90
       50
176
     0
 40
0.0
176
     0
 40
1.0
176
     0
 90
        0
176
     0
 62
    18
420
        0
176
     0
 90
       50
176
     0
 90
        3
176
     0
 62
     5
420
      255
176
     0
290
     0
176
     0
 90
       50
176
     0
 90
       50
176
     0
 90
       50
176
     0
290
     0
176
     0
 90
       50
176
     0
 62
   256
176
     0
 40
1.0
176
     0
 90
        2
176
     0
  1
strokes_ogs.tif
176
     0
290
     0
176
     0
 40
1.0
176
     0
 40
1.0
176
     0
  0
VISUALSTYLE
  5
39
102
{ACAD_REACTORS
330
2A
102
}
330
2A
100
AcDbVisualStyle
  2
Facepattern
 70
    15
177
     3
291
     1
 70
    58
 90
        2
176
     1
 90
        2
176
     1
 90
        0
176
     1
 90
        0
176
     1
 40
0.6
176
     1
 40
30.0
176
     1
 62
     7
420
 16777215
176
     1
 90
        1
176
     1
 90
        4
176
     1
 62
     7
176
     1
 62
   257
176
     1
 90
        1
176
     1
 90
        1
176
     1
 40
1.0
176
     1
 90
        8
176
     1
 62
     7
176
     1
 40
1.0
176
     1
 90
        1
176
     1
 90
        6
176
     1
 90
        2
176
     1
 62
     7
176
     1
 90
        5
176
     1
 90
        0
176
     1
 90
        0
176
     1
290
     0
176
     1
 90
        1
176
     1
 40
0.0
176
     1
 90
        0
176
     1
290
     0
176
     1
290
     1
176
     1
290
     1
176
     1
290
     0
176
     1
290
     0
176
     1
290
     0
176
     1
290
     0
176
     1
290
     0
176
     1
290
     0
176
     1
 90
       50
176
     1
 40
0.0
176
     1
 40
1.0
176
     1
 90
        0
176
     1
 62
    18
420
        0
176
     1
 90
       50
176
     1
 90
        3
176
     1
 62
     5
420
      255
176
     1
290
     0
176
     1
 90
       50
176
     1
 90
       50
176
     1
 90
       50
176
     1
290
     0
176
     1
 90
       50
176
     1
 62
   256
176
     0
 40
1.0
176
     0
 90
        2
176
     1
  1
strokes_ogs.tif
176
     1
290
     0
176
     1
 40
1.0
176
     1
 40
1.0
176
     1
  0
VISUALSTYLE
  5
2B
102
{ACAD_REACTORS
330
2A
102
}
330
2A
100
AcDbVisualStyle
  2
Flat
 70
     0
177
     3
291
     1
 70
    58
 90
        2
176
     1
 90
        1
176
     1
 90
        1
176
     1
 90
        2
176
     1
 40
0.6
176
     1
 40
30.0
176
     1
 62
     7
420
 16777215
176
     1
 90
        0
176
     1
 90
        0
176
     1
 62
     7
176
     1
 62
   257
176
     1
 90
        1
176
     1
 90
        1
176
     1
 40
1.0
176
     1
 90
        8
176
     1
 62
     7
176
     1
 40
1.0
176
     1
 90
        1
176
     1
 90
        6
176
     1
 90
        2
176
     1
 62
     7
176
     1
 90
        5
176
     1
 90
        0
176
     1
 90
        0
176
     1
290
     0
176
     1
 90
       13
176
     1
 40
0.0
176
     1
 90
        0
176
     1
290
     0
176
     1
290
     1
176
     1
290
     1
176
     1
290
     0
176
     1
290
     0
176
     1
290
     0
176
     1
290
     0
176
     1
290
     0
176
     1
290
     0
176
     1
 90
       50
176
     1
 40
0.0
176
     1
 40
1.0
176
     1
 90
        0
176
     1
 62
    18
420
        0
176
     1
 90
       50
176
     1
 90
        3
176
     1
 62
     5
420
      255
176
     1
290
     0
176
     1
 90
       50
176
     1
 90
       50
176
     1
 90
       50
176
     1
290
     0
176
     1
 90
       50
176
     1
 62
   256
176
     0
 40
1.0
176
     0
 90
        2
176
     1
  1
strokes_ogs.tif
176
     1
290
     0
176
     1
 40
1.0
176
     1
 40
1.0
176
     1
  0
VISUALSTYLE
  5
2C
102
{ACAD_REACTORS
330
2A
102
}
330
2A
100
AcDbVisualStyle
  2
FlatWithEdges
 70
     1
177
     3
291
     1
 70
    58
 90
        2
176
     1
 90
        1
176
     1
 90
        1
176
     1
 90
        2
176
     1
 40
0.6
176
     1
 40
30.0
176
     1
 62
     7
420
 16777215
176
     1
 90
        1
176
     1
 90
        0
176
     1
 62
     7
176
     1
 62
   257
176
     1
 90
        1
176
     1
 90
        1
176
     1
 40
1.0
176
     1
 90
        0
176
     1
 62
   257
176
     1
 40
1.0
176
     1
 90
        1
176
     1
 90
        6
176
     1
 90
        2
176
     1
 62
     7
176
     1
 90
        5
176
     1
 90
        0
176
     1
 90
        0
176
     1
290
     0
176
     1
 90
       13
176
     1
 40
0.0
176
     1
 90
        0
176
     1
290
     0
176
     1
290
     1
176
     1
290
     1
176
     1
290
     0
176
     1
290
     0
176
     1
290
     0
176
     1
290
     0
176
     1
290
     0
176
     1
290
     0
176
     1
 90
       50
176
     1
 40
0.0
176
     1
 40
1.0
176
     1
 90
        0
176
     1
 62
    18
420
        0
176
     1
 90
       50
176
     1
 90
        3
176
     1
 62
     5
420
      255
176
     1
290
     0
176
     1
 90
       50
176
     1
 90
       50
176
     1
 90
       50
176
     1
290
     0
176
     1
 90
       50
176
     1
 62
   256
176
     0
 40
1.0
176
     0
 90
        2
176
     1
  1
strokes_ogs.tif
176
     1
290
     0
176
     1
 40
1.0
176
     1
 40
1.0
176
     1
  0
VISUALSTYLE
  5
2D
102
{ACAD_REACTORS
330
2A
102
}
330
2A
100
AcDbVisualStyle
  2
Gouraud
 70
     2
177
     3
291
     1
 70
    58
 90
        2
176
     1
 90
        2
176
     1
 90
        1
176
     1
 90
        2
176
     1
 40
0.6
176
     1
 40
30.0
176
     1
 62
     7
420
 16777215
176
     1
 90
        0
176
     1
 90
        0
176
     1
 62
     7
176
     1
 62
   257
176
     1
 90
        1
176
     1
 90
        1
176
     1
 40
1.0
176
     1
 90
        0
176
     1
 62
     7
176
     1
 40
1.0
176
     1
 90
        1
176
     1
 90
        6
176
     1
 90
        2
176
     1
 62
     7
176
     1
 90
        5
176
     1
 90
        0
176
     1
 90
        0
176
     1
290
     0
176
     1
 90
       13
176
     1
 40
0.0
176
     1
 90
        0
176
     1
290
     0
176
     1
290
     1
176
     1
290
     1
176
     1
290
     0
176
     1
290
     0
176
     1
290
     0
176
     1
290
     0
176
     1
290
     0
176
     1
290
     0
176
     1
 90
       50
176
     1
 40
0.0
176
     1
 40
1.0
176
     1
 90
        0
176
     1
 62
    18
420
        0
176
     1
 90
       50
176
     1
 90
        3
176
     1
 62
     5
420
      255
176
     1
290
     0
176
     1
 90
       50
176
     1
 90
       50
176
     1
 90
       50
176
     1
290
     0
176
     1
 90
       50
176
     1
 62
   256
176
     0
 40
1.0
176
     0
 90
        2
176
     1
  1
strokes_ogs.tif
176
     1
290
     0
176
     1
 40
1.0
176
     1
 40
1.0
176
     1
  0
VISUALSTYLE
  5
2E
102
{ACAD_REACTORS
330
2A
102
}
330
2A
100
AcDbVisualStyle
  2
GouraudWithEdges
 70
     3
177
     3
291
     1
 70
    58
 90
        2
176
     1
 90
        2
176
     1
 90
        1
176
     1
 90
        2
176
     1
 40
0.6
176
     1
 40
30.0
176
     1
 62
     7
420
 16777215
176
     1
 90
        1
176
     1
 90
        0
176
     1
 62
     7
176
     1
 62
   257
176
     1
 90
        1
176
     1
 90
        1
176
     1
 40
1.0
176
     1
 90
        0
176
     1
 62
   257
176
     1
 40
1.0
176
     1
 90
        1
176
     1
 90
        6
176
     1
 90
        2
176
     1
 62
     7
176
     1
 90
        5
176
     1
 90
        0
176
     1
 90
        0
176
     1
290
     0
176
     1
 90
       13
176
     1
 40
0.0
176
     1
 90
        0
176
     1
290
     0
176
     1
290
     1
176
     1
290
     1
176
     1
290
     0
176
     1
290
     0
176
     1
290
     0
176
     1
290
     0
176
     1
290
     0
176
     1
290
     0
176
     1
 90
       50
176
     1
 40
0.0
176
     1
 40
1.0
176
     1
 90
        0
176
     1
 62
    18
420
        0
176
     1
 90
       50
176
     1
 90
        3
176
     1
 62
     5
420
      255
176
     1
290
     0
176
     1
 90
       50
176
     1
 90
       50
176
     1
 90
       50
176
     1
290
     0
176
     1
 90
       50
176
     1
 62
   256
176
     0
 40
1.0
176
     0
 90
        2
176
     1
  1
strokes_ogs.tif
176
     1
290
     0
176
     1
 40
1.0
176
     1
 40
1.0
176
     1
  0
VISUALSTYLE
  5
31
102
{ACAD_REACTORS
330
2A
102
}
330
2A
100
AcDbVisualStyle
  2
Hidden
 70
     6
177
     3
291
     0
 70
    58
 90
        1
176
     1
 90
        2
176
     1
 90
        2
176
     1
 90
        0
176
     1
 40
0.6
176
     1
 40
30.0
176
     1
 62
     7
420
 16777215
176
     1
 90
        2
176
     1
 90
        2
176
     1
 62
     7
176
     1
 62
   257
176
     1
 90
        2
176
     1
 90
        1
176
     1
 40
40.0
176
     1
 90
        0
176
     1
 62
   257
176
     1
 40
1.0
176
     1
 90
        1
176
     1
 90
        6
176
     1
 90
        2
176
     1
 62
     7
176
     1
 90
        3
176
     1
 90
        0
176
     1
 90
        0
176
     1
290
     0
176
     1
 90
        1
176
     1
 40
0.0
176
     1
 90
        0
176
     1
290
     0
176
     1
290
     1
176
     1
290
     1
176
     1
290
     0
176
     1
290
     0
176
     1
290
     0
176
     1
290
     0
176
     1
290
     0
176
     1
290
     0
176
     1
 90
       50
176
     1
 40
0.0
176
     1
 40
1.0
176
     1
 90
        0
176
     1
 62
    18
420
        0
176
     1
 90
       50
176
     1
 90
        3
176
     1
 62
     5
420
      255
176
     1
290
     0
176
     1
 90
       50
176
     1
 90
       50
176
     1
 90
       50
176
     1
290
     0
176
     1
 90
       50
176
     1
 62
   256
176
     0
 40
1.0
176
     0
 90
        2
176
     1
  1
strokes_ogs.tif
176
     1
290
     0
176
     1
 40
1.0
176
     1
 40
1.0
176
     1
  0
VISUALSTYLE
  5
3B
102
{ACAD_REACTORS
330
2A
102
}
330
2A
100
AcDbVisualStyle
  2
JitterOff
 70
    20
177
     3
291
     1
 70
    58
 90
        2
176
     0
 90
        2
176
     0
 90
        0
176
     0
 90
        0
176
     0
 40
0.6
176
     0
 40
30.0
176
     0
 62
     7
420
 16777215
176
     0
 90
        1
176
     0
 90
        4
176
     0
 62
     7
176
     0
 62
   257
176
     0
 90
        1
176
     0
 90
        1
176
     0
 40
1.0
176
     0
 90
       10
176
     2
 62
     7
176
     0
 40
1.0
176
     0
 90
        1
176
     0
 90
        6
176
     0
 90
        2
176
     0
 62
     7
176
     0
 90
        5
176
     0
 90
        0
176
     0
 90
        0
176
     0
290
     0
176
     0
 90
        1
176
     0
 40
0.0
176
     0
 90
        0
176
     0
290
     0
176
     0
290
     1
176
     0
290
     1
176
     0
290
     0
176
     0
290
     0
176
     0
290
     0
176
     0
290
     0
176
     0
290
     0
176
     0
290
     0
176
     0
 90
       50
176
     0
 40
0.0
176
     0
 40
1.0
176
     0
 90
        0
176
     0
 62
    18
420
        0
176
     0
 90
       50
176
     0
 90
        3
176
     0
 62
     5
420
      255
176
     0
290
     0
176
     0
 90
       50
176
     0
 90
       50
176
     0
 90
       50
176
     0
290
     0
176
     0
 90
       50
176
     0
 62
   256
176
     0
 40
1.0
176
     0
 90
        2
176
     0
  1
strokes_ogs.tif
176
     0
290
     0
176
     0
 40
1.0
176
     0
 40
1.0
176
     0
  0
VISUALSTYLE
  5
38
102
{ACAD_REACTORS
330
2A
102
}
330
2A
100
AcDbVisualStyle
  2
Linepattern
 70
    14
177
     3
291
     1
 70
    58
 90
        2
176
     1
 90
        2
176
     1
 90
        0
176
     1
 90
        0
176
     1
 40
0.6
176
     1
 40
30.0
176
     1
 62
     7
420
 16777215
176
     1
 90
        1
176
     1
 90
        4
176
     1
 62
     7
176
     1
 62
   257
176
     1
 90
        7
176
     1
 90
        7
176
     1
 40
1.0
176
     1
 90
        8
176
     1
 62
     7
176
     1
 40
1.0
176
     1
 90
        1
176
     1
 90
        6
176
     1
 90
        2
176
     1
 62
     7
176
     1
 90
        5
176
     1
 90
        0
176
     1
 90
        0
176
     1
290
     0
176
     1
 90
        1
176
     1
 40
0.0
176
     1
 90
        0
176
     1
290
     0
176
     1
290
     1
176
     1
290
     1
176
     1
290
     0
176
     1
290
     0
176
     1
290
     0
176
     1
290
     0
176
     1
290
     0
176
     1
290
     0
176
     1
 90
       50
176
     1
 40
0.0
176
     1
 40
1.0
176
     1
 90
        0
176
     1
 62
    18
420
        0
176
     1
 90
       50
176
     1
 90
        3
176
     1
 62
     5
420
      255
176
     1
290
     0
176
     1
 90
       50
176
     1
 90
       50
176
     1
 90
       50
176
     1
290
     0
176
     1
 90
       50
176
     1
 62
   256
176
     0
 40
1.0
176
     0
 90
        2
176
     1
  1
strokes_ogs.tif
176
     1
290
     0
176
     1
 40
1.0
176
     1
 40
1.0
176
     1
  0
VISUALSTYLE
  5
3C
102
{ACAD_REACTORS
330
2A
102
}
330
2A
100
AcDbVisualStyle
  2
OverhangOff
 70
    21
177
     3
291
     1
 70
    58
 90
        2
176
     0
 90
        2
176
     0
 90
        0
176
     0
 90
        0
176
     0
 40
0.6
176
     0
 40
30.0
176
     0
 62
     7
420
 16777215
176
     0
 90
        1
176
     0
 90
        4
176
     0
 62
     7
176
     0
 62
   257
176
     0
 90
        1
176
     0
 90
        1
176
     0
 40
1.0
176
     0
 90
        9
176
     2
 62
     7
176
     0
 40
1.0
176
     0
 90
        1
176
     0
 90
        6
176
     0
 90
        2
176
     0
 62
     7
176
     0
 90
        5
176
     0
 90
        0
176
     0
 90
        0
176
     0
290
     0
176
     0
 90
        1
176
     0
 40
0.0
176
     0
 90
        0
176
     0
290
     0
176
     0
290
     1
176
     0
290
     1
176
     0
290
     0
176
     0
290
     0
176
     0
290
     0
176
     0
290
     0
176
     0
290
     0
176
     0
290
     0
176
     0
 90
       50
176
     0
 40
0.0
176
     0
 40
1.0
176
     0
 90
        0
176
     0
 62
    18
420
        0
176
     0
 90
       50
176
     0
 90
        3
176
     0
 62
     5
420
      255
176
     0
290
     0
176
     0
 90
       50
176
     0
 90
       50
176
     0
 90
       50
176
     0
290
     0
176
     0
 90
       50
176
     0
 62
   256
176
     0
 40
1.0
176
     0
 90
        2
176
     0
  1
strokes_ogs.tif
176
     0
290
     0
176
     0
 40
1.0
176
     0
 40
1.0
176
     0
  0
VISUALSTYLE
  5
33
102
{ACAD_REACTORS
330
2A
102
}
330
2A
100
AcDbVisualStyle
  2
Realistic
 70
     8
177
     3
291
     0
 70
    58
 90
        2
176
     1
 90
        3
176
     1
 90
        0
176
     1
 90
        2
176
     1
 40
0.6
176
     1
 40
30.0
176
     1
 62
     7
420
 16777215
176
     1
 90
        0
176
     1
 90
        0
176
     1
 62
     7
176
     1
 62
   257
176
     1
 90
        1
176
     1
 90
        1
176
     1
 40
1.0
176
     1
 90
        8
176
     1
 62
   257
176
     1
 40
1.0
176
     1
 90
        1
176
     1
 90
        6
176
     1
 90
        2
176
     1
 62
     7
176
     1
 90
        3
176
     1
 90
        0
176
     1
 90
        0
176
     1
290
     0
176
     1
 90
       13
176
     1
 40
0.0
176
     1
 90
        0
176
     1
290
     0
176
     1
290
     1
176
     1
290
     1
176
     1
290
     0
176
     1
290
     0
176
     1
290
     0
176
     1
290
     0
176
     1
290
     0
176
     1
290
     0
176
     1
 90
       50
176
     1
 40
0.0
176
     1
 40
1.0
176
     1
 90
        0
176
     1
 62
    18
420
        0
176
     1
 90
       50
176
     1
 90
        3
176
     1
 62
     5
420
      255
176
     1
290
     0
176
     1
 90
       50
176
     1
 90
       50
176
     1
 90
       50
176
     1
290
     0
176
     1
 90
       50
176
     1
 62
   256
176
     0
 40
1.0
176
     0
 90
        2
176
     1
  1
strokes_ogs.tif
176
     1
290
     0
176
     1
 40
1.0
176
     1
 40
1.0
176
     1
  0
VISUALSTYLE
  5
42
102
{ACAD_REACTORS
330
2A
102
}
330
2A
100
AcDbVisualStyle
  2
Shaded
 70
    27
177
     3
291
     0
 70
    58
 90
        2
176
     1
 90
        2
176
     1
 90
        1
176
     1
 90
        2
176
     1
 40
0.6
176
     1
 40
30.0
176
     1
 62
     7
420
 16777215
176
     1
 90
        0
176
     1
 90
        4
176
     1
 62
     7
176
     1
 62
   257
176
     1
 90
        1
176
     1
 90
        1
176
     1
 40
1.0
176
     1
 90
        8
176
     1
 62
   257
176
     1
 40
1.0
176
     1
 90
        1
176
     1
 90
        6
176
     1
 90
        2
176
     1
 62
     8
420
  7895160
176
     1
 90
        3
176
     1
 90
        0
176
     1
 90
        0
176
     1
290
     0
176
     1
 90
        5
176
     1
 40
0.0
176
     1
 90
        0
176
     1
290
     0
176
     1
290
     1
176
     1
290
     1
176
     1
290
     0
176
     1
290
     0
176
     1
290
     0
176
     1
290
     0
176
     1
290
     0
176
     1
290
     0
176
     1
 90
       50
176
     1
 40
0.0
176
     1
 40
1.0
176
     1
 90
        0
176
     1
 62
    18
420
        0
176
     1
 90
       50
176
     1
 90
        3
176
     1
 62
     5
420
      255
176
     1
290
     0
176
     1
 90
       50
176
     1
 90
       50
176
     1
 90
       50
176
     1
290
     0
176
     1
 90
       50
176
     1
 62
   256
176
     0
 40
1.0
176
     0
 90
        2
176
     1
  1
strokes_ogs.tif
176
     1
290
     0
176
     1
 40
1.0
176
     1
 40
1.0
176
     1
  0
VISUALSTYLE
  5
41
102
{ACAD_REACTORS
330
2A
102
}
330
2A
100
AcDbVisualStyle
  2
Shaded with edges
 70
    26
177
     3
291
     0
 70
    58
 90
        2
176
     1
 90
        2
176
     1
 90
        1
176
     1
 90
        2
176
     1
 40
0.6
176
     1
 40
30.0
176
     1
 62
     7
420
 16777215
176
     1
 90
        1
176
     1
 90
       10
176
     1
 62
     7
176
     1
 62
   257
176
     1
 90
        2
176
     1
 90
        1
176
     1
 40
1.0
176
     1
 90
        8
176
     1
 62
   257
176
     1
 40
1.0
176
     1
 90
        1
176
     1
 90
        6
176
     1
 90
        2
176
     1
 62
     7
176
     1
 90
        3
176
     1
 90
        0
176
     1
 90
        0
176
     1
290
     0
176
     1
 90
        5
176
     1
 40
0.0
176
     1
 90
        0
176
     1
290
     0
176
     1
290
     1
176
     1
290
     1
176
     1
290
     0
176
     1
290
     0
176
     1
290
     0
176
     1
290
     0
176
     1
290
     0
176
     1
290
     0
176
     1
 90
       50
176
     1
 40
0.0
176
     1
 40
1.0
176
     1
 90
        0
176
     1
 62
    18
420
        0
176
     1
 90
       50
176
     1
 90
        3
176
     1
 62
     5
420
      255
176
     1
290
     0
176
     1
 90
       50
176
     1
 90
       50
176
     1
 90
       50
176
     1
290
     0
176
     1
 90
       50
176
     1
 62
   256
176
     0
 40
1.0
176
     0
 90
        2
176
     1
  1
strokes_ogs.tif
176
     1
290
     0
176
     1
 40
1.0
176
     1
 40
1.0
176
     1
  0
VISUALSTYLE
  5
3E
102
{ACAD_REACTORS
330
2A
102
}
330
2A
100
AcDbVisualStyle
  2
Shades of Gray
 70
    23
177
     3
291
     0
 70
    58
 90
        2
176
     1
 90
        2
176
     1
 90
        3
176
     1
 90
        0
176
     1
 40
0.6
176
     1
 40
30.0
176
     1
 62
     7
420
 16777215
176
     1
 90
        2
176
     1
 90
        2
176
     1
 62
     7
176
     1
 62
     7
176
     1
 90
        1
176
     1
 90
        1
176
     1
 40
40.0
176
     1
 90
        8
176
     1
 62
     7
176
     1
 40
1.0
176
     1
 90
        1
176
     1
 90
        6
176
     1
 90
        2
176
     1
 62
     7
176
     1
 90
        3
176
     1
 90
        0
176
     1
 90
        0
176
     1
290
     0
176
     1
 90
        1
176
     1
 40
0.0
176
     1
 90
        0
176
     1
290
     0
176
     1
290
     1
176
     1
290
     1
176
     1
290
     0
176
     1
290
     0
176
     1
290
     0
176
     1
290
     0
176
     1
290
     0
176
     1
290
     0
176
     1
 90
       50
176
     1
 40
0.0
176
     1
 40
1.0
176
     1
 90
        0
176
     1
 62
    18
420
        0
176
     1
 90
       50
176
     1
 90
        3
176
     1
 62
     5
420
      255
176
     1
290
     0
176
     1
 90
       50
176
     1
 90
       50
176
     1
 90
       50
176
     1
290
     0
176
     1
 90
       50
176
     1
 62
   256
176
     0
 40
1.0
176
     0
 90
        2
176
     1
  1
strokes_ogs.tif
176
     1
290
     0
176
     1
 40
1.0
176
     1
 40
1.0
176
     1
  0
VISUALSTYLE
  5
3F
102
{ACAD_REACTORS
330
2A
102
}
330
2A
100
AcDbVisualStyle
  2
Sketchy
 70
    24
177
     3
291
     0
 70
    58
 90
        1
176
     1
 90
        2
176
     1
 90
        2
176
     1
 90
        0
176
     1
 40
0.6
176
     1
 40
30.0
176
     1
 62
     7
420
 16777215
176
     1
 90
        2
176
     1
 90
        2
176
     1
 62
     7
176
     1
 62
     7
176
     1
 90
        1
176
     1
 90
        1
176
     1
 40
40.0
176
     1
 90
       11
176
     1
 62
     7
176
     1
 40
1.0
176
     1
 90
        1
176
     1
 90
        6
176
     1
 90
        2
176
     1
 62
     7
176
     1
 90
        6
176
     1
 90
        0
176
     1
 90
        0
176
     1
290
     0
176
     1
 90
        1
176
     1
 40
0.0
176
     1
 90
        0
176
     1
290
     0
176
     1
290
     1
176
     1
290
     1
176
     1
290
     0
176
     1
290
     0
176
     1
290
     0
176
     1
290
     0
176
     1
290
     0
176
     1
290
     0
176
     1
 90
       50
176
     1
 40
0.0
176
     1
 40
1.0
176
     1
 90
        0
176
     1
 62
    18
420
        0
176
     1
 90
       50
176
     1
 90
        3
176
     1
 62
     5
420
      255
176
     1
290
     0
176
     1
 90
       50
176
     1
 90
       50
176
     1
 90
       50
176
     1
290
     0
176
     1
 90
       50
176
     1
 62
   256
176
     0
 40
1.0
176
     0
 90
        2
176
     1
  1
strokes_ogs.tif
176
     1
290
     0
176
     1
 40
1.0
176
     1
 40
1.0
176
     1
  0
VISUALSTYLE
  5
37
102
{ACAD_REACTORS
330
2A
102
}
330
2A
100
AcDbVisualStyle
  2
Thicken
 70
    13
177
     3
291
     1
 70
    58
 90
        2
176
     1
 90
        2
176
     1
 90
        0
176
     1
 90
        0
176
     1
 40
0.6
176
     1
 40
30.0
176
     1
 62
     7
420
 16777215
176
     1
 90
        1
176
     1
 90
        4
176
     1
 62
     7
176
     1
 62
   257
176
     1
 90
        1
176
     1
 90
        1
176
     1
 40
1.0
176
     1
 90
       12
176
     1
 62
     7
176
     1
 40
1.0
176
     1
 90
        1
176
     1
 90
        6
176
     1
 90
        2
176
     1
 62
     7
176
     1
 90
        5
176
     1
 90
        0
176
     1
 90
        0
176
     1
290
     0
176
     1
 90
        1
176
     1
 40
0.0
176
     1
 90
        0
176
     1
290
     0
176
     1
290
     1
176
     1
290
     1
176
     1
290
     0
176
     1
290
     0
176
     1
290
     0
176
     1
290
     0
176
     1
290
     0
176
     1
290
     0
176
     1
 90
       50
176
     1
 40
0.0
176
     1
 40
1.0
176
     1
 90
        0
176
     1
 62
    18
420
        0
176
     1
 90
       50
176
     1
 90
        3
176
     1
 62
     5
420
      255
176
     1
290
     0
176
     1
 90
       50
176
     1
 90
       50
176
     1
 90
       50
176
     1
290
     0
176
     1
 90
       50
176
     1
 62
   256
176
     0
 40
1.0
176
     0
 90
        2
176
     1
  1
strokes_ogs.tif
176
     1
290
     0
176
     1
 40
1.0
176
     1
 40
1.0
176
     1
  0
VISUALSTYLE
  5
30
102
{ACAD_REACTORS
330
2A
102
}
330
2A
100
AcDbVisualStyle
  2
Wireframe
 70
     5
177
     3
291
     0
 70
    58
 90
        0
176
     1
 90
        2
176
     1
 90
        0
176
     1
 90
        0
176
     1
 40
0.6
176
     1
 40
30.0
176
     1
 62
     7
420
 16777215
176
     1
 90
        1
176
     1
 90
        4
176
     1
 62
     7
176
     1
 62
   257
176
     1
 90
        1
176
     1
 90
        1
176
     1
 40
1.0
176
     1
 90
        0
176
     1
 62
   257
176
     1
 40
1.0
176
     1
 90
        1
176
     1
 90
        6
176
     1
 90
        2
176
     1
 62
     7
176
     1
 90
        3
176
     1
 90
        0
176
     1
 90
        0
176
     1
290
     0
176
     1
 90
        1
176
     1
 40
0.0
176
     1
 90
        0
176
     1
290
     0
176
     1
290
     1
176
     1
290
     1
176
     1
290
     0
176
     1
290
     0
176
     1
290
     0
176
     1
290
     0
176
     1
290
     0
176
     1
290
     0
176
     1
 90
       50
176
     1
 40
0.0
176
     1
 40
1.0
176
     1
 90
        0
176
     1
 62
    18
420
        0
176
     1
 90
       50
176
     1
 90
        3
176
     1
 62
     5
420
      255
176
     1
290
     0
176
     1
 90
       50
176
     1
 90
       50
176
     1
 90
       50
176
     1
290
     0
176
     1
 90
       50
176
     1
 62
   256
176
     0
 40
1.0
176
     0
 90
        2
176
     1
  1
strokes_ogs.tif
176
     1
290
     0
176
     1
 40
1.0
176
     1
 40
1.0
176
     1
  0
VISUALSTYLE
  5
40
102
{ACAD_REACTORS
330
2A
102
}
330
2A
100
AcDbVisualStyle
  2
X-Ray
 70
    25
177
     3
291
     0
 70
    58
 90
        2
176
     1
 90
        2
176
     1
 90
        1
176
     1
 90
        1
176
     1
 40
0.5
176
     1
 40
30.0
176
     1
 62
     7
420
 16777215
176
     1
 90
        1
176
     1
 90
        0
176
     1
 62
     7
176
     1
 62
   257
176
     1
 90
        1
176
     1
 90
        1
176
     1
 40
1.0
176
     1
 90
        8
176
     1
 62
     7
176
     1
 40
1.0
176
     1
 90
        1
176
     1
 90
        6
176
     1
 90
        2
176
     1
 62
     7
176
     1
 90
        3
176
     1
 90
        0
176
     1
 90
        0
176
     1
290
     0
176
     1
 90
       13
176
     1
 40
0.0
176
     1
 90
        0
176
     1
290
     0
176
     1
290
     1
176
     1
290
     1
176
     1
290
     0
176
     1
290
     0
176
     1
290
     0
176
     1
290
     0
176
     1
290
     0
176
     1
290
     0
176
     1
 90
       50
176
     1
 40
0.0
176
     1
 40
1.0
176
     1
 90
        0
176
     1
 62
    18
420
        0
176
     1
 90
       50
176
     1
 90
        3
176
     1
 62
     5
420
      255
176
     1
290
     0
176
     1
 90
       50
176
     1
 90
       50
176
     1
 90
       50
176
     1
290
     0
176
     1
 90
       50
176
     1
 62
   256
176
     0
 40
1.0
176
     0
 90
        2
176
     1
  1
strokes_ogs.tif
176
     1
290
     0
176
     1
 40
1.0
176
     1
 40
1.0
176
     1
  0
DICTIONARYVAR
  5
213
102
{ACAD_REACTORS
330
212
102
}
330
212
100
DictionaryVariables
280
     0
  1
1:1
  0
DICTIONARYVAR
  5
218
102
{ACAD_REACTORS
330
212
102
}
330
212
100
DictionaryVariables
280
     0
  1
Standard
  0
DICTIONARYVAR
  5
217
102
{ACAD_REACTORS
330
212
102
}
330
212
100
DictionaryVariables
280
     0
  1
Standard
  0
DICTIONARY
  5
214
330
6A
100
AcDbDictionary
280
     1
281
     1
  3
ACAD_ROUNDTRIP_2008_TABLESTYLE_CELLSTYLEMAP
360
215
  0
CELLSTYLEMAP
  5
215
102
{ACAD_REACTORS
330
214
102
}
330
214
100
AcDbCellStyleMap
 90
        3
300
CELLSTYLE
  1
TABLEFORMAT_BEGIN
 90
        5
170
     1
 91
        0
 92
    32768
 62
   257
 93
        1
300
CONTENTFORMAT
  1
CONTENTFORMAT_BEGIN
 90
        0
 91
        0
 92
        4
 93
        0
300

 40
0.0
140
1.0
 94
        5
 62
     0
340
11
144
0.25
309
CONTENTFORMAT_END
171
     1
301
MARGIN
  1
CELLMARGIN_BEGIN
 40
0.06
 40
0.06
 40
0.06
 40
0.06
 40
0.06
 40
0.06
309
CELLMARGIN_END
 94
        6
 95
        1
302
GRIDFORMAT
  1
GRIDFORMAT_BEGIN
 90
        0
 91
        1
 62
     0
 92
       -2
340
14
 93
        0
 40
0.045
309
GRIDFORMAT_END
 95
        2
302
GRIDFORMAT
  1
GRIDFORMAT_BEGIN
 90
        0
 91
        1
 62
     0
 92
       -2
340
14
 93
        0
 40
0.045
309
GRIDFORMAT_END
 95
        4
302
GRIDFORMAT
  1
GRIDFORMAT_BEGIN
 90
        0
 91
        1
 62
     0
 92
       -2
340
14
 93
        0
 40
0.045
309
GRIDFORMAT_END
 95
        8
302
GRIDFORMAT
  1
GRIDFORMAT_BEGIN
 90
        0
 91
        1
 62
     0
 92
       -2
340
14
 93
        0
 40
0.045
309
GRIDFORMAT_END
 95
       16
302
GRIDFORMAT
  1
GRIDFORMAT_BEGIN
 90
        0
 91
        1
 62
     0
 92
       -2
340
14
 93
        0
 40
0.045
309
GRIDFORMAT_END
 95
       32
302
GRIDFORMAT
  1
GRIDFORMAT_BEGIN
 90
        0
 91
        1
 62
     0
 92
       -2
340
14
 93
        0
 40
0.045
309
GRIDFORMAT_END
309
TABLEFORMAT_END
  1
CELLSTYLE_BEGIN
 90
        1
 91
        1
300
_TITLE
309
CELLSTYLE_END
300
CELLSTYLE
  1
TABLEFORMAT_BEGIN
 90
        5
170
     1
 91
        0
 92
        0
 62
   257
 93
        1
300
CONTENTFORMAT
  1
CONTENTFORMAT_BEGIN
 90
        0
 91
        0
 92
        4
 93
        0
300

 40
0.0
140
1.0
 94
        5
 62
     0
340
11
144
0.18
309
CONTENTFORMAT_END
171
     1
301
MARGIN
  1
CELLMARGIN_BEGIN
 40
0.06
 40
0.06
 40
0.06
 40
0.06
 40
0.06
 40
0.06
309
CELLMARGIN_END
 94
        6
 95
        1
302
GRIDFORMAT
  1
GRIDFORMAT_BEGIN
 90
        0
 91
        1
 62
     0
 92
       -2
340
14
 93
        0
 40
0.045
309
GRIDFORMAT_END
 95
        2
302
GRIDFORMAT
  1
GRIDFORMAT_BEGIN
 90
        0
 91
        1
 62
     0
 92
       -2
340
14
 93
        0
 40
0.045
309
GRIDFORMAT_END
 95
        4
302
GRIDFORMAT
  1
GRIDFORMAT_BEGIN
 90
        0
 91
        1
 62
     0
 92
       -2
340
14
 93
        0
 40
0.045
309
GRIDFORMAT_END
 95
        8
302
GRIDFORMAT
  1
GRIDFORMAT_BEGIN
 90
        0
 91
        1
 62
     0
 92
       -2
340
14
 93
        0
 40
0.045
309
GRIDFORMAT_END
 95
       16
302
GRIDFORMAT
  1
GRIDFORMAT_BEGIN
 90
        0
 91
        1
 62
     0
 92
       -2
340
14
 93
        0
 40
0.045
309
GRIDFORMAT_END
 95
       32
302
GRIDFORMAT
  1
GRIDFORMAT_BEGIN
 90
        0
 91
        1
 62
     0
 92
       -2
340
14
 93
        0
 40
0.045
309
GRIDFORMAT_END
309
TABLEFORMAT_END
  1
CELLSTYLE_BEGIN
 90
        2
 91
        1
300
_HEADER
309
CELLSTYLE_END
300
CELLSTYLE
  1
TABLEFORMAT_BEGIN
 90
        5
170
     1
 91
        0
 92
        0
 62
   257
 93
        1
300
CONTENTFORMAT
  1
CONTENTFORMAT_BEGIN
 90
        0
 91
        0
 92
        4
 93
        0
300

 40
0.0
140
1.0
 94
        2
 62
     0
340
11
144
0.18
309
CONTENTFORMAT_END
171
     1
301
MARGIN
  1
CELLMARGIN_BEGIN
 40
0.06
 40
0.06
 40
0.06
 40
0.06
 40
0.06
 40
0.06
309
CELLMARGIN_END
 94
        6
 95
        1
302
GRIDFORMAT
  1
GRIDFORMAT_BEGIN
 90
        0
 91
        1
 62
     0
 92
       -2
340
14
 93
        0
 40
0.045
309
GRIDFORMAT_END
 95
        2
302
GRIDFORMAT
  1
GRIDFORMAT_BEGIN
 90
        0
 91
        1
 62
     0
 92
       -2
340
14
 93
        0
 40
0.045
309
GRIDFORMAT_END
 95
        4
302
GRIDFORMAT
  1
GRIDFORMAT_BEGIN
 90
        0
 91
        1
 62
     0
 92
       -2
340
14
 93
        0
 40
0.045
309
GRIDFORMAT_END
 95
        8
302
GRIDFORMAT
  1
GRIDFORMAT_BEGIN
 90
        0
 91
        1
 62
     0
 92
       -2
340
14
 93
        0
 40
0.045
309
GRIDFORMAT_END
 95
       16
302
GRIDFORMAT
  1
GRIDFORMAT_BEGIN
 90
        0
 91
        1
 62
     0
 92
       -2
340
14
 93
        0
 40
0.045
309
GRIDFORMAT_END
 95
       32
302
GRIDFORMAT
  1
GRIDFORMAT_BEGIN
 90
        0
 91
        1
 62
     0
 92
       -2
340
14
 93
        0
 40
0.045
309
GRIDFORMAT_END
309
TABLEFORMAT_END
  1
CELLSTYLE_BEGIN
 90
        3
 91
        2
300
_DATA
309
CELLSTYLE_END
  0
ENDSEC
  0
EOF