0
SECTION
  2
HEADER
  9
$ACADVER
  1
AC1027
  9
$ACADMAINTVER
 70
     8
  9
$DWGCODEPAGE
  3
ANSI_1252
  9
$REQUIREDVERSIONS
160
                 0
  9
$COMMENTS
  1
File was created by Cadenas
  9
$CUSTOMPROPERTYTAG
  1
NN
  9
$CUSTOMPROPERTY
  1
Sleevoil RTL Pillow Blocks 3 7/16 thru 12 Inch Bore
  9
$CUSTOMPROPERTYTAG
  1
NT
  9
$CUSTOMPROPERTY
  1
SLEEVOIL Bearings
  9
$CUSTOMPROPERTYTAG
  1
NB
  9
$CUSTOMPROPERTY
  1
132363
  9
$CUSTOMPROPERTYTAG
  1
NBSYN
  9
$CUSTOMPROPERTY
  1
$PN.
  9
$CUSTOMPROPERTYTAG
  1
LINA
  9
$CUSTOMPROPERTY
  1
132363
  9
$CUSTOMPROPERTYTAG
  1
SS
  9
$CUSTOMPROPERTY
  1
3-15/16
  9
$CUSTOMPROPERTYTAG
  1
TYPE
  9
$CUSTOMPROPERTY
  1
Non-Expansion Pillow Block
  9
$CUSTOMPROPERTYTAG
  1
PN
  9
$CUSTOMPROPERTY
  1
132363
  9
$CUSTOMPROPERTYTAG
  1
WEIGHT
  9
$CUSTOMPROPERTY
  1
238
  9
$CUSTOMPROPERTYTAG
  1
SCPN
  9
$CUSTOMPROPERTY
  1
132152
  9
$CUSTOMPROPERTYTAG
  1
SCWT
  9
$CUSTOMPROPERTY
  1
4.2
  9
$CUSTOMPROPERTYTAG
  1
A
  9
$CUSTOMPROPERTY
  1
10-3/4
  9
$CUSTOMPROPERTYTAG
  1
B
  9
$CUSTOMPROPERTY
  1
20-3/4
  9
$CUSTOMPROPERTYTAG
  1
C
  9
$CUSTOMPROPERTY
  1
7
  9
$CUSTOMPROPERTYTAG
  1
DMAX
  9
$CUSTOMPROPERTY
  1
18
  9
$CUSTOMPROPERTYTAG
  1
DMIN
  9
$CUSTOMPROPERTY
  1
16-1/2
  9
$CUSTOMPROPERTYTAG
  1
E
  9
$CUSTOMPROPERTY
  1
3-1/2
  9
$CUSTOMPROPERTYTAG
  1
F
  9
$CUSTOMPROPERTY
  1
7/8
  9
$CUSTOMPROPERTYTAG
  1
G
  9
$CUSTOMPROPERTY
  1
1-3/4
  9
$CUSTOMPROPERTYTAG
  1
H
  9
$CUSTOMPROPERTY
  1
2-1/4
  9
$CUSTOMPROPERTYTAG
  1
K
  9
$CUSTOMPROPERTY
  1
13-5/8
  9
$CUSTOMPROPERTYTAG
  1
L
  9
$CUSTOMPROPERTY
  1
7-1/4
  9
$CUSTOMPROPERTYTAG
  1
M
  9
$CUSTOMPROPERTY
  1
6-1/2
  9
$CUSTOMPROPERTYTAG
  1
N
  9
$CUSTOMPROPERTY
  1
4-3/8
  9
$CUSTOMPROPERTYTAG
  1
P
  9
$CUSTOMPROPERTY
  1
12-7/8
  9
$CUSTOMPROPERTYTAG
  1
Q
  9
$CUSTOMPROPERTY
  1
1-1/8
  9
$CUSTOMPROPERTYTAG
  1
R
  9
$CUSTOMPROPERTY
  1
1
  9
$CUSTOMPROPERTYTAG
  1
S
  9
$CUSTOMPROPERTY
  1
1-1/2
  9
$CUSTOMPROPERTYTAG
  1
T
  9
$CUSTOMPROPERTY
  1
--
  9
$CUSTOMPROPERTYTAG
  1
U
  9
$CUSTOMPROPERTY
  1
2-15/16
  9
$CUSTOMPROPERTYTAG
  1
U1
  9
$CUSTOMPROPERTY
  1
1-1/2
  9
$CUSTOMPROPERTYTAG
  1
U2
  9
$CUSTOMPROPERTY
  1
1-1/4
  9
$CUSTOMPROPERTYTAG
  1
V
  9
$CUSTOMPROPERTY
  1
3
  9
$CUSTOMPROPERTYTAG
  1
V1
  9
$CUSTOMPROPERTY
  1
1-1/2
  9
$CUSTOMPROPERTYTAG
  1
W
  9
$CUSTOMPROPERTY
  1
8-11/16
  9
$CUSTOMPROPERTYTAG
  1
X
  9
$CUSTOMPROPERTY
  1
9-13/16
  9
$CUSTOMPROPERTYTAG
  1
Y
  9
$CUSTOMPROPERTY
  1
1-1/4
  9
$CUSTOMPROPERTYTAG
  1
Z
  9
$CUSTOMPROPERTY
  1
4-1/16
  9
$CUSTOMPROPERTYTAG
  1
A1
  9
$CUSTOMPROPERTY
  1
1
  9
$CUSTOMPROPERTYTAG
  1
B1
  9
$CUSTOMPROPERTY
  1
7-11/16
  9
$CUSTOMPROPERTYTAG
  1
C1
  9
$CUSTOMPROPERTY
  1
1/4
  9
$CUSTOMPROPERTYTAG
  1
D1
  9
$CUSTOMPROPERTY
  1
4-9/16
  9
$CUSTOMPROPERTYTAG
  1
TC
  9
$CUSTOMPROPERTY
  1
6-1/4*3/4
  9
$CUSTOMPROPERTYTAG
  1
O
  9
$CUSTOMPROPERTY
  1
64
  9
$CUSTOMPROPERTYTAG
  1
COMPANY
  9
$CUSTOMPROPERTY
  1
baldor
  9
$INSBASE
 10
0.0
 20
0.0
 30
0.0
  9
$EXTMIN
 10
1.000000000000000E+20
 20
1.000000000000000E+20
 30
1.000000000000000E+20
  9
$EXTMAX
 10
-1.000000000000000E+20
 20
-1.000000000000000E+20
 30
-1.000000000000000E+20
  9
$LIMMIN
 10
0.0
 20
0.0
  9
$LIMMAX
 10
12.0
 20
9.0
  9
$ORTHOMODE
 70
     0
  9
$REGENMODE
 70
     1
  9
$FILLMODE
 70
     1
  9
$QTEXTMODE
 70
     0
  9
$MIRRTEXT
 70
     1
  9
$LTSCALE
 40
1.0
  9
$ATTMODE
 70
     1
  9
$TEXTSIZE
 40
0.2
  9
$TRACEWID
 40
0.05
  9
$TEXTSTYLE
  7
Standard
  9
$CLAYER
  8
0
  9
$CELTYPE
  6
ByLayer
  9
$CECOLOR
 62
   256
  9
$CELTSCALE
 40
1.0
  9
$DISPSILH
 70
     0
  9
$DIMSCALE
 40
1.0
  9
$DIMASZ
 40
0.18
  9
$DIMEXO
 40
0.0625
  9
$DIMDLI
 40
0.38
  9
$DIMRND
 40
0.0
  9
$DIMDLE
 40
0.0
  9
$DIMEXE
 40
0.18
  9
$DIMTP
 40
0.0
  9
$DIMTM
 40
0.0
  9
$DIMTXT
 40
0.18
  9
$DIMCEN
 40
0.09
  9
$DIMTSZ
 40
0.0
  9
$DIMTOL
 70
     0
  9
$DIMLIM
 70
     0
  9
$DIMTIH
 70
     1
  9
$DIMTOH
 70
     1
  9
$DIMSE1
 70
     0
  9
$DIMSE2
 70
     0
  9
$DIMTAD
 70
     0
  9
$DIMZIN
 70
     0
  9
$DIMBLK
  1

  9
$DIMASO
 70
     1
  9
$DIMSHO
 70
     1
  9
$DIMPOST
  1

  9
$DIMAPOST
  1

  9
$DIMALT
 70
     0
  9
$DIMALTD
 70
     2
  9
$DIMALTF
 40
25.4
  9
$DIMLFAC
 40
1.0
  9
$DIMTOFL
 70
     0
  9
$DIMTVP
 40
0.0
  9
$DIMTIX
 70
     0
  9
$DIMSOXD
 70
     0
  9
$DIMSAH
 70
     0
  9
$DIMBLK1
  1

  9
$DIMBLK2
  1

  9
$DIMSTYLE
  2
Standard
  9
$DIMCLRD
 70
     0
  9
$DIMCLRE
 70
     0
  9
$DIMCLRT
 70
     0
  9
$DIMTFAC
 40
1.0
  9
$DIMGAP
 40
0.09
  9
$DIMJUST
 70
     0
  9
$DIMSD1
 70
     0
  9
$DIMSD2
 70
     0
  9
$DIMTOLJ
 70
     1
  9
$DIMTZIN
 70
     0
  9
$DIMALTZ
 70
     0
  9
$DIMALTTZ
 70
     0
  9
$DIMUPT
 70
     0
  9
$DIMDEC
 70
     4
  9
$DIMTDEC
 70
     4
  9
$DIMALTU
 70
     2
  9
$DIMALTTD
 70
     2
  9
$DIMTXSTY
  7
Standard
  9
$DIMAUNIT
 70
     0
  9
$DIMADEC
 70
     0
  9
$DIMALTRND
 40
0.0
  9
$DIMAZIN
 70
     0
  9
$DIMDSEP
 70
    46
  9
$DIMATFIT
 70
     3
  9
$DIMFRAC
 70
     0
  9
$DIMLDRBLK
  1

  9
$DIMLUNIT
 70
     2
  9
$DIMLWD
 70
    -2
  9
$DIMLWE
 70
    -2
  9
$DIMTMOVE
 70
     0
  9
$DIMFXL
 40
1.0
  9
$DIMFXLON
 70
     0
  9
$DIMJOGANG
 40
0.7853981633974483
  9
$DIMTFILL
 70
     0
  9
$DIMTFILLCLR
 70
     0
  9
$DIMARCSYM
 70
     0
  9
$DIMLTYPE
  6

  9
$DIMLTEX1
  6

  9
$DIMLTEX2
  6

  9
$DIMTXTDIRECTION
 70
     0
  9
$LUNITS
 70
     2
  9
$LUPREC
 70
     4
  9
$SKETCHINC
 40
0.1
  9
$FILLETRAD
 40
0.5
  9
$AUNITS
 70
     0
  9
$AUPREC
 70
     0
  9
$MENU
  1
.
  9
$ELEVATION
 40
0.0
  9
$PELEVATION
 40
0.0
  9
$THICKNESS
 40
0.0
  9
$LIMCHECK
 70
     0
  9
$CHAMFERA
 40
0.0
  9
$CHAMFERB
 40
0.0
  9
$CHAMFERC
 40
0.0
  9
$CHAMFERD
 40
0.0
  9
$SKPOLY
 70
     0
  9
$TDCREATE
 40
2458168.979720914
  9
$TDUCREATE
 40
2458168.938054248
  9
$TDUPDATE
 40
2458168.979721088
  9
$TDUUPDATE
 40
2458168.938054421
  9
$TDINDWG
 40
0.0000000116
  9
$TDUSRTIMER
 40
0.0000000116
  9
$USRTIMER
 70
     1
  9
$ANGBASE
 50
0.0
  9
$ANGDIR
 70
     0
  9
$PDMODE
 70
     0
  9
$PDSIZE
 40
0.0
  9
$PLINEWID
 40
0.0
  9
$SPLFRAME
 70
     0
  9
$SPLINETYPE
 70
     6
  9
$SPLINESEGS
 70
     8
  9
$HANDSEED
  5
232
  9
$SURFTAB1
 70
     6
  9
$SURFTAB2
 70
     6
  9
$SURFTYPE
 70
     6
  9
$SURFU
 70
     6
  9
$SURFV
 70
     6
  9
$UCSBASE
  2

  9
$UCSNAME
  2

  9
$UCSORG
 10
0.0
 20
0.0
 30
0.0
  9
$UCSXDIR
 10
1.0
 20
0.0
 30
0.0
  9
$UCSYDIR
 10
0.0
 20
1.0
 30
0.0
  9
$UCSORTHOREF
  2

  9
$UCSORTHOVIEW
 70
     0
  9
$UCSORGTOP
 10
0.0
 20
0.0
 30
0.0
  9
$UCSORGBOTTOM
 10
0.0
 20
0.0
 30
0.0
  9
$UCSORGLEFT
 10
0.0
 20
0.0
 30
0.0
  9
$UCSORGRIGHT
 10
0.0
 20
0.0
 30
0.0
  9
$UCSORGFRONT
 10
0.0
 20
0.0
 30
0.0
  9
$UCSORGBACK
 10
0.0
 20
0.0
 30
0.0
  9
$PUCSBASE
  2

  9
$PUCSNAME
  2

  9
$PUCSORG
 10
0.0
 20
0.0
 30
0.0
  9
$PUCSXDIR
 10
1.0
 20
0.0
 30
0.0
  9
$PUCSYDIR
 10
0.0
 20
1.0
 30
0.0
  9
$PUCSORTHOREF
  2

  9
$PUCSORTHOVIEW
 70
     0
  9
$PUCSORGTOP
 10
0.0
 20
0.0
 30
0.0
  9
$PUCSORGBOTTOM
 10
0.0
 20
0.0
 30
0.0
  9
$PUCSORGLEFT
 10
0.0
 20
0.0
 30
0.0
  9
$PUCSORGRIGHT
 10
0.0
 20
0.0
 30
0.0
  9
$PUCSORGFRONT
 10
0.0
 20
0.0
 30
0.0
  9
$PUCSORGBACK
 10
0.0
 20
0.0
 30
0.0
  9
$USERI1
 70
     0
  9
$USERI2
 70
     0
  9
$USERI3
 70
     0
  9
$USERI4
 70
     0
  9
$USERI5
 70
     0
  9
$USERR1
 40
0.0
  9
$USERR2
 40
0.0
  9
$USERR3
 40
0.0
  9
$USERR4
 40
0.0
  9
$USERR5
 40
0.0
  9
$WORLDVIEW
 70
     1
  9
$SHADEDGE
 70
     3
  9
$SHADEDIF
 70
    70
  9
$TILEMODE
 70
     1
  9
$MAXACTVP
 70
    64
  9
$PINSBASE
 10
0.0
 20
0.0
 30
0.0
  9
$PLIMCHECK
 70
     0
  9
$PEXTMIN
 10
1.000000000000000E+20
 20
1.000000000000000E+20
 30
1.000000000000000E+20
  9
$PEXTMAX
 10
-1.000000000000000E+20
 20
-1.000000000000000E+20
 30
-1.000000000000000E+20
  9
$PLIMMIN
 10
0.0
 20
0.0
  9
$PLIMMAX
 10
12.0
 20
9.0
  9
$UNITMODE
 70
     0
  9
$VISRETAIN
 70
     1
  9
$PLINEGEN
 70
     0
  9
$PSLTSCALE
 70
     1
  9
$TREEDEPTH
 70
  3020
  9
$CMLSTYLE
  2
Standard
  9
$CMLJUST
 70
     0
  9
$CMLSCALE
 40
1.0
  9
$PROXYGRAPHICS
 70
     1
  9
$MEASUREMENT
 70
     0
  9
$CELWEIGHT
370
    -1
  9
$ENDCAPS
280
     0
  9
$JOINSTYLE
280
     0
  9
$LWDISPLAY
290
     0
  9
$INSUNITS
 70
     1
  9
$HYPERLINKBASE
  1

  9
$STYLESHEET
  1

  9
$XEDIT
290
     1
  9
$CEPSNTYPE
380
     0
  9
$PSTYLEMODE
290
     1
  9
$FINGERPRINTGUID
  2
{DBC2D2CA-BEB6-4F9E-81CA-9A9F3CE35B09}
  9
$VERSIONGUID
  2
{FAEB1C32-E019-11D5-929B-00C0DF256EC4}
  9
$EXTNAMES
290
     1
  9
$PSVPSCALE
 40
0.0
  9
$OLESTARTUP
290
     0
  9
$SORTENTS
280
   127
  9
$INDEXCTL
280
     0
  9
$HIDETEXT
280
     1
  9
$XCLIPFRAME
280
     2
  9
$HALOGAP
280
     0
  9
$OBSCOLOR
 70
   257
  9
$OBSLTYPE
280
     0
  9
$INTERSECTIONDISPLAY
280
     0
  9
$INTERSECTIONCOLOR
 70
   257
  9
$DIMASSOC
280
     2
  9
$PROJECTNAME
  1

  9
$CAMERADISPLAY
290
     0
  9
$LENSLENGTH
 40
50.0
  9
$CAMERAHEIGHT
 40
0.0
  9
$STEPSPERSEC
 40
2.0
  9
$STEPSIZE
 40
6.0
  9
$3DDWFPREC
 40
2.0
  9
$PSOLWIDTH
 40
0.25
  9
$PSOLHEIGHT
 40
4.0
  9
$LOFTANG1
 40
1.570796326794897
  9
$LOFTANG2
 40
1.570796326794897
  9
$LOFTMAG1
 40
0.0
  9
$LOFTMAG2
 40
0.0
  9
$LOFTPARAM
 70
     7
  9
$LOFTNORMALS
280
     1
  9
$LATITUDE
 40
37.795
  9
$LONGITUDE
 40
-122.394
  9
$NORTHDIRECTION
 40
0.0
  9
$TIMEZONE
 70
 -8000
  9
$LIGHTGLYPHDISPLAY
280
     1
  9
$TILEMODELIGHTSYNCH
280
     1
  9
$CMATERIAL
347
44
  9
$SOLIDHIST
280
     0
  9
$SHOWHIST
280
     1
  9
$DWFFRAME
280
     2
  9
$DGNFRAME
280
     2
  9
$REALWORLDSCALE
290
     1
  9
$INTERFERECOLOR
 62
   256
  9
$CSHADOW
280
     0
  9
$SHADOWPLANELOCATION
 40
0.0
  0
ENDSEC
  0
SECTION
  2
CLASSES
  0
CLASS
  1
ACDBDICTIONARYWDFLT
  2
AcDbDictionaryWithDefault
  3
ObjectDBX Classes
 90
        0
 91
        4
280
     0
281
     0
  0
CLASS
  1
VISUALSTYLE
  2
AcDbVisualStyle
  3
ObjectDBX Classes
 90
     4095
 91
        4
280
     0
281
     0
  0
CLASS
  1
MATERIAL
  2
AcDbMaterial
  3
ObjectDBX Classes
 90
     1153
 91
        4
280
     0
281
     0
  0
CLASS
  1
SCALE
  2
AcDbScale
  3
ObjectDBX Classes
 90
     1153
 91
        4
280
     0
281
     0
  0
CLASS
  1
TABLESTYLE
  2
AcDbTableStyle
  3
ObjectDBX Classes
 90
     4095
 91
        4
280
     0
281
     0
  0
CLASS
  1
MLEADERSTYLE
  2
AcDbMLeaderStyle
  3
ACDB_MLEADERSTYLE_CLASS
 90
     4095
 91
        4
280
     0
281
     0
  0
CLASS
  1
SUN
  2
AcDbSun
  3
SCENEOE
 90
     1153
 91
        4
280
     0
281
     0
  0
CLASS
  1
DICTIONARYVAR
  2
AcDbDictionaryVar
  3
ObjectDBX Classes
 90
        0
 91
        4
280
     0
281
     0
  0
CLASS
  1
CELLSTYLEMAP
  2
AcDbCellStyleMap
  3
ObjectDBX Classes
 90
     1152
 91
        4
280
     0
281
     0
  0
ENDSEC
  0
SECTION
  2
TABLES
  0
TABLE
  2
VPORT
  5
8
330
0
100
AcDbSymbolTable
 70
     1
  0
VPORT
  5
29
330
8
100
AcDbSymbolTableRecord
100
AcDbViewportTableRecord
  2
*Active
 70
     0
 10
0.0
 20
0.0
 11
1.0
 21
1.0
 12
0.0
 22
0.0
 13
0.0
 23
0.0
 14
0.5
 24
0.5
 15
0.5
 25
0.5
 16
0.0
 26
0.0
 36
1.0
 17
0.0
 27
0.0
 37
0.0
 40
12.0615
 41
1.75475687103594
 42
50.0
 43
0.0
 44
0.0
 50
0.0
 51
0.0
 71
     0
 72
   100
 73
     1
 74
     3
 75
     0
 76
     0
 77
     0
 78
     0
281
     0
 65
     1
110
0.0
120
0.0
130
0.0
111
1.0
121
0.0
131
0.0
112
0.0
122
1.0
132
0.0
 79
     0
146
0.0
348
2F
 60
     3
 61
     5
292
     1
282
     1
141
0.0
142
0.0
 63
   250
361
6D
  0
ENDTAB
  0
TABLE
  2
LTYPE
  5
5
330
0
100
AcDbSymbolTable
 70
     3
  0
LTYPE
  5
14
330
5
100
AcDbSymbolTableRecord
100
AcDbLinetypeTableRecord
  2
ByBlock
 70
     0
  3

 72
    65
 73
     0
 40
0.0
  0
LTYPE
  5
15
330
5
100
AcDbSymbolTableRecord
100
AcDbLinetypeTableRecord
  2
ByLayer
 70
     0
  3

 72
    65
 73
     0
 40
0.0
  0
LTYPE
  5
16
330
5
100
AcDbSymbolTableRecord
100
AcDbLinetypeTableRecord
  2
Continuous
 70
     0
  3
Solid line
 72
    65
 73
     0
 40
0.0
  0
LTYPE
  5
EF
330
5
100
AcDbSymbolTableRecord
100
AcDbLinetypeTableRecord
  2
Dashed
 70
     0
  3

 72
    65
 73
     2
 40
2.0
 49
1.0
 74
     0
 49
-1.0
 74
     0
  0
LTYPE
  5
FB
330
5
100
AcDbSymbolTableRecord
100
AcDbLinetypeTableRecord
  2
Center
 70
     0
  3

 72
    65
 73
     4
 40
1.5
 49
0.45
 74
     0
 49
-0.5
 74
     0
 49
0.05
 74
     0
 49
-0.5
 74
     0
  0
ENDTAB
  0
TABLE
  2
LAYER
  5
2
330
0
100
AcDbSymbolTable
 70
     6
  0
LAYER
  5
10
330
2
100
AcDbSymbolTableRecord
100
AcDbLayerTableRecord
  2
0
 70
     0
 62
     7
  6
Continuous
370
    -3
390
F
347
46
348
0
  0
LAYER
  5
72
330
2
100
AcDbSymbolTableRecord
100
AcDbLayerTableRecord
  2
AM_6
 70
     0
 62
    -2
  6
Continuous
370
    35
390
F
347
46
348
0
  0
LAYER
  5
F0
330
2
100
AcDbSymbolTableRecord
100
AcDbLayerTableRecord
  2
AM_9
 70
     0
 62
     6
  6
Dashed
370
    25
390
F
347
46
348
0
  0
LAYER
  5
FC
330
2
100
AcDbSymbolTableRecord
100
AcDbLayerTableRecord
  2
AM_7
 70
     0
 62
     7
  6
Center
370
    25
390
F
347
46
348
0
  0
LAYER
  5
188
330
2
100
AcDbSymbolTableRecord
100
AcDbLayerTableRecord
  2
AM_4
 70
     0
 62
     7
  6
Continuous
370
    50
390
F
347
46
348
0
  0
LAYER
  5
227
330
2
100
AcDbSymbolTableRecord
100
AcDbLayerTableRecord
  2
ConnectionPoints
 70
     0
 62
     7
  6
Continuous
370
    50
390
F
347
46
348
0
  0
ENDTAB
  0
TABLE
  2
STYLE
  5
3
330
0
100
AcDbSymbolTable
 70
     1
  0
STYLE
  5
11
330
3
100
AcDbSymbolTableRecord
100
AcDbTextStyleTableRecord
  2
Standard
 70
     0
 40
0.0
 41
1.0
 50
0.0
 71
     0
 42
0.2
  3
txt
  4

  0
ENDTAB
  0
TABLE
  2
VIEW
  5
6
330
0
100
AcDbSymbolTable
 70
     0
  0
ENDTAB
  0
TABLE
  2
UCS
  5
7
330
0
100
AcDbSymbolTable
 70
     0
  0
ENDTAB
  0
TABLE
  2
APPID
  5
9
330
0
100
AcDbSymbolTable
 70
     1
  0
APPID
  5
12
330
9
100
AcDbSymbolTableRecord
100
AcDbRegAppTableRecord
  2
ACAD
 70
     0
  0
ENDTAB
  0
TABLE
  2
DIMSTYLE
  5
A
330
0
100
AcDbSymbolTable
 70
     1
100
AcDbDimStyleTable
  0
DIMSTYLE
105
27
330
A
100
AcDbSymbolTableRecord
100
AcDbDimStyleTableRecord
  2
Standard
 70
     0
178
     0
340
11
  0
ENDTAB
  0
TABLE
  2
BLOCK_RECORD
  5
1
330
0
100
AcDbSymbolTable
 70
     4
  0
BLOCK_RECORD
  5
1F
330
1
100
AcDbSymbolTableRecord
100
AcDbBlockTableRecord
  2
*Model_Space
340
22
 70
     0
280
     1
281
     0
  0
BLOCK_RECORD
  5
1B
330
1
100
AcDbSymbolTableRecord
100
AcDbBlockTableRecord
  2
*Paper_Space
340
1E
 70
     0
280
     1
281
     0
  0
BLOCK_RECORD
  5
23
330
1
100
AcDbSymbolTableRecord
100
AcDbBlockTableRecord
  2
*Paper_Space0
340
26
 70
     0
280
     1
281
     0
  0
BLOCK_RECORD
  5
6E
330
1
100
AcDbSymbolTableRecord
100
AcDbBlockTableRecord
  2
1_132363_4
340
0
102
{BLKREFS
331
6F
102
}
 70
     0
280
     1
281
     0
  0
BLOCK_RECORD
  5
A0
330
1
100
AcDbSymbolTableRecord
100
AcDbBlockTableRecord
  2
2_132363I__0_in_132363_4
340
0
102
{BLKREFS
331
A1
102
}
 70
     0
280
     1
281
     0
  0
BLOCK_RECORD
  5
FE
330
1
100
AcDbSymbolTableRecord
100
AcDbBlockTableRecord
  2
3_132363B_0_in_132363_4
340
0
102
{BLKREFS
331
FF
102
}
 70
     0
280
     1
281
     0
  0
ENDTAB
  0
ENDSEC
  0
SECTION
  2
BLOCKS
  0
BLOCK
  5
20
330
1F
100
AcDbEntity
  8
0
100
AcDbBlockBegin
  2
*Model_Space
 70
     0
 10
0.0
 20
0.0
 30
0.0
  3
*Model_Space
  1

  0
ENDBLK
  5
21
330
1F
100
AcDbEntity
  8
0
100
AcDbBlockEnd
  0
BLOCK
  5
1C
330
1B
100
AcDbEntity
 67
     1
  8
0
100
AcDbBlockBegin
  2
*Paper_Space
 70
     0
 10
0.0
 20
0.0
 30
0.0
  3
*Paper_Space
  1

  0
ENDBLK
  5
1D
330
1B
100
AcDbEntity
 67
     1
  8
0
100
AcDbBlockEnd
  0
BLOCK
  5
24
330
23
100
AcDbEntity
  8
0
100
AcDbBlockBegin
  2
*Paper_Space0
 70
     0
 10
0.0
 20
0.0
 30
0.0
  3
*Paper_Space0
  1

  0
ENDBLK
  5
25
330
23
100
AcDbEntity
  8
0
100
AcDbBlockEnd
  0
BLOCK
  5
70
330
6E
100
AcDbEntity
  8
0
100
AcDbBlockBegin
  2
1_132363_4
 70
     2
 10
0.0
 20
0.0
 30
0.0
  3
1_132363_4
  1

  0
ATTDEF
  5
73
330
6E
100
AcDbEntity
  8
AM_6
100
AcDbText
 10
15.375
 20
5.912500000000001
 30
0.0
 40
0.5
  1
Sleevoil RTL Pillow Blocks 3 7/16 thru 12 Inch Bore
100
AcDbAttributeDefinition
  3

  2
NN
 70
     8
280
     0
  0
ATTDEF
  5
74
330
6E
100
AcDbEntity
  8
AM_6
100
AcDbText
 10
15.375
 20
5.412500000000001
 30
0.0
 40
0.5
  1
SLEEVOIL Bearings
100
AcDbAttributeDefinition
  3

  2
NT
 70
     8
280
     0
  0
ATTDEF
  5
75
330
6E
100
AcDbEntity
  8
AM_6
100
AcDbText
 10
15.375
 20
4.912500000000001
 30
0.0
 40
0.5
  1
132363
100
AcDbAttributeDefinition
  3

  2
NB
 70
     8
280
     0
  0
ATTDEF
  5
76
330
6E
100
AcDbEntity
  8
AM_6
100
AcDbText
 10
15.375
 20
4.412500000000001
 30
0.0
 40
0.5
  1
$PN.
100
AcDbAttributeDefinition
  3

  2
NBSYN
 70
     8
280
     0
  0
ATTDEF
  5
77
330
6E
100
AcDbEntity
  8
AM_6
100
AcDbText
 10
15.375
 20
3.912500000000001
 30
0.0
 40
0.5
  1
132363
100
AcDbAttributeDefinition
  3

  2
LINA
 70
     8
280
     0
  0
ATTDEF
  5
78
330
6E
100
AcDbEntity
  8
AM_6
100
AcDbText
 10
15.375
 20
3.412500000000001
 30
0.0
 40
0.5
  1
3-15/16
100
AcDbAttributeDefinition
  3

  2
SS
 70
     8
280
     0
  0
ATTDEF
  5
79
330
6E
100
AcDbEntity
  8
AM_6
100
AcDbText
 10
15.375
 20
2.912500000000001
 30
0.0
 40
0.5
  1
Non-Expansion Pillow Block
100
AcDbAttributeDefinition
  3

  2
TYPE
 70
     8
280
     0
  0
ATTDEF
  5
7A
330
6E
100
AcDbEntity
  8
AM_6
100
AcDbText
 10
15.375
 20
2.412500000000001
 30
0.0
 40
0.5
  1
132363
100
AcDbAttributeDefinition
  3

  2
PN
 70
     8
280
     0
  0
ATTDEF
  5
7B
330
6E
100
AcDbEntity
  8
AM_6
100
AcDbText
 10
15.375
 20
1.912500000000001
 30
0.0
 40
0.5
  1
238
100
AcDbAttributeDefinition
  3

  2
WEIGHT
 70
     8
280
     0
  0
ATTDEF
  5
7C
330
6E
100
AcDbEntity
  8
AM_6
100
AcDbText
 10
15.375
 20
1.412500000000001
 30
0.0
 40
0.5
  1
132152
100
AcDbAttributeDefinition
  3

  2
SCPN
 70
     8
280
     0
  0
ATTDEF
  5
7D
330
6E
100
AcDbEntity
  8
AM_6
100
AcDbText
 10
15.375
 20
0.9125000000000014
 30
0.0
 40
0.5
  1
4.2
100
AcDbAttributeDefinition
  3

  2
SCWT
 70
     8
280
     0
  0
ATTDEF
  5
7E
330
6E
100
AcDbEntity
  8
AM_6
100
AcDbText
 10
15.375
 20
0.4125000000000014
 30
0.0
 40
0.5
  1
10-3/4
100
AcDbAttributeDefinition
  3

  2
A
 70
     8
280
     0
  0
ATTDEF
  5
7F
330
6E
100
AcDbEntity
  8
AM_6
100
AcDbText
 10
15.375
 20
-0.0874999999999986
 30
0.0
 40
0.5
  1
20-3/4
100
AcDbAttributeDefinition
  3

  2
B
 70
     8
280
     0
  0
ATTDEF
  5
80
330
6E
100
AcDbEntity
  8
AM_6
100
AcDbText
 10
15.375
 20
-0.5874999999999986
 30
0.0
 40
0.5
  1
7
100
AcDbAttributeDefinition
  3

  2
C
 70
     8
280
     0
  0
ATTDEF
  5
81
330
6E
100
AcDbEntity
  8
AM_6
100
AcDbText
 10
15.375
 20
-1.087499999999999
 30
0.0
 40
0.5
  1
18
100
AcDbAttributeDefinition
  3

  2
DMAX
 70
     8
280
     0
  0
ATTDEF
  5
82
330
6E
100
AcDbEntity
  8
AM_6
100
AcDbText
 10
15.375
 20
-1.587499999999999
 30
0.0
 40
0.5
  1
16-1/2
100
AcDbAttributeDefinition
  3

  2
DMIN
 70
     8
280
     0
  0
ATTDEF
  5
83
330
6E
100
AcDbEntity
  8
AM_6
100
AcDbText
 10
15.375
 20
-2.087499999999999
 30
0.0
 40
0.5
  1
3-1/2
100
AcDbAttributeDefinition
  3

  2
E
 70
     8
280
     0
  0
ATTDEF
  5
84
330
6E
100
AcDbEntity
  8
AM_6
100
AcDbText
 10
15.375
 20
-2.587499999999999
 30
0.0
 40
0.5
  1
7/8
100
AcDbAttributeDefinition
  3

  2
F
 70
     8
280
     0
  0
ATTDEF
  5
85
330
6E
100
AcDbEntity
  8
AM_6
100
AcDbText
 10
15.375
 20
-3.087499999999999
 30
0.0
 40
0.5
  1
1-3/4
100
AcDbAttributeDefinition
  3

  2
G
 70
     8
280
     0
  0
ATTDEF
  5
86
330
6E
100
AcDbEntity
  8
AM_6
100
AcDbText
 10
15.375
 20
-3.587499999999999
 30
0.0
 40
0.5
  1
2-1/4
100
AcDbAttributeDefinition
  3

  2
H
 70
     8
280
     0
  0
ATTDEF
  5
87
330
6E
100
AcDbEntity
  8
AM_6
100
AcDbText
 10
15.375
 20
-4.087499999999999
 30
0.0
 40
0.5
  1
13-5/8
100
AcDbAttributeDefinition
  3

  2
K
 70
     8
280
     0
  0
ATTDEF
  5
88
330
6E
100
AcDbEntity
  8
AM_6
100
AcDbText
 10
15.375
 20
-4.587499999999999
 30
0.0
 40
0.5
  1
7-1/4
100
AcDbAttributeDefinition
  3

  2
L
 70
     8
280
     0
  0
ATTDEF
  5
89
330
6E
100
AcDbEntity
  8
AM_6
100
AcDbText
 10
15.375
 20
-5.087499999999999
 30
0.0
 40
0.5
  1
6-1/2
100
AcDbAttributeDefinition
  3

  2
M
 70
     8
280
     0
  0
ATTDEF
  5
8A
330
6E
100
AcDbEntity
  8
AM_6
100
AcDbText
 10
15.375
 20
-5.587499999999999
 30
0.0
 40
0.5
  1
4-3/8
100
AcDbAttributeDefinition
  3

  2
N
 70
     8
280
     0
  0
ATTDEF
  5
8B
330
6E
100
AcDbEntity
  8
AM_6
100
AcDbText
 10
15.375
 20
-6.087499999999999
 30
0.0
 40
0.5
  1
12-7/8
100
AcDbAttributeDefinition
  3

  2
P
 70
     8
280
     0
  0
ATTDEF
  5
8C
330
6E
100
AcDbEntity
  8
AM_6
100
AcDbText
 10
15.375
 20
-6.587499999999999
 30
0.0
 40
0.5
  1
1-1/8
100
AcDbAttributeDefinition
  3

  2
Q
 70
     8
280
     0
  0
ATTDEF
  5
8D
330
6E
100
AcDbEntity
  8
AM_6
100
AcDbText
 10
15.375
 20
-7.087499999999999
 30
0.0
 40
0.5
  1
1
100
AcDbAttributeDefinition
  3

  2
R
 70
     8
280
     0
  0
ATTDEF
  5
8E
330
6E
100
AcDbEntity
  8
AM_6
100
AcDbText
 10
15.375
 20
-7.587499999999999
 30
0.0
 40
0.5
  1
1-1/2
100
AcDbAttributeDefinition
  3

  2
S
 70
     8
280
     0
  0
ATTDEF
  5
8F
330
6E
100
AcDbEntity
  8
AM_6
100
AcDbText
 10
15.375
 20
-8.087499999999999
 30
0.0
 40
0.5
  1
--
100
AcDbAttributeDefinition
  3

  2
T
 70
     8
280
     0
  0
ATTDEF
  5
90
330
6E
100
AcDbEntity
  8
AM_6
100
AcDbText
 10
15.375
 20
-8.587499999999999
 30
0.0
 40
0.5
  1
2-15/16
100
AcDbAttributeDefinition
  3

  2
U
 70
     8
280
     0
  0
ATTDEF
  5
91
330
6E
100
AcDbEntity
  8
AM_6
100
AcDbText
 10
15.375
 20
-9.087499999999999
 30
0.0
 40
0.5
  1
1-1/2
100
AcDbAttributeDefinition
  3

  2
U1
 70
     8
280
     0
  0
ATTDEF
  5
92
330
6E
100
AcDbEntity
  8
AM_6
100
AcDbText
 10
15.375
 20
-9.587499999999999
 30
0.0
 40
0.5
  1
1-1/4
100
AcDbAttributeDefinition
  3

  2
U2
 70
     8
280
     0
  0
ATTDEF
  5
93
330
6E
100
AcDbEntity
  8
AM_6
100
AcDbText
 10
15.375
 20
-10.0875
 30
0.0
 40
0.5
  1
3
100
AcDbAttributeDefinition
  3

  2
V
 70
     8
280
     0
  0
ATTDEF
  5
94
330
6E
100
AcDbEntity
  8
AM_6
100
AcDbText
 10
15.375
 20
-10.5875
 30
0.0
 40
0.5
  1
1-1/2
100
AcDbAttributeDefinition
  3

  2
V1
 70
     8
280
     0
  0
ATTDEF
  5
95
330
6E
100
AcDbEntity
  8
AM_6
100
AcDbText
 10
15.375
 20
-11.0875
 30
0.0
 40
0.5
  1
8-11/16
100
AcDbAttributeDefinition
  3

  2
W
 70
     8
280
     0
  0
ATTDEF
  5
96
330
6E
100
AcDbEntity
  8
AM_6
100
AcDbText
 10
15.375
 20
-11.5875
 30
0.0
 40
0.5
  1
9-13/16
100
AcDbAttributeDefinition
  3

  2
X
 70
     8
280
     0
  0
ATTDEF
  5
97
330
6E
100
AcDbEntity
  8
AM_6
100
AcDbText
 10
15.375
 20
-12.0875
 30
0.0
 40
0.5
  1
1-1/4
100
AcDbAttributeDefinition
  3

  2
Y
 70
     8
280
     0
  0
ATTDEF
  5
98
330
6E
100
AcDbEntity
  8
AM_6
100
AcDbText
 10
15.375
 20
-12.5875
 30
0.0
 40
0.5
  1
4-1/16
100
AcDbAttributeDefinition
  3

  2
Z
 70
     8
280
     0
  0
ATTDEF
  5
99
330
6E
100
AcDbEntity
  8
AM_6
100
AcDbText
 10
15.375
 20
-13.0875
 30
0.0
 40
0.5
  1
1
100
AcDbAttributeDefinition
  3

  2
A1
 70
     8
280
     0
  0
ATTDEF
  5
9A
330
6E
100
AcDbEntity
  8
AM_6
100
AcDbText
 10
15.375
 20
-13.5875
 30
0.0
 40
0.5
  1
7-11/16
100
AcDbAttributeDefinition
  3

  2
B1
 70
     8
280
     0
  0
ATTDEF
  5
9B
330
6E
100
AcDbEntity
  8
AM_6
100
AcDbText
 10
15.375
 20
-14.0875
 30
0.0
 40
0.5
  1
1/4
100
AcDbAttributeDefinition
  3

  2
C1
 70
     8
280
     0
  0
ATTDEF
  5
9C
330
6E
100
AcDbEntity
  8
AM_6
100
AcDbText
 10
15.375
 20
-14.5875
 30
0.0
 40
0.5
  1
4-9/16
100
AcDbAttributeDefinition
  3

  2
D1
 70
     8
280
     0
  0
ATTDEF
  5
9D
330
6E
100
AcDbEntity
  8
AM_6
100
AcDbText
 10
15.375
 20
-15.0875
 30
0.0
 40
0.5
  1
6-1/4*3/4
100
AcDbAttributeDefinition
  3

  2
TC
 70
     8
280
     0
  0
ATTDEF
  5
9E
330
6E
100
AcDbEntity
  8
AM_6
100
AcDbText
 10
15.375
 20
-15.5875
 30
0.0
 40
0.5
  1
64
100
AcDbAttributeDefinition
  3

  2
O
 70
     8
280
     0
  0
ATTDEF
  5
9F
330
6E
100
AcDbEntity
  8
AM_6
100
AcDbText
 10
15.375
 20
-16.0875
 30
0.0
 40
0.5
  1
baldor
100
AcDbAttributeDefinition
  3

  2
COMPANY
 70
     8
280
     0
  0
INSERT
  5
A1
330
6E
100
AcDbEntity
  8
0
100
AcDbBlockReference
  2
2_132363I__0_in_132363_4
 10
0.0
 20
0.0
 30
0.0
  0
INSERT
  5
FF
330
6E
100
AcDbEntity
  8
0
100
AcDbBlockReference
  2
3_132363B_0_in_132363_4
 10
0.0
 20
0.0
 30
0.0
  0
ENDBLK
  5
71
330
6E
100
AcDbEntity
  8
0
100
AcDbBlockEnd
  0
BLOCK
  5
A2
330
A0
100
AcDbEntity
  8
0
100
AcDbBlockBegin
  2
2_132363I__0_in_132363_4
 70
     2
 10
0.0
 20
0.0
 30
0.0
  3
2_132363I__0_in_132363_4
  1

  0
ATTDEF
  5
A4
330
A0
100
AcDbEntity
  8
AM_6
100
AcDbText
 10
7.072368421052632
 20
5.912500000000001
 30
0.0
 40
0.5
  1
3-7/16" THRU 12" RTL - insert
100
AcDbAttributeDefinition
  3

  2
NN
 70
     8
280
     0
  0
ATTDEF
  5
A5
330
A0
100
AcDbEntity
  8
AM_6
100
AcDbText
 10
7.072368421052632
 20
5.412500000000001
 30
0.0
 40
0.5
  1
SLEEVOIL Bearings
100
AcDbAttributeDefinition
  3

  2
NT
 70
     8
280
     0
  0
ATTDEF
  5
A6
330
A0
100
AcDbEntity
  8
AM_6
100
AcDbText
 10
7.072368421052632
 20
4.912500000000001
 30
0.0
 40
0.5
  1
132363I 
100
AcDbAttributeDefinition
  3

  2
NB
 70
     8
280
     0
  0
ATTDEF
  5
A7
330
A0
100
AcDbEntity
  8
AM_6
100
AcDbText
 10
7.072368421052632
 20
4.412500000000001
 30
0.0
 40
0.5
  1
$PN. 
100
AcDbAttributeDefinition
  3

  2
NBSYN
 70
     8
280
     0
  0
ATTDEF
  5
A8
330
A0
100
AcDbEntity
  8
AM_6
100
AcDbText
 10
7.072368421052632
 20
3.912500000000001
 30
0.0
 40
0.5
  1
132363I
100
AcDbAttributeDefinition
  3

  2
LINA
 70
     8
280
     0
  0
ATTDEF
  5
A9
330
A0
100
AcDbEntity
  8
AM_6
100
AcDbText
 10
7.072368421052632
 20
3.412500000000001
 30
0.0
 40
0.5
  1
3-15/16
100
AcDbAttributeDefinition
  3

  2
SS
 70
     8
280
     0
  0
ATTDEF
  5
AA
330
A0
100
AcDbEntity
  8
AM_6
100
AcDbText
 10
7.072368421052632
 20
2.912500000000001
 30
0.0
 40
0.5
  1
3.93750
100
AcDbAttributeDefinition
  3

  2
SS1
 70
     8
280
     0
  0
ATTDEF
  5
AB
330
A0
100
AcDbEntity
  8
AM_6
100
AcDbText
 10
7.072368421052632
 20
2.412500000000001
 30
0.0
 40
0.5
  1
Non-Expansion Pillow Block
100
AcDbAttributeDefinition
  3

  2
TYPE
 70
     8
280
     0
  0
ATTDEF
  5
AC
330
A0
100
AcDbEntity
  8
AM_6
100
AcDbText
 10
7.072368421052632
 20
1.912500000000001
 30
0.0
 40
0.5
  1
132363I
100
AcDbAttributeDefinition
  3

  2
PNNE
 70
     8
280
     0
  0
ATTDEF
  5
AD
330
A0
100
AcDbEntity
  8
AM_6
100
AcDbText
 10
7.072368421052632
 20
1.412500000000001
 30
0.0
 40
0.5
  1
132475I
100
AcDbAttributeDefinition
  3

  2
PNE
 70
     8
280
     0
  0
ATTDEF
  5
AE
330
A0
100
AcDbEntity
  8
AM_6
100
AcDbText
 10
7.072368421052632
 20
0.9125000000000014
 30
0.0
 40
0.5
  1
238
100
AcDbAttributeDefinition
  3

  2
WEIGHTNE
 70
     8
280
     0
  0
ATTDEF
  5
AF
330
A0
100
AcDbEntity
  8
AM_6
100
AcDbText
 10
7.072368421052632
 20
0.4125000000000014
 30
0.0
 40
0.5
  1
230
100
AcDbAttributeDefinition
  3

  2
WEIGHTE
 70
     8
280
     0
  0
ATTDEF
  5
B0
330
A0
100
AcDbEntity
  8
AM_6
100
AcDbText
 10
7.072368421052632
 20
-0.0874999999999986
 30
0.0
 40
0.5
  1
10-3/4
100
AcDbAttributeDefinition
  3

  2
A
 70
     8
280
     0
  0
ATTDEF
  5
B1
330
A0
100
AcDbEntity
  8
AM_6
100
AcDbText
 10
7.072368421052632
 20
-0.5874999999999986
 30
0.0
 40
0.5
  1
10.75000
100
AcDbAttributeDefinition
  3

  2
AA
 70
     8
280
     0
  0
ATTDEF
  5
B2
330
A0
100
AcDbEntity
  8
AM_6
100
AcDbText
 10
7.072368421052632
 20
-1.087499999999999
 30
0.0
 40
0.5
  1
20-3/4
100
AcDbAttributeDefinition
  3

  2
B
 70
     8
280
     0
  0
ATTDEF
  5
B3
330
A0
100
AcDbEntity
  8
AM_6
100
AcDbText
 10
7.072368421052632
 20
-1.587499999999999
 30
0.0
 40
0.5
  1
20.75000
100
AcDbAttributeDefinition
  3

  2
BB
 70
     8
280
     0
  0
ATTDEF
  5
B4
330
A0
100
AcDbEntity
  8
AM_6
100
AcDbText
 10
7.072368421052632
 20
-2.087499999999999
 30
0.0
 40
0.5
  1
7
100
AcDbAttributeDefinition
  3

  2
C
 70
     8
280
     0
  0
ATTDEF
  5
B5
330
A0
100
AcDbEntity
  8
AM_6
100
AcDbText
 10
7.072368421052632
 20
-2.587499999999999
 30
0.0
 40
0.5
  1
7.00000
100
AcDbAttributeDefinition
  3

  2
CC
 70
     8
280
     0
  0
ATTDEF
  5
B6
330
A0
100
AcDbEntity
  8
AM_6
100
AcDbText
 10
7.072368421052632
 20
-3.087499999999999
 30
0.0
 40
0.5
  1
18
100
AcDbAttributeDefinition
  3

  2
DMIN
 70
     8
280
     0
  0
ATTDEF
  5
B7
330
A0
100
AcDbEntity
  8
AM_6
100
AcDbText
 10
7.072368421052632
 20
-3.587499999999999
 30
0.0
 40
0.5
  1
18.00000
100
AcDbAttributeDefinition
  3

  2
DMIN1
 70
     8
280
     0
  0
ATTDEF
  5
B8
330
A0
100
AcDbEntity
  8
AM_6
100
AcDbText
 10
7.072368421052632
 20
-4.087499999999999
 30
0.0
 40
0.5
  1
16-1/2
100
AcDbAttributeDefinition
  3

  2
DMAX
 70
     8
280
     0
  0
ATTDEF
  5
B9
330
A0
100
AcDbEntity
  8
AM_6
100
AcDbText
 10
7.072368421052632
 20
-4.587499999999999
 30
0.0
 40
0.5
  1
16.50000
100
AcDbAttributeDefinition
  3

  2
DMAX1
 70
     8
280
     0
  0
ATTDEF
  5
BA
330
A0
100
AcDbEntity
  8
AM_6
100
AcDbText
 10
7.072368421052632
 20
-5.087499999999999
 30
0.0
 40
0.5
  1
3-1/2
100
AcDbAttributeDefinition
  3

  2
E
 70
     8
280
     0
  0
ATTDEF
  5
BB
330
A0
100
AcDbEntity
  8
AM_6
100
AcDbText
 10
7.072368421052632
 20
-5.587499999999999
 30
0.0
 40
0.5
  1
3.50000
100
AcDbAttributeDefinition
  3

  2
E1
 70
     8
280
     0
  0
ATTDEF
  5
BC
330
A0
100
AcDbEntity
  8
AM_6
100
AcDbText
 10
7.072368421052632
 20
-6.087499999999999
 30
0.0
 40
0.5
  1
7/8
100
AcDbAttributeDefinition
  3

  2
F
 70
     8
280
     0
  0
ATTDEF
  5
BD
330
A0
100
AcDbEntity
  8
AM_6
100
AcDbText
 10
7.072368421052632
 20
-6.587499999999999
 30
0.0
 40
0.5
  1
0.87500
100
AcDbAttributeDefinition
  3

  2
F1
 70
     8
280
     0
  0
ATTDEF
  5
BE
330
A0
100
AcDbEntity
  8
AM_6
100
AcDbText
 10
7.072368421052632
 20
-7.087499999999999
 30
0.0
 40
0.5
  1
1-3/4
100
AcDbAttributeDefinition
  3

  2
G
 70
     8
280
     0
  0
ATTDEF
  5
BF
330
A0
100
AcDbEntity
  8
AM_6
100
AcDbText
 10
7.072368421052632
 20
-7.587499999999999
 30
0.0
 40
0.5
  1
1.75000
100
AcDbAttributeDefinition
  3

  2
G1
 70
     8
280
     0
  0
ATTDEF
  5
C0
330
A0
100
AcDbEntity
  8
AM_6
100
AcDbText
 10
7.072368421052632
 20
-8.087499999999999
 30
0.0
 40
0.5
  1
2-1/4
100
AcDbAttributeDefinition
  3

  2
H
 70
     8
280
     0
  0
ATTDEF
  5
C1
330
A0
100
AcDbEntity
  8
AM_6
100
AcDbText
 10
7.072368421052632
 20
-8.587499999999999
 30
0.0
 40
0.5
  1
2.25000
100
AcDbAttributeDefinition
  3

  2
H1
 70
     8
280
     0
  0
ATTDEF
  5
C2
330
A0
100
AcDbEntity
  8
AM_6
100
AcDbText
 10
7.072368421052632
 20
-9.087499999999999
 30
0.0
 40
0.5
  1
13-5/8
100
AcDbAttributeDefinition
  3

  2
K
 70
     8
280
     0
  0
ATTDEF
  5
C3
330
A0
100
AcDbEntity
  8
AM_6
100
AcDbText
 10
7.072368421052632
 20
-9.587499999999999
 30
0.0
 40
0.5
  1
13.62500
100
AcDbAttributeDefinition
  3

  2
K1
 70
     8
280
     0
  0
ATTDEF
  5
C4
330
A0
100
AcDbEntity
  8
AM_6
100
AcDbText
 10
7.072368421052632
 20
-10.0875
 30
0.0
 40
0.5
  1
7-1/4
100
AcDbAttributeDefinition
  3

  2
L
 70
     8
280
     0
  0
ATTDEF
  5
C5
330
A0
100
AcDbEntity
  8
AM_6
100
AcDbText
 10
7.072368421052632
 20
-10.5875
 30
0.0
 40
0.5
  1
7.25000
100
AcDbAttributeDefinition
  3

  2
L1
 70
     8
280
     0
  0
ATTDEF
  5
C6
330
A0
100
AcDbEntity
  8
AM_6
100
AcDbText
 10
7.072368421052632
 20
-11.0875
 30
0.0
 40
0.5
  1
6-1/2
100
AcDbAttributeDefinition
  3

  2
M
 70
     8
280
     0
  0
ATTDEF
  5
C7
330
A0
100
AcDbEntity
  8
AM_6
100
AcDbText
 10
7.072368421052632
 20
-11.5875
 30
0.0
 40
0.5
  1
6.50000
100
AcDbAttributeDefinition
  3

  2
M1
 70
     8
280
     0
  0
ATTDEF
  5
C8
330
A0
100
AcDbEntity
  8
AM_6
100
AcDbText
 10
7.072368421052632
 20
-12.0875
 30
0.0
 40
0.5
  1
4-3/8
100
AcDbAttributeDefinition
  3

  2
N
 70
     8
280
     0
  0
ATTDEF
  5
C9
330
A0
100
AcDbEntity
  8
AM_6
100
AcDbText
 10
7.072368421052632
 20
-12.5875
 30
0.0
 40
0.5
  1
4.37500
100
AcDbAttributeDefinition
  3

  2
N1
 70
     8
280
     0
  0
ATTDEF
  5
CA
330
A0
100
AcDbEntity
  8
AM_6
100
AcDbText
 10
7.072368421052632
 20
-13.0875
 30
0.0
 40
0.5
  1
12-7/8
100
AcDbAttributeDefinition
  3

  2
P
 70
     8
280
     0
  0
ATTDEF
  5
CB
330
A0
100
AcDbEntity
  8
AM_6
100
AcDbText
 10
7.072368421052632
 20
-13.5875
 30
0.0
 40
0.5
  1
12.87500
100
AcDbAttributeDefinition
  3

  2
P1
 70
     8
280
     0
  0
ATTDEF
  5
CC
330
A0
100
AcDbEntity
  8
AM_6
100
AcDbText
 10
7.072368421052632
 20
-14.0875
 30
0.0
 40
0.5
  1
1-1/8
100
AcDbAttributeDefinition
  3

  2
Q
 70
     8
280
     0
  0
ATTDEF
  5
CD
330
A0
100
AcDbEntity
  8
AM_6
100
AcDbText
 10
7.072368421052632
 20
-14.5875
 30
0.0
 40
0.5
  1
1.12500
100
AcDbAttributeDefinition
  3

  2
Q1
 70
     8
280
     0
  0
ATTDEF
  5
CE
330
A0
100
AcDbEntity
  8
AM_6
100
AcDbText
 10
7.072368421052632
 20
-15.0875
 30
0.0
 40
0.5
  1
1
100
AcDbAttributeDefinition
  3

  2
R
 70
     8
280
     0
  0
ATTDEF
  5
CF
330
A0
100
AcDbEntity
  8
AM_6
100
AcDbText
 10
7.072368421052632
 20
-15.5875
 30
0.0
 40
0.5
  1
1.00000
100
AcDbAttributeDefinition
  3

  2
R1
 70
     8
280
     0
  0
ATTDEF
  5
D0
330
A0
100
AcDbEntity
  8
AM_6
100
AcDbText
 10
7.072368421052632
 20
-16.0875
 30
0.0
 40
0.5
  1
1-1/2
100
AcDbAttributeDefinition
  3

  2
S
 70
     8
280
     0
  0
ATTDEF
  5
D1
330
A0
100
AcDbEntity
  8
AM_6
100
AcDbText
 10
7.072368421052632
 20
-16.5875
 30
0.0
 40
0.5
  1
1.50000
100
AcDbAttributeDefinition
  3

  2
S1
 70
     8
280
     0
  0
ATTDEF
  5
D2
330
A0
100
AcDbEntity
  8
AM_6
100
AcDbText
 10
7.072368421052632
 20
-17.0875
 30
0.0
 40
0.5
  1
--
100
AcDbAttributeDefinition
  3

  2
T
 70
     8
280
     0
  0
ATTDEF
  5
D3
330
A0
100
AcDbEntity
  8
AM_6
100
AcDbText
 10
7.072368421052632
 20
-17.5875
 30
0.0
 40
0.5
  1
0.00000
100
AcDbAttributeDefinition
  3

  2
T1
 70
     8
280
     0
  0
ATTDEF
  5
D4
330
A0
100
AcDbEntity
  8
AM_6
100
AcDbText
 10
7.072368421052632
 20
-18.0875
 30
0.0
 40
0.5
  1
2-15/16
100
AcDbAttributeDefinition
  3

  2
U
 70
     8
280
     0
  0
ATTDEF
  5
D5
330
A0
100
AcDbEntity
  8
AM_6
100
AcDbText
 10
7.072368421052632
 20
-18.5875
 30
0.0
 40
0.5
  1
2.93750
100
AcDbAttributeDefinition
  3

  2
UU
 70
     8
280
     0
  0
ATTDEF
  5
D6
330
A0
100
AcDbEntity
  8
AM_6
100
AcDbText
 10
7.072368421052632
 20
-19.0875
 30
0.0
 40
0.5
  1
1-1/2
100
AcDbAttributeDefinition
  3

  2
U1
 70
     8
280
     0
  0
ATTDEF
  5
D7
330
A0
100
AcDbEntity
  8
AM_6
100
AcDbText
 10
7.072368421052632
 20
-19.5875
 30
0.0
 40
0.5
  1
1.50000
100
AcDbAttributeDefinition
  3

  2
U11
 70
     8
280
     0
  0
ATTDEF
  5
D8
330
A0
100
AcDbEntity
  8
AM_6
100
AcDbText
 10
7.072368421052632
 20
-20.0875
 30
0.0
 40
0.5
  1
1-1/4
100
AcDbAttributeDefinition
  3

  2
U2
 70
     8
280
     0
  0
ATTDEF
  5
D9
330
A0
100
AcDbEntity
  8
AM_6
100
AcDbText
 10
7.072368421052632
 20
-20.5875
 30
0.0
 40
0.5
  1
1.25000
100
AcDbAttributeDefinition
  3

  2
U22
 70
     8
280
     0
  0
ATTDEF
  5
DA
330
A0
100
AcDbEntity
  8
AM_6
100
AcDbText
 10
7.072368421052632
 20
-21.0875
 30
0.0
 40
0.5
  1
3
100
AcDbAttributeDefinition
  3

  2
V
 70
     8
280
     0
  0
ATTDEF
  5
DB
330
A0
100
AcDbEntity
  8
AM_6
100
AcDbText
 10
7.072368421052632
 20
-21.5875
 30
0.0
 40
0.5
  1
3.00000
100
AcDbAttributeDefinition
  3

  2
VV
 70
     8
280
     0
  0
ATTDEF
  5
DC
330
A0
100
AcDbEntity
  8
AM_6
100
AcDbText
 10
7.072368421052632
 20
-22.0875
 30
0.0
 40
0.5
  1
1-1/2
100
AcDbAttributeDefinition
  3

  2
V1
 70
     8
280
     0
  0
ATTDEF
  5
DD
330
A0
100
AcDbEntity
  8
AM_6
100
AcDbText
 10
7.072368421052632
 20
-22.5875
 30
0.0
 40
0.5
  1
1.50000
100
AcDbAttributeDefinition
  3

  2
V11
 70
     8
280
     0
  0
ATTDEF
  5
DE
330
A0
100
AcDbEntity
  8
AM_6
100
AcDbText
 10
7.072368421052632
 20
-23.0875
 30
0.0
 40
0.5
  1
8-11/16
100
AcDbAttributeDefinition
  3

  2
W
 70
     8
280
     0
  0
ATTDEF
  5
DF
330
A0
100
AcDbEntity
  8
AM_6
100
AcDbText
 10
7.072368421052632
 20
-23.5875
 30
0.0
 40
0.5
  1
8.68750
100
AcDbAttributeDefinition
  3

  2
W1
 70
     8
280
     0
  0
ATTDEF
  5
E0
330
A0
100
AcDbEntity
  8
AM_6
100
AcDbText
 10
7.072368421052632
 20
-24.0875
 30
0.0
 40
0.5
  1
9-13/16
100
AcDbAttributeDefinition
  3

  2
X
 70
     8
280
     0
  0
ATTDEF
  5
E1
330
A0
100
AcDbEntity
  8
AM_6
100
AcDbText
 10
7.072368421052632
 20
-24.5875
 30
0.0
 40
0.5
  1
9.81250
100
AcDbAttributeDefinition
  3

  2
X1
 70
     8
280
     0
  0
ATTDEF
  5
E2
330
A0
100
AcDbEntity
  8
AM_6
100
AcDbText
 10
7.072368421052632
 20
-25.0875
 30
0.0
 40
0.5
  1
1-1/4
100
AcDbAttributeDefinition
  3

  2
Y
 70
     8
280
     0
  0
ATTDEF
  5
E3
330
A0
100
AcDbEntity
  8
AM_6
100
AcDbText
 10
7.072368421052632
 20
-25.5875
 30
0.0
 40
0.5
  1
1.25000
100
AcDbAttributeDefinition
  3

  2
Y1
 70
     8
280
     0
  0
ATTDEF
  5
E4
330
A0
100
AcDbEntity
  8
AM_6
100
AcDbText
 10
7.072368421052632
 20
-26.0875
 30
0.0
 40
0.5
  1
4-1/16
100
AcDbAttributeDefinition
  3

  2
Z
 70
     8
280
     0
  0
ATTDEF
  5
E5
330
A0
100
AcDbEntity
  8
AM_6
100
AcDbText
 10
7.072368421052632
 20
-26.5875
 30
0.0
 40
0.5
  1
4.06250
100
AcDbAttributeDefinition
  3

  2
Z1
 70
     8
280
     0
  0
ATTDEF
  5
E6
330
A0
100
AcDbEntity
  8
AM_6
100
AcDbText
 10
7.072368421052632
 20
-27.0875
 30
0.0
 40
0.5
  1
1
100
AcDbAttributeDefinition
  3

  2
A1
 70
     8
280
     0
  0
ATTDEF
  5
E7
330
A0
100
AcDbEntity
  8
AM_6
100
AcDbText
 10
7.072368421052632
 20
-27.5875
 30
0.0
 40
0.5
  1
7-11/16
100
AcDbAttributeDefinition
  3

  2
B1
 70
     8
280
     0
  0
ATTDEF
  5
E8
330
A0
100
AcDbEntity
  8
AM_6
100
AcDbText
 10
7.072368421052632
 20
-28.0875
 30
0.0
 40
0.5
  1
7.68750
100
AcDbAttributeDefinition
  3

  2
B11
 70
     8
280
     0
  0
ATTDEF
  5
E9
330
A0
100
AcDbEntity
  8
AM_6
100
AcDbText
 10
7.072368421052632
 20
-28.5875
 30
0.0
 40
0.5
  1
1/4
100
AcDbAttributeDefinition
  3

  2
C1
 70
     8
280
     0
  0
ATTDEF
  5
EA
330
A0
100
AcDbEntity
  8
AM_6
100
AcDbText
 10
7.072368421052632
 20
-29.0875
 30
0.0
 40
0.5
  1
4-9/16
100
AcDbAttributeDefinition
  3

  2
D1
 70
     8
280
     0
  0
ATTDEF
  5
EB
330
A0
100
AcDbEntity
  8
AM_6
100
AcDbText
 10
7.072368421052632
 20
-29.5875
 30
0.0
 40
0.5
  1
6-1/4*3/4
100
AcDbAttributeDefinition
  3

  2
TC
 70
     8
280
     0
  0
ATTDEF
  5
EC
330
A0
100
AcDbEntity
  8
AM_6
100
AcDbText
 10
7.072368421052632
 20
-30.0875
 30
0.0
 40
0.5
  1
64
100
AcDbAttributeDefinition
  3

  2
O
 70
     8
280
     0
  0
ATTDEF
  5
ED
330
A0
100
AcDbEntity
  8
AM_6
100
AcDbText
 10
7.072368421052632
 20
-30.5875
 30
0.0
 40
0.5
  1
6.50000
100
AcDbAttributeDefinition
  3

  2
KRUG
 70
     8
280
     0
  0
ATTDEF
  5
EE
330
A0
100
AcDbEntity
  8
AM_6
100
AcDbText
 10
7.072368421052632
 20
-31.0875
 30
0.0
 40
0.5
  1
baldor
100
AcDbAttributeDefinition
  3

  2
COMPANY
 70
     8
280
     0
  0
LINE
  5
F1
330
A0
100
AcDbEntity
  8
AM_9
100
AcDbLine
 10
-1.96875
 20
5.375000000000001
 30
0.0
 11
-1.96875
 21
-5.375000000000001
 31
0.0
  0
LINE
  5
F2
330
A0
100
AcDbEntity
  8
AM_9
100
AcDbLine
 10
1.96875
 20
-5.375000000000001
 30
0.0
 11
1.96875
 21
5.375000000000001
 31
0.0
  0
ARC
  5
F3
330
A0
100
AcDbEntity
  8
AM_9
100
AcDbCircle
 10
-2.050868421052631
 20
5.3535
 30
0.0
 40
0.0215000000000005
100
AcDbArc
 50
90.0
 51
179.9999991462263
  0
ARC
  5
F4
330
A0
100
AcDbEntity
  8
AM_9
100
AcDbCircle
 10
2.050868421052631
 20
5.3535
 30
0.0
 40
0.0215000000000005
100
AcDbArc
 50
0.0000008537736463
 51
90.0
  0
LINE
  5
F5
330
A0
100
AcDbEntity
  8
AM_9
100
AcDbLine
 10
-2.072368421052632
 20
5.3535
 30
0.0
 11
-2.072368421052632
 21
-5.353499999999999
 31
0.0
  0
LINE
  5
F6
330
A0
100
AcDbEntity
  8
AM_9
100
AcDbLine
 10
2.072368421052632
 20
-5.353499999999999
 30
0.0
 11
2.072368421052632
 21
5.3535
 31
0.0
  0
LINE
  5
F7
330
A0
100
AcDbEntity
  8
AM_9
100
AcDbLine
 10
2.072368421052632
 20
5.3535
 30
0.0
 11
-2.072368421052632
 21
5.3535
 31
0.0
  0
ARC
  5
F8
330
A0
100
AcDbEntity
  8
AM_9
100
AcDbCircle
 10
-2.05086842105263
 20
-5.353499999999999
 30
0.0
 40
0.0215000000000019
100
AcDbArc
 50
180.0
 51
270.0
  0
ARC
  5
F9
330
A0
100
AcDbEntity
  8
AM_9
100
AcDbCircle
 10
2.05086842105263
 20
-5.353499999999999
 30
0.0
 40
0.0215000000000014
100
AcDbArc
 50
270.0
 51
0.0
  0
LINE
  5
FA
330
A0
100
AcDbEntity
  8
AM_9
100
AcDbLine
 10
2.072368421052632
 20
-5.353499999999999
 30
0.0
 11
-2.072368421052632
 21
-5.353499999999999
 31
0.0
  0
LINE
  5
FD
330
A0
100
AcDbEntity
  8
AM_7
100
AcDbLine
 10
0.0
 20
5.912500000000001
 30
0.0
 11
0.0
 21
-5.912500000000001
 31
0.0
  0
ENDBLK
  5
A3
330
A0
100
AcDbEntity
  8
0
100
AcDbBlockEnd
  0
BLOCK
  5
100
330
FE
100
AcDbEntity
  8
0
100
AcDbBlockBegin
  2
3_132363B_0_in_132363_4
 70
     2
 10
0.0
 20
0.0
 30
0.0
  3
3_132363B_0_in_132363_4
  1

  0
ATTDEF
  5
102
330
FE
100
AcDbEntity
  8
AM_6
100
AcDbText
 10
15.375
 20
5.375000000000001
 30
0.0
 40
0.5
  1
3-7/16" THRU 12" RTL - BODY
100
AcDbAttributeDefinition
  3

  2
NN
 70
     8
280
     0
  0
ATTDEF
  5
103
330
FE
100
AcDbEntity
  8
AM_6
100
AcDbText
 10
15.375
 20
4.875000000000001
 30
0.0
 40
0.5
  1
SLEEVOIL Bearings
100
AcDbAttributeDefinition
  3

  2
NT
 70
     8
280
     0
  0
ATTDEF
  5
104
330
FE
100
AcDbEntity
  8
AM_6
100
AcDbText
 10
15.375
 20
4.375000000000001
 30
0.0
 40
0.5
  1
132363B
100
AcDbAttributeDefinition
  3

  2
NB
 70
     8
280
     0
  0
ATTDEF
  5
105
330
FE
100
AcDbEntity
  8
AM_6
100
AcDbText
 10
15.375
 20
3.875000000000001
 30
0.0
 40
0.5
  1
$PN.
100
AcDbAttributeDefinition
  3

  2
NBSYN
 70
     8
280
     0
  0
ATTDEF
  5
106
330
FE
100
AcDbEntity
  8
AM_6
100
AcDbText
 10
15.375
 20
3.375000000000001
 30
0.0
 40
0.5
  1
132363B
100
AcDbAttributeDefinition
  3

  2
LINA
 70
     8
280
     0
  0
ATTDEF
  5
107
330
FE
100
AcDbEntity
  8
AM_6
100
AcDbText
 10
15.375
 20
2.875000000000001
 30
0.0
 40
0.5
  1
3-15/16
100
AcDbAttributeDefinition
  3

  2
SS
 70
     8
280
     0
  0
ATTDEF
  5
108
330
FE
100
AcDbEntity
  8
AM_6
100
AcDbText
 10
15.375
 20
2.375000000000001
 30
0.0
 40
0.5
  1
3.93750
100
AcDbAttributeDefinition
  3

  2
SS1
 70
     8
280
     0
  0
ATTDEF
  5
109
330
FE
100
AcDbEntity
  8
AM_6
100
AcDbText
 10
15.375
 20
1.875000000000001
 30
0.0
 40
0.5
  1
Non-Expansion Pillow Block
100
AcDbAttributeDefinition
  3

  2
TYPE
 70
     8
280
     0
  0
ATTDEF
  5
10A
330
FE
100
AcDbEntity
  8
AM_6
100
AcDbText
 10
15.375
 20
1.375000000000001
 30
0.0
 40
0.5
  1
132363B
100
AcDbAttributeDefinition
  3

  2
PNNE
 70
     8
280
     0
  0
ATTDEF
  5
10B
330
FE
100
AcDbEntity
  8
AM_6
100
AcDbText
 10
15.375
 20
0.8750000000000009
 30
0.0
 40
0.5
  1
132475B
100
AcDbAttributeDefinition
  3

  2
PNE
 70
     8
280
     0
  0
ATTDEF
  5
10C
330
FE
100
AcDbEntity
  8
AM_6
100
AcDbText
 10
15.375
 20
0.3750000000000009
 30
0.0
 40
0.5
  1
238
100
AcDbAttributeDefinition
  3

  2
WEIGHTNE
 70
     8
280
     0
  0
ATTDEF
  5
10D
330
FE
100
AcDbEntity
  8
AM_6
100
AcDbText
 10
15.375
 20
-0.1249999999999991
 30
0.0
 40
0.5
  1
230
100
AcDbAttributeDefinition
  3

  2
WEIGHTE
 70
     8
280
     0
  0
ATTDEF
  5
10E
330
FE
100
AcDbEntity
  8
AM_6
100
AcDbText
 10
15.375
 20
-0.6249999999999991
 30
0.0
 40
0.5
  1
10-3/4
100
AcDbAttributeDefinition
  3

  2
A
 70
     8
280
     0
  0
ATTDEF
  5
10F
330
FE
100
AcDbEntity
  8
AM_6
100
AcDbText
 10
15.375
 20
-1.124999999999999
 30
0.0
 40
0.5
  1
10.75000
100
AcDbAttributeDefinition
  3

  2
AA
 70
     8
280
     0
  0
ATTDEF
  5
110
330
FE
100
AcDbEntity
  8
AM_6
100
AcDbText
 10
15.375
 20
-1.624999999999999
 30
0.0
 40
0.5
  1
20-3/4
100
AcDbAttributeDefinition
  3

  2
B
 70
     8
280
     0
  0
ATTDEF
  5
111
330
FE
100
AcDbEntity
  8
AM_6
100
AcDbText
 10
15.375
 20
-2.124999999999999
 30
0.0
 40
0.5
  1
20.75000
100
AcDbAttributeDefinition
  3

  2
BB
 70
     8
280
     0
  0
ATTDEF
  5
112
330
FE
100
AcDbEntity
  8
AM_6
100
AcDbText
 10
15.375
 20
-2.624999999999999
 30
0.0
 40
0.5
  1
7
100
AcDbAttributeDefinition
  3

  2
C
 70
     8
280
     0
  0
ATTDEF
  5
113
330
FE
100
AcDbEntity
  8
AM_6
100
AcDbText
 10
15.375
 20
-3.124999999999999
 30
0.0
 40
0.5
  1
7.00000
100
AcDbAttributeDefinition
  3

  2
CC
 70
     8
280
     0
  0
ATTDEF
  5
114
330
FE
100
AcDbEntity
  8
AM_6
100
AcDbText
 10
15.375
 20
-3.624999999999999
 30
0.0
 40
0.5
  1
18
100
AcDbAttributeDefinition
  3

  2
DMAX
 70
     8
280
     0
  0
ATTDEF
  5
115
330
FE
100
AcDbEntity
  8
AM_6
100
AcDbText
 10
15.375
 20
-4.124999999999999
 30
0.0
 40
0.5
  1
18.00000
100
AcDbAttributeDefinition
  3

  2
DMAX1
 70
     8
280
     0
  0
ATTDEF
  5
116
330
FE
100
AcDbEntity
  8
AM_6
100
AcDbText
 10
15.375
 20
-4.624999999999999
 30
0.0
 40
0.5
  1
16-1/2
100
AcDbAttributeDefinition
  3

  2
DMIN
 70
     8
280
     0
  0
ATTDEF
  5
117
330
FE
100
AcDbEntity
  8
AM_6
100
AcDbText
 10
15.375
 20
-5.124999999999999
 30
0.0
 40
0.5
  1
16.50000
100
AcDbAttributeDefinition
  3

  2
DMIN1
 70
     8
280
     0
  0
ATTDEF
  5
118
330
FE
100
AcDbEntity
  8
AM_6
100
AcDbText
 10
15.375
 20
-5.624999999999999
 30
0.0
 40
0.5
  1
3-1/2
100
AcDbAttributeDefinition
  3

  2
E
 70
     8
280
     0
  0
ATTDEF
  5
119
330
FE
100
AcDbEntity
  8
AM_6
100
AcDbText
 10
15.375
 20
-6.124999999999999
 30
0.0
 40
0.5
  1
3.50000
100
AcDbAttributeDefinition
  3

  2
E1
 70
     8
280
     0
  0
ATTDEF
  5
11A
330
FE
100
AcDbEntity
  8
AM_6
100
AcDbText
 10
15.375
 20
-6.624999999999999
 30
0.0
 40
0.5
  1
7/8
100
AcDbAttributeDefinition
  3

  2
F
 70
     8
280
     0
  0
ATTDEF
  5
11B
330
FE
100
AcDbEntity
  8
AM_6
100
AcDbText
 10
15.375
 20
-7.124999999999999
 30
0.0
 40
0.5
  1
0.87500
100
AcDbAttributeDefinition
  3

  2
F1
 70
     8
280
     0
  0
ATTDEF
  5
11C
330
FE
100
AcDbEntity
  8
AM_6
100
AcDbText
 10
15.375
 20
-7.624999999999999
 30
0.0
 40
0.5
  1
1-3/4
100
AcDbAttributeDefinition
  3

  2
G
 70
     8
280
     0
  0
ATTDEF
  5
11D
330
FE
100
AcDbEntity
  8
AM_6
100
AcDbText
 10
15.375
 20
-8.125
 30
0.0
 40
0.5
  1
1.75000
100
AcDbAttributeDefinition
  3

  2
G1
 70
     8
280
     0
  0
ATTDEF
  5
11E
330
FE
100
AcDbEntity
  8
AM_6
100
AcDbText
 10
15.375
 20
-8.625
 30
0.0
 40
0.5
  1
2-1/4
100
AcDbAttributeDefinition
  3

  2
H
 70
     8
280
     0
  0
ATTDEF
  5
11F
330
FE
100
AcDbEntity
  8
AM_6
100
AcDbText
 10
15.375
 20
-9.125
 30
0.0
 40
0.5
  1
2.25000
100
AcDbAttributeDefinition
  3

  2
H1
 70
     8
280
     0
  0
ATTDEF
  5
120
330
FE
100
AcDbEntity
  8
AM_6
100
AcDbText
 10
15.375
 20
-9.625
 30
0.0
 40
0.5
  1
13-5/8
100
AcDbAttributeDefinition
  3

  2
K
 70
     8
280
     0
  0
ATTDEF
  5
121
330
FE
100
AcDbEntity
  8
AM_6
100
AcDbText
 10
15.375
 20
-10.125
 30
0.0
 40
0.5
  1
13.62500
100
AcDbAttributeDefinition
  3

  2
K1
 70
     8
280
     0
  0
ATTDEF
  5
122
330
FE
100
AcDbEntity
  8
AM_6
100
AcDbText
 10
15.375
 20
-10.625
 30
0.0
 40
0.5
  1
7-1/4
100
AcDbAttributeDefinition
  3

  2
L
 70
     8
280
     0
  0
ATTDEF
  5
123
330
FE
100
AcDbEntity
  8
AM_6
100
AcDbText
 10
15.375
 20
-11.125
 30
0.0
 40
0.5
  1
7.25000
100
AcDbAttributeDefinition
  3

  2
L1
 70
     8
280
     0
  0
ATTDEF
  5
124
330
FE
100
AcDbEntity
  8
AM_6
100
AcDbText
 10
15.375
 20
-11.625
 30
0.0
 40
0.5
  1
6-1/2
100
AcDbAttributeDefinition
  3

  2
M
 70
     8
280
     0
  0
ATTDEF
  5
125
330
FE
100
AcDbEntity
  8
AM_6
100
AcDbText
 10
15.375
 20
-12.125
 30
0.0
 40
0.5
  1
6.50000
100
AcDbAttributeDefinition
  3

  2
M1
 70
     8
280
     0
  0
ATTDEF
  5
126
330
FE
100
AcDbEntity
  8
AM_6
100
AcDbText
 10
15.375
 20
-12.625
 30
0.0
 40
0.5
  1
4-3/8
100
AcDbAttributeDefinition
  3

  2
N
 70
     8
280
     0
  0
ATTDEF
  5
127
330
FE
100
AcDbEntity
  8
AM_6
100
AcDbText
 10
15.375
 20
-13.125
 30
0.0
 40
0.5
  1
4.37500
100
AcDbAttributeDefinition
  3

  2
N1
 70
     8
280
     0
  0
ATTDEF
  5
128
330
FE
100
AcDbEntity
  8
AM_6
100
AcDbText
 10
15.375
 20
-13.625
 30
0.0
 40
0.5
  1
12-7/8
100
AcDbAttributeDefinition
  3

  2
P
 70
     8
280
     0
  0
ATTDEF
  5
129
330
FE
100
AcDbEntity
  8
AM_6
100
AcDbText
 10
15.375
 20
-14.125
 30
0.0
 40
0.5
  1
12.87500
100
AcDbAttributeDefinition
  3

  2
P1
 70
     8
280
     0
  0
ATTDEF
  5
12A
330
FE
100
AcDbEntity
  8
AM_6
100
AcDbText
 10
15.375
 20
-14.625
 30
0.0
 40
0.5
  1
1-1/8
100
AcDbAttributeDefinition
  3

  2
Q
 70
     8
280
     0
  0
ATTDEF
  5
12B
330
FE
100
AcDbEntity
  8
AM_6
100
AcDbText
 10
15.375
 20
-15.125
 30
0.0
 40
0.5
  1
1.12500
100
AcDbAttributeDefinition
  3

  2
Q1
 70
     8
280
     0
  0
ATTDEF
  5
12C
330
FE
100
AcDbEntity
  8
AM_6
100
AcDbText
 10
15.375
 20
-15.625
 30
0.0
 40
0.5
  1
1
100
AcDbAttributeDefinition
  3

  2
R
 70
     8
280
     0
  0
ATTDEF
  5
12D
330
FE
100
AcDbEntity
  8
AM_6
100
AcDbText
 10
15.375
 20
-16.125
 30
0.0
 40
0.5
  1
1.00000
100
AcDbAttributeDefinition
  3

  2
R1
 70
     8
280
     0
  0
ATTDEF
  5
12E
330
FE
100
AcDbEntity
  8
AM_6
100
AcDbText
 10
15.375
 20
-16.625
 30
0.0
 40
0.5
  1
1-1/2
100
AcDbAttributeDefinition
  3

  2
S
 70
     8
280
     0
  0
ATTDEF
  5
12F
330
FE
100
AcDbEntity
  8
AM_6
100
AcDbText
 10
15.375
 20
-17.125
 30
0.0
 40
0.5
  1
1.50000
100
AcDbAttributeDefinition
  3

  2
S1
 70
     8
280
     0
  0
ATTDEF
  5
130
330
FE
100
AcDbEntity
  8
AM_6
100
AcDbText
 10
15.375
 20
-17.625
 30
0.0
 40
0.5
  1
--
100
AcDbAttributeDefinition
  3

  2
T
 70
     8
280
     0
  0
ATTDEF
  5
131
330
FE
100
AcDbEntity
  8
AM_6
100
AcDbText
 10
15.375
 20
-18.125
 30
0.0
 40
0.5
  1
0.00000
100
AcDbAttributeDefinition
  3

  2
T1
 70
     8
280
     0
  0
ATTDEF
  5
132
330
FE
100
AcDbEntity
  8
AM_6
100
AcDbText
 10
15.375
 20
-18.625
 30
0.0
 40
0.5
  1
2-15/16
100
AcDbAttributeDefinition
  3

  2
U
 70
     8
280
     0
  0
ATTDEF
  5
133
330
FE
100
AcDbEntity
  8
AM_6
100
AcDbText
 10
15.375
 20
-19.125
 30
0.0
 40
0.5
  1
2.93750
100
AcDbAttributeDefinition
  3

  2
UU
 70
     8
280
     0
  0
ATTDEF
  5
134
330
FE
100
AcDbEntity
  8
AM_6
100
AcDbText
 10
15.375
 20
-19.625
 30
0.0
 40
0.5
  1
1-1/2
100
AcDbAttributeDefinition
  3

  2
U1
 70
     8
280
     0
  0
ATTDEF
  5
135
330
FE
100
AcDbEntity
  8
AM_6
100
AcDbText
 10
15.375
 20
-20.125
 30
0.0
 40
0.5
  1
1.50000
100
AcDbAttributeDefinition
  3

  2
U11
 70
     8
280
     0
  0
ATTDEF
  5
136
330
FE
100
AcDbEntity
  8
AM_6
100
AcDbText
 10
15.375
 20
-20.625
 30
0.0
 40
0.5
  1
1-1/4
100
AcDbAttributeDefinition
  3

  2
U2
 70
     8
280
     0
  0
ATTDEF
  5
137
330
FE
100
AcDbEntity
  8
AM_6
100
AcDbText
 10
15.375
 20
-21.125
 30
0.0
 40
0.5
  1
1.25000
100
AcDbAttributeDefinition
  3

  2
U22
 70
     8
280
     0
  0
ATTDEF
  5
138
330
FE
100
AcDbEntity
  8
AM_6
100
AcDbText
 10
15.375
 20
-21.625
 30
0.0
 40
0.5
  1
3
100
AcDbAttributeDefinition
  3

  2
V
 70
     8
280
     0
  0
ATTDEF
  5
139
330
FE
100
AcDbEntity
  8
AM_6
100
AcDbText
 10
15.375
 20
-22.125
 30
0.0
 40
0.5
  1
3.00000
100
AcDbAttributeDefinition
  3

  2
VV
 70
     8
280
     0
  0
ATTDEF
  5
13A
330
FE
100
AcDbEntity
  8
AM_6
100
AcDbText
 10
15.375
 20
-22.625
 30
0.0
 40
0.5
  1
1-1/2
100
AcDbAttributeDefinition
  3

  2
V1
 70
     8
280
     0
  0
ATTDEF
  5
13B
330
FE
100
AcDbEntity
  8
AM_6
100
AcDbText
 10
15.375
 20
-23.125
 30
0.0
 40
0.5
  1
1.50000
100
AcDbAttributeDefinition
  3

  2
V11
 70
     8
280
     0
  0
ATTDEF
  5
13C
330
FE
100
AcDbEntity
  8
AM_6
100
AcDbText
 10
15.375
 20
-23.625
 30
0.0
 40
0.5
  1
8-11/16
100
AcDbAttributeDefinition
  3

  2
W
 70
     8
280
     0
  0
ATTDEF
  5
13D
330
FE
100
AcDbEntity
  8
AM_6
100
AcDbText
 10
15.375
 20
-24.125
 30
0.0
 40
0.5
  1
8.68750
100
AcDbAttributeDefinition
  3

  2
W1
 70
     8
280
     0
  0
ATTDEF
  5
13E
330
FE
100
AcDbEntity
  8
AM_6
100
AcDbText
 10
15.375
 20
-24.625
 30
0.0
 40
0.5
  1
9-13/16
100
AcDbAttributeDefinition
  3

  2
X
 70
     8
280
     0
  0
ATTDEF
  5
13F
330
FE
100
AcDbEntity
  8
AM_6
100
AcDbText
 10
15.375
 20
-25.125
 30
0.0
 40
0.5
  1
9.81250
100
AcDbAttributeDefinition
  3

  2
X1
 70
     8
280
     0
  0
ATTDEF
  5
140
330
FE
100
AcDbEntity
  8
AM_6
100
AcDbText
 10
15.375
 20
-25.625
 30
0.0
 40
0.5
  1
1-1/4
100
AcDbAttributeDefinition
  3

  2
Y
 70
     8
280
     0
  0
ATTDEF
  5
141
330
FE
100
AcDbEntity
  8
AM_6
100
AcDbText
 10
15.375
 20
-26.125
 30
0.0
 40
0.5
  1
1.25000
100
AcDbAttributeDefinition
  3

  2
Y1
 70
     8
280
     0
  0
ATTDEF
  5
142
330
FE
100
AcDbEntity
  8
AM_6
100
AcDbText
 10
15.375
 20
-26.625
 30
0.0
 40
0.5
  1
4-1/16
100
AcDbAttributeDefinition
  3

  2
Z
 70
     8
280
     0
  0
ATTDEF
  5
143
330
FE
100
AcDbEntity
  8
AM_6
100
AcDbText
 10
15.375
 20
-27.125
 30
0.0
 40
0.5
  1
4.06250
100
AcDbAttributeDefinition
  3

  2
Z1
 70
     8
280
     0
  0
ATTDEF
  5
144
330
FE
100
AcDbEntity
  8
AM_6
100
AcDbText
 10
15.375
 20
-27.625
 30
0.0
 40
0.5
  1
1
100
AcDbAttributeDefinition
  3

  2
A1
 70
     8
280
     0
  0
ATTDEF
  5
145
330
FE
100
AcDbEntity
  8
AM_6
100
AcDbText
 10
15.375
 20
-28.125
 30
0.0
 40
0.5
  1
6.31250
100
AcDbAttributeDefinition
  3

  2
B1
 70
     8
280
     0
  0
ATTDEF
  5
146
330
FE
100
AcDbEntity
  8
AM_6
100
AcDbText
 10
15.375
 20
-28.625
 30
0.0
 40
0.5
  1
7.68750
100
AcDbAttributeDefinition
  3

  2
B11
 70
     8
280
     0
  0
ATTDEF
  5
147
330
FE
100
AcDbEntity
  8
AM_6
100
AcDbText
 10
15.375
 20
-29.125
 30
0.0
 40
0.5
  1
1/4
100
AcDbAttributeDefinition
  3

  2
C1
 70
     8
280
     0
  0
ATTDEF
  5
148
330
FE
100
AcDbEntity
  8
AM_6
100
AcDbText
 10
15.375
 20
-29.625
 30
0.0
 40
0.5
  1
4-9/16
100
AcDbAttributeDefinition
  3

  2
D1
 70
     8
280
     0
  0
ATTDEF
  5
149
330
FE
100
AcDbEntity
  8
AM_6
100
AcDbText
 10
15.375
 20
-30.125
 30
0.0
 40
0.5
  1
5.81250
100
AcDbAttributeDefinition
  3

  2
TC
 70
     8
280
     0
  0
ATTDEF
  5
14A
330
FE
100
AcDbEntity
  8
AM_6
100
AcDbText
 10
15.375
 20
-30.625
 30
0.0
 40
0.5
  1
64
100
AcDbAttributeDefinition
  3

  2
O
 70
     8
280
     0
  0
ATTDEF
  5
14B
330
FE
100
AcDbEntity
  8
AM_6
100
AcDbText
 10
15.375
 20
-31.125
 30
0.0
 40
0.5
  1
6.50000
100
AcDbAttributeDefinition
  3

  2
KRUG
 70
     8
280
     0
  0
ATTDEF
  5
14C
330
FE
100
AcDbEntity
  8
AM_6
100
AcDbText
 10
15.375
 20
-31.625
 30
0.0
 40
0.5
  1
baldor
100
AcDbAttributeDefinition
  3

  2
COMPANY
 70
     8
280
     0
  0
LINE
  5
14D
330
FE
100
AcDbEntity
  8
AM_9
100
AcDbLine
 10
-2.4609375
 20
4.886363636363636
 30
0.0
 11
2.4609375
 21
4.886363636363636
 31
0.0
  0
LINE
  5
14E
330
FE
100
AcDbEntity
  8
AM_9
100
AcDbLine
 10
-2.4609375
 20
-4.886363636363636
 30
0.0
 11
2.4609375
 21
-4.886363636363636
 31
0.0
  0
LINE
  5
14F
330
FE
100
AcDbEntity
  8
AM_9
100
AcDbLine
 10
2.072368421052632
 20
-5.375000000000001
 30
0.0
 11
2.072368421052632
 21
5.375000000000001
 31
0.0
  0
LINE
  5
150
330
FE
100
AcDbEntity
  8
AM_9
100
AcDbLine
 10
-2.072368421052632
 20
5.375000000000001
 30
0.0
 11
-2.072368421052632
 21
-5.375000000000001
 31
0.0
  0
LINE
  5
151
330
FE
100
AcDbEntity
  8
AM_9
100
AcDbLine
 10
5.579166666666666
 20
-4.217708333333333
 30
0.0
 11
5.641666666666667
 21
-4.217708333333333
 31
0.0
  0
LINE
  5
152
330
FE
100
AcDbEntity
  8
AM_9
100
AcDbLine
 10
5.641666666666666
 20
4.217708333333333
 30
0.0
 11
5.579166666666666
 21
4.217708333333333
 31
0.0
  0
LINE
  5
153
330
FE
100
AcDbEntity
  8
AM_9
100
AcDbLine
 10
-5.641666666666666
 20
-4.217708333333333
 30
0.0
 11
-5.579166666666666
 21
-4.217708333333333
 31
0.0
  0
LINE
  5
154
330
FE
100
AcDbEntity
  8
AM_9
100
AcDbLine
 10
-5.579166666666666
 20
4.217708333333333
 30
0.0
 11
-5.641666666666665
 21
4.217708333333333
 31
0.0
  0
ARC
  5
155
330
FE
100
AcDbEntity
  8
AM_9
100
AcDbCircle
 10
5.579166666666674
 20
0.0000000000000002
 30
0.0
 40
0.3715575902939676
100
AcDbArc
 50
343.2161541636651
 51
16.7838458363349
  0
ARC
  5
156
330
FE
100
AcDbEntity
  8
AM_9
100
AcDbCircle
 10
5.579166666666666
 20
0.0000000000000002
 30
0.0
 40
0.4291666666666671
100
AcDbArc
 50
345.5224878140701
 51
14.47751218592989
  0
ARC
  5
157
330
FE
100
AcDbEntity
  8
AM_9
100
AcDbCircle
 10
-5.579166666666674
 20
0.0000000000000003
 30
0.0
 40
0.3715575902939676
100
AcDbArc
 50
163.2161541636652
 51
196.7838458363349
  0
ARC
  5
158
330
FE
100
AcDbEntity
  8
AM_9
100
AcDbCircle
 10
-5.579166666666666
 20
0.0000000000000002
 30
0.0
 40
0.4291666666666671
100
AcDbArc
 50
165.5224878140701
 51
194.4775121859299
  0
LWPOLYLINE
  5
159
330
FE
100
AcDbEntity
  8
AM_9
100
AcDbPolyline
 90
        6
 70
     0
 43
0.0
 10
-5.274519679649478
 20
-0.0458915883258571
 10
-5.285607086988811
 20
-0.0573928496933681
 10
-5.323795451173661
 20
-0.0812124768362001
 10
-5.402913703112454
 20
-0.1015184283882609
 10
-5.497472402783488
 20
-0.1070156098130694
 10
-5.576904735002516
 20
-0.1072916665017291
  0
ARC
  5
15A
330
FE
100
AcDbEntity
  8
AM_9
100
AcDbCircle
 10
-5.149166666666667
 20
0.0000000000000003
 30
0.0
 40
0.1072916666666666
100
AcDbArc
 50
90.0
 51
270.0
  0
ARC
  5
15B
330
FE
100
AcDbEntity
  8
AM_9
100
AcDbCircle
 10
-6.009166666666665
 20
0.0000000000000002
 30
0.0
 40
0.1072916666666666
100
AcDbArc
 50
270.0
 51
90.0
  0
LWPOLYLINE
  5
15C
330
FE
100
AcDbEntity
  8
AM_9
100
AcDbPolyline
 90
       16
 70
     0
 43
0.0
 10
-5.576904735002516
 20
-0.1072916665017291
 10
-5.592708380355658
 20
-0.1072914548857768
 10
-5.688669967755454
 20
-0.106410309796834
 10
-5.784631000438516
 20
-0.0966595384710083
 10
-5.844167817771506
 20
-0.0766260477672593
 10
-5.875193300320841
 20
-0.0551278619213215
 10
-5.892903948199791
 20
-0.0323814430884815
 10
-5.900477563530488
 20
-0.0103902351656744
 10
-5.901319324686809
 20
0.0000000000000002
 10
-5.896396642531903
 20
0.0249322176186026
 10
-5.883285345703482
 20
0.0465311681201133
 10
-5.855288803238076
 20
0.0703345235853242
 10
-5.79961641119072
 20
0.09316392240334
 10
-5.739392470908753
 20
0.1033312916231204
 10
-5.677401575700815
 20
0.1067181907460207
 10
-5.563487711683081
 20
0.1072912861376547
  0
LWPOLYLINE
  5
15D
330
FE
100
AcDbEntity
  8
AM_9
100
AcDbPolyline
 90
        8
 70
     0
 43
0.0
 10
-5.563487711683081
 20
0.1072912861376547
 10
-5.551803095083044
 20
0.1072881411127993
 10
-5.469949117253353
 20
0.1064193698901666
 10
-5.388098337895379
 20
0.0993381990854213
 10
-5.348131345597258
 20
0.0901756061208935
 10
-5.309321175027657
 20
0.0740320557484673
 10
-5.283978881672316
 20
0.0559136647220669
 10
-5.274519679649495
 20
0.0458915883258776
  0
LWPOLYLINE
  5
15E
330
FE
100
AcDbEntity
  8
AM_9
100
AcDbPolyline
 90
        6
 70
     0
 43
0.0
 10
5.274519679649478
 20
0.0458915883258576
 10
5.285607086988811
 20
0.0573928496933686
 10
5.323795451173661
 20
0.0812124768362006
 10
5.402913703112454
 20
0.1015184283882614
 10
5.497472402783488
 20
0.1070156098130699
 10
5.576904735002516
 20
0.1072916665017295
  0
ARC
  5
15F
330
FE
100
AcDbEntity
  8
AM_9
100
AcDbCircle
 10
6.009166666666665
 20
0.0000000000000003
 30
0.0
 40
0.1072916666666666
100
AcDbArc
 50
90.0
 51
270.0
  0
ARC
  5
160
330
FE
100
AcDbEntity
  8
AM_9
100
AcDbCircle
 10
5.149166666666667
 20
0.0000000000000002
 30
0.0
 40
0.1072916666666666
100
AcDbArc
 50
270.0
 51
90.0
  0
LWPOLYLINE
  5
161
330
FE
100
AcDbEntity
  8
AM_9
100
AcDbPolyline
 90
       16
 70
     0
 43
0.0
 10
5.576904735002516
 20
0.1072916665017295
 10
5.592708380355658
 20
0.1072914548857773
 10
5.688669967755454
 20
0.1064103097968345
 10
5.784631000438516
 20
0.0966595384710088
 10
5.844167817771506
 20
0.0766260477672598
 10
5.875193300320841
 20
0.055127861921322
 10
5.892903948199791
 20
0.032381443088482
 10
5.900477563530488
 20
0.0103902351656748
 10
5.901319324686809
 20
0.0000000000000002
 10
5.896396642531903
 20
-0.0249322176186022
 10
5.883285345703482
 20
-0.0465311681201129
 10
5.855288803238076
 20
-0.0703345235853237
 10
5.79961641119072
 20
-0.0931639224033395
 10
5.739392470908753
 20
-0.10333129162312
 10
5.677401575700815
 20
-0.1067181907460202
 10
5.563487711683081
 20
-0.1072912861376542
  0
LWPOLYLINE
  5
162
330
FE
100
AcDbEntity
  8
AM_9
100
AcDbPolyline
 90
        8
 70
     0
 43
0.0
 10
5.563487711683081
 20
-0.1072912861376542
 10
5.551803095083044
 20
-0.1072881411127988
 10
5.469949117253353
 20
-0.1064193698901662
 10
5.388098337895379
 20
-0.0993381990854209
 10
5.348131345597258
 20
-0.090175606120893
 10
5.309321175027657
 20
-0.0740320557484669
 10
5.283978881672316
 20
-0.0559136647220664
 10
5.274519679649495
 20
-0.0458915883258771
  0
ARC
  5
163
330
FE
100
AcDbEntity
  8
AM_9
100
AcDbCircle
 10
0.0000000000296296
 20
-0.0000000000004976
 30
0.0
 40
5.2747193184639
100
AcDbArc
 50
358.8344813644626
 51
359.5015038070092
  0
LWPOLYLINE
  5
164
330
FE
100
AcDbEntity
  8
AM_9
100
AcDbPolyline
 90
       19
 70
     0
 43
0.0
 10
5.274519679649478
 20
0.0458915883258575
 10
5.251148511106836
 20
0.0644608887236429
 10
5.221139950198695
 20
0.075833794000579
 10
5.172195409306904
 20
0.0803555254112184
 10
5.121306419069372
 20
0.0707264334207756
 10
5.091131548676281
 20
0.0537595974628988
 10
5.076941238096333
 20
0.0386334517214305
 10
5.068492356806611
 20
0.0228046000911372
 10
5.064940982369354
 20
0.0088272704486767
 10
5.064646516064059
 20
-0.0063520345180371
 10
5.067269545423314
 20
-0.0192378859543393
 10
5.074455815470142
 20
-0.0348969605445337
 10
5.090351679634503
 20
-0.0531088476865885
 10
5.126686445959227
 20
-0.072601117115881
 10
5.170230508774555
 20
-0.0802672829193144
 10
5.214520458392642
 20
-0.0772798202992692
 10
5.259244418877173
 20
-0.0594559246971487
 10
5.272741571434961
 20
-0.0478641148958141
 10
5.274519679649495
 20
-0.0458915883258771
  0
ARC
  5
165
330
FE
100
AcDbEntity
  8
AM_9
100
AcDbCircle
 10
0.0000000005758487
 20
0.0000000000098943
 30
0.0
 40
5.274719317917603
100
AcDbArc
 50
0.498496192939657
 51
1.165518635555861
  0
ARC
  5
166
330
FE
100
AcDbEntity
  8
AM_9
100
AcDbCircle
 10
-0.0000000000293214
 20
0.0000000000004923
 30
0.0
 40
5.274719318464208
100
AcDbArc
 50
178.8344813644626
 51
179.5015038070092
  0
LWPOLYLINE
  5
167
330
FE
100
AcDbEntity
  8
AM_9
100
AcDbPolyline
 90
       20
 70
     0
 43
0.0
 10
-5.274519679649478
 20
-0.045891588325857
 10
-5.264365702954083
 20
-0.0556343700418448
 10
-5.234994815787132
 20
-0.0717061289636501
 10
-5.190538690685797
 20
-0.0802195960725672
 10
-5.143989642802188
 20
-0.0770774941906806
 10
-5.098483279082521
 20
-0.0592150905718713
 10
-5.08435082926506
 20
-0.0475153629978712
 10
-5.072122362386843
 20
-0.0308436172913851
 10
-5.066595863462934
 20
-0.0169252252695031
 10
-5.064334961876308
 20
-0.0006648209393052
 10
-5.065752384270972
 20
0.0134433428204746
 10
-5.070832431662054
 20
0.0282918533873026
 10
-5.082378665727542
 20
0.0454068253647064
 10
-5.108134712596639
 20
0.0649050152110365
 10
-5.138868464077763
 20
0.0760927796899743
 10
-5.170085148547169
 20
0.080259960202696
 10
-5.206806959461646
 20
0.078596266137329
 10
-5.243305521713036
 20
0.0683659947328606
 10
-5.270639431551965
 20
0.0500306577345388
 10
-5.274519679649495
 20
0.0458915883258775
  0
ARC
  5
168
330
FE
100
AcDbEntity
  8
AM_9
100
AcDbCircle
 10
-0.0000000005720411
 20
-0.0000000000098386
 30
0.0
 40
5.274719317921411
100
AcDbArc
 50
180.4984961929404
 51
181.1655186355559
  0
LINE
  5
169
330
FE
100
AcDbEntity
  8
AM_7
100
AcDbLine
 10
9.845625
 20
-3.0625
 30
0.0
 11
10.029375
 21
-3.0625
 31
0.0
  0
LINE
  5
16A
330
FE
100
AcDbEntity
  8
AM_7
100
AcDbLine
 10
9.9375
 20
-3.154375
 30
0.0
 11
9.9375
 21
-2.970625000000001
 31
0.0
  0
LINE
  5
16B
330
FE
100
AcDbEntity
  8
AM_7
100
AcDbLine
 10
-0.7874999999999999
 20
0.0000000000000004
 30
0.0
 11
0.7874999999999999
 21
0.0000000000000004
 31
0.0
  0
LINE
  5
16C
330
FE
100
AcDbEntity
  8
AM_7
100
AcDbLine
 10
6.009166666666665
 20
-0.1126562499999999
 30
0.0
 11
6.009166666666665
 21
0.1126562500000004
 31
0.0
  0
LINE
  5
16D
330
FE
100
AcDbEntity
  8
AM_7
100
AcDbLine
 10
7.727929687499999
 20
-1.75
 30
0.0
 11
9.5220703125
 21
-1.75
 31
0.0
  0
LINE
  5
16E
330
FE
100
AcDbEntity
  8
AM_7
100
AcDbLine
 10
9.05859375
 20
-2.2134765625
 30
0.0
 11
9.05859375
 21
-1.286523437500001
 31
0.0
  0
LINE
  5
16F
330
FE
100
AcDbEntity
  8
AM_7
100
AcDbLine
 10
-6.480416666666667
 20
-3.359375
 30
0.0
 11
-4.677916666666667
 21
-3.359375
 31
0.0
  0
LINE
  5
170
330
FE
100
AcDbEntity
  8
AM_7
100
AcDbLine
 10
-5.579166666666667
 20
-4.260625000000001
 30
0.0
 11
-5.579166666666667
 21
-2.458125
 31
0.0
  0
LINE
  5
171
330
FE
100
AcDbEntity
  8
AM_7
100
AcDbLine
 10
4.677916666666667
 20
3.359375
 30
0.0
 11
6.480416666666667
 21
3.359375
 31
0.0
  0
LINE
  5
172
330
FE
100
AcDbEntity
  8
AM_7
100
AcDbLine
 10
5.579166666666667
 20
2.458125
 30
0.0
 11
5.579166666666667
 21
4.260625000000001
 31
0.0
  0
LINE
  5
173
330
FE
100
AcDbEntity
  8
AM_7
100
AcDbLine
 10
-9.522070312499999
 20
1.749999999999998
 30
0.0
 11
-7.7279296875
 21
1.749999999999996
 31
0.0
  0
LINE
  5
174
330
FE
100
AcDbEntity
  8
AM_7
100
AcDbLine
 10
-8.191406249999996
 20
1.286523437499999
 30
0.0
 11
-8.191406249999996
 21
2.213476562499993
 31
0.0
  0
LINE
  5
175
330
FE
100
AcDbEntity
  8
AM_7
100
AcDbLine
 10
-6.009166666666665
 20
-0.1126562499999999
 30
0.0
 11
-6.009166666666665
 21
0.1126562500000004
 31
0.0
  0
LINE
  5
176
330
FE
100
AcDbEntity
  8
AM_7
100
AcDbLine
 10
5.149166666666667
 20
-0.1126562499999999
 30
0.0
 11
5.149166666666667
 21
0.1126562500000004
 31
0.0
  0
LINE
  5
177
330
FE
100
AcDbEntity
  8
AM_7
100
AcDbLine
 10
8.19140625
 20
-2.213476562500001
 30
0.0
 11
8.19140625
 21
-1.286523437499999
 31
0.0
  0
LINE
  5
178
330
FE
100
AcDbEntity
  8
AM_7
100
AcDbLine
 10
4.677916666666667
 20
0.0000000000000004
 30
0.0
 11
6.480416666666667
 21
0.0000000000000004
 31
0.0
  0
LINE
  5
179
330
FE
100
AcDbEntity
  8
AM_7
100
AcDbLine
 10
5.579166666666667
 20
-0.9012499999999997
 30
0.0
 11
5.579166666666667
 21
0.9012500000000006
 31
0.0
  0
LINE
  5
17A
330
FE
100
AcDbEntity
  8
AM_7
100
AcDbLine
 10
4.677916666666667
 20
-3.359375
 30
0.0
 11
6.480416666666667
 21
-3.359375
 31
0.0
  0
LINE
  5
17B
330
FE
100
AcDbEntity
  8
AM_7
100
AcDbLine
 10
5.579166666666667
 20
-4.260624999999999
 30
0.0
 11
5.579166666666667
 21
-2.458124999999999
 31
0.0
  0
LINE
  5
17C
330
FE
100
AcDbEntity
  8
AM_7
100
AcDbLine
 10
-9.5220703125
 20
-1.75
 30
0.0
 11
-7.7279296875
 21
-1.75
 31
0.0
  0
LINE
  5
17D
330
FE
100
AcDbEntity
  8
AM_7
100
AcDbLine
 10
-8.19140625
 20
-2.2134765625
 30
0.0
 11
-8.19140625
 21
-1.2865234375
 31
0.0
  0
LINE
  5
17E
330
FE
100
AcDbEntity
  8
AM_7
100
AcDbLine
 10
-6.480416666666667
 20
0.0000000000000003
 30
0.0
 11
-4.677916666666667
 21
0.0000000000000003
 31
0.0
  0
LINE
  5
17F
330
FE
100
AcDbEntity
  8
AM_7
100
AcDbLine
 10
-5.579166666666667
 20
-0.9012499999999998
 30
0.0
 11
-5.579166666666667
 21
0.9012500000000004
 31
0.0
  0
LINE
  5
180
330
FE
100
AcDbEntity
  8
AM_7
100
AcDbLine
 10
7.727929687500001
 20
1.750000000000004
 30
0.0
 11
9.522070312499999
 21
1.750000000000002
 31
0.0
  0
LINE
  5
181
330
FE
100
AcDbEntity
  8
AM_7
100
AcDbLine
 10
9.058593750000002
 20
1.286523437500006
 30
0.0
 11
9.058593750000002
 21
2.213476562499999
 31
0.0
  0
LINE
  5
182
330
FE
100
AcDbEntity
  8
AM_7
100
AcDbLine
 10
-6.480416666666667
 20
3.359375
 30
0.0
 11
-4.677916666666667
 21
3.359375
 31
0.0
  0
LINE
  5
183
330
FE
100
AcDbEntity
  8
AM_7
100
AcDbLine
 10
-5.579166666666667
 20
2.458124999999999
 30
0.0
 11
-5.579166666666667
 21
4.260624999999999
 31
0.0
  0
LINE
  5
184
330
FE
100
AcDbEntity
  8
AM_7
100
AcDbLine
 10
-9.058593750000002
 20
1.286523437500001
 30
0.0
 11
-9.058593750000002
 21
2.213476562499994
 31
0.0
  0
LINE
  5
185
330
FE
100
AcDbEntity
  8
AM_7
100
AcDbLine
 10
-9.05859375
 20
-2.2134765625
 30
0.0
 11
-9.05859375
 21
-1.286523437500001
 31
0.0
  0
LINE
  5
186
330
FE
100
AcDbEntity
  8
AM_7
100
AcDbLine
 10
8.191406249999996
 20
1.286523437500008
 30
0.0
 11
8.191406249999996
 21
2.2134765625
 31
0.0
  0
LINE
  5
187
330
FE
100
AcDbEntity
  8
AM_7
100
AcDbLine
 10
-5.149166666666667
 20
-0.1126562499999999
 30
0.0
 11
-5.149166666666667
 21
0.1126562500000004
 31
0.0
  0
LINE
  5
189
330
FE
100
AcDbEntity
  8
AM_4
100
AcDbLine
 10
7.886363636363638
 20
-3.5
 30
0.0
 11
10.375
 21
-3.5
 31
0.0
  0
LINE
  5
18A
330
FE
100
AcDbEntity
  8
AM_4
100
AcDbLine
 10
10.375
 20
-3.5
 30
0.0
 11
10.375
 21
3.500000000000001
 31
0.0
  0
CIRCLE
  5
18B
330
FE
100
AcDbEntity
  8
AM_4
100
AcDbCircle
 10
9.9375
 20
-3.0625
 30
0.0
 40
0.0875
  0
LINE
  5
18C
330
FE
100
AcDbEntity
  8
AM_4
100
AcDbLine
 10
10.375
 20
3.500000000000001
 30
0.0
 11
7.886363636363632
 21
3.500000000000002
 31
0.0
  0
LINE
  5
18D
330
FE
100
AcDbEntity
  8
AM_4
100
AcDbLine
 10
9.639318181818183
 20
0.8749999999999997
 30
0.0
 11
10.375
 21
0.8749999999999996
 31
0.0
  0
LINE
  5
18E
330
FE
100
AcDbEntity
  8
AM_4
100
AcDbLine
 10
10.375
 20
-0.8750000000000002
 30
0.0
 11
9.63931818181818
 21
-0.8750000000000001
 31
0.0
  0
LWPOLYLINE
  5
18F
330
FE
100
AcDbEntity
  8
AM_4
100
AcDbPolyline
 90
        6
 70
     0
 43
0.0
 10
10.115625
 20
-2.664326852546401
 10
10.19863194433707
 20
-2.642958980595632
 10
10.27445307779149
 20
-2.63079615944567
 10
10.33212596328128
 20
-2.626051021526175
 10
10.36685856160387
 20
-2.62503787683075
 10
10.375
 20
-2.625
  0
LINE
  5
190
330
FE
100
AcDbEntity
  8
AM_4
100
AcDbLine
 10
-10.375
 20
0.8749999999999997
 30
0.0
 11
-9.639318181818183
 21
0.8749999999999994
 31
0.0
  0
LINE
  5
191
330
FE
100
AcDbEntity
  8
AM_4
100
AcDbLine
 10
-7.886363636363632
 20
3.5
 30
0.0
 11
-10.375
 21
3.499999999999999
 31
0.0
  0
LINE
  5
192
330
FE
100
AcDbEntity
  8
AM_4
100
AcDbLine
 10
-9.639318181818181
 20
-0.8750000000000002
 30
0.0
 11
-10.375
 21
-0.8750000000000002
 31
0.0
  0
LINE
  5
193
330
FE
100
AcDbEntity
  8
AM_4
100
AcDbLine
 10
-10.375
 20
-3.5
 30
0.0
 11
-10.375
 21
3.499999999999999
 31
0.0
  0
LINE
  5
194
330
FE
100
AcDbEntity
  8
AM_4
100
AcDbLine
 10
-10.375
 20
-3.5
 30
0.0
 11
-7.886363636363638
 21
-3.5
 31
0.0
  0
LINE
  5
195
330
FE
100
AcDbEntity
  8
AM_4
100
AcDbLine
 10
-7.886363636363638
 20
-3.5
 30
0.0
 11
-6.500000000000003
 21
-4.886363636363636
 31
0.0
  0
LINE
  5
196
330
FE
100
AcDbEntity
  8
AM_4
100
AcDbLine
 10
-6.5
 20
4.886363636363639
 30
0.0
 11
-7.886363636363632
 21
3.5
 31
0.0
  0
LINE
  5
197
330
FE
100
AcDbEntity
  8
AM_4
100
AcDbLine
 10
-8.249999999999947
 20
2.1875
 30
0.0
 11
-9.000000000000053
 21
2.1875
 31
0.0
  0
ARC
  5
198
330
FE
100
AcDbEntity
  8
AM_4
100
AcDbCircle
 10
-8.191406249999996
 20
1.749999999999996
 30
0.0
 40
0.4414062499999967
100
AcDbArc
 50
262.3718503314187
 51
97.62814966857425
  0
LINE
  5
199
330
FE
100
AcDbEntity
  8
AM_4
100
AcDbLine
 10
-9.0
 20
1.3125
 30
0.0
 11
-8.25
 21
1.3125
 31
0.0
  0
ARC
  5
19A
330
FE
100
AcDbEntity
  8
AM_4
100
AcDbCircle
 10
-9.058593750000002
 20
1.749999999999998
 30
0.0
 40
0.4414062499999956
100
AcDbArc
 50
82.37185033142596
 51
277.6281496685809
  0
LINE
  5
19B
330
FE
100
AcDbEntity
  8
AM_4
100
AcDbLine
 10
-8.25
 20
-1.3125
 30
0.0
 11
-9.0
 21
-1.3125
 31
0.0
  0
ARC
  5
19C
330
FE
100
AcDbEntity
  8
AM_4
100
AcDbCircle
 10
-8.19140625
 20
-1.75
 30
0.0
 40
0.44140625
100
AcDbArc
 50
262.3718503314193
 51
97.62814966858072
  0
LINE
  5
19D
330
FE
100
AcDbEntity
  8
AM_4
100
AcDbLine
 10
-9.0
 20
-2.1875
 30
0.0
 11
-8.25
 21
-2.1875
 31
0.0
  0
ARC
  5
19E
330
FE
100
AcDbEntity
  8
AM_4
100
AcDbCircle
 10
-9.05859375
 20
-1.75
 30
0.0
 40
0.4414062500000002
100
AcDbArc
 50
82.37185033141931
 51
277.6281496685807
  0
LINE
  5
19F
330
FE
100
AcDbEntity
  8
AM_4
100
AcDbLine
 10
-10.115625
 20
0.8749999999999997
 30
0.0
 11
-10.115625
 21
3.5
 31
0.0
  0
ARC
  5
1A0
330
FE
100
AcDbEntity
  8
AM_4
100
AcDbCircle
 10
-9.639318181818183
 20
0.667499999999998
 30
0.0
 40
0.2075000000000014
100
AcDbArc
 50
0.0
 51
90.0
  0
LINE
  5
1A1
330
FE
100
AcDbEntity
  8
AM_4
100
AcDbLine
 10
-9.431818181818182
 20
-0.6675000000000019
 30
0.0
 11
-9.431818181818182
 21
0.6674999999999933
 31
0.0
  0
ARC
  5
1A2
330
FE
100
AcDbEntity
  8
AM_4
100
AcDbCircle
 10
-9.639318181818176
 20
-0.6675000000000046
 30
0.0
 40
0.2074999999999956
100
AcDbArc
 50
270.0
 51
0.0
  0
LINE
  5
1A3
330
FE
100
AcDbEntity
  8
AM_4
100
AcDbLine
 10
-10.115625
 20
-3.5
 30
0.0
 11
-10.115625
 21
-0.8750000000000002
 31
0.0
  0
LINE
  5
1A4
330
FE
100
AcDbEntity
  8
AM_4
100
AcDbLine
 10
6.500000000000001
 20
-4.886363636363638
 30
0.0
 11
7.886363636363638
 21
-3.5
 31
0.0
  0
LINE
  5
1A5
330
FE
100
AcDbEntity
  8
AM_4
100
AcDbLine
 10
7.886363636363632
 20
3.500000000000002
 30
0.0
 11
6.500000000000004
 21
4.886363636363636
 31
0.0
  0
LINE
  5
1A6
330
FE
100
AcDbEntity
  8
AM_4
100
AcDbLine
 10
9.0
 20
2.1875
 30
0.0
 11
8.25
 21
2.1875
 31
0.0
  0
ARC
  5
1A7
330
FE
100
AcDbEntity
  8
AM_4
100
AcDbCircle
 10
9.058593750000002
 20
1.750000000000002
 30
0.0
 40
0.4414062499999956
100
AcDbArc
 50
262.3718503314259
 51
97.62814966858099
  0
LINE
  5
1A8
330
FE
100
AcDbEntity
  8
AM_4
100
AcDbLine
 10
8.249999999999947
 20
1.3125
 30
0.0
 11
9.000000000000053
 21
1.3125
 31
0.0
  0
ARC
  5
1A9
330
FE
100
AcDbEntity
  8
AM_4
100
AcDbCircle
 10
8.191406249999996
 20
1.750000000000004
 30
0.0
 40
0.4414062499999967
100
AcDbArc
 50
82.37185033141878
 51
277.6281496685742
  0
LINE
  5
1AA
330
FE
100
AcDbEntity
  8
AM_4
100
AcDbLine
 10
9.0
 20
-1.3125
 30
0.0
 11
8.25
 21
-1.3125
 31
0.0
  0
ARC
  5
1AB
330
FE
100
AcDbEntity
  8
AM_4
100
AcDbCircle
 10
9.05859375
 20
-1.75
 30
0.0
 40
0.44140625
100
AcDbArc
 50
262.3718503314193
 51
97.62814966858072
  0
LINE
  5
1AC
330
FE
100
AcDbEntity
  8
AM_4
100
AcDbLine
 10
8.25
 20
-2.1875
 30
0.0
 11
9.0
 21
-2.1875
 31
0.0
  0
ARC
  5
1AD
330
FE
100
AcDbEntity
  8
AM_4
100
AcDbCircle
 10
8.19140625
 20
-1.75
 30
0.0
 40
0.44140625
100
AcDbArc
 50
82.37185033141931
 51
277.6281496685807
  0
LINE
  5
1AE
330
FE
100
AcDbEntity
  8
AM_4
100
AcDbLine
 10
10.115625
 20
-2.664326852546401
 30
0.0
 11
10.115625
 21
-0.8750000000000002
 31
0.0
  0
ARC
  5
1AF
330
FE
100
AcDbEntity
  8
AM_4
100
AcDbCircle
 10
9.63931818181818
 20
-0.6675000000000013
 30
0.0
 40
0.2074999999999978
100
AcDbArc
 50
180.0
 51
270.0
  0
LINE
  5
1B0
330
FE
100
AcDbEntity
  8
AM_4
100
AcDbLine
 10
9.431818181818182
 20
0.6674999999999996
 30
0.0
 11
9.431818181818182
 21
-0.6675000000000043
 31
0.0
  0
ARC
  5
1B1
330
FE
100
AcDbEntity
  8
AM_4
100
AcDbCircle
 10
9.639318181818181
 20
0.6674999999999995
 30
0.0
 40
0.2075000000000001
100
AcDbArc
 50
90.0
 51
180.0
  0
LINE
  5
1B2
330
FE
100
AcDbEntity
  8
AM_4
100
AcDbLine
 10
10.115625
 20
0.8749999999999996
 30
0.0
 11
10.115625
 21
3.500000000000003
 31
0.0
  0
ARC
  5
1B3
330
FE
100
AcDbEntity
  8
AM_4
100
AcDbCircle
 10
10.375
 20
-3.499999999999996
 30
0.0
 40
0.8749999999999962
100
AcDbArc
 50
107.2432205526931
 51
180.0
  0
LINE
  5
1B4
330
FE
100
AcDbEntity
  8
AM_4
100
AcDbLine
 10
-6.7075
 20
-4.678863636363638
 30
0.0
 11
-6.7075
 21
4.678863636363639
 31
0.0
  0
LINE
  5
1B5
330
FE
100
AcDbEntity
  8
AM_4
100
AcDbLine
 10
6.7075
 20
-4.678863636363639
 30
0.0
 11
6.7075
 21
4.67886363636364
 31
0.0
  0
LINE
  5
1B6
330
FE
100
AcDbEntity
  8
AM_4
100
AcDbLine
 10
2.4609375
 20
4.886363636363636
 30
0.0
 11
6.5
 21
4.886363636363636
 31
0.0
  0
LINE
  5
1B7
330
FE
100
AcDbEntity
  8
AM_4
100
AcDbLine
 10
-6.5
 20
4.886363636363636
 30
0.0
 11
-2.4609375
 21
4.886363636363636
 31
0.0
  0
LINE
  5
1B8
330
FE
100
AcDbEntity
  8
AM_4
100
AcDbLine
 10
-4.407135067838611
 20
4.886363636363636
 30
0.0
 11
-4.407135067838611
 21
4.777777777777778
 31
0.0
  0
LINE
  5
1B9
330
FE
100
AcDbEntity
  8
AM_4
100
AcDbLine
 10
4.407135067838611
 20
4.777777777777778
 30
0.0
 11
4.407135067838611
 21
4.886363636363636
 31
0.0
  0
LINE
  5
1BA
330
FE
100
AcDbEntity
  8
AM_4
100
AcDbLine
 10
-6.5
 20
-4.886363636363636
 30
0.0
 11
-6.5
 21
4.886363636363636
 31
0.0
  0
LINE
  5
1BB
330
FE
100
AcDbEntity
  8
AM_4
100
AcDbLine
 10
-2.4609375
 20
-4.886363636363636
 30
0.0
 11
-6.5
 21
-4.886363636363636
 31
0.0
  0
LINE
  5
1BC
330
FE
100
AcDbEntity
  8
AM_4
100
AcDbLine
 10
6.5
 20
-4.886363636363636
 30
0.0
 11
6.5
 21
4.886363636363636
 31
0.0
  0
LINE
  5
1BD
330
FE
100
AcDbEntity
  8
AM_4
100
AcDbLine
 10
6.5
 20
-4.886363636363636
 30
0.0
 11
2.4609375
 21
-4.886363636363636
 31
0.0
  0
LINE
  5
1BE
330
FE
100
AcDbEntity
  8
AM_4
100
AcDbLine
 10
-4.407135067838611
 20
-4.886363636363636
 30
0.0
 11
-4.407135067838611
 21
-4.777777777777778
 31
0.0
  0
LINE
  5
1BF
330
FE
100
AcDbEntity
  8
AM_4
100
AcDbLine
 10
4.407135067838611
 20
-4.777777777777778
 30
0.0
 11
4.407135067838611
 21
-4.886363636363636
 31
0.0
  0
LINE
  5
1C0
330
FE
100
AcDbEntity
  8
AM_4
100
AcDbLine
 10
2.4609375
 20
5.375000000000001
 30
0.0
 11
-2.4609375
 21
5.375000000000001
 31
0.0
  0
LINE
  5
1C1
330
FE
100
AcDbEntity
  8
AM_4
100
AcDbLine
 10
2.4609375
 20
4.777777777777778
 30
0.0
 11
2.4609375
 21
5.375000000000001
 31
0.0
  0
LINE
  5
1C2
330
FE
100
AcDbEntity
  8
AM_4
100
AcDbLine
 10
-2.4609375
 20
5.375000000000001
 30
0.0
 11
-2.4609375
 21
4.777777777777778
 31
0.0
  0
LINE
  5
1C3
330
FE
100
AcDbEntity
  8
AM_4
100
AcDbLine
 10
2.4609375
 20
-5.375000000000001
 30
0.0
 11
-2.4609375
 21
-5.375000000000001
 31
0.0
  0
LINE
  5
1C4
330
FE
100
AcDbEntity
  8
AM_4
100
AcDbLine
 10
2.4609375
 20
-5.375000000000001
 30
0.0
 11
2.4609375
 21
-4.777777777777779
 31
0.0
  0
LINE
  5
1C5
330
FE
100
AcDbEntity
  8
AM_4
100
AcDbLine
 10
-2.4609375
 20
-4.777777777777779
 30
0.0
 11
-2.4609375
 21
-5.375000000000001
 31
0.0
  0
ARC
  5
1C6
330
FE
100
AcDbEntity
  8
AM_4
100
AcDbCircle
 10
5.641666666666666
 20
3.359374999999999
 30
0.0
 40
0.8583333333333343
100
AcDbArc
 50
0.0
 51
90.0
  0
ARC
  5
1C7
330
FE
100
AcDbEntity
  8
AM_4
100
AcDbCircle
 10
5.641666666666667
 20
-3.359375000000001
 30
0.0
 40
0.8583333333333325
100
AcDbArc
 50
270.0
 51
0.0000008537736463
  0
ARC
  5
1C8
330
FE
100
AcDbEntity
  8
AM_4
100
AcDbCircle
 10
-5.641666666666667
 20
3.359374999999999
 30
0.0
 40
0.8583333333333343
100
AcDbArc
 50
90.0
 51
180.0
  0
ARC
  5
1C9
330
FE
100
AcDbEntity
  8
AM_4
100
AcDbCircle
 10
-5.641666666666667
 20
-3.359375
 30
0.0
 40
0.8583333333333334
100
AcDbArc
 50
180.0
 51
270.0
  0
LINE
  5
1CA
330
FE
100
AcDbEntity
  8
AM_4
100
AcDbLine
 10
4.811913632206988
 20
2.501041666666666
 30
0.0
 11
5.579166666666666
 21
2.501041666666667
 31
0.0
  0
ARC
  5
1CB
330
FE
100
AcDbEntity
  8
AM_4
100
AcDbCircle
 10
5.579166666666667
 20
3.359375
 30
0.0
 40
0.8583333333333338
100
AcDbArc
 50
270.0
 51
90.0
  0
LINE
  5
1CC
330
FE
100
AcDbEntity
  8
AM_4
100
AcDbLine
 10
5.579166666666666
 20
4.217708333333334
 30
0.0
 11
3.408908716459385
 21
4.217708333333333
 31
0.0
  0
ARC
  5
1CD
330
FE
100
AcDbEntity
  8
AM_4
100
AcDbCircle
 10
5.579166666666667
 20
0.0000000000000001
 30
0.0
 40
0.858333333333333
100
AcDbArc
 50
270.0
 51
90.0
  0
LINE
  5
1CE
330
FE
100
AcDbEntity
  8
AM_4
100
AcDbLine
 10
5.354716249355432
 20
-0.858333333333333
 30
0.0
 11
5.579166666666666
 21
-0.858333333333333
 31
0.0
  0
LINE
  5
1CF
330
FE
100
AcDbEntity
  8
AM_4
100
AcDbLine
 10
5.579166666666667
 20
0.8583333333333333
 30
0.0
 11
5.354716249355432
 21
0.8583333333333335
 31
0.0
  0
LINE
  5
1D0
330
FE
100
AcDbEntity
  8
AM_4
100
AcDbLine
 10
3.408908716459385
 20
-4.217708333333333
 30
0.0
 11
5.579166666666666
 21
-4.217708333333333
 31
0.0
  0
ARC
  5
1D1
330
FE
100
AcDbEntity
  8
AM_4
100
AcDbCircle
 10
5.579166666666667
 20
-3.359375
 30
0.0
 40
0.8583333333333334
100
AcDbArc
 50
270.0
 51
90.0
  0
LINE
  5
1D2
330
FE
100
AcDbEntity
  8
AM_4
100
AcDbLine
 10
5.579166666666666
 20
-2.501041666666666
 30
0.0
 11
4.811913632206988
 21
-2.501041666666667
 31
0.0
  0
LINE
  5
1D3
330
FE
100
AcDbEntity
  8
AM_4
100
AcDbLine
 10
-5.354716249355432
 20
0.8583333333333335
 30
0.0
 11
-5.579166666666667
 21
0.8583333333333335
 31
0.0
  0
ARC
  5
1D4
330
FE
100
AcDbEntity
  8
AM_4
100
AcDbCircle
 10
-5.579166666666667
 20
0.0000000000000004
 30
0.0
 40
0.8583333333333331
100
AcDbArc
 50
90.0
 51
270.0
  0
LINE
  5
1D5
330
FE
100
AcDbEntity
  8
AM_4
100
AcDbLine
 10
-5.579166666666667
 20
-0.858333333333333
 30
0.0
 11
-5.354716249355432
 21
-0.858333333333333
 31
0.0
  0
ARC
  5
1D6
330
FE
100
AcDbEntity
  8
AM_4
100
AcDbCircle
 10
-5.579166666666667
 20
-3.359375
 30
0.0
 40
0.8583333333333338
100
AcDbArc
 50
90.0
 51
270.0
  0
LINE
  5
1D7
330
FE
100
AcDbEntity
  8
AM_4
100
AcDbLine
 10
-5.579166666666666
 20
-4.217708333333334
 30
0.0
 11
-3.408908716459385
 21
-4.217708333333333
 31
0.0
  0
LINE
  5
1D8
330
FE
100
AcDbEntity
  8
AM_4
100
AcDbLine
 10
-4.811913632206988
 20
-2.501041666666667
 30
0.0
 11
-5.579166666666666
 21
-2.501041666666667
 31
0.0
  0
LINE
  5
1D9
330
FE
100
AcDbEntity
  8
AM_4
100
AcDbLine
 10
-5.579166666666666
 20
2.501041666666666
 30
0.0
 11
-4.811913632206988
 21
2.501041666666666
 31
0.0
  0
LINE
  5
1DA
330
FE
100
AcDbEntity
  8
AM_4
100
AcDbLine
 10
-3.408908716459385
 20
4.217708333333333
 30
0.0
 11
-5.579166666666666
 21
4.217708333333333
 31
0.0
  0
ARC
  5
1DB
330
FE
100
AcDbEntity
  8
AM_4
100
AcDbCircle
 10
-5.579166666666667
 20
3.359375
 30
0.0
 40
0.8583333333333334
100
AcDbArc
 50
90.0
 51
270.0
  0
ARC
  5
1DC
330
FE
100
AcDbEntity
  8
AM_4
100
AcDbCircle
 10
5.579166666666666
 20
-0.0000000000000006
 30
0.0
 40
0.3715575902939739
100
AcDbArc
 50
213.8679923218452
 51
343.2161541636656
  0
ARC
  5
1DD
330
FE
100
AcDbEntity
  8
AM_4
100
AcDbCircle
 10
5.579166666666666
 20
0.0000000000000012
 30
0.0
 40
0.371557590293975
100
AcDbArc
 50
16.7838458363344
 51
146.1320076781548
  0
ARC
  5
1DE
330
FE
100
AcDbEntity
  8
AM_4
100
AcDbCircle
 10
5.579166666666667
 20
0.0
 30
0.0
 40
0.4291666666666664
100
AcDbArc
 50
246.6038229988548
 51
345.5224878140701
  0
ARC
  5
1DF
330
FE
100
AcDbEntity
  8
AM_4
100
AcDbCircle
 10
5.579166666666667
 20
0.0000000000000004
 30
0.0
 40
0.4291666666666662
100
AcDbArc
 50
14.47751218592992
 51
113.3961770011452
  0
ARC
  5
1E0
330
FE
100
AcDbEntity
  8
AM_4
100
AcDbCircle
 10
-5.579166666666666
 20
0.0000000000000011
 30
0.0
 40
0.3715575902939738
100
AcDbArc
 50
33.86799232184517
 51
163.2161541636656
  0
ARC
  5
1E1
330
FE
100
AcDbEntity
  8
AM_4
100
AcDbCircle
 10
-5.579166666666666
 20
-0.0000000000000007
 30
0.0
 40
0.371557590293975
100
AcDbArc
 50
196.7838458363344
 51
326.1320076781548
  0
ARC
  5
1E2
330
FE
100
AcDbEntity
  8
AM_4
100
AcDbCircle
 10
-5.579166666666667
 20
0.0000000000000004
 30
0.0
 40
0.4291666666666664
100
AcDbArc
 50
66.60382299885478
 51
165.5224878140701
  0
ARC
  5
1E3
330
FE
100
AcDbEntity
  8
AM_4
100
AcDbCircle
 10
-5.579166666666667
 20
0.0000000000000001
 30
0.0
 40
0.4291666666666662
100
AcDbArc
 50
194.4775121859299
 51
293.3961770011452
  0
LINE
  5
1E4
330
FE
100
AcDbEntity
  8
AM_4
100
AcDbLine
 10
-6.008333333333332
 20
3.607154490527214
 30
0.0
 11
-6.008333333333332
 21
3.111595509472786
 31
0.0
  0
LINE
  5
1E5
330
FE
100
AcDbEntity
  8
AM_4
100
AcDbLine
 10
-6.008333333333332
 20
3.111595509472786
 30
0.0
 11
-5.579166666666666
 21
2.863816018945571
 31
0.0
  0
LINE
  5
1E6
330
FE
100
AcDbEntity
  8
AM_4
100
AcDbLine
 10
-5.149999999999999
 20
3.111595509472786
 30
0.0
 11
-5.149999999999999
 21
3.607154490527214
 31
0.0
  0
LINE
  5
1E7
330
FE
100
AcDbEntity
  8
AM_4
100
AcDbLine
 10
-5.149999999999999
 20
3.607154490527214
 30
0.0
 11
-5.579166666666666
 21
3.854933981054429
 31
0.0
  0
LINE
  5
1E8
330
FE
100
AcDbEntity
  8
AM_4
100
AcDbLine
 10
-5.579166666666666
 20
2.863816018945571
 30
0.0
 11
-5.149999999999999
 21
3.111595509472786
 31
0.0
  0
LINE
  5
1E9
330
FE
100
AcDbEntity
  8
AM_4
100
AcDbLine
 10
-5.579166666666666
 20
3.854933981054429
 30
0.0
 11
-6.008333333333332
 21
3.607154490527214
 31
0.0
  0
LINE
  5
1EA
330
FE
100
AcDbEntity
  8
AM_4
100
AcDbLine
 10
5.150000000000001
 20
-3.607154490527214
 30
0.0
 11
5.579166666666667
 21
-3.854933981054428
 31
0.0
  0
LINE
  5
1EB
330
FE
100
AcDbEntity
  8
AM_4
100
AcDbLine
 10
6.008333333333334
 20
-3.607154490527214
 30
0.0
 11
6.008333333333334
 21
-3.111595509472785
 31
0.0
  0
LINE
  5
1EC
330
FE
100
AcDbEntity
  8
AM_4
100
AcDbLine
 10
5.150000000000001
 20
-3.111595509472785
 30
0.0
 11
5.150000000000001
 21
-3.607154490527214
 31
0.0
  0
LINE
  5
1ED
330
FE
100
AcDbEntity
  8
AM_4
100
AcDbLine
 10
5.579166666666667
 20
-3.854933981054428
 30
0.0
 11
6.008333333333334
 21
-3.607154490527214
 31
0.0
  0
LINE
  5
1EE
330
FE
100
AcDbEntity
  8
AM_4
100
AcDbLine
 10
6.008333333333334
 20
-3.111595509472785
 30
0.0
 11
5.579166666666667
 21
-2.863816018945571
 31
0.0
  0
LINE
  5
1EF
330
FE
100
AcDbEntity
  8
AM_4
100
AcDbLine
 10
5.579166666666667
 20
-2.863816018945571
 30
0.0
 11
5.150000000000001
 21
-3.111595509472785
 31
0.0
  0
LINE
  5
1F0
330
FE
100
AcDbEntity
  8
AM_4
100
AcDbLine
 10
-6.008333333333332
 20
-3.111595509472785
 30
0.0
 11
-6.008333333333332
 21
-3.607154490527214
 31
0.0
  0
LINE
  5
1F1
330
FE
100
AcDbEntity
  8
AM_4
100
AcDbLine
 10
-6.008333333333332
 20
-3.607154490527214
 30
0.0
 11
-5.579166666666666
 21
-3.854933981054428
 31
0.0
  0
LINE
  5
1F2
330
FE
100
AcDbEntity
  8
AM_4
100
AcDbLine
 10
-5.579166666666666
 20
-3.854933981054428
 30
0.0
 11
-5.149999999999999
 21
-3.607154490527214
 31
0.0
  0
LINE
  5
1F3
330
FE
100
AcDbEntity
  8
AM_4
100
AcDbLine
 10
-5.149999999999999
 20
-3.111595509472785
 30
0.0
 11
-5.579166666666666
 21
-2.863816018945571
 31
0.0
  0
LINE
  5
1F4
330
FE
100
AcDbEntity
  8
AM_4
100
AcDbLine
 10
-5.579166666666666
 20
-2.863816018945571
 30
0.0
 11
-6.008333333333332
 21
-3.111595509472785
 31
0.0
  0
LINE
  5
1F5
330
FE
100
AcDbEntity
  8
AM_4
100
AcDbLine
 10
-5.149999999999999
 20
-3.607154490527214
 30
0.0
 11
-5.149999999999999
 21
-3.111595509472785
 31
0.0
  0
LINE
  5
1F6
330
FE
100
AcDbEntity
  8
AM_4
100
AcDbLine
 10
5.579166666666666
 20
3.854933981054429
 30
0.0
 11
5.15
 21
3.607154490527214
 31
0.0
  0
LINE
  5
1F7
330
FE
100
AcDbEntity
  8
AM_4
100
AcDbLine
 10
6.008333333333333
 20
3.607154490527214
 30
0.0
 11
5.579166666666666
 21
3.854933981054429
 31
0.0
  0
LINE
  5
1F8
330
FE
100
AcDbEntity
  8
AM_4
100
AcDbLine
 10
6.008333333333333
 20
3.111595509472786
 30
0.0
 11
6.008333333333333
 21
3.607154490527214
 31
0.0
  0
LINE
  5
1F9
330
FE
100
AcDbEntity
  8
AM_4
100
AcDbLine
 10
5.15
 20
3.607154490527214
 30
0.0
 11
5.15
 21
3.111595509472786
 31
0.0
  0
LINE
  5
1FA
330
FE
100
AcDbEntity
  8
AM_4
100
AcDbLine
 10
5.15
 20
3.111595509472786
 30
0.0
 11
5.579166666666666
 21
2.863816018945571
 31
0.0
  0
LINE
  5
1FB
330
FE
100
AcDbEntity
  8
AM_4
100
AcDbLine
 10
5.579166666666666
 20
2.863816018945571
 30
0.0
 11
6.008333333333333
 21
3.111595509472786
 31
0.0
  0
LINE
  5
1FC
330
FE
100
AcDbEntity
  8
AM_4
100
AcDbLine
 10
-5.149166666666667
 20
0.1072916666666669
 30
0.0
 11
-6.009166666666665
 21
0.1072916666666669
 31
0.0
  0
LINE
  5
1FD
330
FE
100
AcDbEntity
  8
AM_4
100
AcDbLine
 10
-6.009166666666665
 20
-0.1072916666666664
 30
0.0
 11
-5.149166666666667
 21
-0.1072916666666664
 31
0.0
  0
ARC
  5
1FE
330
FE
100
AcDbEntity
  8
AM_4
100
AcDbCircle
 10
-5.149166666666666
 20
0.0000000000000002
 30
0.0
 40
0.1072916666666666
100
AcDbArc
 50
270.0
 51
90.0
  0
ARC
  5
1FF
330
FE
100
AcDbEntity
  8
AM_4
100
AcDbCircle
 10
-6.009166666666665
 20
0.0000000000000003
 30
0.0
 40
0.1072916666666666
100
AcDbArc
 50
90.0
 51
270.0
  0
LINE
  5
200
330
FE
100
AcDbEntity
  8
AM_4
100
AcDbLine
 10
6.009166666666665
 20
0.1072916666666669
 30
0.0
 11
5.149166666666667
 21
0.1072916666666669
 31
0.0
  0
LINE
  5
201
330
FE
100
AcDbEntity
  8
AM_4
100
AcDbLine
 10
5.149166666666667
 20
-0.1072916666666664
 30
0.0
 11
6.009166666666665
 21
-0.1072916666666664
 31
0.0
  0
ARC
  5
202
330
FE
100
AcDbEntity
  8
AM_4
100
AcDbCircle
 10
6.009166666666665
 20
0.0000000000000002
 30
0.0
 40
0.1072916666666666
100
AcDbArc
 50
270.0
 51
90.0
  0
ARC
  5
203
330
FE
100
AcDbEntity
  8
AM_4
100
AcDbCircle
 10
5.149166666666666
 20
0.0000000000000003
 30
0.0
 40
0.1072916666666666
100
AcDbArc
 50
90.0
 51
270.0
  0
ARC
  5
204
330
FE
100
AcDbEntity
  8
AM_4
100
AcDbCircle
 10
0.0000000000001332
 20
0.0000000000001181
 30
0.0
 40
6.500000000000177
100
AcDbArc
 50
220.4570766497107
 51
227.3108272833808
  0
LINE
  5
205
330
FE
100
AcDbEntity
  8
AM_4
100
AcDbLine
 10
-4.407135067838611
 20
-4.777777777777778
 30
0.0
 11
4.407135067838611
 21
-4.777777777777778
 31
0.0
  0
ARC
  5
206
330
FE
100
AcDbEntity
  8
AM_4
100
AcDbCircle
 10
-0.0000000000003846
 20
0.0000000000003588
 30
0.0
 40
6.500000000000525
100
AcDbArc
 50
312.6891727166194
 51
319.5429233502891
  0
ARC
  5
207
330
FE
100
AcDbEntity
  8
AM_4
100
AcDbCircle
 10
-0.000000000000032
 20
0.000000000000028
 30
0.0
 40
5.423073134508023
100
AcDbArc
 50
308.9464322173617
 51
332.5363801037429
  0
ARC
  5
208
330
FE
100
AcDbEntity
  8
AM_4
100
AcDbCircle
 10
0.0000000000000693
 20
-0.0000000000000187
 30
0.0
 40
5.918390300579977
100
AcDbArc
 50
335.0019029907315
 51
352.1321675507234
  0
ARC
  5
209
330
FE
100
AcDbEntity
  8
AM_4
100
AcDbCircle
 10
-0.0000000000003206
 20
0.0000000000000545
 30
0.0
 40
5.423073134508306
100
AcDbArc
 50
350.8932529510347
 51
355.834905612437
  0
LWPOLYLINE
  5
20A
330
FE
100
AcDbEntity
  8
AM_4
100
AcDbPolyline
 90
        4
 70
     0
 43
0.0
 10
5.408750311177497
 20
-0.393881065246308
 10
5.352409233008499
 20
-0.3358255956848116
 10
5.299199797584762
 20
-0.2616032652517333
 10
5.270653580919636
 20
-0.2070621134536949
  0
ARC
  5
20B
330
FE
100
AcDbEntity
  8
AM_4
100
AcDbCircle
 10
-0.0000000000291189
 20
0.0000000000008302
 30
0.0
 40
5.274719318522664
100
AcDbArc
 50
357.7502434515748
 51
358.8344813644613
  0
ARC
  5
20C
330
FE
100
AcDbEntity
  8
AM_4
100
AcDbCircle
 10
-0.0000000000303331
 20
-0.0000000000008655
 30
0.0
 40
5.274719318523878
100
AcDbArc
 50
1.165518635538974
 51
2.249756548425223
  0
LWPOLYLINE
  5
20D
330
FE
100
AcDbEntity
  8
AM_4
100
AcDbPolyline
 90
        4
 70
     0
 43
0.0
 10
5.270653580919636
 20
0.207062113453696
 10
5.307839473168632
 20
0.2755486978554351
 10
5.351065028383113
 20
0.3342318724910338
 10
5.408750311177497
 20
0.3938810652463084
  0
ARC
  5
20E
330
FE
100
AcDbEntity
  8
AM_4
100
AcDbCircle
 10
-0.0000000000003215
 20
-0.0000000000000541
 30
0.0
 40
5.423073134508307
100
AcDbArc
 50
4.165094387563077
 51
9.106747048965257
  0
ARC
  5
20F
330
FE
100
AcDbEntity
  8
AM_4
100
AcDbCircle
 10
-0.0000000000000524
 20
-0.0000000000000133
 30
0.0
 40
5.918390300580103
100
AcDbArc
 50
7.867832449276841
 51
24.9980970092683
  0
ARC
  5
210
330
FE
100
AcDbEntity
  8
AM_4
100
AcDbCircle
 10
-0.0000000000000258
 20
-0.00000000000002
 30
0.0
 40
5.423073134508013
100
AcDbArc
 50
27.46361989625694
 51
51.05356778263824
  0
ARC
  5
211
330
FE
100
AcDbEntity
  8
AM_4
100
AcDbCircle
 10
-0.0000000000004148
 20
-0.000000000000389
 30
0.0
 40
6.500000000000568
100
AcDbArc
 50
40.45707664971095
 51
47.3108272833806
  0
LINE
  5
212
330
FE
100
AcDbEntity
  8
AM_4
100
AcDbLine
 10
-4.407135067838611
 20
4.777777777777778
 30
0.0
 11
4.407135067838611
 21
4.777777777777778
 31
0.0
  0
ARC
  5
213
330
FE
100
AcDbEntity
  8
AM_4
100
AcDbCircle
 10
0.0000000000001625
 20
-0.0000000000001448
 30
0.0
 40
6.500000000000217
100
AcDbArc
 50
132.6891727166192
 51
139.5429233502892
  0
ARC
  5
214
330
FE
100
AcDbEntity
  8
AM_4
100
AcDbCircle
 10
0.0000000000000258
 20
-0.0000000000000218
 30
0.0
 40
5.423073134508014
100
AcDbArc
 50
128.9464322173618
 51
152.536380103743
  0
ARC
  5
215
330
FE
100
AcDbEntity
  8
AM_4
100
AcDbCircle
 10
0.0000000000000577
 20
-0.0000000000000147
 30
0.0
 40
5.918390300580108
100
AcDbArc
 50
155.0019029907317
 51
172.1321675507232
  0
ARC
  5
216
330
FE
100
AcDbEntity
  8
AM_4
100
AcDbCircle
 10
0.0000000000001021
 20
-0.0000000000000284
 30
0.0
 40
5.423073134508086
100
AcDbArc
 50
170.8932529510347
 51
175.8349056124371
  0
LWPOLYLINE
  5
217
330
FE
100
AcDbEntity
  8
AM_4
100
AcDbPolyline
 90
        4
 70
     0
 43
0.0
 10
-5.408750311177497
 20
0.3938810652463084
 10
-5.352409233008499
 20
0.3358255956848116
 10
-5.299199797584762
 20
0.2616032652517335
 10
-5.270653580919636
 20
0.2070621134536953
  0
ARC
  5
218
330
FE
100
AcDbEntity
  8
AM_4
100
AcDbCircle
 10
0.0000000000311378
 20
-0.0000000000008913
 30
0.0
 40
5.274719318524683
100
AcDbArc
 50
177.7502434515748
 51
178.8344813644607
  0
ARC
  5
219
330
FE
100
AcDbEntity
  8
AM_4
100
AcDbCircle
 10
0.0000000000297451
 20
0.0000000000008485
 30
0.0
 40
5.27471931852329
100
AcDbArc
 50
181.1655186355387
 51
182.2497565484252
  0
LWPOLYLINE
  5
21A
330
FE
100
AcDbEntity
  8
AM_4
100
AcDbPolyline
 90
        4
 70
     0
 43
0.0
 10
-5.270653580919636
 20
-0.2070621134536956
 10
-5.307839473168632
 20
-0.2755486978554348
 10
-5.351065028383113
 20
-0.334231872491034
 10
-5.408750311177497
 20
-0.393881065246308
  0
ARC
  5
21B
330
FE
100
AcDbEntity
  8
AM_4
100
AcDbCircle
 10
0.0000000000003215
 20
0.0000000000000545
 30
0.0
 40
5.423073134508307
100
AcDbArc
 50
184.165094387563
 51
189.1067470489653
  0
ARC
  5
21C
330
FE
100
AcDbEntity
  8
AM_4
100
AcDbCircle
 10
-0.000000000000048
 20
-0.0000000000000089
 30
0.0
 40
5.91839030058
100
AcDbArc
 50
187.8678324492767
 51
204.9980970092685
  0
ARC
  5
21D
330
FE
100
AcDbEntity
  8
AM_4
100
AcDbCircle
 10
0.0000000000000284
 20
0.000000000000024
 30
0.0
 40
5.423073134508018
100
AcDbArc
 50
207.4636198962569
 51
231.0535677826382
  0
LINE
  5
21E
330
FE
100
AcDbEntity
  8
AM_4
100
AcDbLine
 10
1.05
 20
-0.6062177826491065
 30
0.0
 11
1.05
 21
0.6062177826491073
 31
0.0
  0
LINE
  5
21F
330
FE
100
AcDbEntity
  8
AM_4
100
AcDbLine
 10
1.05
 20
0.6062177826491073
 30
0.0
 11
0.0
 21
1.212435565298214
 31
0.0
  0
LINE
  5
220
330
FE
100
AcDbEntity
  8
AM_4
100
AcDbLine
 10
0.0
 20
1.212435565298214
 30
0.0
 11
-1.05
 21
0.6062177826491073
 31
0.0
  0
LINE
  5
221
330
FE
100
AcDbEntity
  8
AM_4
100
AcDbLine
 10
-1.05
 20
0.6062177826491073
 30
0.0
 11
-1.05
 21
-0.6062177826491065
 31
0.0
  0
LINE
  5
222
330
FE
100
AcDbEntity
  8
AM_4
100
AcDbLine
 10
-1.05
 20
-0.6062177826491065
 30
0.0
 11
0.0
 21
-1.212435565298213
 31
0.0
  0
LINE
  5
223
330
FE
100
AcDbEntity
  8
AM_4
100
AcDbLine
 10
0.0
 20
-1.212435565298213
 30
0.0
 11
1.05
 21
-0.6062177826491065
 31
0.0
  0
CIRCLE
  5
224
330
FE
100
AcDbEntity
  8
AM_4
100
AcDbCircle
 10
0.0
 20
0.0000000000000004
 30
0.0
 40
0.7499999999999999
  0
CIRCLE
  5
225
330
FE
100
AcDbEntity
  8
AM_4
100
AcDbCircle
 10
0.0
 20
0.0000000000000004
 30
0.0
 40
0.5
  0
CIRCLE
  5
226
330
FE
100
AcDbEntity
  8
AM_4
100
AcDbCircle
 10
0.0
 20
0.0000000000000004
 30
0.0
 40
0.4761593391891857
  0
ENDBLK
  5
101
330
FE
100
AcDbEntity
  8
0
100
AcDbBlockEnd
  0
ENDSEC
  0
SECTION
  2
ENTITIES
  0
INSERT
  5
6F
330
1F
100
AcDbEntity
  8
0
100
AcDbBlockReference
  2
1_132363_4
 10
0.0
 20
0.0
 30
0.0
  0
POINT
  5
228
330
1F
100
AcDbEntity
  8
ConnectionPoints
100
AcDbPoint
 10
0.0
 20
0.0
 30
0.0
  0
ENDSEC
  0
SECTION
  2
OBJECTS
  0
DICTIONARY
  5
C
330
0
100
AcDbDictionary
281
     1
  3
ACAD_DETAILVIEWSTYLE
350
230
  3
ACAD_GROUP
350
D
  3
ACAD_LAYOUT
350
1A
  3
ACAD_MATERIAL
350
43
  3
ACAD_MLEADERSTYLE
350
6B
  3
ACAD_MLINESTYLE
350
17
  3
ACAD_PLOTSETTINGS
350
19
  3
ACAD_PLOTSTYLENAME
350
E
  3
ACAD_SCALELIST
350
47
  3
ACAD_SECTIONVIEWSTYLE
350
231
  3
ACAD_TABLESTYLE
350
69
  3
ACAD_VISUALSTYLE
350
2A
  3
ACDB_RECOMPOSE_DATA
350
22D
  3
AcDbVariableDictionary
350
229
  0
SUN
  5
6D
330
29
100
AcDbSun
 90
        1
290
     0
 63
     7
421
 16777215
 40
1.0
291
     1
 91
  2455826
 92
 54000000
292
     0
 70
     2
 71
   256
280
     1
  0
DICTIONARY
  5
230
102
{ACAD_REACTORS
330
C
102
}
330
C
100
AcDbDictionary
281
     1
  0
DICTIONARY
  5
D
102
{ACAD_REACTORS
330
C
102
}
330
C
100
AcDbDictionary
281
     1
  0
DICTIONARY
  5
1A
102
{ACAD_REACTORS
330
C
102
}
330
C
100
AcDbDictionary
281
     1
  3
Layout1
350
1E
  3
Layout2
350
26
  3
Model
350
22
  0
DICTIONARY
  5
43
102
{ACAD_REACTORS
330
C
102
}
330
C
100
AcDbDictionary
281
     1
  3
ByBlock
350
45
  3
ByLayer
350
44
  3
Global
350
46
  0
DICTIONARY
  5
6B
102
{ACAD_REACTORS
330
C
102
}
330
C
100
AcDbDictionary
281
     1
  3
Standard
350
6C
  0
DICTIONARY
  5
17
102
{ACAD_REACTORS
330
C
102
}
330
C
100
AcDbDictionary
281
     1
  3
Standard
350
18
  0
DICTIONARY
  5
19
102
{ACAD_REACTORS
330
C
102
}
330
C
100
AcDbDictionary
281
     1
  0
ACDBDICTIONARYWDFLT
  5
E
102
{ACAD_REACTORS
330
C
102
}
330
C
100
AcDbDictionary
281
     1
  3
Normal
350
F
100
AcDbDictionaryWithDefault
340
F
  0
DICTIONARY
  5
47
102
{ACAD_REACTORS
330
C
102
}
330
C
100
AcDbDictionary
281
     1
  3
A0
350
48
  3
A1
350
49
  3
A2
350
4A
  3
A3
350
4B
  3
A4
350
4C
  3
A5
350
4D
  3
A6
350
4E
  3
A7
350
4F
  3
A8
350
50
  3
A9
350
51
  3
B0
350
52
  3
B1
350
53
  3
B2
350
54
  3
B3
350
55
  3
B4
350
56
  3
B5
350
57
  3
B6
350
58
  3
B7
350
59
  3
B8
350
5A
  3
B9
350
5B
  3
C0
350
5C
  3
C1
350
5D
  3
C2
350
5E
  3
C3
350
5F
  3
C4
350
60
  3
C5
350
61
  3
C6
350
62
  3
C7
350
63
  3
C8
350
64
  3
C9
350
65
  3
D0
350
66
  3
D1
350
67
  3
D2
350
68
  0
DICTIONARY
  5
231
102
{ACAD_REACTORS
330
C
102
}
330
C
100
AcDbDictionary
281
     1
  0
DICTIONARY
  5
69
102
{ACAD_REACTORS
330
C
102
}
330
C
100
AcDbDictionary
281
     1
  3
Standard
350
6A
  0
DICTIONARY
  5
2A
102
{ACAD_REACTORS
330
C
102
}
330
C
100
AcDbDictionary
281
     1
  3
2dWireframe
350
2F
  3
Basic
350
32
  3
Brighten
350
36
  3
ColorChange
350
3A
  3
Conceptual
350
34
  3
Dim
350
35
  3
EdgeColorOff
350
3D
  3
Facepattern
350
39
  3
Flat
350
2B
  3
FlatWithEdges
350
2C
  3
Gouraud
350
2D
  3
GouraudWithEdges
350
2E
  3
Hidden
350
31
  3
JitterOff
350
3B
  3
Linepattern
350
38
  3
OverhangOff
350
3C
  3
Realistic
350
33
  3
Shaded
350
42
  3
Shaded with edges
350
41
  3
Shades of Gray
350
3E
  3
Sketchy
350
3F
  3
Thicken
350
37
  3
Wireframe
350
30
  3
X-Ray
350
40
  0
XRECORD
  5
22D
102
{ACAD_REACTORS
330
C
102
}
330
C
100
AcDbXrecord
280
     1
 90
        1
330
6A
  0
DICTIONARY
  5
229
102
{ACAD_REACTORS
330
C
102
}
330
C
100
AcDbDictionary
281
     1
  3
CANNOSCALE
350
22A
  3
CMLEADERSTYLE
350
22F
  3
CTABLESTYLE
350
22E
  0
LAYOUT
  5
1E
102
{ACAD_REACTORS
330
1A
102
}
330
1A
100
AcDbPlotSettings
  1

  2
none_device
  4

  6

 40
0.0
 41
0.0
 42
0.0
 43
0.0
 44
0.0
 45
0.0
 46
0.0
 47
0.0
 48
0.0
 49
0.0
140
0.0
141
0.0
142
1.0
143
1.0
 70
   688
 72
     0
 73
     0
 74
     5
  7

 75
    16
 76
     0
 77
     2
 78
   300
147
1.0
148
0.0
149
0.0
100
AcDbLayout
  1
Layout1
 70
     1
 71
     1
 10
0.0
 20
0.0
 11
12.0
 21
9.0
 12
0.0
 22
0.0
 32
0.0
 14
1.000000000000000E+20
 24
1.000000000000000E+20
 34
1.000000000000000E+20
 15
-1.000000000000000E+20
 25
-1.000000000000000E+20
 35
-1.000000000000000E+20
146
0.0
 13
0.0
 23
0.0
 33
0.0
 16
1.0
 26
0.0
 36
0.0
 17
0.0
 27
1.0
 37
0.0
 76
     0
330
1B
  0
LAYOUT
  5
26
102
{ACAD_REACTORS
330
1A
102
}
330
1A
100
AcDbPlotSettings
  1

  2
none_device
  4

  6

 40
0.0
 41
0.0
 42
0.0
 43
0.0
 44
0.0
 45
0.0
 46
0.0
 47
0.0
 48
0.0
 49
0.0
140
0.0
141
0.0
142
1.0
143
1.0
 70
   688
 72
     0
 73
     0
 74
     5
  7

 75
    16
 76
     0
 77
     2
 78
   300
147
1.0
148
0.0
149
0.0
100
AcDbLayout
  1
Layout2
 70
     1
 71
     2
 10
0.0
 20
0.0
 11
0.0
 21
0.0
 12
0.0
 22
0.0
 32
0.0
 14
0.0
 24
0.0
 34
0.0
 15
0.0
 25
0.0
 35
0.0
146
0.0
 13
0.0
 23
0.0
 33
0.0
 16
1.0
 26
0.0
 36
0.0
 17
0.0
 27
1.0
 37
0.0
 76
     0
330
23
  0
LAYOUT
  5
22
102
{ACAD_REACTORS
330
1A
102
}
330
1A
100
AcDbPlotSettings
  1

  2
none_device
  4
Letter_(8.50_x_11.00_Inches)
  6

 40
6.35
 41
6.35
 42
6.35000508
 43
6.35000508
 44
215.9
 45
279.4
 46
0.0
 47
0.0
 48
0.0
 49
0.0
140
0.0
141
0.0
142
1.0
143
1.0
 70
  1712
 72
     0
 73
     0
 74
     0
  7

 75
     0
 76
     0
 77
     2
 78
   300
147
1.0
148
0.0
149
0.0
100
AcDbLayout
  1
Model
 70
     1
 71
     0
 10
0.0
 20
0.0
 11
12.0
 21
9.0
 12
0.0
 22
0.0
 32
0.0
 14
1.000000000000000E+20
 24
1.000000000000000E+20
 34
1.000000000000000E+20
 15
-1.000000000000000E+20
 25
-1.000000000000000E+20
 35
-1.000000000000000E+20
146
0.0
 13
0.0
 23
0.0
 33
0.0
 16
1.0
 26
0.0
 36
0.0
 17
0.0
 27
1.0
 37
0.0
 76
     0
330
1F
331
29
  0
MATERIAL
  5
45
102
{ACAD_REACTORS
330
43
102
}
330
43
100
AcDbMaterial
  1
ByBlock
 72
     1
 94
      127
  0
MATERIAL
  5
44
102
{ACAD_REACTORS
330
43
102
}
330
43
100
AcDbMaterial
  1
ByLayer
 72
     1
 94
      127
  0
MATERIAL
  5
46
102
{ACAD_REACTORS
330
43
102
}
330
43
100
AcDbMaterial
  1
Global
 72
     1
 94
      127
  0
MLEADERSTYLE
  5
6C
102
{ACAD_REACTORS
330
6B
102
}
330
6B
100
AcDbMLeaderStyle
179
     2
170
     2
171
     1
172
     0
 90
        2
 40
0.0
 41
0.0
173
     1
 91
-1056964608
340
14
 92
       -2
290
     1
 42
0.09
291
     1
 43
0.36
  3
Standard
341
0
 44
0.18
300

342
11
174
     1
178
     6
175
     1
176
     0
 93
-1056964608
 45
0.18
292
     0
297
     0
 46
0.18
343
0
 94
-1056964608
 47
1.0
 49
1.0
140
1.0
293
     1
141
0.0
294
     1
177
     0
142
1.0
295
     0
296
     0
143
0.125
271
     0
272
     9
273
     9
298
     0
  0
MLINESTYLE
  5
18
102
{ACAD_REACTORS
330
17
102
}
330
17
100
AcDbMlineStyle
  2
Standard
 70
     0
  3

 62
   256
 51
90.0
 52
90.0
 71
     2
 49
0.5
 62
   256
  6
BYLAYER
 49
-0.5
 62
   256
  6
BYLAYER
  0
ACDBPLACEHOLDER
  5
F
102
{ACAD_REACTORS
330
E
102
}
330
E
  0
SCALE
  5
48
102
{ACAD_REACTORS
330
47
102
}
330
47
100
AcDbScale
 70
     0
300
1:1
140
1.0
141
1.0
290
     1
  0
SCALE
  5
49
102
{ACAD_REACTORS
330
47
102
}
330
47
100
AcDbScale
 70
     0
300
1:2
140
1.0
141
2.0
290
     0
  0
SCALE
  5
4A
102
{ACAD_REACTORS
330
47
102
}
330
47
100
AcDbScale
 70
     0
300
1:4
140
1.0
141
4.0
290
     0
  0
SCALE
  5
4B
102
{ACAD_REACTORS
330
47
102
}
330
47
100
AcDbScale
 70
     0
300
1:5
140
1.0
141
5.0
290
     0
  0
SCALE
  5
4C
102
{ACAD_REACTORS
330
47
102
}
330
47
100
AcDbScale
 70
     0
300
1:8
140
1.0
141
8.0
290
     0
  0
SCALE
  5
4D
102
{ACAD_REACTORS
330
47
102
}
330
47
100
AcDbScale
 70
     0
300
1:10
140
1.0
141
10.0
290
     0
  0
SCALE
  5
4E
102
{ACAD_REACTORS
330
47
102
}
330
47
100
AcDbScale
 70
     0
300
1:16
140
1.0
141
16.0
290
     0
  0
SCALE
  5
4F
102
{ACAD_REACTORS
330
47
102
}
330
47
100
AcDbScale
 70
     0
300
1:20
140
1.0
141
20.0
290
     0
  0
SCALE
  5
50
102
{ACAD_REACTORS
330
47
102
}
330
47
100
AcDbScale
 70
     0
300
1:30
140
1.0
141
30.0
290
     0
  0
SCALE
  5
51
102
{ACAD_REACTORS
330
47
102
}
330
47
100
AcDbScale
 70
     0
300
1:40
140
1.0
141
40.0
290
     0
  0
SCALE
  5
52
102
{ACAD_REACTORS
330
47
102
}
330
47
100
AcDbScale
 70
     0
300
1:50
140
1.0
141
50.0
290
     0
  0
SCALE
  5
53
102
{ACAD_REACTORS
330
47
102
}
330
47
100
AcDbScale
 70
     0
300
1:100
140
1.0
141
100.0
290
     0
  0
SCALE
  5
54
102
{ACAD_REACTORS
330
47
102
}
330
47
100
AcDbScale
 70
     0
300
2:1
140
2.0
141
1.0
290
     0
  0
SCALE
  5
55
102
{ACAD_REACTORS
330
47
102
}
330
47
100
AcDbScale
 70
     0
300
4:1
140
4.0
141
1.0
290
     0
  0
SCALE
  5
56
102
{ACAD_REACTORS
330
47
102
}
330
47
100
AcDbScale
 70
     0
300
8:1
140
8.0
141
1.0
290
     0
  0
SCALE
  5
57
102
{ACAD_REACTORS
330
47
102
}
330
47
100
AcDbScale
 70
     0
300
10:1
140
10.0
141
1.0
290
     0
  0
SCALE
  5
58
102
{ACAD_REACTORS
330
47
102
}
330
47
100
AcDbScale
 70
     0
300
100:1
140
100.0
141
1.0
290
     0
  0
SCALE
  5
59
102
{ACAD_REACTORS
330
47
102
}
330
47
100
AcDbScale
 70
     0
300
1/128" = 1'-0"
140
0.0078125
141
12.0
290
     0
  0
SCALE
  5
5A
102
{ACAD_REACTORS
330
47
102
}
330
47
100
AcDbScale
 70
     0
300
1/64" = 1'-0"
140
0.015625
141
12.0
290
     0
  0
SCALE
  5
5B
102
{ACAD_REACTORS
330
47
102
}
330
47
100
AcDbScale
 70
     0
300
1/32" = 1'-0"
140
0.03125
141
12.0
290
     0
  0
SCALE
  5
5C
102
{ACAD_REACTORS
330
47
102
}
330
47
100
AcDbScale
 70
     0
300
1/16" = 1'-0"
140
0.0625
141
12.0
290
     0
  0
SCALE
  5
5D
102
{ACAD_REACTORS
330
47
102
}
330
47
100
AcDbScale
 70
     0
300
3/32" = 1'-0"
140
0.09375
141
12.0
290
     0
  0
SCALE
  5
5E
102
{ACAD_REACTORS
330
47
102
}
330
47
100
AcDbScale
 70
     0
300
1/8" = 1'-0"
140
0.125
141
12.0
290
     0
  0
SCALE
  5
5F
102
{ACAD_REACTORS
330
47
102
}
330
47
100
AcDbScale
 70
     0
300
3/16" = 1'-0"
140
0.1875
141
12.0
290
     0
  0
SCALE
  5
60
102
{ACAD_REACTORS
330
47
102
}
330
47
100
AcDbScale
 70
     0
300
1/4" = 1'-0"
140
0.25
141
12.0
290
     0
  0
SCALE
  5
61
102
{ACAD_REACTORS
330
47
102
}
330
47
100
AcDbScale
 70
     0
300
3/8" = 1'-0"
140
0.375
141
12.0
290
     0
  0
SCALE
  5
62
102
{ACAD_REACTORS
330
47
102
}
330
47
100
AcDbScale
 70
     0
300
1/2" = 1'-0"
140
0.5
141
12.0
290
     0
  0
SCALE
  5
63
102
{ACAD_REACTORS
330
47
102
}
330
47
100
AcDbScale
 70
     0
300
3/4" = 1'-0"
140
0.75
141
12.0
290
     0
  0
SCALE
  5
64
102
{ACAD_REACTORS
330
47
102
}
330
47
100
AcDbScale
 70
     0
300
1" = 1'-0"
140
1.0
141
12.0
290
     0
  0
SCALE
  5
65
102
{ACAD_REACTORS
330
47
102
}
330
47
100
AcDbScale
 70
     0
300
1-1/2" = 1'-0"
140
1.5
141
12.0
290
     0
  0
SCALE
  5
66
102
{ACAD_REACTORS
330
47
102
}
330
47
100
AcDbScale
 70
     0
300
3" = 1'-0"
140
3.0
141
12.0
290
     0
  0
SCALE
  5
67
102
{ACAD_REACTORS
330
47
102
}
330
47
100
AcDbScale
 70
     0
300
6" = 1'-0"
140
6.0
141
12.0
290
     0
  0
SCALE
  5
68
102
{ACAD_REACTORS
330
47
102
}
330
47
100
AcDbScale
 70
     0
300
1'-0" = 1'-0"
140
12.0
141
12.0
290
     0
  0
TABLESTYLE
  5
6A
102
{ACAD_REACTORS
330
69
102
}
102
{ACAD_XDICTIONARY
360
22B
102
}
330
69
100
AcDbTableStyle
  3
Standard
 70
     0
 71
     0
 40
0.06
 41
0.06
280
     0
281
     0
  7
Standard
140
0.18
170
     2
 62
     0
 63
   257
283
     0
 90
        4
 91
        0
  1

274
    -2
284
     1
 64
     0
275
    -2
285
     1
 65
     0
276
    -2
286
     1
 66
     0
277
    -2
287
     1
 67
     0
278
    -2
288
     1
 68
     0
279
    -2
289
     1
 69
     0
  7
Standard
140
0.25
170
     5
 62
     0
 63
   257
283
     0
 90
        4
 91
        0
  1

274
    -2
284
     1
 64
     0
275
    -2
285
     1
 65
     0
276
    -2
286
     1
 66
     0
277
    -2
287
     1
 67
     0
278
    -2
288
     1
 68
     0
279
    -2
289
     1
 69
     0
  7
Standard
140
0.18
170
     5
 62
     0
 63
   257
283
     0
 90
        4
 91
        0
  1

274
    -2
284
     1
 64
     0
275
    -2
285
     1
 65
     0
276
    -2
286
     1
 66
     0
277
    -2
287
     1
 67
     0
278
    -2
288
     1
 68
     0
279
    -2
289
     1
 69
     0
  0
VISUALSTYLE
  5
2F
102
{ACAD_REACTORS
330
2A
102
}
330
2A
100
AcDbVisualStyle
  2
2dWireframe
 70
     4
177
     3
291
     0
 70
    58
 90
        0
176
     1
 90
        2
176
     1
 90
        0
176
     1
 90
        0
176
     1
 40
0.6
176
     1
 40
30.0
176
     1
 62
     7
420
 16777215
176
     1
 90
        1
176
     1
 90
        4
176
     1
 62
     7
176
     1
 62
   257
176
     1
 90
        1
176
     1
 90
        1
176
     1
 40
1.0
176
     1
 90
        0
176
     1
 62
   257
176
     1
 40
1.0
176
     1
 90
        1
176
     1
 90
        6
176
     1
 90
        2
176
     1
 62
     7
176
     1
 90
        5
176
     1
 90
        0
176
     1
 90
        0
176
     1
290
     0
176
     1
 90
        1
176
     1
 40
0.0
176
     1
 90
        0
176
     1
290
     1
176
     1
290
     1
176
     1
290
     0
176
     1
290
     0
176
     1
290
     0
176
     1
290
     0
176
     1
290
     0
176
     1
290
     0
176
     1
290
     0
176
     1
 90
       50
176
     1
 40
0.0
176
     1
 40
1.0
176
     1
 90
        0
176
     1
 62
    18
420
        0
176
     1
 90
       50
176
     1
 90
        3
176
     1
 62
     5
420
      255
176
     1
290
     0
176
     1
 90
       50
176
     1
 90
       50
176
     1
 90
       50
176
     1
290
     0
176
     1
 90
       50
176
     1
 62
   256
176
     0
 40
1.0
176
     0
 90
        2
176
     1
  1
strokes_ogs.tif
176
     1
290
     0
176
     1
 40
1.0
176
     1
 40
1.0
176
     1
  0
VISUALSTYLE
  5
32
102
{ACAD_REACTORS
330
2A
102
}
330
2A
100
AcDbVisualStyle
  2
Basic
 70
     7
177
     3
291
     1
 70
    58
 90
        1
176
     1
 90
        0
176
     1
 90
        1
176
     1
 90
        0
176
     1
 40
0.6
176
     1
 40
30.0
176
     1
 62
     7
420
 16777215
176
     1
 90
        0
176
     1
 90
        4
176
     1
 62
     7
176
     1
 62
   257
176
     1
 90
        1
176
     1
 90
        1
176
     1
 40
1.0
176
     1
 90
        8
176
     1
 62
     7
176
     1
 40
1.0
176
     1
 90
        1
176
     1
 90
        6
176
     1
 90
        2
176
     1
 62
     7
176
     1
 90
        5
176
     1
 90
        0
176
     1
 90
        0
176
     1
290
     0
176
     1
 90
        1
176
     1
 40
0.0
176
     1
 90
        0
176
     1
290
     0
176
     1
290
     1
176
     1
290
     1
176
     1
290
     0
176
     1
290
     0
176
     1
290
     0
176
     1
290
     0
176
     1
290
     0
176
     1
290
     0
176
     1
 90
       50
176
     1
 40
0.0
176
     1
 40
1.0
176
     1
 90
        0
176
     1
 62
    18
420
        0
176
     1
 90
       50
176
     1
 90
        3
176
     1
 62
     5
420
      255
176
     1
290
     0
176
     1
 90
       50
176
     1
 90
       50
176
     1
 90
       50
176
     1
290
     0
176
     1
 90
       50
176
     1
 62
   256
176
     0
 40
1.0
176
     0
 90
        2
176
     1
  1
strokes_ogs.tif
176
     1
290
     0
176
     1
 40
1.0
176
     1
 40
1.0
176
     1
  0
VISUALSTYLE
  5
36
102
{ACAD_REACTORS
330
2A
102
}
330
2A
100
AcDbVisualStyle
  2
Brighten
 70
    12
177
     3
291
     1
 70
    58
 90
        2
176
     1
 90
        2
176
     1
 90
        0
176
     1
 90
        0
176
     1
 40
0.6
176
     1
 40
30.0
176
     1
 62
     7
420
 16777215
176
     1
 90
        1
176
     1
 90
        4
176
     1
 62
     7
176
     1
 62
   257
176
     1
 90
        1
176
     1
 90
        1
176
     1
 40
1.0
176
     1
 90
        8
176
     1
 62
     7
176
     1
 40
1.0
176
     1
 90
        1
176
     1
 90
        6
176
     1
 90
        2
176
     1
 62
     7
176
     1
 90
        5
176
     1
 90
        0
176
     1
 90
        0
176
     1
290
     0
176
     1
 90
        1
176
     1
 40
50.0
176
     1
 90
        0
176
     1
290
     0
176
     1
290
     1
176
     1
290
     1
176
     1
290
     0
176
     1
290
     0
176
     1
290
     0
176
     1
290
     0
176
     1
290
     0
176
     1
290
     0
176
     1
 90
       50
176
     1
 40
0.0
176
     1
 40
1.0
176
     1
 90
        0
176
     1
 62
    18
420
        0
176
     1
 90
       50
176
     1
 90
        3
176
     1
 62
     5
420
      255
176
     1
290
     0
176
     1
 90
       50
176
     1
 90
       50
176
     1
 90
       50
176
     1
290
     0
176
     1
 90
       50
176
     1
 62
   256
176
     0
 40
1.0
176
     0
 90
        2
176
     1
  1
strokes_ogs.tif
176
     1
290
     0
176
     1
 40
1.0
176
     1
 40
1.0
176
     1
  0
VISUALSTYLE
  5
3A
102
{ACAD_REACTORS
330
2A
102
}
330
2A
100
AcDbVisualStyle
  2
ColorChange
 70
    16
177
     3
291
     1
 70
    58
 90
        2
176
     1
 90
        2
176
     1
 90
        3
176
     1
 90
        0
176
     1
 40
0.6
176
     1
 40
30.0
176
     1
 62
     8
420
  8421504
176
     1
 90
        1
176
     1
 90
        4
176
     1
 62
     7
176
     1
 62
   257
176
     1
 90
        1
176
     1
 90
        1
176
     1
 40
1.0
176
     1
 90
        8
176
     1
 62
     8
420
  8421504
176
     1
 40
1.0
176
     1
 90
        1
176
     1
 90
        6
176
     1
 90
        2
176
     1
 62
     7
176
     1
 90
        5
176
     1
 90
        0
176
     1
 90
        0
176
     1
290
     0
176
     1
 90
        1
176
     1
 40
0.0
176
     1
 90
        0
176
     1
290
     0
176
     1
290
     1
176
     1
290
     1
176
     1
290
     0
176
     1
290
     0
176
     1
290
     0
176
     1
290
     0
176
     1
290
     0
176
     1
290
     0
176
     1
 90
       50
176
     1
 40
0.0
176
     1
 40
1.0
176
     1
 90
        0
176
     1
 62
    18
420
        0
176
     1
 90
       50
176
     1
 90
        3
176
     1
 62
     5
420
      255
176
     1
290
     0
176
     1
 90
       50
176
     1
 90
       50
176
     1
 90
       50
176
     1
290
     0
176
     1
 90
       50
176
     1
 62
   256
176
     0
 40
1.0
176
     0
 90
        2
176
     1
  1
strokes_ogs.tif
176
     1
290
     0
176
     1
 40
1.0
176
     1
 40
1.0
176
     1
  0
VISUALSTYLE
  5
34
102
{ACAD_REACTORS
330
2A
102
}
330
2A
100
AcDbVisualStyle
  2
Conceptual
 70
     9
177
     3
291
     0
 70
    58
 90
        3
176
     1
 90
        2
176
     1
 90
        0
176
     1
 90
        0
176
     1
 40
0.6
176
     1
 40
30.0
176
     1
 62
     7
420
 16777215
176
     1
 90
        2
176
     1
 90
        2
176
     1
 62
     7
176
     1
 62
   257
176
     1
 90
        1
176
     1
 90
        1
176
     1
 40
179.0
176
     1
 90
        8
176
     1
 62
     7
176
     1
 40
1.0
176
     1
 90
        1
176
     1
 90
        6
176
     1
 90
        2
176
     1
 62
     7
176
     1
 90
        3
176
     1
 90
        0
176
     1
 90
        0
176
     1
290
     0
176
     1
 90
        1
176
     1
 40
0.0
176
     1
 90
        0
176
     1
290
     0
176
     1
290
     1
176
     1
290
     1
176
     1
290
     0
176
     1
290
     0
176
     1
290
     0
176
     1
290
     0
176
     1
290
     0
176
     1
290
     0
176
     1
 90
       50
176
     1
 40
0.0
176
     1
 40
1.0
176
     1
 90
        0
176
     1
 62
    18
420
        0
176
     1
 90
       50
176
     1
 90
        3
176
     1
 62
     5
420
      255
176
     1
290
     0
176
     1
 90
       50
176
     1
 90
       50
176
     1
 90
       50
176
     1
290
     0
176
     1
 90
       50
176
     1
 62
   256
176
     0
 40
1.0
176
     0
 90
        2
176
     1
  1
strokes_ogs.tif
176
     1
290
     0
176
     1
 40
1.0
176
     1
 40
1.0
176
     1
  0
VISUALSTYLE
  5
35
102
{ACAD_REACTORS
330
2A
102
}
330
2A
100
AcDbVisualStyle
  2
Dim
 70
    11
177
     3
291
     1
 70
    58
 90
        2
176
     1
 90
        2
176
     1
 90
        0
176
     1
 90
        0
176
     1
 40
0.6
176
     1
 40
30.0
176
     1
 62
     7
420
 16777215
176
     1
 90
        1
176
     1
 90
        4
176
     1
 62
     7
176
     1
 62
   257
176
     1
 90
        1
176
     1
 90
        1
176
     1
 40
1.0
176
     1
 90
        8
176
     1
 62
     7
176
     1
 40
1.0
176
     1
 90
        1
176
     1
 90
        6
176
     1
 90
        2
176
     1
 62
     7
176
     1
 90
        5
176
     1
 90
        0
176
     1
 90
        0
176
     1
290
     0
176
     1
 90
        1
176
     1
 40
-50.0
176
     1
 90
        0
176
     1
290
     0
176
     1
290
     1
176
     1
290
     1
176
     1
290
     0
176
     1
290
     0
176
     1
290
     0
176
     1
290
     0
176
     1
290
     0
176
     1
290
     0
176
     1
 90
       50
176
     1
 40
0.0
176
     1
 40
1.0
176
     1
 90
        0
176
     1
 62
    18
420
        0
176
     1
 90
       50
176
     1
 90
        3
176
     1
 62
     5
420
      255
176
     1
290
     0
176
     1
 90
       50
176
     1
 90
       50
176
     1
 90
       50
176
     1
290
     0
176
     1
 90
       50
176
     1
 62
   256
176
     0
 40
1.0
176
     0
 90
        2
176
     1
  1
strokes_ogs.tif
176
     1
290
     0
176
     1
 40
1.0
176
     1
 40
1.0
176
     1
  0
VISUALSTYLE
  5
3D
102
{ACAD_REACTORS
330
2A
102
}
330
2A
100
AcDbVisualStyle
  2
EdgeColorOff
 70
    22
177
     3
291
     1
 70
    58
 90
        2
176
     0
 90
        2
176
     0
 90
        0
176
     0
 90
        0
176
     0
 40
0.6
176
     0
 40
30.0
176
     0
 62
     7
420
 16777215
176
     0
 90
        1
176
     0
 90
        4
176
     0
 62
     7
176
     0
 62
   257
176
     0
 90
        1
176
     0
 90
        1
176
     0
 40
1.0
176
     0
 90
        8
176
     2
 62
     7
176
     0
 40
1.0
176
     0
 90
        1
176
     0
 90
        6
176
     0
 90
        2
176
     0
 62
     7
176
     0
 90
        5
176
     0
 90
        0
176
     0
 90
        0
176
     0
290
     0
176
     0
 90
        1
176
     0
 40
0.0
176
     0
 90
        0
176
     0
290
     0
176
     0
290
     1
176
     0
290
     1
176
     0
290
     0
176
     0
290
     0
176
     0
290
     0
176
     0
290
     0
176
     0
290
     0
176
     0
290
     0
176
     0
 90
       50
176
     0
 40
0.0
176
     0
 40
1.0
176
     0
 90
        0
176
     0
 62
    18
420
        0
176
     0
 90
       50
176
     0
 90
        3
176
     0
 62
     5
420
      255
176
     0
290
     0
176
     0
 90
       50
176
     0
 90
       50
176
     0
 90
       50
176
     0
290
     0
176
     0
 90
       50
176
     0
 62
   256
176
     0
 40
1.0
176
     0
 90
        2
176
     0
  1
strokes_ogs.tif
176
     0
290
     0
176
     0
 40
1.0
176
     0
 40
1.0
176
     0
  0
VISUALSTYLE
  5
39
102
{ACAD_REACTORS
330
2A
102
}
330
2A
100
AcDbVisualStyle
  2
Facepattern
 70
    15
177
     3
291
     1
 70
    58
 90
        2
176
     1
 90
        2
176
     1
 90
        0
176
     1
 90
        0
176
     1
 40
0.6
176
     1
 40
30.0
176
     1
 62
     7
420
 16777215
176
     1
 90
        1
176
     1
 90
        4
176
     1
 62
     7
176
     1
 62
   257
176
     1
 90
        1
176
     1
 90
        1
176
     1
 40
1.0
176
     1
 90
        8
176
     1
 62
     7
176
     1
 40
1.0
176
     1
 90
        1
176
     1
 90
        6
176
     1
 90
        2
176
     1
 62
     7
176
     1
 90
        5
176
     1
 90
        0
176
     1
 90
        0
176
     1
290
     0
176
     1
 90
        1
176
     1
 40
0.0
176
     1
 90
        0
176
     1
290
     0
176
     1
290
     1
176
     1
290
     1
176
     1
290
     0
176
     1
290
     0
176
     1
290
     0
176
     1
290
     0
176
     1
290
     0
176
     1
290
     0
176
     1
 90
       50
176
     1
 40
0.0
176
     1
 40
1.0
176
     1
 90
        0
176
     1
 62
    18
420
        0
176
     1
 90
       50
176
     1
 90
        3
176
     1
 62
     5
420
      255
176
     1
290
     0
176
     1
 90
       50
176
     1
 90
       50
176
     1
 90
       50
176
     1
290
     0
176
     1
 90
       50
176
     1
 62
   256
176
     0
 40
1.0
176
     0
 90
        2
176
     1
  1
strokes_ogs.tif
176
     1
290
     0
176
     1
 40
1.0
176
     1
 40
1.0
176
     1
  0
VISUALSTYLE
  5
2B
102
{ACAD_REACTORS
330
2A
102
}
330
2A
100
AcDbVisualStyle
  2
Flat
 70
     0
177
     3
291
     1
 70
    58
 90
        2
176
     1
 90
        1
176
     1
 90
        1
176
     1
 90
        2
176
     1
 40
0.6
176
     1
 40
30.0
176
     1
 62
     7
420
 16777215
176
     1
 90
        0
176
     1
 90
        0
176
     1
 62
     7
176
     1
 62
   257
176
     1
 90
        1
176
     1
 90
        1
176
     1
 40
1.0
176
     1
 90
        8
176
     1
 62
     7
176
     1
 40
1.0
176
     1
 90
        1
176
     1
 90
        6
176
     1
 90
        2
176
     1
 62
     7
176
     1
 90
        5
176
     1
 90
        0
176
     1
 90
        0
176
     1
290
     0
176
     1
 90
       13
176
     1
 40
0.0
176
     1
 90
        0
176
     1
290
     0
176
     1
290
     1
176
     1
290
     1
176
     1
290
     0
176
     1
290
     0
176
     1
290
     0
176
     1
290
     0
176
     1
290
     0
176
     1
290
     0
176
     1
 90
       50
176
     1
 40
0.0
176
     1
 40
1.0
176
     1
 90
        0
176
     1
 62
    18
420
        0
176
     1
 90
       50
176
     1
 90
        3
176
     1
 62
     5
420
      255
176
     1
290
     0
176
     1
 90
       50
176
     1
 90
       50
176
     1
 90
       50
176
     1
290
     0
176
     1
 90
       50
176
     1
 62
   256
176
     0
 40
1.0
176
     0
 90
        2
176
     1
  1
strokes_ogs.tif
176
     1
290
     0
176
     1
 40
1.0
176
     1
 40
1.0
176
     1
  0
VISUALSTYLE
  5
2C
102
{ACAD_REACTORS
330
2A
102
}
330
2A
100
AcDbVisualStyle
  2
FlatWithEdges
 70
     1
177
     3
291
     1
 70
    58
 90
        2
176
     1
 90
        1
176
     1
 90
        1
176
     1
 90
        2
176
     1
 40
0.6
176
     1
 40
30.0
176
     1
 62
     7
420
 16777215
176
     1
 90
        1
176
     1
 90
        0
176
     1
 62
     7
176
     1
 62
   257
176
     1
 90
        1
176
     1
 90
        1
176
     1
 40
1.0
176
     1
 90
        0
176
     1
 62
   257
176
     1
 40
1.0
176
     1
 90
        1
176
     1
 90
        6
176
     1
 90
        2
176
     1
 62
     7
176
     1
 90
        5
176
     1
 90
        0
176
     1
 90
        0
176
     1
290
     0
176
     1
 90
       13
176
     1
 40
0.0
176
     1
 90
        0
176
     1
290
     0
176
     1
290
     1
176
     1
290
     1
176
     1
290
     0
176
     1
290
     0
176
     1
290
     0
176
     1
290
     0
176
     1
290
     0
176
     1
290
     0
176
     1
 90
       50
176
     1
 40
0.0
176
     1
 40
1.0
176
     1
 90
        0
176
     1
 62
    18
420
        0
176
     1
 90
       50
176
     1
 90
        3
176
     1
 62
     5
420
      255
176
     1
290
     0
176
     1
 90
       50
176
     1
 90
       50
176
     1
 90
       50
176
     1
290
     0
176
     1
 90
       50
176
     1
 62
   256
176
     0
 40
1.0
176
     0
 90
        2
176
     1
  1
strokes_ogs.tif
176
     1
290
     0
176
     1
 40
1.0
176
     1
 40
1.0
176
     1
  0
VISUALSTYLE
  5
2D
102
{ACAD_REACTORS
330
2A
102
}
330
2A
100
AcDbVisualStyle
  2
Gouraud
 70
     2
177
     3
291
     1
 70
    58
 90
        2
176
     1
 90
        2
176
     1
 90
        1
176
     1
 90
        2
176
     1
 40
0.6
176
     1
 40
30.0
176
     1
 62
     7
420
 16777215
176
     1
 90
        0
176
     1
 90
        0
176
     1
 62
     7
176
     1
 62
   257
176
     1
 90
        1
176
     1
 90
        1
176
     1
 40
1.0
176
     1
 90
        0
176
     1
 62
     7
176
     1
 40
1.0
176
     1
 90
        1
176
     1
 90
        6
176
     1
 90
        2
176
     1
 62
     7
176
     1
 90
        5
176
     1
 90
        0
176
     1
 90
        0
176
     1
290
     0
176
     1
 90
       13
176
     1
 40
0.0
176
     1
 90
        0
176
     1
290
     0
176
     1
290
     1
176
     1
290
     1
176
     1
290
     0
176
     1
290
     0
176
     1
290
     0
176
     1
290
     0
176
     1
290
     0
176
     1
290
     0
176
     1
 90
       50
176
     1
 40
0.0
176
     1
 40
1.0
176
     1
 90
        0
176
     1
 62
    18
420
        0
176
     1
 90
       50
176
     1
 90
        3
176
     1
 62
     5
420
      255
176
     1
290
     0
176
     1
 90
       50
176
     1
 90
       50
176
     1
 90
       50
176
     1
290
     0
176
     1
 90
       50
176
     1
 62
   256
176
     0
 40
1.0
176
     0
 90
        2
176
     1
  1
strokes_ogs.tif
176
     1
290
     0
176
     1
 40
1.0
176
     1
 40
1.0
176
     1
  0
VISUALSTYLE
  5
2E
102
{ACAD_REACTORS
330
2A
102
}
330
2A
100
AcDbVisualStyle
  2
GouraudWithEdges
 70
     3
177
     3
291
     1
 70
    58
 90
        2
176
     1
 90
        2
176
     1
 90
        1
176
     1
 90
        2
176
     1
 40
0.6
176
     1
 40
30.0
176
     1
 62
     7
420
 16777215
176
     1
 90
        1
176
     1
 90
        0
176
     1
 62
     7
176
     1
 62
   257
176
     1
 90
        1
176
     1
 90
        1
176
     1
 40
1.0
176
     1
 90
        0
176
     1
 62
   257
176
     1
 40
1.0
176
     1
 90
        1
176
     1
 90
        6
176
     1
 90
        2
176
     1
 62
     7
176
     1
 90
        5
176
     1
 90
        0
176
     1
 90
        0
176
     1
290
     0
176
     1
 90
       13
176
     1
 40
0.0
176
     1
 90
        0
176
     1
290
     0
176
     1
290
     1
176
     1
290
     1
176
     1
290
     0
176
     1
290
     0
176
     1
290
     0
176
     1
290
     0
176
     1
290
     0
176
     1
290
     0
176
     1
 90
       50
176
     1
 40
0.0
176
     1
 40
1.0
176
     1
 90
        0
176
     1
 62
    18
420
        0
176
     1
 90
       50
176
     1
 90
        3
176
     1
 62
     5
420
      255
176
     1
290
     0
176
     1
 90
       50
176
     1
 90
       50
176
     1
 90
       50
176
     1
290
     0
176
     1
 90
       50
176
     1
 62
   256
176
     0
 40
1.0
176
     0
 90
        2
176
     1
  1
strokes_ogs.tif
176
     1
290
     0
176
     1
 40
1.0
176
     1
 40
1.0
176
     1
  0
VISUALSTYLE
  5
31
102
{ACAD_REACTORS
330
2A
102
}
330
2A
100
AcDbVisualStyle
  2
Hidden
 70
     6
177
     3
291
     0
 70
    58
 90
        1
176
     1
 90
        2
176
     1
 90
        2
176
     1
 90
        0
176
     1
 40
0.6
176
     1
 40
30.0
176
     1
 62
     7
420
 16777215
176
     1
 90
        2
176
     1
 90
        2
176
     1
 62
     7
176
     1
 62
   257
176
     1
 90
        2
176
     1
 90
        1
176
     1
 40
40.0
176
     1
 90
        0
176
     1
 62
   257
176
     1
 40
1.0
176
     1
 90
        1
176
     1
 90
        6
176
     1
 90
        2
176
     1
 62
     7
176
     1
 90
        3
176
     1
 90
        0
176
     1
 90
        0
176
     1
290
     0
176
     1
 90
        1
176
     1
 40
0.0
176
     1
 90
        0
176
     1
290
     0
176
     1
290
     1
176
     1
290
     1
176
     1
290
     0
176
     1
290
     0
176
     1
290
     0
176
     1
290
     0
176
     1
290
     0
176
     1
290
     0
176
     1
 90
       50
176
     1
 40
0.0
176
     1
 40
1.0
176
     1
 90
        0
176
     1
 62
    18
420
        0
176
     1
 90
       50
176
     1
 90
        3
176
     1
 62
     5
420
      255
176
     1
290
     0
176
     1
 90
       50
176
     1
 90
       50
176
     1
 90
       50
176
     1
290
     0
176
     1
 90
       50
176
     1
 62
   256
176
     0
 40
1.0
176
     0
 90
        2
176
     1
  1
strokes_ogs.tif
176
     1
290
     0
176
     1
 40
1.0
176
     1
 40
1.0
176
     1
  0
VISUALSTYLE
  5
3B
102
{ACAD_REACTORS
330
2A
102
}
330
2A
100
AcDbVisualStyle
  2
JitterOff
 70
    20
177
     3
291
     1
 70
    58
 90
        2
176
     0
 90
        2
176
     0
 90
        0
176
     0
 90
        0
176
     0
 40
0.6
176
     0
 40
30.0
176
     0
 62
     7
420
 16777215
176
     0
 90
        1
176
     0
 90
        4
176
     0
 62
     7
176
     0
 62
   257
176
     0
 90
        1
176
     0
 90
        1
176
     0
 40
1.0
176
     0
 90
       10
176
     2
 62
     7
176
     0
 40
1.0
176
     0
 90
        1
176
     0
 90
        6
176
     0
 90
        2
176
     0
 62
     7
176
     0
 90
        5
176
     0
 90
        0
176
     0
 90
        0
176
     0
290
     0
176
     0
 90
        1
176
     0
 40
0.0
176
     0
 90
        0
176
     0
290
     0
176
     0
290
     1
176
     0
290
     1
176
     0
290
     0
176
     0
290
     0
176
     0
290
     0
176
     0
290
     0
176
     0
290
     0
176
     0
290
     0
176
     0
 90
       50
176
     0
 40
0.0
176
     0
 40
1.0
176
     0
 90
        0
176
     0
 62
    18
420
        0
176
     0
 90
       50
176
     0
 90
        3
176
     0
 62
     5
420
      255
176
     0
290
     0
176
     0
 90
       50
176
     0
 90
       50
176
     0
 90
       50
176
     0
290
     0
176
     0
 90
       50
176
     0
 62
   256
176
     0
 40
1.0
176
     0
 90
        2
176
     0
  1
strokes_ogs.tif
176
     0
290
     0
176
     0
 40
1.0
176
     0
 40
1.0
176
     0
  0
VISUALSTYLE
  5
38
102
{ACAD_REACTORS
330
2A
102
}
330
2A
100
AcDbVisualStyle
  2
Linepattern
 70
    14
177
     3
291
     1
 70
    58
 90
        2
176
     1
 90
        2
176
     1
 90
        0
176
     1
 90
        0
176
     1
 40
0.6
176
     1
 40
30.0
176
     1
 62
     7
420
 16777215
176
     1
 90
        1
176
     1
 90
        4
176
     1
 62
     7
176
     1
 62
   257
176
     1
 90
        7
176
     1
 90
        7
176
     1
 40
1.0
176
     1
 90
        8
176
     1
 62
     7
176
     1
 40
1.0
176
     1
 90
        1
176
     1
 90
        6
176
     1
 90
        2
176
     1
 62
     7
176
     1
 90
        5
176
     1
 90
        0
176
     1
 90
        0
176
     1
290
     0
176
     1
 90
        1
176
     1
 40
0.0
176
     1
 90
        0
176
     1
290
     0
176
     1
290
     1
176
     1
290
     1
176
     1
290
     0
176
     1
290
     0
176
     1
290
     0
176
     1
290
     0
176
     1
290
     0
176
     1
290
     0
176
     1
 90
       50
176
     1
 40
0.0
176
     1
 40
1.0
176
     1
 90
        0
176
     1
 62
    18
420
        0
176
     1
 90
       50
176
     1
 90
        3
176
     1
 62
     5
420
      255
176
     1
290
     0
176
     1
 90
       50
176
     1
 90
       50
176
     1
 90
       50
176
     1
290
     0
176
     1
 90
       50
176
     1
 62
   256
176
     0
 40
1.0
176
     0
 90
        2
176
     1
  1
strokes_ogs.tif
176
     1
290
     0
176
     1
 40
1.0
176
     1
 40
1.0
176
     1
  0
VISUALSTYLE
  5
3C
102
{ACAD_REACTORS
330
2A
102
}
330
2A
100
AcDbVisualStyle
  2
OverhangOff
 70
    21
177
     3
291
     1
 70
    58
 90
        2
176
     0
 90
        2
176
     0
 90
        0
176
     0
 90
        0
176
     0
 40
0.6
176
     0
 40
30.0
176
     0
 62
     7
420
 16777215
176
     0
 90
        1
176
     0
 90
        4
176
     0
 62
     7
176
     0
 62
   257
176
     0
 90
        1
176
     0
 90
        1
176
     0
 40
1.0
176
     0
 90
        9
176
     2
 62
     7
176
     0
 40
1.0
176
     0
 90
        1
176
     0
 90
        6
176
     0
 90
        2
176
     0
 62
     7
176
     0
 90
        5
176
     0
 90
        0
176
     0
 90
        0
176
     0
290
     0
176
     0
 90
        1
176
     0
 40
0.0
176
     0
 90
        0
176
     0
290
     0
176
     0
290
     1
176
     0
290
     1
176
     0
290
     0
176
     0
290
     0
176
     0
290
     0
176
     0
290
     0
176
     0
290
     0
176
     0
290
     0
176
     0
 90
       50
176
     0
 40
0.0
176
     0
 40
1.0
176
     0
 90
        0
176
     0
 62
    18
420
        0
176
     0
 90
       50
176
     0
 90
        3
176
     0
 62
     5
420
      255
176
     0
290
     0
176
     0
 90
       50
176
     0
 90
       50
176
     0
 90
       50
176
     0
290
     0
176
     0
 90
       50
176
     0
 62
   256
176
     0
 40
1.0
176
     0
 90
        2
176
     0
  1
strokes_ogs.tif
176
     0
290
     0
176
     0
 40
1.0
176
     0
 40
1.0
176
     0
  0
VISUALSTYLE
  5
33
102
{ACAD_REACTORS
330
2A
102
}
330
2A
100
AcDbVisualStyle
  2
Realistic
 70
     8
177
     3
291
     0
 70
    58
 90
        2
176
     1
 90
        3
176
     1
 90
        0
176
     1
 90
        2
176
     1
 40
0.6
176
     1
 40
30.0
176
     1
 62
     7
420
 16777215
176
     1
 90
        0
176
     1
 90
        0
176
     1
 62
     7
176
     1
 62
   257
176
     1
 90
        1
176
     1
 90
        1
176
     1
 40
1.0
176
     1
 90
        8
176
     1
 62
   257
176
     1
 40
1.0
176
     1
 90
        1
176
     1
 90
        6
176
     1
 90
        2
176
     1
 62
     7
176
     1
 90
        3
176
     1
 90
        0
176
     1
 90
        0
176
     1
290
     0
176
     1
 90
       13
176
     1
 40
0.0
176
     1
 90
        0
176
     1
290
     0
176
     1
290
     1
176
     1
290
     1
176
     1
290
     0
176
     1
290
     0
176
     1
290
     0
176
     1
290
     0
176
     1
290
     0
176
     1
290
     0
176
     1
 90
       50
176
     1
 40
0.0
176
     1
 40
1.0
176
     1
 90
        0
176
     1
 62
    18
420
        0
176
     1
 90
       50
176
     1
 90
        3
176
     1
 62
     5
420
      255
176
     1
290
     0
176
     1
 90
       50
176
     1
 90
       50
176
     1
 90
       50
176
     1
290
     0
176
     1
 90
       50
176
     1
 62
   256
176
     0
 40
1.0
176
     0
 90
        2
176
     1
  1
strokes_ogs.tif
176
     1
290
     0
176
     1
 40
1.0
176
     1
 40
1.0
176
     1
  0
VISUALSTYLE
  5
42
102
{ACAD_REACTORS
330
2A
102
}
330
2A
100
AcDbVisualStyle
  2
Shaded
 70
    27
177
     3
291
     0
 70
    58
 90
        2
176
     1
 90
        2
176
     1
 90
        1
176
     1
 90
        2
176
     1
 40
0.6
176
     1
 40
30.0
176
     1
 62
     7
420
 16777215
176
     1
 90
        0
176
     1
 90
        4
176
     1
 62
     7
176
     1
 62
   257
176
     1
 90
        1
176
     1
 90
        1
176
     1
 40
1.0
176
     1
 90
        8
176
     1
 62
   257
176
     1
 40
1.0
176
     1
 90
        1
176
     1
 90
        6
176
     1
 90
        2
176
     1
 62
     8
420
  7895160
176
     1
 90
        3
176
     1
 90
        0
176
     1
 90
        0
176
     1
290
     0
176
     1
 90
        5
176
     1
 40
0.0
176
     1
 90
        0
176
     1
290
     0
176
     1
290
     1
176
     1
290
     1
176
     1
290
     0
176
     1
290
     0
176
     1
290
     0
176
     1
290
     0
176
     1
290
     0
176
     1
290
     0
176
     1
 90
       50
176
     1
 40
0.0
176
     1
 40
1.0
176
     1
 90
        0
176
     1
 62
    18
420
        0
176
     1
 90
       50
176
     1
 90
        3
176
     1
 62
     5
420
      255
176
     1
290
     0
176
     1
 90
       50
176
     1
 90
       50
176
     1
 90
       50
176
     1
290
     0
176
     1
 90
       50
176
     1
 62
   256
176
     0
 40
1.0
176
     0
 90
        2
176
     1
  1
strokes_ogs.tif
176
     1
290
     0
176
     1
 40
1.0
176
     1
 40
1.0
176
     1
  0
VISUALSTYLE
  5
41
102
{ACAD_REACTORS
330
2A
102
}
330
2A
100
AcDbVisualStyle
  2
Shaded with edges
 70
    26
177
     3
291
     0
 70
    58
 90
        2
176
     1
 90
        2
176
     1
 90
        1
176
     1
 90
        2
176
     1
 40
0.6
176
     1
 40
30.0
176
     1
 62
     7
420
 16777215
176
     1
 90
        1
176
     1
 90
       10
176
     1
 62
     7
176
     1
 62
   257
176
     1
 90
        2
176
     1
 90
        1
176
     1
 40
1.0
176
     1
 90
        8
176
     1
 62
   257
176
     1
 40
1.0
176
     1
 90
        1
176
     1
 90
        6
176
     1
 90
        2
176
     1
 62
     7
176
     1
 90
        3
176
     1
 90
        0
176
     1
 90
        0
176
     1
290
     0
176
     1
 90
        5
176
     1
 40
0.0
176
     1
 90
        0
176
     1
290
     0
176
     1
290
     1
176
     1
290
     1
176
     1
290
     0
176
     1
290
     0
176
     1
290
     0
176
     1
290
     0
176
     1
290
     0
176
     1
290
     0
176
     1
 90
       50
176
     1
 40
0.0
176
     1
 40
1.0
176
     1
 90
        0
176
     1
 62
    18
420
        0
176
     1
 90
       50
176
     1
 90
        3
176
     1
 62
     5
420
      255
176
     1
290
     0
176
     1
 90
       50
176
     1
 90
       50
176
     1
 90
       50
176
     1
290
     0
176
     1
 90
       50
176
     1
 62
   256
176
     0
 40
1.0
176
     0
 90
        2
176
     1
  1
strokes_ogs.tif
176
     1
290
     0
176
     1
 40
1.0
176
     1
 40
1.0
176
     1
  0
VISUALSTYLE
  5
3E
102
{ACAD_REACTORS
330
2A
102
}
330
2A
100
AcDbVisualStyle
  2
Shades of Gray
 70
    23
177
     3
291
     0
 70
    58
 90
        2
176
     1
 90
        2
176
     1
 90
        3
176
     1
 90
        0
176
     1
 40
0.6
176
     1
 40
30.0
176
     1
 62
     7
420
 16777215
176
     1
 90
        2
176
     1
 90
        2
176
     1
 62
     7
176
     1
 62
     7
176
     1
 90
        1
176
     1
 90
        1
176
     1
 40
40.0
176
     1
 90
        8
176
     1
 62
     7
176
     1
 40
1.0
176
     1
 90
        1
176
     1
 90
        6
176
     1
 90
        2
176
     1
 62
     7
176
     1
 90
        3
176
     1
 90
        0
176
     1
 90
        0
176
     1
290
     0
176
     1
 90
        1
176
     1
 40
0.0
176
     1
 90
        0
176
     1
290
     0
176
     1
290
     1
176
     1
290
     1
176
     1
290
     0
176
     1
290
     0
176
     1
290
     0
176
     1
290
     0
176
     1
290
     0
176
     1
290
     0
176
     1
 90
       50
176
     1
 40
0.0
176
     1
 40
1.0
176
     1
 90
        0
176
     1
 62
    18
420
        0
176
     1
 90
       50
176
     1
 90
        3
176
     1
 62
     5
420
      255
176
     1
290
     0
176
     1
 90
       50
176
     1
 90
       50
176
     1
 90
       50
176
     1
290
     0
176
     1
 90
       50
176
     1
 62
   256
176
     0
 40
1.0
176
     0
 90
        2
176
     1
  1
strokes_ogs.tif
176
     1
290
     0
176
     1
 40
1.0
176
     1
 40
1.0
176
     1
  0
VISUALSTYLE
  5
3F
102
{ACAD_REACTORS
330
2A
102
}
330
2A
100
AcDbVisualStyle
  2
Sketchy
 70
    24
177
     3
291
     0
 70
    58
 90
        1
176
     1
 90
        2
176
     1
 90
        2
176
     1
 90
        0
176
     1
 40
0.6
176
     1
 40
30.0
176
     1
 62
     7
420
 16777215
176
     1
 90
        2
176
     1
 90
        2
176
     1
 62
     7
176
     1
 62
     7
176
     1
 90
        1
176
     1
 90
        1
176
     1
 40
40.0
176
     1
 90
       11
176
     1
 62
     7
176
     1
 40
1.0
176
     1
 90
        1
176
     1
 90
        6
176
     1
 90
        2
176
     1
 62
     7
176
     1
 90
        6
176
     1
 90
        0
176
     1
 90
        0
176
     1
290
     0
176
     1
 90
        1
176
     1
 40
0.0
176
     1
 90
        0
176
     1
290
     0
176
     1
290
     1
176
     1
290
     1
176
     1
290
     0
176
     1
290
     0
176
     1
290
     0
176
     1
290
     0
176
     1
290
     0
176
     1
290
     0
176
     1
 90
       50
176
     1
 40
0.0
176
     1
 40
1.0
176
     1
 90
        0
176
     1
 62
    18
420
        0
176
     1
 90
       50
176
     1
 90
        3
176
     1
 62
     5
420
      255
176
     1
290
     0
176
     1
 90
       50
176
     1
 90
       50
176
     1
 90
       50
176
     1
290
     0
176
     1
 90
       50
176
     1
 62
   256
176
     0
 40
1.0
176
     0
 90
        2
176
     1
  1
strokes_ogs.tif
176
     1
290
     0
176
     1
 40
1.0
176
     1
 40
1.0
176
     1
  0
VISUALSTYLE
  5
37
102
{ACAD_REACTORS
330
2A
102
}
330
2A
100
AcDbVisualStyle
  2
Thicken
 70
    13
177
     3
291
     1
 70
    58
 90
        2
176
     1
 90
        2
176
     1
 90
        0
176
     1
 90
        0
176
     1
 40
0.6
176
     1
 40
30.0
176
     1
 62
     7
420
 16777215
176
     1
 90
        1
176
     1
 90
        4
176
     1
 62
     7
176
     1
 62
   257
176
     1
 90
        1
176
     1
 90
        1
176
     1
 40
1.0
176
     1
 90
       12
176
     1
 62
     7
176
     1
 40
1.0
176
     1
 90
        1
176
     1
 90
        6
176
     1
 90
        2
176
     1
 62
     7
176
     1
 90
        5
176
     1
 90
        0
176
     1
 90
        0
176
     1
290
     0
176
     1
 90
        1
176
     1
 40
0.0
176
     1
 90
        0
176
     1
290
     0
176
     1
290
     1
176
     1
290
     1
176
     1
290
     0
176
     1
290
     0
176
     1
290
     0
176
     1
290
     0
176
     1
290
     0
176
     1
290
     0
176
     1
 90
       50
176
     1
 40
0.0
176
     1
 40
1.0
176
     1
 90
        0
176
     1
 62
    18
420
        0
176
     1
 90
       50
176
     1
 90
        3
176
     1
 62
     5
420
      255
176
     1
290
     0
176
     1
 90
       50
176
     1
 90
       50
176
     1
 90
       50
176
     1
290
     0
176
     1
 90
       50
176
     1
 62
   256
176
     0
 40
1.0
176
     0
 90
        2
176
     1
  1
strokes_ogs.tif
176
     1
290
     0
176
     1
 40
1.0
176
     1
 40
1.0
176
     1
  0
VISUALSTYLE
  5
30
102
{ACAD_REACTORS
330
2A
102
}
330
2A
100
AcDbVisualStyle
  2
Wireframe
 70
     5
177
     3
291
     0
 70
    58
 90
        0
176
     1
 90
        2
176
     1
 90
        0
176
     1
 90
        0
176
     1
 40
0.6
176
     1
 40
30.0
176
     1
 62
     7
420
 16777215
176
     1
 90
        1
176
     1
 90
        4
176
     1
 62
     7
176
     1
 62
   257
176
     1
 90
        1
176
     1
 90
        1
176
     1
 40
1.0
176
     1
 90
        0
176
     1
 62
   257
176
     1
 40
1.0
176
     1
 90
        1
176
     1
 90
        6
176
     1
 90
        2
176
     1
 62
     7
176
     1
 90
        3
176
     1
 90
        0
176
     1
 90
        0
176
     1
290
     0
176
     1
 90
        1
176
     1
 40
0.0
176
     1
 90
        0
176
     1
290
     0
176
     1
290
     1
176
     1
290
     1
176
     1
290
     0
176
     1
290
     0
176
     1
290
     0
176
     1
290
     0
176
     1
290
     0
176
     1
290
     0
176
     1
 90
       50
176
     1
 40
0.0
176
     1
 40
1.0
176
     1
 90
        0
176
     1
 62
    18
420
        0
176
     1
 90
       50
176
     1
 90
        3
176
     1
 62
     5
420
      255
176
     1
290
     0
176
     1
 90
       50
176
     1
 90
       50
176
     1
 90
       50
176
     1
290
     0
176
     1
 90
       50
176
     1
 62
   256
176
     0
 40
1.0
176
     0
 90
        2
176
     1
  1
strokes_ogs.tif
176
     1
290
     0
176
     1
 40
1.0
176
     1
 40
1.0
176
     1
  0
VISUALSTYLE
  5
40
102
{ACAD_REACTORS
330
2A
102
}
330
2A
100
AcDbVisualStyle
  2
X-Ray
 70
    25
177
     3
291
     0
 70
    58
 90
        2
176
     1
 90
        2
176
     1
 90
        1
176
     1
 90
        1
176
     1
 40
0.5
176
     1
 40
30.0
176
     1
 62
     7
420
 16777215
176
     1
 90
        1
176
     1
 90
        0
176
     1
 62
     7
176
     1
 62
   257
176
     1
 90
        1
176
     1
 90
        1
176
     1
 40
1.0
176
     1
 90
        8
176
     1
 62
     7
176
     1
 40
1.0
176
     1
 90
        1
176
     1
 90
        6
176
     1
 90
        2
176
     1
 62
     7
176
     1
 90
        3
176
     1
 90
        0
176
     1
 90
        0
176
     1
290
     0
176
     1
 90
       13
176
     1
 40
0.0
176
     1
 90
        0
176
     1
290
     0
176
     1
290
     1
176
     1
290
     1
176
     1
290
     0
176
     1
290
     0
176
     1
290
     0
176
     1
290
     0
176
     1
290
     0
176
     1
290
     0
176
     1
 90
       50
176
     1
 40
0.0
176
     1
 40
1.0
176
     1
 90
        0
176
     1
 62
    18
420
        0
176
     1
 90
       50
176
     1
 90
        3
176
     1
 62
     5
420
      255
176
     1
290
     0
176
     1
 90
       50
176
     1
 90
       50
176
     1
 90
       50
176
     1
290
     0
176
     1
 90
       50
176
     1
 62
   256
176
     0
 40
1.0
176
     0
 90
        2
176
     1
  1
strokes_ogs.tif
176
     1
290
     0
176
     1
 40
1.0
176
     1
 40
1.0
176
     1
  0
DICTIONARYVAR
  5
22A
102
{ACAD_REACTORS
330
229
102
}
330
229
100
DictionaryVariables
280
     0
  1
1:1
  0
DICTIONARYVAR
  5
22F
102
{ACAD_REACTORS
330
229
102
}
330
229
100
DictionaryVariables
280
     0
  1
Standard
  0
DICTIONARYVAR
  5
22E
102
{ACAD_REACTORS
330
229
102
}
330
229
100
DictionaryVariables
280
     0
  1
Standard
  0
DICTIONARY
  5
22B
330
6A
100
AcDbDictionary
280
     1
281
     1
  3
ACAD_ROUNDTRIP_2008_TABLESTYLE_CELLSTYLEMAP
360
22C
  0
CELLSTYLEMAP
  5
22C
102
{ACAD_REACTORS
330
22B
102
}
330
22B
100
AcDbCellStyleMap
 90
        3
300
CELLSTYLE
  1
TABLEFORMAT_BEGIN
 90
        5
170
     1
 91
        0
 92
    32768
 62
   257
 93
        1
300
CONTENTFORMAT
  1
CONTENTFORMAT_BEGIN
 90
        0
 91
        0
 92
        4
 93
        0
300

 40
0.0
140
1.0
 94
        5
 62
     0
340
11
144
0.25
309
CONTENTFORMAT_END
171
     1
301
MARGIN
  1
CELLMARGIN_BEGIN
 40
0.06
 40
0.06
 40
0.06
 40
0.06
 40
0.06
 40
0.06
309
CELLMARGIN_END
 94
        6
 95
        1
302
GRIDFORMAT
  1
GRIDFORMAT_BEGIN
 90
        0
 91
        1
 62
     0
 92
       -2
340
14
 93
        0
 40
0.045
309
GRIDFORMAT_END
 95
        2
302
GRIDFORMAT
  1
GRIDFORMAT_BEGIN
 90
        0
 91
        1
 62
     0
 92
       -2
340
14
 93
        0
 40
0.045
309
GRIDFORMAT_END
 95
        4
302
GRIDFORMAT
  1
GRIDFORMAT_BEGIN
 90
        0
 91
        1
 62
     0
 92
       -2
340
14
 93
        0
 40
0.045
309
GRIDFORMAT_END
 95
        8
302
GRIDFORMAT
  1
GRIDFORMAT_BEGIN
 90
        0
 91
        1
 62
     0
 92
       -2
340
14
 93
        0
 40
0.045
309
GRIDFORMAT_END
 95
       16
302
GRIDFORMAT
  1
GRIDFORMAT_BEGIN
 90
        0
 91
        1
 62
     0
 92
       -2
340
14
 93
        0
 40
0.045
309
GRIDFORMAT_END
 95
       32
302
GRIDFORMAT
  1
GRIDFORMAT_BEGIN
 90
        0
 91
        1
 62
     0
 92
       -2
340
14
 93
        0
 40
0.045
309
GRIDFORMAT_END
309
TABLEFORMAT_END
  1
CELLSTYLE_BEGIN
 90
        1
 91
        1
300
_TITLE
309
CELLSTYLE_END
300
CELLSTYLE
  1
TABLEFORMAT_BEGIN
 90
        5
170
     1
 91
        0
 92
        0
 62
   257
 93
        1
300
CONTENTFORMAT
  1
CONTENTFORMAT_BEGIN
 90
        0
 91
        0
 92
        4
 93
        0
300

 40
0.0
140
1.0
 94
        5
 62
     0
340
11
144
0.18
309
CONTENTFORMAT_END
171
     1
301
MARGIN
  1
CELLMARGIN_BEGIN
 40
0.06
 40
0.06
 40
0.06
 40
0.06
 40
0.06
 40
0.06
309
CELLMARGIN_END
 94
        6
 95
        1
302
GRIDFORMAT
  1
GRIDFORMAT_BEGIN
 90
        0
 91
        1
 62
     0
 92
       -2
340
14
 93
        0
 40
0.045
309
GRIDFORMAT_END
 95
        2
302
GRIDFORMAT
  1
GRIDFORMAT_BEGIN
 90
        0
 91
        1
 62
     0
 92
       -2
340
14
 93
        0
 40
0.045
309
GRIDFORMAT_END
 95
        4
302
GRIDFORMAT
  1
GRIDFORMAT_BEGIN
 90
        0
 91
        1
 62
     0
 92
       -2
340
14
 93
        0
 40
0.045
309
GRIDFORMAT_END
 95
        8
302
GRIDFORMAT
  1
GRIDFORMAT_BEGIN
 90
        0
 91
        1
 62
     0
 92
       -2
340
14
 93
        0
 40
0.045
309
GRIDFORMAT_END
 95
       16
302
GRIDFORMAT
  1
GRIDFORMAT_BEGIN
 90
        0
 91
        1
 62
     0
 92
       -2
340
14
 93
        0
 40
0.045
309
GRIDFORMAT_END
 95
       32
302
GRIDFORMAT
  1
GRIDFORMAT_BEGIN
 90
        0
 91
        1
 62
     0
 92
       -2
340
14
 93
        0
 40
0.045
309
GRIDFORMAT_END
309
TABLEFORMAT_END
  1
CELLSTYLE_BEGIN
 90
        2
 91
        1
300
_HEADER
309
CELLSTYLE_END
300
CELLSTYLE
  1
TABLEFORMAT_BEGIN
 90
        5
170
     1
 91
        0
 92
        0
 62
   257
 93
        1
300
CONTENTFORMAT
  1
CONTENTFORMAT_BEGIN
 90
        0
 91
        0
 92
        4
 93
        0
300

 40
0.0
140
1.0
 94
        2
 62
     0
340
11
144
0.18
309
CONTENTFORMAT_END
171
     1
301
MARGIN
  1
CELLMARGIN_BEGIN
 40
0.06
 40
0.06
 40
0.06
 40
0.06
 40
0.06
 40
0.06
309
CELLMARGIN_END
 94
        6
 95
        1
302
GRIDFORMAT
  1
GRIDFORMAT_BEGIN
 90
        0
 91
        1
 62
     0
 92
       -2
340
14
 93
        0
 40
0.045
309
GRIDFORMAT_END
 95
        2
302
GRIDFORMAT
  1
GRIDFORMAT_BEGIN
 90
        0
 91
        1
 62
     0
 92
       -2
340
14
 93
        0
 40
0.045
309
GRIDFORMAT_END
 95
        4
302
GRIDFORMAT
  1
GRIDFORMAT_BEGIN
 90
        0
 91
        1
 62
     0
 92
       -2
340
14
 93
        0
 40
0.045
309
GRIDFORMAT_END
 95
        8
302
GRIDFORMAT
  1
GRIDFORMAT_BEGIN
 90
        0
 91
        1
 62
     0
 92
       -2
340
14
 93
        0
 40
0.045
309
GRIDFORMAT_END
 95
       16
302
GRIDFORMAT
  1
GRIDFORMAT_BEGIN
 90
        0
 91
        1
 62
     0
 92
       -2
340
14
 93
        0
 40
0.045
309
GRIDFORMAT_END
 95
       32
302
GRIDFORMAT
  1
GRIDFORMAT_BEGIN
 90
        0
 91
        1
 62
     0
 92
       -2
340
14
 93
        0
 40
0.045
309
GRIDFORMAT_END
309
TABLEFORMAT_END
  1
CELLSTYLE_BEGIN
 90
        3
 91
        2
300
_DATA
309
CELLSTYLE_END
  0
ENDSEC
  0
EOF