0
SECTION
  2
HEADER
  9
$ACADVER
  1
AC1027
  9
$ACADMAINTVER
 70
     8
  9
$DWGCODEPAGE
  3
ANSI_1252
  9
$REQUIREDVERSIONS
160
                 0
  9
$COMMENTS
  1
File was created by Cadenas
  9
$CUSTOMPROPERTYTAG
  1
NN
  9
$CUSTOMPROPERTY
  1
Eccentric Collar Low Backing Height Intermediate Duty Two-Bolt Pillow Block Inch Bore
  9
$CUSTOMPROPERTYTAG
  1
NT
  9
$CUSTOMPROPERTY
  1
Eccentric Collar Pillow Block Bearings -(Intermediate Duty) -Low Backing Height
  9
$CUSTOMPROPERTYTAG
  1
NB
  9
$CUSTOMPROPERTY
  1
131990
  9
$CUSTOMPROPERTYTAG
  1
NBSYN
  9
$CUSTOMPROPERTY
  1
$PN.
  9
$CUSTOMPROPERTYTAG
  1
LINA
  9
$CUSTOMPROPERTY
  1
131990
  9
$CUSTOMPROPERTYTAG
  1
SERIES
  9
$CUSTOMPROPERTY
  1
206
  9
$CUSTOMPROPERTYTAG
  1
SS
  9
$CUSTOMPROPERTY
  1
1-1/4
  9
$CUSTOMPROPERTYTAG
  1
PN
  9
$CUSTOMPROPERTY
  1
131990
  9
$CUSTOMPROPERTYTAG
  1
DESCRIPTION
  9
$CUSTOMPROPERTY
  1
P2B-SXVB-104S
  9
$CUSTOMPROPERTYTAG
  1
WEIGHT
  9
$CUSTOMPROPERTY
  1
2.5
  9
$CUSTOMPROPERTYTAG
  1
A
  9
$CUSTOMPROPERTY
  1
1.41
  9
$CUSTOMPROPERTYTAG
  1
B
  9
$CUSTOMPROPERTY
  1
6.25
  9
$CUSTOMPROPERTYTAG
  1
C
  9
$CUSTOMPROPERTY
  1
1.75
  9
$CUSTOMPROPERTYTAG
  1
DMIN
  9
$CUSTOMPROPERTY
  1
4.25
  9
$CUSTOMPROPERTYTAG
  1
DMAX
  9
$CUSTOMPROPERTY
  1
5.00
  9
$CUSTOMPROPERTYTAG
  1
F
  9
$CUSTOMPROPERTY
  1
1/2
  9
$CUSTOMPROPERTYTAG
  1
G
  9
$CUSTOMPROPERTY
  1
0.94
  9
$CUSTOMPROPERTYTAG
  1
H
  9
$CUSTOMPROPERTY
  1
0.62
  9
$CUSTOMPROPERTYTAG
  1
J
  9
$CUSTOMPROPERTY
  1
3.19
  9
$CUSTOMPROPERTYTAG
  1
L
  9
$CUSTOMPROPERTY
  1
1.75
  9
$CUSTOMPROPERTYTAG
  1
M
  9
$CUSTOMPROPERTY
  1
1.56
  9
$CUSTOMPROPERTYTAG
  1
R
  9
$CUSTOMPROPERTY
  1
0.35
  9
$CUSTOMPROPERTYTAG
  1
S
  9
$CUSTOMPROPERTY
  1
1.05
  9
$CUSTOMPROPERTYTAG
  1
U
  9
$CUSTOMPROPERTY
  1
2.88
  9
$CUSTOMPROPERTYTAG
  1
V
  9
$CUSTOMPROPERTY
  1
5.76
  9
$CUSTOMPROPERTYTAG
  1
W
  9
$CUSTOMPROPERTY
  1
0.56
  9
$CUSTOMPROPERTYTAG
  1
X
  9
$CUSTOMPROPERTY
  1
0.12
  9
$CUSTOMPROPERTYTAG
  1
COMPANY
  9
$CUSTOMPROPERTY
  1
baldor
  9
$INSBASE
 10
0.0
 20
0.0
 30
0.0
  9
$EXTMIN
 10
1.000000000000000E+20
 20
1.000000000000000E+20
 30
1.000000000000000E+20
  9
$EXTMAX
 10
-1.000000000000000E+20
 20
-1.000000000000000E+20
 30
-1.000000000000000E+20
  9
$LIMMIN
 10
0.0
 20
0.0
  9
$LIMMAX
 10
12.0
 20
9.0
  9
$ORTHOMODE
 70
     0
  9
$REGENMODE
 70
     1
  9
$FILLMODE
 70
     1
  9
$QTEXTMODE
 70
     0
  9
$MIRRTEXT
 70
     1
  9
$LTSCALE
 40
1.0
  9
$ATTMODE
 70
     1
  9
$TEXTSIZE
 40
0.2
  9
$TRACEWID
 40
0.05
  9
$TEXTSTYLE
  7
Standard
  9
$CLAYER
  8
0
  9
$CELTYPE
  6
ByLayer
  9
$CECOLOR
 62
   256
  9
$CELTSCALE
 40
1.0
  9
$DISPSILH
 70
     0
  9
$DIMSCALE
 40
1.0
  9
$DIMASZ
 40
0.18
  9
$DIMEXO
 40
0.0625
  9
$DIMDLI
 40
0.38
  9
$DIMRND
 40
0.0
  9
$DIMDLE
 40
0.0
  9
$DIMEXE
 40
0.18
  9
$DIMTP
 40
0.0
  9
$DIMTM
 40
0.0
  9
$DIMTXT
 40
0.18
  9
$DIMCEN
 40
0.09
  9
$DIMTSZ
 40
0.0
  9
$DIMTOL
 70
     0
  9
$DIMLIM
 70
     0
  9
$DIMTIH
 70
     1
  9
$DIMTOH
 70
     1
  9
$DIMSE1
 70
     0
  9
$DIMSE2
 70
     0
  9
$DIMTAD
 70
     0
  9
$DIMZIN
 70
     0
  9
$DIMBLK
  1

  9
$DIMASO
 70
     1
  9
$DIMSHO
 70
     1
  9
$DIMPOST
  1

  9
$DIMAPOST
  1

  9
$DIMALT
 70
     0
  9
$DIMALTD
 70
     2
  9
$DIMALTF
 40
25.4
  9
$DIMLFAC
 40
1.0
  9
$DIMTOFL
 70
     0
  9
$DIMTVP
 40
0.0
  9
$DIMTIX
 70
     0
  9
$DIMSOXD
 70
     0
  9
$DIMSAH
 70
     0
  9
$DIMBLK1
  1

  9
$DIMBLK2
  1

  9
$DIMSTYLE
  2
Standard
  9
$DIMCLRD
 70
     0
  9
$DIMCLRE
 70
     0
  9
$DIMCLRT
 70
     0
  9
$DIMTFAC
 40
1.0
  9
$DIMGAP
 40
0.09
  9
$DIMJUST
 70
     0
  9
$DIMSD1
 70
     0
  9
$DIMSD2
 70
     0
  9
$DIMTOLJ
 70
     1
  9
$DIMTZIN
 70
     0
  9
$DIMALTZ
 70
     0
  9
$DIMALTTZ
 70
     0
  9
$DIMUPT
 70
     0
  9
$DIMDEC
 70
     4
  9
$DIMTDEC
 70
     4
  9
$DIMALTU
 70
     2
  9
$DIMALTTD
 70
     2
  9
$DIMTXSTY
  7
Standard
  9
$DIMAUNIT
 70
     0
  9
$DIMADEC
 70
     0
  9
$DIMALTRND
 40
0.0
  9
$DIMAZIN
 70
     0
  9
$DIMDSEP
 70
    46
  9
$DIMATFIT
 70
     3
  9
$DIMFRAC
 70
     0
  9
$DIMLDRBLK
  1

  9
$DIMLUNIT
 70
     2
  9
$DIMLWD
 70
    -2
  9
$DIMLWE
 70
    -2
  9
$DIMTMOVE
 70
     0
  9
$DIMFXL
 40
1.0
  9
$DIMFXLON
 70
     0
  9
$DIMJOGANG
 40
0.7853981633974483
  9
$DIMTFILL
 70
     0
  9
$DIMTFILLCLR
 70
     0
  9
$DIMARCSYM
 70
     0
  9
$DIMLTYPE
  6

  9
$DIMLTEX1
  6

  9
$DIMLTEX2
  6

  9
$DIMTXTDIRECTION
 70
     0
  9
$LUNITS
 70
     2
  9
$LUPREC
 70
     4
  9
$SKETCHINC
 40
0.1
  9
$FILLETRAD
 40
0.5
  9
$AUNITS
 70
     0
  9
$AUPREC
 70
     0
  9
$MENU
  1
.
  9
$ELEVATION
 40
0.0
  9
$PELEVATION
 40
0.0
  9
$THICKNESS
 40
0.0
  9
$LIMCHECK
 70
     0
  9
$CHAMFERA
 40
0.0
  9
$CHAMFERB
 40
0.0
  9
$CHAMFERC
 40
0.0
  9
$CHAMFERD
 40
0.0
  9
$SKPOLY
 70
     0
  9
$TDCREATE
 40
2458169.003720521
  9
$TDUCREATE
 40
2458168.962053854
  9
$TDUPDATE
 40
2458169.003720521
  9
$TDUUPDATE
 40
2458168.962053854
  9
$TDINDWG
 40
0.0000000116
  9
$TDUSRTIMER
 40
0.0000000116
  9
$USRTIMER
 70
     1
  9
$ANGBASE
 50
0.0
  9
$ANGDIR
 70
     0
  9
$PDMODE
 70
     0
  9
$PDSIZE
 40
0.0
  9
$PLINEWID
 40
0.0
  9
$SPLFRAME
 70
     0
  9
$SPLINETYPE
 70
     6
  9
$SPLINESEGS
 70
     8
  9
$HANDSEED
  5
184
  9
$SURFTAB1
 70
     6
  9
$SURFTAB2
 70
     6
  9
$SURFTYPE
 70
     6
  9
$SURFU
 70
     6
  9
$SURFV
 70
     6
  9
$UCSBASE
  2

  9
$UCSNAME
  2

  9
$UCSORG
 10
0.0
 20
0.0
 30
0.0
  9
$UCSXDIR
 10
1.0
 20
0.0
 30
0.0
  9
$UCSYDIR
 10
0.0
 20
1.0
 30
0.0
  9
$UCSORTHOREF
  2

  9
$UCSORTHOVIEW
 70
     0
  9
$UCSORGTOP
 10
0.0
 20
0.0
 30
0.0
  9
$UCSORGBOTTOM
 10
0.0
 20
0.0
 30
0.0
  9
$UCSORGLEFT
 10
0.0
 20
0.0
 30
0.0
  9
$UCSORGRIGHT
 10
0.0
 20
0.0
 30
0.0
  9
$UCSORGFRONT
 10
0.0
 20
0.0
 30
0.0
  9
$UCSORGBACK
 10
0.0
 20
0.0
 30
0.0
  9
$PUCSBASE
  2

  9
$PUCSNAME
  2

  9
$PUCSORG
 10
0.0
 20
0.0
 30
0.0
  9
$PUCSXDIR
 10
1.0
 20
0.0
 30
0.0
  9
$PUCSYDIR
 10
0.0
 20
1.0
 30
0.0
  9
$PUCSORTHOREF
  2

  9
$PUCSORTHOVIEW
 70
     0
  9
$PUCSORGTOP
 10
0.0
 20
0.0
 30
0.0
  9
$PUCSORGBOTTOM
 10
0.0
 20
0.0
 30
0.0
  9
$PUCSORGLEFT
 10
0.0
 20
0.0
 30
0.0
  9
$PUCSORGRIGHT
 10
0.0
 20
0.0
 30
0.0
  9
$PUCSORGFRONT
 10
0.0
 20
0.0
 30
0.0
  9
$PUCSORGBACK
 10
0.0
 20
0.0
 30
0.0
  9
$USERI1
 70
     0
  9
$USERI2
 70
     0
  9
$USERI3
 70
     0
  9
$USERI4
 70
     0
  9
$USERI5
 70
     0
  9
$USERR1
 40
0.0
  9
$USERR2
 40
0.0
  9
$USERR3
 40
0.0
  9
$USERR4
 40
0.0
  9
$USERR5
 40
0.0
  9
$WORLDVIEW
 70
     1
  9
$SHADEDGE
 70
     3
  9
$SHADEDIF
 70
    70
  9
$TILEMODE
 70
     1
  9
$MAXACTVP
 70
    64
  9
$PINSBASE
 10
0.0
 20
0.0
 30
0.0
  9
$PLIMCHECK
 70
     0
  9
$PEXTMIN
 10
1.000000000000000E+20
 20
1.000000000000000E+20
 30
1.000000000000000E+20
  9
$PEXTMAX
 10
-1.000000000000000E+20
 20
-1.000000000000000E+20
 30
-1.000000000000000E+20
  9
$PLIMMIN
 10
0.0
 20
0.0
  9
$PLIMMAX
 10
12.0
 20
9.0
  9
$UNITMODE
 70
     0
  9
$VISRETAIN
 70
     1
  9
$PLINEGEN
 70
     0
  9
$PSLTSCALE
 70
     1
  9
$TREEDEPTH
 70
  3020
  9
$CMLSTYLE
  2
Standard
  9
$CMLJUST
 70
     0
  9
$CMLSCALE
 40
1.0
  9
$PROXYGRAPHICS
 70
     1
  9
$MEASUREMENT
 70
     0
  9
$CELWEIGHT
370
    -1
  9
$ENDCAPS
280
     0
  9
$JOINSTYLE
280
     0
  9
$LWDISPLAY
290
     0
  9
$INSUNITS
 70
     1
  9
$HYPERLINKBASE
  1

  9
$STYLESHEET
  1

  9
$XEDIT
290
     1
  9
$CEPSNTYPE
380
     0
  9
$PSTYLEMODE
290
     1
  9
$FINGERPRINTGUID
  2
{85513687-C4DA-49D0-9584-A83492FC4F76}
  9
$VERSIONGUID
  2
{FAEB1C32-E019-11D5-929B-00C0DF256EC4}
  9
$EXTNAMES
290
     1
  9
$PSVPSCALE
 40
0.0
  9
$OLESTARTUP
290
     0
  9
$SORTENTS
280
   127
  9
$INDEXCTL
280
     0
  9
$HIDETEXT
280
     1
  9
$XCLIPFRAME
280
     2
  9
$HALOGAP
280
     0
  9
$OBSCOLOR
 70
   257
  9
$OBSLTYPE
280
     0
  9
$INTERSECTIONDISPLAY
280
     0
  9
$INTERSECTIONCOLOR
 70
   257
  9
$DIMASSOC
280
     2
  9
$PROJECTNAME
  1

  9
$CAMERADISPLAY
290
     0
  9
$LENSLENGTH
 40
50.0
  9
$CAMERAHEIGHT
 40
0.0
  9
$STEPSPERSEC
 40
2.0
  9
$STEPSIZE
 40
6.0
  9
$3DDWFPREC
 40
2.0
  9
$PSOLWIDTH
 40
0.25
  9
$PSOLHEIGHT
 40
4.0
  9
$LOFTANG1
 40
1.570796326794897
  9
$LOFTANG2
 40
1.570796326794897
  9
$LOFTMAG1
 40
0.0
  9
$LOFTMAG2
 40
0.0
  9
$LOFTPARAM
 70
     7
  9
$LOFTNORMALS
280
     1
  9
$LATITUDE
 40
37.795
  9
$LONGITUDE
 40
-122.394
  9
$NORTHDIRECTION
 40
0.0
  9
$TIMEZONE
 70
 -8000
  9
$LIGHTGLYPHDISPLAY
280
     1
  9
$TILEMODELIGHTSYNCH
280
     1
  9
$CMATERIAL
347
44
  9
$SOLIDHIST
280
     0
  9
$SHOWHIST
280
     1
  9
$DWFFRAME
280
     2
  9
$DGNFRAME
280
     2
  9
$REALWORLDSCALE
290
     1
  9
$INTERFERECOLOR
 62
   256
  9
$CSHADOW
280
     0
  9
$SHADOWPLANELOCATION
 40
0.0
  0
ENDSEC
  0
SECTION
  2
CLASSES
  0
CLASS
  1
ACDBDICTIONARYWDFLT
  2
AcDbDictionaryWithDefault
  3
ObjectDBX Classes
 90
        0
 91
        4
280
     0
281
     0
  0
CLASS
  1
VISUALSTYLE
  2
AcDbVisualStyle
  3
ObjectDBX Classes
 90
     4095
 91
        4
280
     0
281
     0
  0
CLASS
  1
MATERIAL
  2
AcDbMaterial
  3
ObjectDBX Classes
 90
     1153
 91
        4
280
     0
281
     0
  0
CLASS
  1
SCALE
  2
AcDbScale
  3
ObjectDBX Classes
 90
     1153
 91
        4
280
     0
281
     0
  0
CLASS
  1
TABLESTYLE
  2
AcDbTableStyle
  3
ObjectDBX Classes
 90
     4095
 91
        4
280
     0
281
     0
  0
CLASS
  1
MLEADERSTYLE
  2
AcDbMLeaderStyle
  3
ACDB_MLEADERSTYLE_CLASS
 90
     4095
 91
        4
280
     0
281
     0
  0
CLASS
  1
SUN
  2
AcDbSun
  3
SCENEOE
 90
     1153
 91
        4
280
     0
281
     0
  0
CLASS
  1
DICTIONARYVAR
  2
AcDbDictionaryVar
  3
ObjectDBX Classes
 90
        0
 91
        4
280
     0
281
     0
  0
CLASS
  1
CELLSTYLEMAP
  2
AcDbCellStyleMap
  3
ObjectDBX Classes
 90
     1152
 91
        4
280
     0
281
     0
  0
ENDSEC
  0
SECTION
  2
TABLES
  0
TABLE
  2
VPORT
  5
8
330
0
100
AcDbSymbolTable
 70
     1
  0
VPORT
  5
29
330
8
100
AcDbSymbolTableRecord
100
AcDbViewportTableRecord
  2
*Active
 70
     0
 10
0.0
 20
0.0
 11
1.0
 21
1.0
 12
0.0
 22
0.0346858342388421
 13
0.0
 23
0.0
 14
0.5
 24
0.5
 15
0.5
 25
0.5
 16
0.0
 26
0.0
 36
1.0
 17
0.0
 27
0.0
 37
0.0
 40
3.253159101847239
 41
1.959633636233804
 42
50.0
 43
0.0
 44
0.0
 50
0.0
 51
0.0
 71
     0
 72
   100
 73
     1
 74
     3
 75
     0
 76
     0
 77
     0
 78
     0
281
     0
 65
     1
110
0.0
120
0.0
130
0.0
111
1.0
121
0.0
131
0.0
112
0.0
122
1.0
132
0.0
 79
     0
146
0.0
348
2F
 60
     3
 61
     5
292
     1
282
     1
141
0.0
142
0.0
 63
   250
361
6D
  0
ENDTAB
  0
TABLE
  2
LTYPE
  5
5
330
0
100
AcDbSymbolTable
 70
     3
  0
LTYPE
  5
14
330
5
100
AcDbSymbolTableRecord
100
AcDbLinetypeTableRecord
  2
ByBlock
 70
     0
  3

 72
    65
 73
     0
 40
0.0
  0
LTYPE
  5
15
330
5
100
AcDbSymbolTableRecord
100
AcDbLinetypeTableRecord
  2
ByLayer
 70
     0
  3

 72
    65
 73
     0
 40
0.0
  0
LTYPE
  5
16
330
5
100
AcDbSymbolTableRecord
100
AcDbLinetypeTableRecord
  2
Continuous
 70
     0
  3
Solid line
 72
    65
 73
     0
 40
0.0
  0
LTYPE
  5
9B
330
5
100
AcDbSymbolTableRecord
100
AcDbLinetypeTableRecord
  2
Dashed
 70
     0
  3

 72
    65
 73
     2
 40
2.0
 49
1.0
 74
     0
 49
-1.0
 74
     0
  0
LTYPE
  5
A9
330
5
100
AcDbSymbolTableRecord
100
AcDbLinetypeTableRecord
  2
Center
 70
     0
  3

 72
    65
 73
     4
 40
1.5
 49
0.45
 74
     0
 49
-0.5
 74
     0
 49
0.05
 74
     0
 49
-0.5
 74
     0
  0
ENDTAB
  0
TABLE
  2
LAYER
  5
2
330
0
100
AcDbSymbolTable
 70
     7
  0
LAYER
  5
10
330
2
100
AcDbSymbolTableRecord
100
AcDbLayerTableRecord
  2
0
 70
     0
 62
     7
  6
Continuous
370
    -3
390
F
347
46
348
0
  0
LAYER
  5
72
330
2
100
AcDbSymbolTableRecord
100
AcDbLayerTableRecord
  2
AM_6
 70
     0
 62
    -2
  6
Continuous
370
    35
390
F
347
46
348
0
  0
LAYER
  5
9C
330
2
100
AcDbSymbolTableRecord
100
AcDbLayerTableRecord
  2
AM_9
 70
     0
 62
     6
  6
Dashed
370
    25
390
F
347
46
348
0
  0
LAYER
  5
A3
330
2
100
AcDbSymbolTableRecord
100
AcDbLayerTableRecord
  2
AM_5
 70
     0
 62
     3
  6
Continuous
370
    25
390
F
347
46
348
0
  0
LAYER
  5
AA
330
2
100
AcDbSymbolTableRecord
100
AcDbLayerTableRecord
  2
AM_7
 70
     0
 62
     7
  6
Center
370
    25
390
F
347
46
348
0
  0
LAYER
  5
AC
330
2
100
AcDbSymbolTableRecord
100
AcDbLayerTableRecord
  2
AM_4
 70
     0
 62
     7
  6
Continuous
370
    50
390
F
347
46
348
0
  0
LAYER
  5
176
330
2
100
AcDbSymbolTableRecord
100
AcDbLayerTableRecord
  2
ConnectionPoints
 70
     0
 62
     7
  6
Continuous
370
    50
390
F
347
46
348
0
  0
ENDTAB
  0
TABLE
  2
STYLE
  5
3
330
0
100
AcDbSymbolTable
 70
     1
  0
STYLE
  5
11
330
3
100
AcDbSymbolTableRecord
100
AcDbTextStyleTableRecord
  2
Standard
 70
     0
 40
0.0
 41
1.0
 50
0.0
 71
     0
 42
0.2
  3
txt
  4

  0
ENDTAB
  0
TABLE
  2
VIEW
  5
6
330
0
100
AcDbSymbolTable
 70
     0
  0
ENDTAB
  0
TABLE
  2
UCS
  5
7
330
0
100
AcDbSymbolTable
 70
     0
  0
ENDTAB
  0
TABLE
  2
APPID
  5
9
330
0
100
AcDbSymbolTable
 70
     1
  0
APPID
  5
12
330
9
100
AcDbSymbolTableRecord
100
AcDbRegAppTableRecord
  2
ACAD
 70
     0
  0
ENDTAB
  0
TABLE
  2
DIMSTYLE
  5
A
330
0
100
AcDbSymbolTable
 70
     1
100
AcDbDimStyleTable
  0
DIMSTYLE
105
27
330
A
100
AcDbSymbolTableRecord
100
AcDbDimStyleTableRecord
  2
Standard
 70
     0
178
     0
340
11
  0
ENDTAB
  0
TABLE
  2
BLOCK_RECORD
  5
1
330
0
100
AcDbSymbolTable
 70
     5
  0
BLOCK_RECORD
  5
1F
330
1
100
AcDbSymbolTableRecord
100
AcDbBlockTableRecord
  2
*Model_Space
340
22
 70
     0
280
     1
281
     0
  0
BLOCK_RECORD
  5
1B
330
1
100
AcDbSymbolTableRecord
100
AcDbBlockTableRecord
  2
*Paper_Space
340
1E
 70
     0
280
     1
281
     0
  0
BLOCK_RECORD
  5
23
330
1
100
AcDbSymbolTableRecord
100
AcDbBlockTableRecord
  2
*Paper_Space0
340
26
 70
     0
280
     1
281
     0
  0
BLOCK_RECORD
  5
6E
330
1
100
AcDbSymbolTableRecord
100
AcDbBlockTableRecord
  2
1_131990_0
340
0
102
{BLKREFS
331
6F
102
}
 70
     0
280
     1
281
     0
  0
BLOCK_RECORD
  5
8F
330
1
100
AcDbSymbolTableRecord
100
AcDbBlockTableRecord
  2
2_405015E_Inch_0_in_131990_0
340
0
102
{BLKREFS
331
90
102
}
 70
     0
280
     1
281
     0
  0
BLOCK_RECORD
  5
D7
330
1
100
AcDbSymbolTableRecord
100
AcDbBlockTableRecord
  2
3_131442_0_in_131990_0
340
0
102
{BLKREFS
331
D8
102
}
 70
     0
280
     1
281
     0
  0
BLOCK_RECORD
  5
10B
330
1
100
AcDbSymbolTableRecord
100
AcDbBlockTableRecord
  2
4_131990H_0_in_131990_0
340
0
102
{BLKREFS
331
10C
102
}
 70
     0
280
     1
281
     0
  0
ENDTAB
  0
ENDSEC
  0
SECTION
  2
BLOCKS
  0
BLOCK
  5
20
330
1F
100
AcDbEntity
  8
0
100
AcDbBlockBegin
  2
*Model_Space
 70
     0
 10
0.0
 20
0.0
 30
0.0
  3
*Model_Space
  1

  0
ENDBLK
  5
21
330
1F
100
AcDbEntity
  8
0
100
AcDbBlockEnd
  0
BLOCK
  5
1C
330
1B
100
AcDbEntity
 67
     1
  8
0
100
AcDbBlockBegin
  2
*Paper_Space
 70
     0
 10
0.0
 20
0.0
 30
0.0
  3
*Paper_Space
  1

  0
ENDBLK
  5
1D
330
1B
100
AcDbEntity
 67
     1
  8
0
100
AcDbBlockEnd
  0
BLOCK
  5
24
330
23
100
AcDbEntity
  8
0
100
AcDbBlockBegin
  2
*Paper_Space0
 70
     0
 10
0.0
 20
0.0
 30
0.0
  3
*Paper_Space0
  1

  0
ENDBLK
  5
25
330
23
100
AcDbEntity
  8
0
100
AcDbBlockEnd
  0
BLOCK
  5
70
330
6E
100
AcDbEntity
  8
0
100
AcDbBlockBegin
  2
1_131990_0
 70
     2
 10
0.0
 20
0.0
 30
0.0
  3
1_131990_0
  1

  0
ATTDEF
  5
73
330
6E
100
AcDbEntity
  8
AM_6
100
AcDbText
 10
8.125
 20
1.629371668477685
 30
0.0
 40
0.5
  1
Eccentric Collar Low Backing Height Intermediate Duty Two-Bolt Pillow Block Inch Bore
100
AcDbAttributeDefinition
  3

  2
NN
 70
     8
280
     0
  0
ATTDEF
  5
74
330
6E
100
AcDbEntity
  8
AM_6
100
AcDbText
 10
8.125
 20
1.129371668477685
 30
0.0
 40
0.5
  1
Eccentric Collar Pillow Block Bearings -(Intermediate Duty) -Low Backing Height
100
AcDbAttributeDefinition
  3

  2
NT
 70
     8
280
     0
  0
ATTDEF
  5
75
330
6E
100
AcDbEntity
  8
AM_6
100
AcDbText
 10
8.125
 20
0.6293716684776851
 30
0.0
 40
0.5
  1
131990
100
AcDbAttributeDefinition
  3

  2
NB
 70
     8
280
     0
  0
ATTDEF
  5
76
330
6E
100
AcDbEntity
  8
AM_6
100
AcDbText
 10
8.125
 20
0.1293716684776851
 30
0.0
 40
0.5
  1
$PN.
100
AcDbAttributeDefinition
  3

  2
NBSYN
 70
     8
280
     0
  0
ATTDEF
  5
77
330
6E
100
AcDbEntity
  8
AM_6
100
AcDbText
 10
8.125
 20
-0.3706283315223149
 30
0.0
 40
0.5
  1
131990
100
AcDbAttributeDefinition
  3

  2
LINA
 70
     8
280
     0
  0
ATTDEF
  5
78
330
6E
100
AcDbEntity
  8
AM_6
100
AcDbText
 10
8.125
 20
-0.8706283315223149
 30
0.0
 40
0.5
  1
206
100
AcDbAttributeDefinition
  3

  2
SERIES
 70
     8
280
     0
  0
ATTDEF
  5
79
330
6E
100
AcDbEntity
  8
AM_6
100
AcDbText
 10
8.125
 20
-1.370628331522315
 30
0.0
 40
0.5
  1
1-1/4
100
AcDbAttributeDefinition
  3

  2
SS
 70
     8
280
     0
  0
ATTDEF
  5
7A
330
6E
100
AcDbEntity
  8
AM_6
100
AcDbText
 10
8.125
 20
-1.870628331522315
 30
0.0
 40
0.5
  1
131990
100
AcDbAttributeDefinition
  3

  2
PN
 70
     8
280
     0
  0
ATTDEF
  5
7B
330
6E
100
AcDbEntity
  8
AM_6
100
AcDbText
 10
8.125
 20
-2.370628331522315
 30
0.0
 40
0.5
  1
P2B-SXVB-104S
100
AcDbAttributeDefinition
  3

  2
DESCRIPTION
 70
     8
280
     0
  0
ATTDEF
  5
7C
330
6E
100
AcDbEntity
  8
AM_6
100
AcDbText
 10
8.125
 20
-2.870628331522315
 30
0.0
 40
0.5
  1
2.5
100
AcDbAttributeDefinition
  3

  2
WEIGHT
 70
     8
280
     0
  0
ATTDEF
  5
7D
330
6E
100
AcDbEntity
  8
AM_6
100
AcDbText
 10
8.125
 20
-3.370628331522315
 30
0.0
 40
0.5
  1
1.41
100
AcDbAttributeDefinition
  3

  2
A
 70
     8
280
     0
  0
ATTDEF
  5
7E
330
6E
100
AcDbEntity
  8
AM_6
100
AcDbText
 10
8.125
 20
-3.870628331522315
 30
0.0
 40
0.5
  1
6.25
100
AcDbAttributeDefinition
  3

  2
B
 70
     8
280
     0
  0
ATTDEF
  5
7F
330
6E
100
AcDbEntity
  8
AM_6
100
AcDbText
 10
8.125
 20
-4.370628331522315
 30
0.0
 40
0.5
  1
1.75
100
AcDbAttributeDefinition
  3

  2
C
 70
     8
280
     0
  0
ATTDEF
  5
80
330
6E
100
AcDbEntity
  8
AM_6
100
AcDbText
 10
8.125
 20
-4.870628331522315
 30
0.0
 40
0.5
  1
4.25
100
AcDbAttributeDefinition
  3

  2
DMIN
 70
     8
280
     0
  0
ATTDEF
  5
81
330
6E
100
AcDbEntity
  8
AM_6
100
AcDbText
 10
8.125
 20
-5.370628331522315
 30
0.0
 40
0.5
  1
5.00
100
AcDbAttributeDefinition
  3

  2
DMAX
 70
     8
280
     0
  0
ATTDEF
  5
82
330
6E
100
AcDbEntity
  8
AM_6
100
AcDbText
 10
8.125
 20
-5.870628331522315
 30
0.0
 40
0.5
  1
1/2
100
AcDbAttributeDefinition
  3

  2
F
 70
     8
280
     0
  0
ATTDEF
  5
83
330
6E
100
AcDbEntity
  8
AM_6
100
AcDbText
 10
8.125
 20
-6.370628331522315
 30
0.0
 40
0.5
  1
0.94
100
AcDbAttributeDefinition
  3

  2
G
 70
     8
280
     0
  0
ATTDEF
  5
84
330
6E
100
AcDbEntity
  8
AM_6
100
AcDbText
 10
8.125
 20
-6.870628331522315
 30
0.0
 40
0.5
  1
0.62
100
AcDbAttributeDefinition
  3

  2
H
 70
     8
280
     0
  0
ATTDEF
  5
85
330
6E
100
AcDbEntity
  8
AM_6
100
AcDbText
 10
8.125
 20
-7.370628331522315
 30
0.0
 40
0.5
  1
3.19
100
AcDbAttributeDefinition
  3

  2
J
 70
     8
280
     0
  0
ATTDEF
  5
86
330
6E
100
AcDbEntity
  8
AM_6
100
AcDbText
 10
8.125
 20
-7.870628331522315
 30
0.0
 40
0.5
  1
1.75
100
AcDbAttributeDefinition
  3

  2
L
 70
     8
280
     0
  0
ATTDEF
  5
87
330
6E
100
AcDbEntity
  8
AM_6
100
AcDbText
 10
8.125
 20
-8.370628331522315
 30
0.0
 40
0.5
  1
1.56
100
AcDbAttributeDefinition
  3

  2
M
 70
     8
280
     0
  0
ATTDEF
  5
88
330
6E
100
AcDbEntity
  8
AM_6
100
AcDbText
 10
8.125
 20
-8.870628331522315
 30
0.0
 40
0.5
  1
0.35
100
AcDbAttributeDefinition
  3

  2
R
 70
     8
280
     0
  0
ATTDEF
  5
89
330
6E
100
AcDbEntity
  8
AM_6
100
AcDbText
 10
8.125
 20
-9.370628331522315
 30
0.0
 40
0.5
  1
1.05
100
AcDbAttributeDefinition
  3

  2
S
 70
     8
280
     0
  0
ATTDEF
  5
8A
330
6E
100
AcDbEntity
  8
AM_6
100
AcDbText
 10
8.125
 20
-9.870628331522315
 30
0.0
 40
0.5
  1
2.88
100
AcDbAttributeDefinition
  3

  2
U
 70
     8
280
     0
  0
ATTDEF
  5
8B
330
6E
100
AcDbEntity
  8
AM_6
100
AcDbText
 10
8.125
 20
-10.37062833152232
 30
0.0
 40
0.5
  1
5.76
100
AcDbAttributeDefinition
  3

  2
V
 70
     8
280
     0
  0
ATTDEF
  5
8C
330
6E
100
AcDbEntity
  8
AM_6
100
AcDbText
 10
8.125
 20
-10.87062833152232
 30
0.0
 40
0.5
  1
0.56
100
AcDbAttributeDefinition
  3

  2
W
 70
     8
280
     0
  0
ATTDEF
  5
8D
330
6E
100
AcDbEntity
  8
AM_6
100
AcDbText
 10
8.125
 20
-11.37062833152232
 30
0.0
 40
0.5
  1
0.12
100
AcDbAttributeDefinition
  3

  2
X
 70
     8
280
     0
  0
ATTDEF
  5
8E
330
6E
100
AcDbEntity
  8
AM_6
100
AcDbText
 10
8.125
 20
-11.87062833152232
 30
0.0
 40
0.5
  1
baldor
100
AcDbAttributeDefinition
  3

  2
COMPANY
 70
     8
280
     0
  0
INSERT
  5
90
330
6E
100
AcDbEntity
  8
0
100
AcDbBlockReference
  2
2_405015E_Inch_0_in_131990_0
 10
0.0
 20
0.0
 30
0.0
  0
INSERT
  5
D8
330
6E
100
AcDbEntity
  8
0
100
AcDbBlockReference
  2
3_131442_0_in_131990_0
 10
0.0
 20
0.0
 30
0.0
  0
INSERT
  5
10C
330
6E
100
AcDbEntity
  8
0
100
AcDbBlockReference
  2
4_131990H_0_in_131990_0
 10
0.0
 20
0.0
 30
0.0
  0
ENDBLK
  5
71
330
6E
100
AcDbEntity
  8
0
100
AcDbBlockEnd
  0
BLOCK
  5
91
330
8F
100
AcDbEntity
  8
0
100
AcDbBlockBegin
  2
2_405015E_Inch_0_in_131990_0
 70
     2
 10
0.0
 20
0.0
 30
0.0
  3
2_405015E_Inch_0_in_131990_0
  1

  0
ATTDEF
  5
93
330
8F
100
AcDbEntity
  8
AM_6
100
AcDbText
 10
6.490353337013992
 20
1.490353337013992
 30
0.0
 40
0.5
  1
405015E -Inch
100
AcDbAttributeDefinition
  3

  2
NN
 70
     8
280
     0
  0
ATTDEF
  5
94
330
8F
100
AcDbEntity
  8
AM_6
100
AcDbText
 10
6.490353337013992
 20
0.9903533370139921
 30
0.0
 40
0.5
  1
Grease Fitting
100
AcDbAttributeDefinition
  3

  2
NT
 70
     8
280
     0
  0
ATTDEF
  5
95
330
8F
100
AcDbEntity
  8
AM_6
100
AcDbText
 10
6.490353337013992
 20
0.4903533370139921
 30
0.0
 40
0.5
  1
405015E-Inch
100
AcDbAttributeDefinition
  3

  2
NB
 70
     8
280
     0
  0
ATTDEF
  5
96
330
8F
100
AcDbEntity
  8
AM_6
100
AcDbText
 10
6.490353337013992
 20
-0.0096466629860079
 30
0.0
 40
0.5
  1
$MN.-Inch
100
AcDbAttributeDefinition
  3

  2
NBSYN
 70
     8
280
     0
  0
ATTDEF
  5
97
330
8F
100
AcDbEntity
  8
AM_6
100
AcDbText
 10
6.490353337013992
 20
-0.5096466629860079
 30
0.0
 40
0.5
  1
405015E
100
AcDbAttributeDefinition
  3

  2
LINA
 70
     8
280
     0
  0
ATTDEF
  5
98
330
8F
100
AcDbEntity
  8
AM_6
100
AcDbText
 10
6.490353337013992
 20
-1.009646662986008
 30
0.0
 40
0.5
  1
405015E
100
AcDbAttributeDefinition
  3

  2
MN
 70
     8
280
     0
  0
ATTDEF
  5
99
330
8F
100
AcDbEntity
  8
AM_6
100
AcDbText
 10
6.490353337013992
 20
-1.509646662986008
 30
0.0
 40
0.5
  1
1/8 x 27PTF
100
AcDbAttributeDefinition
  3

  2
T
 70
     8
280
     0
  0
ATTDEF
  5
9A
330
8F
100
AcDbEntity
  8
AM_6
100
AcDbText
 10
6.490353337013992
 20
-2.009646662986008
 30
0.0
 40
0.5
  1
baldor
100
AcDbAttributeDefinition
  3

  2
COMPANY
 70
     8
280
     0
  0
LINE
  5
9D
330
8F
100
AcDbEntity
  8
AM_9
100
AcDbLine
 10
1.079683375338359
 20
0.8507181373009151
 30
0.0
 11
1.131605878821267
 21
0.8507181373009151
 31
0.0
  0
LINE
  5
9E
330
8F
100
AcDbEntity
  8
AM_9
100
AcDbLine
 10
0.8507181373009148
 20
1.131605878821268
 30
0.0
 11
0.8507181373009148
 21
1.079683375338359
 31
0.0
  0
LINE
  5
9F
330
8F
100
AcDbEntity
  8
AM_9
100
AcDbLine
 10
0.8507181373009148
 20
1.079683375338359
 30
0.0
 11
1.079683375338359
 21
0.8507181373009151
 31
0.0
  0
LINE
  5
A0
330
8F
100
AcDbEntity
  8
AM_9
100
AcDbLine
 10
1.131605878821267
 20
0.8507181373009151
 30
0.0
 11
1.288602871324837
 21
0.9981996994656861
 31
0.0
  0
LINE
  5
A1
330
8F
100
AcDbEntity
  8
AM_9
100
AcDbLine
 10
0.9981996994656859
 20
1.288602871324838
 30
0.0
 11
0.8507181373009148
 21
1.131605878821268
 31
0.0
  0
LINE
  5
A2
330
8F
100
AcDbEntity
  8
AM_9
100
AcDbLine
 10
0.8507181373009148
 20
1.131605878821268
 30
0.0
 11
1.131605878821267
 21
0.8507181373009151
 31
0.0
  0
LINE
  5
A4
330
8F
100
AcDbEntity
  8
AM_5
100
AcDbLine
 10
1.225429637156604
 20
0.9876308642892472
 30
0.0
 11
1.079683375338359
 21
0.8507181373009151
 31
0.0
  0
LINE
  5
A5
330
8F
100
AcDbEntity
  8
AM_5
100
AcDbLine
 10
1.284509767929003
 20
1.003461337618436
 30
0.0
 11
1.225429637156604
 21
0.9876308642892472
 31
0.0
  0
LINE
  5
A6
330
8F
100
AcDbEntity
  8
AM_5
100
AcDbLine
 10
0.962480942208507
 20
1.250579559237344
 30
0.0
 11
1.250579559237344
 21
0.9624809422085072
 31
0.0
  0
LINE
  5
A7
330
8F
100
AcDbEntity
  8
AM_5
100
AcDbLine
 10
0.9876308642892467
 20
1.225429637156604
 30
0.0
 11
0.8507181373009148
 21
1.079683375338359
 31
0.0
  0
LINE
  5
A8
330
8F
100
AcDbEntity
  8
AM_5
100
AcDbLine
 10
1.003461337618436
 20
1.284509767929003
 30
0.0
 11
0.9876308642892467
 21
1.225429637156604
 31
0.0
  0
LINE
  5
AB
330
8F
100
AcDbEntity
  8
AM_7
100
AcDbLine
 10
1.440376513276997
 20
1.440376513276997
 30
0.0
 11
0.9425733393216674
 21
0.9425733393216679
 31
0.0
  0
LINE
  5
AD
330
8F
100
AcDbEntity
  8
AM_4
100
AcDbLine
 10
1.371787155501902
 20
1.223294731452727
 30
0.0
 11
1.393000358937498
 21
1.244507934888324
 31
0.0
  0
LINE
  5
AE
330
8F
100
AcDbEntity
  8
AM_4
100
AcDbLine
 10
1.244507934888323
 20
1.393000358937499
 30
0.0
 11
1.223294731452727
 21
1.371787155501902
 31
0.0
  0
LINE
  5
AF
330
8F
100
AcDbEntity
  8
AM_4
100
AcDbLine
 10
0.9803871874906931
 20
1.337604441646574
 30
0.0
 11
0.9979044449495148
 21
1.30726366171863
 31
0.0
  0
LINE
  5
B0
330
8F
100
AcDbEntity
  8
AM_4
100
AcDbLine
 10
0.9979044449495148
 20
1.30726366171863
 30
0.0
 11
1.307263661718629
 21
0.9979044449495152
 31
0.0
  0
LINE
  5
B1
330
8F
100
AcDbEntity
  8
AM_4
100
AcDbLine
 10
1.307263661718629
 20
0.9979044449495152
 30
0.0
 11
1.337604441646573
 21
0.9803871874906936
 31
0.0
  0
LINE
  5
B2
330
8F
100
AcDbEntity
  8
AM_4
100
AcDbLine
 10
1.06861512306817
 20
1.377974339837285
 30
0.0
 11
1.038274343140226
 21
1.395491597296106
 31
0.0
  0
LINE
  5
B3
330
8F
100
AcDbEntity
  8
AM_4
100
AcDbLine
 10
1.06861512306817
 20
1.377974339837285
 30
0.0
 11
1.377974339837284
 21
1.06861512306817
 31
0.0
  0
LINE
  5
B4
330
8F
100
AcDbEntity
  8
AM_4
100
AcDbLine
 10
1.395491597296106
 20
1.038274343140226
 30
0.0
 11
1.377974339837284
 21
1.06861512306817
 31
0.0
  0
LINE
  5
B5
330
8F
100
AcDbEntity
  8
AM_4
100
AcDbLine
 10
1.223294731452727
 20
1.371787155501902
 30
0.0
 11
1.190720465201862
 21
1.358757449001556
 31
0.0
  0
LINE
  5
B6
330
8F
100
AcDbEntity
  8
AM_4
100
AcDbLine
 10
1.358757449001556
 20
1.190720465201863
 30
0.0
 11
1.371787155501902
 21
1.223294731452727
 31
0.0
  0
LINE
  5
B7
330
8F
100
AcDbEntity
  8
AM_4
100
AcDbLine
 10
1.223294731452727
 20
1.371787155501902
 30
0.0
 11
1.371787155501902
 21
1.223294731452727
 31
0.0
  0
LINE
  5
B8
330
8F
100
AcDbEntity
  8
AM_4
100
AcDbLine
 10
1.345144855544063
 20
1.490353337013992
 30
0.0
 11
1.26572113832392
 21
1.456639969244288
 31
0.0
  0
LINE
  5
B9
330
8F
100
AcDbEntity
  8
AM_4
100
AcDbLine
 10
1.456639969244288
 20
1.26572113832392
 30
0.0
 11
1.490353337013991
 21
1.345144855544064
 31
0.0
  0
LINE
  5
BA
330
8F
100
AcDbEntity
  8
AM_4
100
AcDbLine
 10
1.345144855544063
 20
1.490353337013992
 30
0.0
 11
1.490353337013991
 21
1.345144855544064
 31
0.0
  0
LINE
  5
BB
330
8F
100
AcDbEntity
  8
AM_4
100
AcDbLine
 10
1.393000358937498
 20
1.244507934888324
 30
0.0
 11
1.456639969244288
 21
1.26572113832392
 31
0.0
  0
LINE
  5
BC
330
8F
100
AcDbEntity
  8
AM_4
100
AcDbLine
 10
1.26572113832392
 20
1.456639969244288
 30
0.0
 11
1.244507934888323
 21
1.393000358937499
 31
0.0
  0
LINE
  5
BD
330
8F
100
AcDbEntity
  8
AM_4
100
AcDbLine
 10
1.26572113832392
 20
1.456639969244288
 30
0.0
 11
1.456639969244288
 21
1.26572113832392
 31
0.0
  0
LINE
  5
BE
330
8F
100
AcDbEntity
  8
AM_4
100
AcDbLine
 10
1.244507934888323
 20
1.393000358937499
 30
0.0
 11
1.393000358937498
 21
1.244507934888324
 31
0.0
  0
LINE
  5
BF
330
8F
100
AcDbEntity
  8
AM_4
100
AcDbLine
 10
1.190720465201862
 20
1.358757449001556
 30
0.0
 11
1.114247654798085
 21
1.358247652922128
 31
0.0
  0
LINE
  5
C0
330
8F
100
AcDbEntity
  8
AM_4
100
AcDbLine
 10
1.358247652922127
 20
1.114247654798085
 30
0.0
 11
1.358757449001556
 21
1.190720465201863
 31
0.0
  0
LINE
  5
C1
330
8F
100
AcDbEntity
  8
AM_4
100
AcDbLine
 10
1.190720465201862
 20
1.358757449001556
 30
0.0
 11
1.358757449001556
 21
1.190720465201863
 31
0.0
  0
LINE
  5
C2
330
8F
100
AcDbEntity
  8
AM_4
100
AcDbLine
 10
1.288602871324837
 20
0.9981996994656861
 30
0.0
 11
1.298072615102502
 21
1.007095491565642
 31
0.0
  0
LINE
  5
C3
330
8F
100
AcDbEntity
  8
AM_4
100
AcDbLine
 10
1.007095491565642
 20
1.298072615102502
 30
0.0
 11
0.9981996994656859
 21
1.288602871324838
 31
0.0
  0
LINE
  5
C4
330
8F
100
AcDbEntity
  8
AM_4
100
AcDbLine
 10
1.114247654798085
 20
1.358247652922128
 30
0.0
 11
1.072150656974102
 21
1.374438805931351
 31
0.0
  0
LINE
  5
C5
330
8F
100
AcDbEntity
  8
AM_4
100
AcDbLine
 10
1.374438805931351
 20
1.072150656974103
 30
0.0
 11
1.358247652922127
 21
1.114247654798085
 31
0.0
  0
LINE
  5
C6
330
8F
100
AcDbEntity
  8
AM_4
100
AcDbLine
 10
1.114247654798085
 20
1.358247652922128
 30
0.0
 11
1.358247652922127
 21
1.114247654798085
 31
0.0
  0
LWPOLYLINE
  5
C7
330
8F
100
AcDbEntity
  8
AM_4
100
AcDbPolyline
 90
        4
 70
     0
 43
0.0
 10
1.152584053334072
 20
1.152584053334073
 10
1.119362581988596
 20
1.187810258271212
 10
1.088013028120086
 20
1.224908380685317
 10
1.069691501029663
 20
1.248300128107604
  0
LWPOLYLINE
  5
C8
330
8F
100
AcDbEntity
  8
AM_4
100
AcDbPolyline
 90
        4
 70
     0
 43
0.0
 10
1.248300128107603
 20
1.069691501029664
 10
1.19914430518922
 20
1.109438455409366
 10
1.175476351728182
 20
1.13056087659256
 10
1.152584053334072
 20
1.152584053334073
  0
LWPOLYLINE
  5
C9
330
8F
100
AcDbEntity
  8
AM_4
100
AcDbPolyline
 90
        4
 70
     0
 43
0.0
 10
1.127578656679196
 20
1.306187283757136
 10
1.150970404101482
 20
1.287865756666713
 10
1.187961829251607
 20
1.256611208014881
 10
1.223294731452727
 20
1.223294731452727
  0
LINE
  5
CA
330
8F
100
AcDbEntity
  8
AM_4
100
AcDbLine
 10
1.395491597296106
 20
1.038274343140226
 30
0.0
 11
1.337604441646573
 21
0.9803871874906936
 31
0.0
  0
LWPOLYLINE
  5
CB
330
8F
100
AcDbEntity
  8
AM_4
100
AcDbPolyline
 90
        3
 70
     0
 43
0.0
 10
1.357251201761182
 20
1.089338261144272
 10
1.377884904362865
 20
1.06531980697647
 10
1.395491597296106
 20
1.038274343140226
  0
LINE
  5
CC
330
8F
100
AcDbEntity
  8
AM_4
100
AcDbLine
 10
1.306187283757136
 20
1.127578656679196
 30
0.0
 11
1.248300128107603
 21
1.069691501029664
 31
0.0
  0
LWPOLYLINE
  5
CD
330
8F
100
AcDbEntity
  8
AM_4
100
AcDbPolyline
 90
        3
 70
     0
 43
0.0
 10
1.286540523642527
 20
1.018627583025617
 10
1.265906821040844
 20
1.04264603719342
 10
1.248300128107603
 20
1.069691501029664
  0
LWPOLYLINE
  5
CE
330
8F
100
AcDbEntity
  8
AM_4
100
AcDbPolyline
 90
        4
 70
     0
 43
0.0
 10
1.337604441646573
 20
0.9803871874906936
 10
1.310674313052711
 20
0.9979084475458743
 10
1.298203953252731
 20
1.00783327506801
 10
1.286540523642527
 20
1.018627583025617
  0
LWPOLYLINE
  5
CF
330
8F
100
AcDbEntity
  8
AM_4
100
AcDbPolyline
 90
        3
 70
     0
 43
0.0
 10
1.223294731452727
 20
1.223294731452727
 10
1.266254512439152
 20
1.176950198900183
 10
1.306187283757136
 20
1.127578656679196
  0
LWPOLYLINE
  5
D0
330
8F
100
AcDbEntity
  8
AM_4
100
AcDbPolyline
 90
        4
 70
     0
 43
0.0
 10
1.306187283757136
 20
1.127578656679196
 10
1.333117412350998
 20
1.110057396624015
 10
1.345587772150978
 20
1.100132569101879
 10
1.357251201761182
 20
1.089338261144272
  0
LINE
  5
D1
330
8F
100
AcDbEntity
  8
AM_4
100
AcDbLine
 10
1.127578656679196
 20
1.306187283757136
 30
0.0
 11
1.069691501029663
 21
1.248300128107604
 31
0.0
  0
LWPOLYLINE
  5
D2
330
8F
100
AcDbEntity
  8
AM_4
100
AcDbPolyline
 90
        3
 70
     0
 43
0.0
 10
1.089338261144272
 20
1.357251201761182
 10
1.109971963745955
 20
1.33323274759338
 10
1.127578656679196
 20
1.306187283757136
  0
LWPOLYLINE
  5
D3
330
8F
100
AcDbEntity
  8
AM_4
100
AcDbPolyline
 90
        4
 70
     0
 43
0.0
 10
1.038274343140226
 20
1.395491597296106
 10
1.065204471734088
 20
1.377970337240925
 10
1.077674831534068
 20
1.368045509718789
 10
1.089338261144272
 20
1.357251201761182
  0
LINE
  5
D4
330
8F
100
AcDbEntity
  8
AM_4
100
AcDbLine
 10
1.038274343140226
 20
1.395491597296106
 30
0.0
 11
0.9803871874906931
 21
1.337604441646574
 31
0.0
  0
LWPOLYLINE
  5
D5
330
8F
100
AcDbEntity
  8
AM_4
100
AcDbPolyline
 90
        3
 70
     0
 43
0.0
 10
1.018627583025617
 20
1.286540523642528
 10
0.997993880423934
 20
1.310558977810329
 10
0.9803871874906931
 20
1.337604441646574
  0
LWPOLYLINE
  5
D6
330
8F
100
AcDbEntity
  8
AM_4
100
AcDbPolyline
 90
        4
 70
     0
 43
0.0
 10
1.069691501029663
 20
1.248300128107604
 10
1.042761372435801
 20
1.265821388162784
 10
1.030291012635821
 20
1.27574621568492
 10
1.018627583025617
 20
1.286540523642528
  0
ENDBLK
  5
92
330
8F
100
AcDbEntity
  8
0
100
AcDbBlockEnd
  0
BLOCK
  5
D9
330
D7
100
AcDbEntity
  8
0
100
AcDbBlockBegin
  2
3_131442_0_in_131990_0
 70
     2
 10
0.0
 20
0.0
 30
0.0
  3
3_131442_0_in_131990_0
  1

  0
ATTDEF
  5
DB
330
D7
100
AcDbEntity
  8
AM_6
100
AcDbText
 10
6.3078475
 20
1.274405119362069
 30
0.0
 40
0.5
  1
Eccentric Collar Intermediate Duty Insert Inch Bore
100
AcDbAttributeDefinition
  3

  2
NN
 70
     8
280
     0
  0
ATTDEF
  5
DC
330
D7
100
AcDbEntity
  8
AM_6
100
AcDbText
 10
6.3078475
 20
0.7744051193620693
 30
0.0
 40
0.5
  1
Eccentric Collar Bearing Inserts -(Intermediate Duty)
100
AcDbAttributeDefinition
  3

  2
NT
 70
     8
280
     0
  0
ATTDEF
  5
DD
330
D7
100
AcDbEntity
  8
AM_6
100
AcDbText
 10
6.3078475
 20
0.2744051193620693
 30
0.0
 40
0.5
  1
131442
100
AcDbAttributeDefinition
  3

  2
NB
 70
     8
280
     0
  0
ATTDEF
  5
DE
330
D7
100
AcDbEntity
  8
AM_6
100
AcDbText
 10
6.3078475
 20
-0.2255948806379307
 30
0.0
 40
0.5
  1
$PN.
100
AcDbAttributeDefinition
  3

  2
NBSYN
 70
     8
280
     0
  0
ATTDEF
  5
DF
330
D7
100
AcDbEntity
  8
AM_6
100
AcDbText
 10
6.3078475
 20
-0.7255948806379307
 30
0.0
 40
0.5
  1
131442
100
AcDbAttributeDefinition
  3

  2
LINA
 70
     8
280
     0
  0
ATTDEF
  5
E0
330
D7
100
AcDbEntity
  8
AM_6
100
AcDbText
 10
6.3078475
 20
-1.225594880637931
 30
0.0
 40
0.5
  1
206
100
AcDbAttributeDefinition
  3

  2
SERIES
 70
     8
280
     0
  0
ATTDEF
  5
E1
330
D7
100
AcDbEntity
  8
AM_6
100
AcDbText
 10
6.3078475
 20
-1.725594880637931
 30
0.0
 40
0.5
  1
1-1/4
100
AcDbAttributeDefinition
  3

  2
SS
 70
     8
280
     0
  0
ATTDEF
  5
E2
330
D7
100
AcDbEntity
  8
AM_6
100
AcDbText
 10
6.3078475
 20
-2.225594880637931
 30
0.0
 40
0.5
  1
131442
100
AcDbAttributeDefinition
  3

  2
PN
 70
     8
280
     0
  0
ATTDEF
  5
E3
330
D7
100
AcDbEntity
  8
AM_6
100
AcDbText
 10
6.3078475
 20
-2.725594880637931
 30
0.0
 40
0.5
  1
INS-SXV-104S
100
AcDbAttributeDefinition
  3

  2
DESCRIPTION
 70
     8
280
     0
  0
ATTDEF
  5
E4
330
D7
100
AcDbEntity
  8
AM_6
100
AcDbText
 10
6.3078475
 20
-3.225594880637931
 30
0.0
 40
0.5
  1
0.7
100
AcDbAttributeDefinition
  3

  2
WEIGHT
 70
     8
280
     0
  0
ATTDEF
  5
E5
330
D7
100
AcDbEntity
  8
AM_6
100
AcDbText
 10
6.3078475
 20
-3.725594880637931
 30
0.0
 40
0.5
  1
1.41
100
AcDbAttributeDefinition
  3

  2
A
 70
     8
280
     0
  0
ATTDEF
  5
E6
330
D7
100
AcDbEntity
  8
AM_6
100
AcDbText
 10
6.3078475
 20
-4.225594880637931
 30
0.0
 40
0.5
  1
0.69
100
AcDbAttributeDefinition
  3

  2
C
 70
     8
280
     0
  0
ATTDEF
  5
E7
330
D7
100
AcDbEntity
  8
AM_6
100
AcDbText
 10
6.3078475
 20
-4.725594880637931
 30
0.0
 40
0.5
  1
2.4409
100
AcDbAttributeDefinition
  3

  2
D
 70
     8
280
     0
  0
ATTDEF
  5
E8
330
D7
100
AcDbEntity
  8
AM_6
100
AcDbText
 10
6.3078475
 20
-5.225594880637931
 30
0.0
 40
0.5
  1
0.16
100
AcDbAttributeDefinition
  3

  2
J
 70
     8
280
     0
  0
ATTDEF
  5
E9
330
D7
100
AcDbEntity
  8
AM_6
100
AcDbText
 10
6.3078475
 20
-5.725594880637931
 30
0.0
 40
0.5
  1
1.75
100
AcDbAttributeDefinition
  3

  2
L
 70
     8
280
     0
  0
ATTDEF
  5
EA
330
D7
100
AcDbEntity
  8
AM_6
100
AcDbText
 10
6.3078475
 20
-6.225594880637931
 30
0.0
 40
0.5
  1
5/16 - 24
100
AcDbAttributeDefinition
  3

  2
N
 70
     8
280
     0
  0
ATTDEF
  5
EB
330
D7
100
AcDbEntity
  8
AM_6
100
AcDbText
 10
6.3078475
 20
-6.725594880637931
 30
0.0
 40
0.5
  1
0.35
100
AcDbAttributeDefinition
  3

  2
W
 70
     8
280
     0
  0
ATTDEF
  5
EC
330
D7
100
AcDbEntity
  8
AM_6
100
AcDbText
 10
6.3078475
 20
-7.225594880637931
 30
0.0
 40
0.5
  1
1.05
100
AcDbAttributeDefinition
  3

  2
Y
 70
     8
280
     0
  0
ATTDEF
  5
ED
330
D7
100
AcDbEntity
  8
AM_6
100
AcDbText
 10
6.3078475
 20
-7.725594880637931
 30
0.0
 40
0.5
  1
1.57
100
AcDbAttributeDefinition
  3

  2
Z
 70
     8
280
     0
  0
ATTDEF
  5
EE
330
D7
100
AcDbEntity
  8
AM_6
100
AcDbText
 10
6.3078475
 20
-8.225594880637932
 30
0.0
 40
0.5
  1
baldor
100
AcDbAttributeDefinition
  3

  2
COMPANY
 70
     8
280
     0
  0
LINE
  5
EF
330
D7
100
AcDbEntity
  8
AM_9
100
AcDbLine
 10
1.204825
 20
-0.0756912473685133
 30
0.0
 11
1.204825
 21
0.0756912473685103
 31
0.0
  0
ARC
  5
F0
330
D7
100
AcDbEntity
  8
AM_9
100
AcDbCircle
 10
1.204825
 20
0.0000000000000001
 30
0.0
 40
0.0781249999999997
100
AcDbArc
 50
271.8847174923069
 51
88.11528250769192
  0
ELLIPSE
  5
F1
330
D7
100
AcDbEntity
  8
AM_9
100
AcDbEllipse
 10
1.207349893199521
 20
0.0
 30
0.0
 11
-1.434370053226687E-17
 21
-0.07808346886766869
 31
0.0
210
0.0
220
0.0
230
1.0
 40
0.1316436305157655
 41
6.035014208243886
 42
9.672949059705093
  0
LWPOLYLINE
  5
F2
330
D7
100
AcDbEntity
  8
AM_9
100
AcDbPolyline
 90
        9
 70
     0
 43
0.0
 10
1.204825
 20
0.0756912473685103
 10
1.201634029813447
 20
0.0649980109454741
 10
1.199077679073687
 20
0.0468441240244885
 10
1.19747401606933
 20
0.0234157502431559
 10
1.19699933886467
 20
-0.0024928732639477
 10
1.197687048124179
 20
-0.0279900788275163
 10
1.199449850976959
 20
-0.0503529188756336
 10
1.20209756049402
 20
-0.0671897414654932
 10
1.204825
 20
-0.0756912473685133
  0
ARC
  5
F3
330
D7
100
AcDbEntity
  8
AM_9
100
AcDbCircle
 10
-0.0000000000022753
 20
0.0000000000000237
 30
0.0
 40
1.220450000002263
100
AcDbArc
 50
359.1503891458062
 51
0.0
  0
ARC
  5
F4
330
D7
100
AcDbEntity
  8
AM_9
100
AcDbCircle
 10
-0.0000000001688583
 20
0.0000000000292244
 30
0.0
 40
1.220450000171353
100
AcDbArc
 50
349.3982697562669
 51
350.4529288074127
  0
ARC
  5
F5
330
D7
100
AcDbEntity
  8
AM_9
100
AcDbCircle
 10
0.0000000000991309
 20
0.0000000000167466
 30
0.0
 40
1.22045000010052
100
AcDbArc
 50
189.2430092173936
 51
190.6017302437596
  0
ARC
  5
F6
330
D7
100
AcDbEntity
  8
AM_9
100
AcDbCircle
 10
0.0000000000750064
 20
-0.000000000003273
 30
0.0
 40
1.220450000075065
100
AcDbArc
 50
176.4383843189681
 51
177.8446545418854
  0
ARC
  5
F7
330
D7
100
AcDbEntity
  8
AM_9
100
AcDbCircle
 10
-0.0000000000001017
 20
0.0000000000000101
 30
0.0
 40
1.22045000000009
100
AcDbArc
 50
0.1449129068793392
 51
3.61741580715922
  0
CIRCLE
  5
F8
330
D7
100
AcDbEntity
  8
AM_9
100
AcDbCircle
 10
0.0
 20
0.0
 30
0.0
 40
1.162333333333333
  0
CIRCLE
  5
F9
330
D7
100
AcDbEntity
  8
AM_9
100
AcDbCircle
 10
0.0
 20
0.0
 30
0.0
 40
0.7849999999999999
  0
CIRCLE
  5
FA
330
D7
100
AcDbEntity
  8
AM_9
100
AcDbCircle
 10
0.0
 20
0.0
 30
0.0
 40
0.7476190476190476
  0
CIRCLE
  5
FB
330
D7
100
AcDbEntity
  8
AM_9
100
AcDbCircle
 10
0.0
 20
0.0
 30
0.0
 40
0.6375000000000003
  0
LINE
  5
FC
330
D7
100
AcDbEntity
  8
AM_9
100
AcDbLine
 10
-0.1196114034662633
 20
0.8667860821222445
 30
0.0
 11
0.1196114034662633
 21
0.8667860821222445
 31
0.0
  0
LINE
  5
FD
330
D7
100
AcDbEntity
  8
AM_9
100
AcDbLine
 10
0.13935
 20
0.6093767572012554
 30
0.0
 11
0.13935
 21
0.8638895182993668
 31
0.0
  0
LINE
  5
FE
330
D7
100
AcDbEntity
  8
AM_9
100
AcDbLine
 10
-0.13935
 20
0.8638895182993668
 30
0.0
 11
-0.13935
 21
0.6093289099746221
 31
0.0
  0
LINE
  5
FF
330
D7
100
AcDbEntity
  8
AM_5
100
AcDbLine
 10
-0.15625
 20
0.6051536478449089
 30
0.0
 11
-0.15625
 21
0.8609360821222443
 31
0.0
  0
LINE
  5
100
330
D7
100
AcDbEntity
  8
AM_5
100
AcDbLine
 10
0.15625
 20
0.6051536478449089
 30
0.0
 11
0.15625
 21
0.8609360821222443
 31
0.0
  0
LINE
  5
101
330
D7
100
AcDbEntity
  8
AM_7
100
AcDbLine
 10
-1.274405119362069
 20
0.0
 30
0.0
 11
1.3078475
 21
0.0
 31
0.0
  0
LINE
  5
102
330
D7
100
AcDbEntity
  8
AM_7
100
AcDbLine
 10
0.0
 20
-1.274405119362069
 30
0.0
 11
0.0
 21
1.274405119362069
 31
0.0
  0
CIRCLE
  5
103
330
D7
100
AcDbEntity
  8
AM_4
100
AcDbCircle
 10
0.0
 20
0.0
 30
0.0
 40
1.213719161297209
  0
CIRCLE
  5
104
330
D7
100
AcDbEntity
  8
AM_4
100
AcDbCircle
 10
0.0
 20
0.0
 30
0.0
 40
1.205252754612077
  0
CIRCLE
  5
105
330
D7
100
AcDbEntity
  8
AM_4
100
AcDbCircle
 10
0.0
 20
0.0
 30
0.0
 40
1.175912629863813
  0
CIRCLE
  5
106
330
D7
100
AcDbEntity
  8
AM_4
100
AcDbCircle
 10
0.0
 20
0.0
 30
0.0
 40
1.151824944381741
  0
CIRCLE
  5
107
330
D7
100
AcDbEntity
  8
AM_4
100
AcDbCircle
 10
0.0
 20
0.0
 30
0.0
 40
0.625
  0
CIRCLE
  5
108
330
D7
100
AcDbEntity
  8
AM_4
100
AcDbCircle
 10
0.0
 20
0.0
 30
0.0
 40
0.6426776695296637
  0
CIRCLE
  5
109
330
D7
100
AcDbEntity
  8
AM_4
100
AcDbCircle
 10
0.0
 20
0.0
 30
0.0
 40
0.825
  0
CIRCLE
  5
10A
330
D7
100
AcDbEntity
  8
AM_4
100
AcDbCircle
 10
-0.0000000000000001
 20
-0.0000000000000001
 30
0.0
 40
0.875
  0
ENDBLK
  5
DA
330
D7
100
AcDbEntity
  8
0
100
AcDbBlockEnd
  0
BLOCK
  5
10D
330
10B
100
AcDbEntity
  8
0
100
AcDbBlockBegin
  2
4_131990H_0_in_131990_0
 70
     2
 10
0.0
 20
0.0
 30
0.0
  3
4_131990H_0_in_131990_0
  1

  0
ATTDEF
  5
10F
330
10B
100
AcDbEntity
  8
AM_6
100
AcDbText
 10
8.125
 20
1.629371668477685
 30
0.0
 40
0.5
  1
P2B-SXVB -I-Housing
100
AcDbAttributeDefinition
  3

  2
NN
 70
     8
280
     0
  0
ATTDEF
  5
110
330
10B
100
AcDbEntity
  8
AM_6
100
AcDbText
 10
8.125
 20
1.129371668477685
 30
0.0
 40
0.5
  1
Eccentric Collar Pillow Block Bearings -(Intermediate Duty) -Low Backing Height
100
AcDbAttributeDefinition
  3

  2
NT
 70
     8
280
     0
  0
ATTDEF
  5
111
330
10B
100
AcDbEntity
  8
AM_6
100
AcDbText
 10
8.125
 20
0.6293716684776851
 30
0.0
 40
0.5
  1
131990H
100
AcDbAttributeDefinition
  3

  2
NB
 70
     8
280
     0
  0
ATTDEF
  5
112
330
10B
100
AcDbEntity
  8
AM_6
100
AcDbText
 10
8.125
 20
0.1293716684776851
 30
0.0
 40
0.5
  1
$PN.H
100
AcDbAttributeDefinition
  3

  2
NBSYN
 70
     8
280
     0
  0
ATTDEF
  5
113
330
10B
100
AcDbEntity
  8
AM_6
100
AcDbText
 10
8.125
 20
-0.3706283315223149
 30
0.0
 40
0.5
  1
131990
100
AcDbAttributeDefinition
  3

  2
LINA
 70
     8
280
     0
  0
ATTDEF
  5
114
330
10B
100
AcDbEntity
  8
AM_6
100
AcDbText
 10
8.125
 20
-0.8706283315223149
 30
0.0
 40
0.5
  1
206
100
AcDbAttributeDefinition
  3

  2
SERIES
 70
     8
280
     0
  0
ATTDEF
  5
115
330
10B
100
AcDbEntity
  8
AM_6
100
AcDbText
 10
8.125
 20
-1.370628331522315
 30
0.0
 40
0.5
  1
1-1/4
100
AcDbAttributeDefinition
  3

  2
SS
 70
     8
280
     0
  0
ATTDEF
  5
116
330
10B
100
AcDbEntity
  8
AM_6
100
AcDbText
 10
8.125
 20
-1.870628331522315
 30
0.0
 40
0.5
  1
131990
100
AcDbAttributeDefinition
  3

  2
PN
 70
     8
280
     0
  0
ATTDEF
  5
117
330
10B
100
AcDbEntity
  8
AM_6
100
AcDbText
 10
8.125
 20
-2.370628331522315
 30
0.0
 40
0.5
  1
P2B-SXVB-104S
100
AcDbAttributeDefinition
  3

  2
DESCRIPTION
 70
     8
280
     0
  0
ATTDEF
  5
118
330
10B
100
AcDbEntity
  8
AM_6
100
AcDbText
 10
8.125
 20
-2.870628331522315
 30
0.0
 40
0.5
  1
2.5
100
AcDbAttributeDefinition
  3

  2
WEIGHT
 70
     8
280
     0
  0
ATTDEF
  5
119
330
10B
100
AcDbEntity
  8
AM_6
100
AcDbText
 10
8.125
 20
-3.370628331522315
 30
0.0
 40
0.5
  1
1.41
100
AcDbAttributeDefinition
  3

  2
A
 70
     8
280
     0
  0
ATTDEF
  5
11A
330
10B
100
AcDbEntity
  8
AM_6
100
AcDbText
 10
8.125
 20
-3.870628331522315
 30
0.0
 40
0.5
  1
6.25
100
AcDbAttributeDefinition
  3

  2
B
 70
     8
280
     0
  0
ATTDEF
  5
11B
330
10B
100
AcDbEntity
  8
AM_6
100
AcDbText
 10
8.125
 20
-4.370628331522315
 30
0.0
 40
0.5
  1
1.75
100
AcDbAttributeDefinition
  3

  2
C
 70
     8
280
     0
  0
ATTDEF
  5
11C
330
10B
100
AcDbEntity
  8
AM_6
100
AcDbText
 10
8.125
 20
-4.870628331522315
 30
0.0
 40
0.5
  1
4.25
100
AcDbAttributeDefinition
  3

  2
DMIN
 70
     8
280
     0
  0
ATTDEF
  5
11D
330
10B
100
AcDbEntity
  8
AM_6
100
AcDbText
 10
8.125
 20
-5.370628331522315
 30
0.0
 40
0.5
  1
5.00
100
AcDbAttributeDefinition
  3

  2
DMAX
 70
     8
280
     0
  0
ATTDEF
  5
11E
330
10B
100
AcDbEntity
  8
AM_6
100
AcDbText
 10
8.125
 20
-5.870628331522315
 30
0.0
 40
0.5
  1
1/2
100
AcDbAttributeDefinition
  3

  2
F
 70
     8
280
     0
  0
ATTDEF
  5
11F
330
10B
100
AcDbEntity
  8
AM_6
100
AcDbText
 10
8.125
 20
-6.370628331522315
 30
0.0
 40
0.5
  1
0.94
100
AcDbAttributeDefinition
  3

  2
G
 70
     8
280
     0
  0
ATTDEF
  5
120
330
10B
100
AcDbEntity
  8
AM_6
100
AcDbText
 10
8.125
 20
-6.870628331522315
 30
0.0
 40
0.5
  1
0.62
100
AcDbAttributeDefinition
  3

  2
H
 70
     8
280
     0
  0
ATTDEF
  5
121
330
10B
100
AcDbEntity
  8
AM_6
100
AcDbText
 10
8.125
 20
-7.370628331522315
 30
0.0
 40
0.5
  1
3.19
100
AcDbAttributeDefinition
  3

  2
J
 70
     8
280
     0
  0
ATTDEF
  5
122
330
10B
100
AcDbEntity
  8
AM_6
100
AcDbText
 10
8.125
 20
-7.870628331522315
 30
0.0
 40
0.5
  1
1.75
100
AcDbAttributeDefinition
  3

  2
L
 70
     8
280
     0
  0
ATTDEF
  5
123
330
10B
100
AcDbEntity
  8
AM_6
100
AcDbText
 10
8.125
 20
-8.370628331522315
 30
0.0
 40
0.5
  1
1.56
100
AcDbAttributeDefinition
  3

  2
M
 70
     8
280
     0
  0
ATTDEF
  5
124
330
10B
100
AcDbEntity
  8
AM_6
100
AcDbText
 10
8.125
 20
-8.870628331522315
 30
0.0
 40
0.5
  1
0.35
100
AcDbAttributeDefinition
  3

  2
R
 70
     8
280
     0
  0
ATTDEF
  5
125
330
10B
100
AcDbEntity
  8
AM_6
100
AcDbText
 10
8.125
 20
-9.370628331522315
 30
0.0
 40
0.5
  1
1.05
100
AcDbAttributeDefinition
  3

  2
S
 70
     8
280
     0
  0
ATTDEF
  5
126
330
10B
100
AcDbEntity
  8
AM_6
100
AcDbText
 10
8.125
 20
-9.870628331522315
 30
0.0
 40
0.5
  1
2.88
100
AcDbAttributeDefinition
  3

  2
U
 70
     8
280
     0
  0
ATTDEF
  5
127
330
10B
100
AcDbEntity
  8
AM_6
100
AcDbText
 10
8.125
 20
-10.37062833152232
 30
0.0
 40
0.5
  1
5.76
100
AcDbAttributeDefinition
  3

  2
V
 70
     8
280
     0
  0
ATTDEF
  5
128
330
10B
100
AcDbEntity
  8
AM_6
100
AcDbText
 10
8.125
 20
-10.87062833152232
 30
0.0
 40
0.5
  1
0.56
100
AcDbAttributeDefinition
  3

  2
W
 70
     8
280
     0
  0
ATTDEF
  5
129
330
10B
100
AcDbEntity
  8
AM_6
100
AcDbText
 10
8.125
 20
-11.37062833152232
 30
0.0
 40
0.5
  1
0.12
100
AcDbAttributeDefinition
  3

  2
X
 70
     8
280
     0
  0
ATTDEF
  5
12A
330
10B
100
AcDbEntity
  8
AM_6
100
AcDbText
 10
8.125
 20
-11.87062833152232
 30
0.0
 40
0.5
  1
2250
100
AcDbAttributeDefinition
  3

  2
CAPS
 70
     8
280
     0
  0
ATTDEF
  5
12B
330
10B
100
AcDbEntity
  8
AM_6
100
AcDbText
 10
8.125
 20
-12.37062833152232
 30
0.0
 40
0.5
  1
4368
100
AcDbAttributeDefinition
  3

  2
CAPD
 70
     8
280
     0
  0
ATTDEF
  5
12C
330
10B
100
AcDbEntity
  8
AM_6
100
AcDbText
 10
8.125
 20
-12.87062833152232
 30
0.0
 40
0.5
  1
baldor
100
AcDbAttributeDefinition
  3

  2
COMPANY
 70
     8
280
     0
  0
LWPOLYLINE
  5
12D
330
10B
100
AcDbEntity
  8
AM_9
100
AcDbPolyline
 90
        7
 70
     0
 43
0.0
 10
-1.28295
 20
-0.4015238095238088
 10
-1.282632891507645
 20
-0.3588589983120982
 10
-1.281683979417684
 20
-0.3165188920754259
 10
-1.280110485524089
 20
-0.2748257245879084
 10
-1.277924385065492
 20
-0.2340968060291484
 10
-1.275142315586388
 20
-0.1946421080621715
 10
-1.272458307617153
 20
-0.1637392985086033
  0
LWPOLYLINE
  5
12E
330
10B
100
AcDbEntity
  8
AM_9
100
AcDbPolyline
 90
        7
 70
     0
 43
0.0
 10
1.272458307617153
 20
-0.1637392985086031
 10
1.275709090100617
 20
-0.2019374386761675
 10
1.278380763295886
 20
-0.2416545516394282
 10
1.280452994156746
 20
-0.2825883661868862
 10
1.281910011755097
 20
-0.3244273512733223
 10
1.282740727307244
 20
-0.366853086959159
 10
1.28295
 20
-0.4015238095238023
  0
LINE
  5
12F
330
10B
100
AcDbEntity
  8
AM_9
100
AcDbLine
 10
-1.120417646460461
 20
-0.6250000000000006
 30
0.0
 11
-1.04827153090218
 21
-0.625
 31
0.0
  0
ARC
  5
130
330
10B
100
AcDbEntity
  8
AM_9
100
AcDbCircle
 10
-0.0000000000000009
 20
-0.0000000000000003
 30
0.0
 40
1.282949999999999
100
AcDbArc
 50
150.8460113719341
 51
209.1539886280658
  0
LINE
  5
131
330
10B
100
AcDbEntity
  8
AM_9
100
AcDbLine
 10
1.120417646460462
 20
0.6249999999999994
 30
0.0
 11
1.04827153090218
 21
0.625
 31
0.0
  0
LINE
  5
132
330
10B
100
AcDbEntity
  8
AM_9
100
AcDbLine
 10
1.04827153090218
 20
-0.625
 30
0.0
 11
1.120417646460462
 21
-0.625
 31
0.0
  0
ARC
  5
133
330
10B
100
AcDbEntity
  8
AM_9
100
AcDbCircle
 10
0.0000000000000009
 20
-0.0000000000000001
 30
0.0
 40
1.282949999999999
100
AcDbArc
 50
330.8460113719341
 51
29.15398862806583
  0
LINE
  5
134
330
10B
100
AcDbEntity
  8
AM_9
100
AcDbLine
 10
-1.04827153090218
 20
0.625
 30
0.0
 11
-1.120417646460461
 21
0.625
 31
0.0
  0
LINE
  5
135
330
10B
100
AcDbEntity
  8
AM_9
100
AcDbLine
 10
-2.5
 20
-0.9400000000000001
 30
0.0
 11
-2.5
 21
-1.353333333333333
 31
0.0
  0
LINE
  5
136
330
10B
100
AcDbEntity
  8
AM_9
100
AcDbLine
 10
-2.125
 20
-0.9400000000000001
 30
0.0
 11
-2.125
 21
-1.353333333333333
 31
0.0
  0
LINE
  5
137
330
10B
100
AcDbEntity
  8
AM_9
100
AcDbLine
 10
-1.8425
 20
-1.353333333333333
 30
0.0
 11
-1.8425
 21
-0.9400000000000001
 31
0.0
  0
LINE
  5
138
330
10B
100
AcDbEntity
  8
AM_9
100
AcDbLine
 10
2.125
 20
-0.9400000000000001
 30
0.0
 11
2.125
 21
-1.353333333333333
 31
0.0
  0
LINE
  5
139
330
10B
100
AcDbEntity
  8
AM_9
100
AcDbLine
 10
1.8425
 20
-0.9400000000000001
 30
0.0
 11
1.8425
 21
-1.353333333333333
 31
0.0
  0
LINE
  5
13A
330
10B
100
AcDbEntity
  8
AM_9
100
AcDbLine
 10
2.5
 20
-0.9400000000000001
 30
0.0
 11
2.5
 21
-1.353333333333333
 31
0.0
  0
ARC
  5
13B
330
10B
100
AcDbEntity
  8
AM_9
100
AcDbCircle
 10
-1.736124548504186
 20
-0.7333333333333293
 30
0.0
 40
0.6200000000000042
100
AcDbArc
 50
270.0
 51
285.0
  0
LINE
  5
13C
330
10B
100
AcDbEntity
  8
AM_9
100
AcDbLine
 10
1.575656740540623
 20
-1.332207345632556
 30
0.0
 11
1.066889264383974
 21
-1.195883511261161
 31
0.0
  0
LINE
  5
13D
330
10B
100
AcDbEntity
  8
AM_9
100
AcDbLine
 10
2.7825
 20
-1.56
 30
0.0
 11
2.7825
 21
-0.9400000000000001
 31
0.0
  0
LINE
  5
13E
330
10B
100
AcDbEntity
  8
AM_9
100
AcDbLine
 10
-1.736124548504187
 20
-1.353333333333333
 30
0.0
 11
-2.6585
 21
-1.353333333333333
 31
0.0
  0
ARC
  5
13F
330
10B
100
AcDbEntity
  8
AM_9
100
AcDbCircle
 10
0.9866553604021921
 20
-1.495320517410772
 30
0.0
 40
0.3099999999999992
100
AcDbArc
 50
74.99999999999996
 51
123.4179718787691
  0
ARC
  5
140
330
10B
100
AcDbEntity
  8
AM_9
100
AcDbCircle
 10
2.658499999999999
 20
-1.477333333333334
 30
0.0
 40
0.1240000000000006
100
AcDbArc
 50
0.0
 51
90.0
  0
ARC
  5
141
330
10B
100
AcDbEntity
  8
AM_9
100
AcDbCircle
 10
0.0000000000000001
 20
0.0000000000000022
 30
0.0
 40
1.481500000000002
100
AcDbArc
 50
236.5820269286671
 51
303.4179733208738
  0
ARC
  5
142
330
10B
100
AcDbEntity
  8
AM_9
100
AcDbCircle
 10
-2.658499999999999
 20
-1.477333333333333
 30
0.0
 40
0.1239999999999999
100
AcDbArc
 50
90.0
 51
180.0
  0
ARC
  5
143
330
10B
100
AcDbEntity
  8
AM_9
100
AcDbCircle
 10
-0.9866553604021926
 20
-1.495320517410772
 30
0.0
 40
0.3099999999999995
100
AcDbArc
 50
56.58202692866699
 51
105.0
  0
LINE
  5
144
330
10B
100
AcDbEntity
  8
AM_9
100
AcDbLine
 10
-2.7825
 20
-0.9400000000000001
 30
0.0
 11
-2.7825
 21
-1.56
 31
0.0
  0
LINE
  5
145
330
10B
100
AcDbEntity
  8
AM_9
100
AcDbLine
 10
-1.066889264383974
 20
-1.195883511261161
 30
0.0
 11
-1.575656740540623
 21
-1.332207345632556
 31
0.0
  0
ARC
  5
146
330
10B
100
AcDbEntity
  8
AM_9
100
AcDbCircle
 10
1.736124548504184
 20
-0.7333333333333477
 30
0.0
 40
0.6199999999999858
100
AcDbArc
 50
254.9999999999998
 51
270.0
  0
LINE
  5
147
330
10B
100
AcDbEntity
  8
AM_9
100
AcDbLine
 10
2.6585
 20
-1.353333333333334
 30
0.0
 11
1.736124548504185
 21
-1.353333333333333
 31
0.0
  0
LINE
  5
148
330
10B
100
AcDbEntity
  8
AM_9
100
AcDbLine
 10
-2.82
 20
-1.0025
 30
0.0
 11
-2.82
 21
-0.9400000000000001
 31
0.0
  0
LINE
  5
149
330
10B
100
AcDbEntity
  8
AM_9
100
AcDbLine
 10
-2.94
 20
-0.9400000000000001
 30
0.0
 11
-2.94
 21
-1.0025
 31
0.0
  0
LINE
  5
14A
330
10B
100
AcDbEntity
  8
AM_9
100
AcDbLine
 10
-2.94
 20
-1.0025
 30
0.0
 11
-2.82
 21
-1.0025
 31
0.0
  0
LINE
  5
14B
330
10B
100
AcDbEntity
  8
AM_9
100
AcDbLine
 10
2.94
 20
-1.0025
 30
0.0
 11
2.94
 21
-0.9400000000000001
 31
0.0
  0
LINE
  5
14C
330
10B
100
AcDbEntity
  8
AM_9
100
AcDbLine
 10
2.82
 20
-0.9400000000000001
 30
0.0
 11
2.82
 21
-1.0025
 31
0.0
  0
LINE
  5
14D
330
10B
100
AcDbEntity
  8
AM_9
100
AcDbLine
 10
2.82
 20
-1.0025
 30
0.0
 11
2.94
 21
-1.0025
 31
0.0
  0
LINE
  5
14E
330
10B
100
AcDbEntity
  8
AM_9
100
AcDbLine
 10
-1.475
 20
-0.9400000000000001
 30
0.0
 11
-1.475
 21
0.6930809454270942
 31
0.0
  0
LINE
  5
14F
330
10B
100
AcDbEntity
  8
AM_9
100
AcDbLine
 10
1.475
 20
0.693080945427093
 30
0.0
 11
1.475
 21
-0.9400000000000001
 31
0.0
  0
LINE
  5
150
330
10B
100
AcDbEntity
  8
AM_7
100
AcDbLine
 10
-2.88
 20
0.050125
 30
0.0
 11
-2.88
 21
-1.052625
 31
0.0
  0
LINE
  5
151
330
10B
100
AcDbEntity
  8
AM_7
100
AcDbLine
 10
2.88
 20
0.050125
 30
0.0
 11
2.88
 21
-1.052625
 31
0.0
  0
ARC
  5
152
330
10B
100
AcDbEntity
  8
AM_4
100
AcDbCircle
 10
0.0
 20
0.0
 30
0.0
 40
1.22045
100
AcDbArc
 50
190.601730243843
 51
349.398269756157
  0
LWPOLYLINE
  5
153
330
10B
100
AcDbEntity
  8
AM_4
100
AcDbPolyline
 90
        9
 70
     0
 43
0.0
 10
1.22095
 20
-1.4825
 10
1.239615708641326
 20
-1.485376474048674
 10
1.254985301907471
 20
-1.492677242218623
 10
1.264552042106757
 20
-1.500423253967981
 10
1.271991147715211
 20
-1.509303391641858
 10
1.278921678257533
 20
-1.522514928506287
 10
1.282424465544035
 20
-1.536444561708052
 10
1.282949548506869
 20
-1.544263388621504
 10
1.28295
 20
-1.5445
  0
LWPOLYLINE
  5
154
330
10B
100
AcDbEntity
  8
AM_4
100
AcDbPolyline
 90
        5
 70
     0
 43
0.0
 10
1.199616666666667
 20
-0.2245396525239052
 10
1.212148683309832
 20
-0.1421047924956852
 10
1.219041652388548
 20
-0.0586144371447756
 10
1.220420352648192
 20
0.0085067821214715
 10
1.218092786120021
 20
0.0758166663891563
  0
LINE
  5
155
330
10B
100
AcDbEntity
  8
AM_4
100
AcDbLine
 10
1.199616666666667
 20
-0.2245396525239052
 30
0.0
 11
1.199616666666667
 21
-1.4825
 31
0.0
  0
LWPOLYLINE
  5
156
330
10B
100
AcDbEntity
  8
AM_4
100
AcDbPolyline
 90
        9
 70
     0
 43
0.0
 10
-1.28295
 20
-1.5445
 10
-1.282949548506869
 20
-1.544263388621486
 10
-1.282424465544036
 20
-1.536444561708052
 10
-1.278921678257534
 20
-1.522514928506288
 10
-1.271991147715211
 20
-1.509303391641859
 10
-1.264552042106757
 20
-1.500423253967981
 10
-1.254985301907471
 20
-1.492677242218623
 10
-1.239615708641326
 20
-1.485376474048674
 10
-1.22095
 20
-1.4825
  0
LINE
  5
157
330
10B
100
AcDbEntity
  8
AM_4
100
AcDbLine
 10
-1.22095
 20
-1.4825
 30
0.0
 11
1.22095
 21
-1.4825
 31
0.0
  0
LINE
  5
158
330
10B
100
AcDbEntity
  8
AM_4
100
AcDbLine
 10
-1.199616666666666
 20
-0.2245396525239071
 30
0.0
 11
-1.199616666666666
 21
-1.4825
 31
0.0
  0
LWPOLYLINE
  5
159
330
10B
100
AcDbEntity
  8
AM_4
100
AcDbPolyline
 90
        6
 70
     0
 43
0.0
 10
-1.218092786120021
 20
0.0758166663891525
 10
-1.219041652388548
 20
0.0586144371447761
 10
-1.22038921487818
 20
-0.0119900201273723
 10
-1.217654814049715
 20
-0.0825527487219764
 10
-1.210717511597058
 20
-0.1538086462914955
 10
-1.199616666666666
 20
-0.2245396525239072
  0
LINE
  5
15A
330
10B
100
AcDbEntity
  8
AM_4
100
AcDbLine
 10
1.366283333333334
 20
-0.9399999999999995
 30
0.0
 11
3.125
 21
-0.9400000000000001
 31
0.0
  0
LINE
  5
15B
330
10B
100
AcDbEntity
  8
AM_4
100
AcDbLine
 10
3.125
 20
-0.9400000000000001
 30
0.0
 11
3.125
 21
-1.56
 31
0.0
  0
LINE
  5
15C
330
10B
100
AcDbEntity
  8
AM_4
100
AcDbLine
 10
2.625
 20
-0.9400000000000001
 30
0.0
 11
2.625
 21
-1.126
 31
0.0
  0
LINE
  5
15D
330
10B
100
AcDbEntity
  8
AM_4
100
AcDbLine
 10
-3.125
 20
-0.9400000000000001
 30
0.0
 11
-3.125
 21
-1.56
 31
0.0
  0
LINE
  5
15E
330
10B
100
AcDbEntity
  8
AM_4
100
AcDbLine
 10
-2.625
 20
-0.9400000000000001
 30
0.0
 11
-2.625
 21
-1.126
 31
0.0
  0
LINE
  5
15F
330
10B
100
AcDbEntity
  8
AM_4
100
AcDbLine
 10
-3.125
 20
-0.9400000000000001
 30
0.0
 11
-1.366283333333333
 21
-0.9399999999999995
 31
0.0
  0
LINE
  5
160
330
10B
100
AcDbEntity
  8
AM_4
100
AcDbLine
 10
-3.000999999999999
 20
-1.126
 30
0.0
 11
-2.282893222511431
 21
-1.126
 31
0.0
  0
LWPOLYLINE
  5
161
330
10B
100
AcDbEntity
  8
AM_4
100
AcDbPolyline
 90
       19
 70
     0
 43
0.0
 10
-3.125
 20
-1.250000006128273
 10
-3.124528143097491
 20
-1.239192694004244
 10
-3.123116162437678
 20
-1.228467632004472
 10
-3.120774804045959
 20
-1.217906444326745
 10
-3.117521887073446
 20
-1.20758950798631
 10
-3.113382168182465
 20
-1.197595341098255
 10
-3.108387153133407
 20
-1.188000005307241
 10
-3.102574857006868
 20
-1.178876526912458
 10
-3.095989514885932
 20
-1.170294341093399
 10
-3.088681245200476
 20
-1.162318763466212
 10
-3.080705668295661
 20
-1.155010492992425
 10
-3.072123483127518
 20
-1.148425150023199
 10
-3.063000005307241
 20
-1.142612852994867
 10
-3.053404670009949
 20
-1.137617836997376
 10
-3.043410503531077
 20
-1.133478117118541
 10
-3.033093567512171
 20
-1.13022519912627
 10
-3.022532380065871
 20
-1.12788383969065
 10
-3.011807318205664
 20
-1.126471857970738
 10
-3.001000006128274
 20
-1.126
  0
LINE
  5
162
330
10B
100
AcDbEntity
  8
AM_4
100
AcDbLine
 10
-1.28295
 20
-1.56
 30
0.0
 11
-3.125
 21
-1.56
 31
0.0
  0
LINE
  5
163
330
10B
100
AcDbEntity
  8
AM_4
100
AcDbLine
 10
-1.28295
 20
-0.4015238095238093
 30
0.0
 11
-1.28295
 21
-1.56
 31
0.0
  0
LINE
  5
164
330
10B
100
AcDbEntity
  8
AM_4
100
AcDbLine
 10
2.167593716957577
 20
-1.047629201385043
 30
0.0
 11
1.515630597199856
 21
0.5998032117549944
 31
0.0
  0
LINE
  5
165
330
10B
100
AcDbEntity
  8
AM_4
100
AcDbLine
 10
3.001
 20
-1.126
 30
0.0
 11
2.282893222511431
 21
-1.126
 31
0.0
  0
ARC
  5
166
330
10B
100
AcDbEntity
  8
AM_4
100
AcDbCircle
 10
2.282893222511432
 20
-1.001999999999999
 30
0.0
 40
0.1240000000000015
100
AcDbArc
 50
201.5909341492521
 51
270.0
  0
LINE
  5
167
330
10B
100
AcDbEntity
  8
AM_4
100
AcDbLine
 10
-1.366283333333333
 20
-1.56
 30
0.0
 11
-1.366283333333333
 21
-0.9399999999999995
 31
0.0
  0
LINE
  5
168
330
10B
100
AcDbEntity
  8
AM_4
100
AcDbLine
 10
-1.515630597199856
 20
0.5998032117549953
 30
0.0
 11
-2.167593716957577
 21
-1.047629201385043
 31
0.0
  0
ARC
  5
169
330
10B
100
AcDbEntity
  8
AM_4
100
AcDbCircle
 10
-2.28289322251143
 20
-1.002
 30
0.0
 40
0.1239999999999999
100
AcDbArc
 50
270.0
 51
338.4090658507484
  0
LINE
  5
16A
330
10B
100
AcDbEntity
  8
AM_4
100
AcDbLine
 10
-2.95
 20
-1.56
 30
0.0
 11
-2.95
 21
-1.126
 31
0.0
  0
LINE
  5
16B
330
10B
100
AcDbEntity
  8
AM_4
100
AcDbLine
 10
1.28295
 20
-0.4015238095238099
 30
0.0
 11
1.28295
 21
-1.56
 31
0.0
  0
LWPOLYLINE
  5
16C
330
10B
100
AcDbEntity
  8
AM_4
100
AcDbPolyline
 90
       29
 70
     0
 43
0.0
 10
-1.515630597199856
 20
0.5998032117549955
 10
-1.457586870773186
 20
0.7296166898787572
 10
-1.388450028144915
 20
0.853877344437939
 10
-1.308746242433413
 20
0.971639476820711
 10
-1.219082107574405
 20
1.08200684609292
 10
-1.120140021774854
 20
1.184139489932766
 10
-1.012672994050559
 20
1.277260117251251
 10
-0.8974989133728671
 20
1.360660023846709
 10
-0.7754943240397472
 20
1.433704486071707
 10
-0.6475877546444092
 20
1.495837591463263
 10
-0.5147526514120502
 20
1.546586469572351
 10
-0.3779999696862963
 20
1.58556489079355
 10
-0.2383704799486078
 20
1.612476205805553
 10
-0.0969268469264793
 20
1.627115603251623
 10
0.0452544579267899
 20
1.629371668477685
 10
0.1870913490298476
 20
1.619227231465119
 10
0.3275043619979428
 20
1.596759497504969
 10
0.4654248690186933
 20
1.562139459619062
 10
0.5998032117549918
 20
1.515630597199858
 10
0.7296166898787536
 20
1.457586870773188
 10
0.8538773444379354
 20
1.388450028144917
 10
0.9716394768207074
 20
1.308746242433415
 10
1.082006846092917
 20
1.219082107574408
 10
1.184139489932763
 20
1.120140021774857
 10
1.277260117251248
 20
1.012672994050562
 10
1.360660023846706
 20
0.89749891337287
 10
1.433704486071705
 20
0.7754943240397503
 10
1.495837591463261
 20
0.6475877546444124
 10
1.515630597199856
 20
0.599803211754995
  0
LWPOLYLINE
  5
16D
330
10B
100
AcDbEntity
  8
AM_4
100
AcDbPolyline
 90
       19
 70
     0
 43
0.0
 10
-1.366283333333333
 20
-0.939999999999999
 10
-1.359020354771028
 20
-0.938137214113482
 10
-1.351812651861089
 20
-0.9325630333793085
 10
-1.34471507957479
 20
-0.9233198806786478
 10
-1.337781654722861
 20
-0.91047810198472
 10
-1.331065144854942
 20
-0.8941354309874641
 10
-1.324616666666667
 20
-0.8744162452811435
 10
-1.318485296970746
 20
-0.8514706197757534
 10
-1.312717699192788
 20
-0.8254731845363372
 10
-1.307357768234455
 20
-0.7966217957427476
 10
-1.302446296406752
 20
-0.7651360298846486
 10
-1.298020662975917
 20
-0.7312555126518452
 10
-1.29411454968463
 20
-0.6952380952380951
 10
-1.290757684413613
 20
-0.6573578919378282
 10
-1.287975614934508
 20
-0.6179031939708516
 10
-1.285789514475911
 20
-0.5771742754120917
 10
-1.284216020582316
 20
-0.5354811079245743
 10
-1.283267108492355
 20
-0.4931410016879022
 10
-1.28295
 20
-0.4504761904761916
  0
LWPOLYLINE
  5
16E
330
10B
100
AcDbEntity
  8
AM_4
100
AcDbPolyline
 90
       17
 70
     0
 43
0.0
 10
-1.218092786120022
 20
0.0758166663891526
 10
-1.225104695494277
 20
0.0645408799844447
 10
-1.231922625579061
 20
0.0497180598750252
 10
-1.23849468780965
 20
0.0314610166721904
 10
-1.244770864824151
 20
0.0099086974986177
 10
-1.250703391125822
 20
-0.0147748714831356
 10
-1.256247116607352
 20
-0.0424018334087721
 10
-1.261359850170433
 20
-0.072761930416422
 10
-1.266002680825496
 20
-0.1056241038359294
 10
-1.270140273827839
 20
-0.1407382526848486
 10
-1.273741139596368
 20
-0.1778371370879369
 10
-1.276777873368321
 20
-0.2166384121339678
 10
-1.279227363766064
 20
-0.2568467766909907
 10
-1.281070968688628
 20
-0.2981562208262521
 10
-1.282294657189352
 20
-0.3402523547265586
 10
-1.282889116259863
 20
-0.3828148013945881
 10
-1.28295
 20
-0.4015238095238093
  0
LWPOLYLINE
  5
16F
330
10B
100
AcDbEntity
  8
AM_4
100
AcDbPolyline
 90
       36
 70
     0
 43
0.0
 10
1.218092786120021
 20
0.0758166663891565
 10
1.206849717444769
 20
0.181691942593723
 10
1.18642179370398
 20
0.2861844334065568
 10
1.156964483732037
 20
0.3884988878782812
 10
1.118701975444638
 20
0.4878566312312097
 10
1.071925469633384
 20
0.5835014910445808
 10
1.016990963751925
 20
0.6747055521832693
 10
0.9543165425603809
 20
0.7607746966714921
 10
0.8843791962478689
 20
0.8410538863497233
 10
0.8077111902491518
 20
0.9149321481106116
 10
0.7248960143832875
 20
0.981847223773243
 10
0.6365639421437858
 20
1.041289849207397
 10
0.5433872339367525
 20
1.092807630141081
 10
0.4460750207732779
 20
1.136008485154103
 10
0.345367907354257
 20
1.170563629654425
 10
0.2420323356214261
 20
1.196210078127432
 10
0.1368547516713961
 20
1.212752645614497
 10
0.0306356204259885
 20
1.220065433188366
 10
-0.0758166663891543
 20
1.218092786120021
 10
-0.1816919425937208
 20
1.20684971744477
 10
-0.2861844334065546
 20
1.18642179370398
 10
-0.388498887878279
 20
1.156964483732038
 10
-0.4878566312312076
 20
1.118701975444639
 10
-0.5835014910445788
 20
1.071925469633385
 10
-0.6747055521832674
 20
1.016990963751927
 10
-0.7607746966714903
 20
0.9543165425603822
 10
-0.8410538863497217
 20
0.8843791962478706
 10
-0.9149321481106103
 20
0.8077111902491535
 10
-0.9818472237732415
 20
0.7248960143832893
 10
-1.041289849207395
 20
0.6365639421437876
 10
-1.09280763014108
 20
0.5433872339367545
 10
-1.136008485154102
 20
0.44607502077328
 10
-1.170563629654424
 20
0.3453679073542592
 10
-1.196210078127432
 20
0.2420323356214283
 10
-1.212752645614496
 20
0.1368547516713984
 10
-1.218092786120021
 20
0.0758166663891528
  0
LWPOLYLINE
  5
170
330
10B
100
AcDbEntity
  8
AM_4
100
AcDbPolyline
 90
       17
 70
     0
 43
0.0
 10
1.28295
 20
-0.4015238095238099
 10
1.282632891507645
 20
-0.3588589983120993
 10
1.281683979417684
 20
-0.316518892075427
 10
1.280110485524089
 20
-0.2748257245879095
 10
1.277924385065492
 20
-0.2340968060291495
 10
1.275142315586388
 20
-0.1946421080621726
 10
1.27178545031537
 20
-0.1567619047619055
 10
1.267879337024083
 20
-0.1207444873481554
 10
1.263453703593248
 20
-0.086863970115352
 10
1.258542231765546
 20
-0.0553782042572528
 10
1.253182300807212
 20
-0.026526815463663
 10
1.247414703029254
 20
-0.0005293802242468
 10
1.241283333333334
 20
0.0224162452811435
 10
1.234834855145058
 20
0.042135430987464
 10
1.228118345277139
 20
0.0584781019847201
 10
1.22118492042521
 20
0.0713198806786479
 10
1.218092786120018
 20
0.0758166663891563
  0
LINE
  5
171
330
10B
100
AcDbEntity
  8
AM_4
100
AcDbLine
 10
2.949999999999999
 20
-1.126
 30
0.0
 11
2.95
 21
-1.56
 31
0.0
  0
LINE
  5
172
330
10B
100
AcDbEntity
  8
AM_4
100
AcDbLine
 10
3.125
 20
-1.56
 30
0.0
 11
1.28295
 21
-1.56
 31
0.0
  0
LWPOLYLINE
  5
173
330
10B
100
AcDbEntity
  8
AM_4
100
AcDbPolyline
 90
       19
 70
     0
 43
0.0
 10
3.001
 20
-1.126
 10
3.01180731210071
 20
-1.126471857436623
 10
3.0225323740307
 20
-1.127883838626486
 10
3.033093561592712
 20
-1.130225197540156
 10
3.043410497772383
 20
-1.133478115022547
 10
3.053404664455847
 20
-1.137617834407455
 10
3.063
 20
-1.14261284993073
 10
3.07212347810753
 20
-1.148425146508165
 10
3.080705663601131
 20
-1.155010489053247
 10
3.088681240867132
 20
-1.162318759132868
 10
3.095989510946753
 20
-1.170294336398869
 10
3.102574853491835
 20
-1.17887652189247
 10
3.10838715006927
 20
-1.188
 10
3.113382165592545
 20
-1.197595335544153
 10
3.117521884977453
 20
-1.207589502227617
 10
3.120774802459845
 20
-1.217906438407287
 10
3.123116161373514
 20
-1.2284676259693
 10
3.124528142563376
 20
-1.23919268789929
 10
3.125
 20
-1.25
  0
LINE
  5
174
330
10B
100
AcDbEntity
  8
AM_4
100
AcDbLine
 10
1.366283333333334
 20
-1.56
 30
0.0
 11
1.366283333333334
 21
-0.9399999999999995
 31
0.0
  0
LWPOLYLINE
  5
175
330
10B
100
AcDbEntity
  8
AM_4
100
AcDbPolyline
 90
       19
 70
     0
 43
0.0
 10
1.28295
 20
-0.4504761904761913
 10
1.283267108492355
 20
-0.4931410016879022
 10
1.284216020582316
 20
-0.5354811079245746
 10
1.285789514475911
 20
-0.5771742754120923
 10
1.287975614934508
 20
-0.6179031939708525
 10
1.290757684413613
 20
-0.6573578919378295
 10
1.29411454968463
 20
-0.6952380952380967
 10
1.298020662975918
 20
-0.731255512651847
 10
1.302446296406752
 20
-0.7651360298846503
 10
1.307357768234455
 20
-0.7966217957427496
 10
1.312717699192789
 20
-0.8254731845363394
 10
1.318485296970747
 20
-0.8514706197757557
 10
1.324616666666667
 20
-0.8744162452811459
 10
1.331065144854942
 20
-0.8941354309874665
 10
1.337781654722861
 20
-0.9104781019847226
 10
1.34471507957479
 20
-0.9233198806786502
 10
1.35181265186109
 20
-0.932563033379311
 10
1.359020354771029
 20
-0.9381372141134845
 10
1.366283333333334
 20
-0.9400000000000015
  0
ENDBLK
  5
10E
330
10B
100
AcDbEntity
  8
0
100
AcDbBlockEnd
  0
ENDSEC
  0
SECTION
  2
ENTITIES
  0
INSERT
  5
6F
330
1F
100
AcDbEntity
  8
0
100
AcDbBlockReference
  2
1_131990_0
 10
0.0
 20
0.0
 30
0.0
  0
POINT
  5
177
330
1F
100
AcDbEntity
  8
ConnectionPoints
100
AcDbPoint
 10
0.0
 20
0.0
 30
1.05
  0
POINT
  5
178
330
1F
100
AcDbEntity
  8
ConnectionPoints
100
AcDbPoint
 10
1.152584053334072
 20
1.152584053334073
 30
0.0
  0
POINT
  5
179
330
1F
100
AcDbEntity
  8
ConnectionPoints
100
AcDbPoint
 10
1.152584053334072
 20
1.152584053334073
 30
0.0
  0
POINT
  5
17A
330
1F
100
AcDbEntity
  8
ConnectionPoints
100
AcDbPoint
 10
0.0
 20
0.0
 30
1.05
  0
ENDSEC
  0
SECTION
  2
OBJECTS
  0
DICTIONARY
  5
C
330
0
100
AcDbDictionary
281
     1
  3
ACAD_DETAILVIEWSTYLE
350
182
  3
ACAD_GROUP
350
D
  3
ACAD_LAYOUT
350
1A
  3
ACAD_MATERIAL
350
43
  3
ACAD_MLEADERSTYLE
350
6B
  3
ACAD_MLINESTYLE
350
17
  3
ACAD_PLOTSETTINGS
350
19
  3
ACAD_PLOTSTYLENAME
350
E
  3
ACAD_SCALELIST
350
47
  3
ACAD_SECTIONVIEWSTYLE
350
183
  3
ACAD_TABLESTYLE
350
69
  3
ACAD_VISUALSTYLE
350
2A
  3
ACDB_RECOMPOSE_DATA
350
17F
  3
AcDbVariableDictionary
350
17B
  0
SUN
  5
6D
330
29
100
AcDbSun
 90
        1
290
     0
 63
     7
421
 16777215
 40
1.0
291
     1
 91
  2455826
 92
 54000000
292
     0
 70
     2
 71
   256
280
     1
  0
DICTIONARY
  5
182
102
{ACAD_REACTORS
330
C
102
}
330
C
100
AcDbDictionary
281
     1
  0
DICTIONARY
  5
D
102
{ACAD_REACTORS
330
C
102
}
330
C
100
AcDbDictionary
281
     1
  0
DICTIONARY
  5
1A
102
{ACAD_REACTORS
330
C
102
}
330
C
100
AcDbDictionary
281
     1
  3
Layout1
350
1E
  3
Layout2
350
26
  3
Model
350
22
  0
DICTIONARY
  5
43
102
{ACAD_REACTORS
330
C
102
}
330
C
100
AcDbDictionary
281
     1
  3
ByBlock
350
45
  3
ByLayer
350
44
  3
Global
350
46
  0
DICTIONARY
  5
6B
102
{ACAD_REACTORS
330
C
102
}
330
C
100
AcDbDictionary
281
     1
  3
Standard
350
6C
  0
DICTIONARY
  5
17
102
{ACAD_REACTORS
330
C
102
}
330
C
100
AcDbDictionary
281
     1
  3
Standard
350
18
  0
DICTIONARY
  5
19
102
{ACAD_REACTORS
330
C
102
}
330
C
100
AcDbDictionary
281
     1
  0
ACDBDICTIONARYWDFLT
  5
E
102
{ACAD_REACTORS
330
C
102
}
330
C
100
AcDbDictionary
281
     1
  3
Normal
350
F
100
AcDbDictionaryWithDefault
340
F
  0
DICTIONARY
  5
47
102
{ACAD_REACTORS
330
C
102
}
330
C
100
AcDbDictionary
281
     1
  3
A0
350
48
  3
A1
350
49
  3
A2
350
4A
  3
A3
350
4B
  3
A4
350
4C
  3
A5
350
4D
  3
A6
350
4E
  3
A7
350
4F
  3
A8
350
50
  3
A9
350
51
  3
B0
350
52
  3
B1
350
53
  3
B2
350
54
  3
B3
350
55
  3
B4
350
56
  3
B5
350
57
  3
B6
350
58
  3
B7
350
59
  3
B8
350
5A
  3
B9
350
5B
  3
C0
350
5C
  3
C1
350
5D
  3
C2
350
5E
  3
C3
350
5F
  3
C4
350
60
  3
C5
350
61
  3
C6
350
62
  3
C7
350
63
  3
C8
350
64
  3
C9
350
65
  3
D0
350
66
  3
D1
350
67
  3
D2
350
68
  0
DICTIONARY
  5
183
102
{ACAD_REACTORS
330
C
102
}
330
C
100
AcDbDictionary
281
     1
  0
DICTIONARY
  5
69
102
{ACAD_REACTORS
330
C
102
}
330
C
100
AcDbDictionary
281
     1
  3
Standard
350
6A
  0
DICTIONARY
  5
2A
102
{ACAD_REACTORS
330
C
102
}
330
C
100
AcDbDictionary
281
     1
  3
2dWireframe
350
2F
  3
Basic
350
32
  3
Brighten
350
36
  3
ColorChange
350
3A
  3
Conceptual
350
34
  3
Dim
350
35
  3
EdgeColorOff
350
3D
  3
Facepattern
350
39
  3
Flat
350
2B
  3
FlatWithEdges
350
2C
  3
Gouraud
350
2D
  3
GouraudWithEdges
350
2E
  3
Hidden
350
31
  3
JitterOff
350
3B
  3
Linepattern
350
38
  3
OverhangOff
350
3C
  3
Realistic
350
33
  3
Shaded
350
42
  3
Shaded with edges
350
41
  3
Shades of Gray
350
3E
  3
Sketchy
350
3F
  3
Thicken
350
37
  3
Wireframe
350
30
  3
X-Ray
350
40
  0
XRECORD
  5
17F
102
{ACAD_REACTORS
330
C
102
}
330
C
100
AcDbXrecord
280
     1
 90
        1
330
6A
  0
DICTIONARY
  5
17B
102
{ACAD_REACTORS
330
C
102
}
330
C
100
AcDbDictionary
281
     1
  3
CANNOSCALE
350
17C
  3
CMLEADERSTYLE
350
181
  3
CTABLESTYLE
350
180
  0
LAYOUT
  5
1E
102
{ACAD_REACTORS
330
1A
102
}
330
1A
100
AcDbPlotSettings
  1

  2
none_device
  4

  6

 40
0.0
 41
0.0
 42
0.0
 43
0.0
 44
0.0
 45
0.0
 46
0.0
 47
0.0
 48
0.0
 49
0.0
140
0.0
141
0.0
142
1.0
143
1.0
 70
   688
 72
     0
 73
     0
 74
     5
  7

 75
    16
 76
     0
 77
     2
 78
   300
147
1.0
148
0.0
149
0.0
100
AcDbLayout
  1
Layout1
 70
     1
 71
     1
 10
0.0
 20
0.0
 11
12.0
 21
9.0
 12
0.0
 22
0.0
 32
0.0
 14
1.000000000000000E+20
 24
1.000000000000000E+20
 34
1.000000000000000E+20
 15
-1.000000000000000E+20
 25
-1.000000000000000E+20
 35
-1.000000000000000E+20
146
0.0
 13
0.0
 23
0.0
 33
0.0
 16
1.0
 26
0.0
 36
0.0
 17
0.0
 27
1.0
 37
0.0
 76
     0
330
1B
  0
LAYOUT
  5
26
102
{ACAD_REACTORS
330
1A
102
}
330
1A
100
AcDbPlotSettings
  1

  2
none_device
  4

  6

 40
0.0
 41
0.0
 42
0.0
 43
0.0
 44
0.0
 45
0.0
 46
0.0
 47
0.0
 48
0.0
 49
0.0
140
0.0
141
0.0
142
1.0
143
1.0
 70
   688
 72
     0
 73
     0
 74
     5
  7

 75
    16
 76
     0
 77
     2
 78
   300
147
1.0
148
0.0
149
0.0
100
AcDbLayout
  1
Layout2
 70
     1
 71
     2
 10
0.0
 20
0.0
 11
0.0
 21
0.0
 12
0.0
 22
0.0
 32
0.0
 14
0.0
 24
0.0
 34
0.0
 15
0.0
 25
0.0
 35
0.0
146
0.0
 13
0.0
 23
0.0
 33
0.0
 16
1.0
 26
0.0
 36
0.0
 17
0.0
 27
1.0
 37
0.0
 76
     0
330
23
  0
LAYOUT
  5
22
102
{ACAD_REACTORS
330
1A
102
}
330
1A
100
AcDbPlotSettings
  1

  2
none_device
  4
Letter_(8.50_x_11.00_Inches)
  6

 40
6.35
 41
6.35
 42
6.35000508
 43
6.35000508
 44
215.9
 45
279.4
 46
0.0
 47
0.0
 48
0.0
 49
0.0
140
0.0
141
0.0
142
1.0
143
1.0
 70
  1712
 72
     0
 73
     0
 74
     0
  7

 75
     0
 76
     0
 77
     2
 78
   300
147
1.0
148
0.0
149
0.0
100
AcDbLayout
  1
Model
 70
     1
 71
     0
 10
0.0
 20
0.0
 11
12.0
 21
9.0
 12
0.0
 22
0.0
 32
0.0
 14
1.000000000000000E+20
 24
1.000000000000000E+20
 34
1.000000000000000E+20
 15
-1.000000000000000E+20
 25
-1.000000000000000E+20
 35
-1.000000000000000E+20
146
0.0
 13
0.0
 23
0.0
 33
0.0
 16
1.0
 26
0.0
 36
0.0
 17
0.0
 27
1.0
 37
0.0
 76
     0
330
1F
331
29
  0
MATERIAL
  5
45
102
{ACAD_REACTORS
330
43
102
}
330
43
100
AcDbMaterial
  1
ByBlock
 72
     1
 94
      127
  0
MATERIAL
  5
44
102
{ACAD_REACTORS
330
43
102
}
330
43
100
AcDbMaterial
  1
ByLayer
 72
     1
 94
      127
  0
MATERIAL
  5
46
102
{ACAD_REACTORS
330
43
102
}
330
43
100
AcDbMaterial
  1
Global
 72
     1
 94
      127
  0
MLEADERSTYLE
  5
6C
102
{ACAD_REACTORS
330
6B
102
}
330
6B
100
AcDbMLeaderStyle
179
     2
170
     2
171
     1
172
     0
 90
        2
 40
0.0
 41
0.0
173
     1
 91
-1056964608
340
14
 92
       -2
290
     1
 42
0.09
291
     1
 43
0.36
  3
Standard
341
0
 44
0.18
300

342
11
174
     1
178
     6
175
     1
176
     0
 93
-1056964608
 45
0.18
292
     0
297
     0
 46
0.18
343
0
 94
-1056964608
 47
1.0
 49
1.0
140
1.0
293
     1
141
0.0
294
     1
177
     0
142
1.0
295
     0
296
     0
143
0.125
271
     0
272
     9
273
     9
298
     0
  0
MLINESTYLE
  5
18
102
{ACAD_REACTORS
330
17
102
}
330
17
100
AcDbMlineStyle
  2
Standard
 70
     0
  3

 62
   256
 51
90.0
 52
90.0
 71
     2
 49
0.5
 62
   256
  6
BYLAYER
 49
-0.5
 62
   256
  6
BYLAYER
  0
ACDBPLACEHOLDER
  5
F
102
{ACAD_REACTORS
330
E
102
}
330
E
  0
SCALE
  5
48
102
{ACAD_REACTORS
330
47
102
}
330
47
100
AcDbScale
 70
     0
300
1:1
140
1.0
141
1.0
290
     1
  0
SCALE
  5
49
102
{ACAD_REACTORS
330
47
102
}
330
47
100
AcDbScale
 70
     0
300
1:2
140
1.0
141
2.0
290
     0
  0
SCALE
  5
4A
102
{ACAD_REACTORS
330
47
102
}
330
47
100
AcDbScale
 70
     0
300
1:4
140
1.0
141
4.0
290
     0
  0
SCALE
  5
4B
102
{ACAD_REACTORS
330
47
102
}
330
47
100
AcDbScale
 70
     0
300
1:5
140
1.0
141
5.0
290
     0
  0
SCALE
  5
4C
102
{ACAD_REACTORS
330
47
102
}
330
47
100
AcDbScale
 70
     0
300
1:8
140
1.0
141
8.0
290
     0
  0
SCALE
  5
4D
102
{ACAD_REACTORS
330
47
102
}
330
47
100
AcDbScale
 70
     0
300
1:10
140
1.0
141
10.0
290
     0
  0
SCALE
  5
4E
102
{ACAD_REACTORS
330
47
102
}
330
47
100
AcDbScale
 70
     0
300
1:16
140
1.0
141
16.0
290
     0
  0
SCALE
  5
4F
102
{ACAD_REACTORS
330
47
102
}
330
47
100
AcDbScale
 70
     0
300
1:20
140
1.0
141
20.0
290
     0
  0
SCALE
  5
50
102
{ACAD_REACTORS
330
47
102
}
330
47
100
AcDbScale
 70
     0
300
1:30
140
1.0
141
30.0
290
     0
  0
SCALE
  5
51
102
{ACAD_REACTORS
330
47
102
}
330
47
100
AcDbScale
 70
     0
300
1:40
140
1.0
141
40.0
290
     0
  0
SCALE
  5
52
102
{ACAD_REACTORS
330
47
102
}
330
47
100
AcDbScale
 70
     0
300
1:50
140
1.0
141
50.0
290
     0
  0
SCALE
  5
53
102
{ACAD_REACTORS
330
47
102
}
330
47
100
AcDbScale
 70
     0
300
1:100
140
1.0
141
100.0
290
     0
  0
SCALE
  5
54
102
{ACAD_REACTORS
330
47
102
}
330
47
100
AcDbScale
 70
     0
300
2:1
140
2.0
141
1.0
290
     0
  0
SCALE
  5
55
102
{ACAD_REACTORS
330
47
102
}
330
47
100
AcDbScale
 70
     0
300
4:1
140
4.0
141
1.0
290
     0
  0
SCALE
  5
56
102
{ACAD_REACTORS
330
47
102
}
330
47
100
AcDbScale
 70
     0
300
8:1
140
8.0
141
1.0
290
     0
  0
SCALE
  5
57
102
{ACAD_REACTORS
330
47
102
}
330
47
100
AcDbScale
 70
     0
300
10:1
140
10.0
141
1.0
290
     0
  0
SCALE
  5
58
102
{ACAD_REACTORS
330
47
102
}
330
47
100
AcDbScale
 70
     0
300
100:1
140
100.0
141
1.0
290
     0
  0
SCALE
  5
59
102
{ACAD_REACTORS
330
47
102
}
330
47
100
AcDbScale
 70
     0
300
1/128" = 1'-0"
140
0.0078125
141
12.0
290
     0
  0
SCALE
  5
5A
102
{ACAD_REACTORS
330
47
102
}
330
47
100
AcDbScale
 70
     0
300
1/64" = 1'-0"
140
0.015625
141
12.0
290
     0
  0
SCALE
  5
5B
102
{ACAD_REACTORS
330
47
102
}
330
47
100
AcDbScale
 70
     0
300
1/32" = 1'-0"
140
0.03125
141
12.0
290
     0
  0
SCALE
  5
5C
102
{ACAD_REACTORS
330
47
102
}
330
47
100
AcDbScale
 70
     0
300
1/16" = 1'-0"
140
0.0625
141
12.0
290
     0
  0
SCALE
  5
5D
102
{ACAD_REACTORS
330
47
102
}
330
47
100
AcDbScale
 70
     0
300
3/32" = 1'-0"
140
0.09375
141
12.0
290
     0
  0
SCALE
  5
5E
102
{ACAD_REACTORS
330
47
102
}
330
47
100
AcDbScale
 70
     0
300
1/8" = 1'-0"
140
0.125
141
12.0
290
     0
  0
SCALE
  5
5F
102
{ACAD_REACTORS
330
47
102
}
330
47
100
AcDbScale
 70
     0
300
3/16" = 1'-0"
140
0.1875
141
12.0
290
     0
  0
SCALE
  5
60
102
{ACAD_REACTORS
330
47
102
}
330
47
100
AcDbScale
 70
     0
300
1/4" = 1'-0"
140
0.25
141
12.0
290
     0
  0
SCALE
  5
61
102
{ACAD_REACTORS
330
47
102
}
330
47
100
AcDbScale
 70
     0
300
3/8" = 1'-0"
140
0.375
141
12.0
290
     0
  0
SCALE
  5
62
102
{ACAD_REACTORS
330
47
102
}
330
47
100
AcDbScale
 70
     0
300
1/2" = 1'-0"
140
0.5
141
12.0
290
     0
  0
SCALE
  5
63
102
{ACAD_REACTORS
330
47
102
}
330
47
100
AcDbScale
 70
     0
300
3/4" = 1'-0"
140
0.75
141
12.0
290
     0
  0
SCALE
  5
64
102
{ACAD_REACTORS
330
47
102
}
330
47
100
AcDbScale
 70
     0
300
1" = 1'-0"
140
1.0
141
12.0
290
     0
  0
SCALE
  5
65
102
{ACAD_REACTORS
330
47
102
}
330
47
100
AcDbScale
 70
     0
300
1-1/2" = 1'-0"
140
1.5
141
12.0
290
     0
  0
SCALE
  5
66
102
{ACAD_REACTORS
330
47
102
}
330
47
100
AcDbScale
 70
     0
300
3" = 1'-0"
140
3.0
141
12.0
290
     0
  0
SCALE
  5
67
102
{ACAD_REACTORS
330
47
102
}
330
47
100
AcDbScale
 70
     0
300
6" = 1'-0"
140
6.0
141
12.0
290
     0
  0
SCALE
  5
68
102
{ACAD_REACTORS
330
47
102
}
330
47
100
AcDbScale
 70
     0
300
1'-0" = 1'-0"
140
12.0
141
12.0
290
     0
  0
TABLESTYLE
  5
6A
102
{ACAD_REACTORS
330
69
102
}
102
{ACAD_XDICTIONARY
360
17D
102
}
330
69
100
AcDbTableStyle
  3
Standard
 70
     0
 71
     0
 40
0.06
 41
0.06
280
     0
281
     0
  7
Standard
140
0.18
170
     2
 62
     0
 63
   257
283
     0
 90
        4
 91
        0
  1

274
    -2
284
     1
 64
     0
275
    -2
285
     1
 65
     0
276
    -2
286
     1
 66
     0
277
    -2
287
     1
 67
     0
278
    -2
288
     1
 68
     0
279
    -2
289
     1
 69
     0
  7
Standard
140
0.25
170
     5
 62
     0
 63
   257
283
     0
 90
        4
 91
        0
  1

274
    -2
284
     1
 64
     0
275
    -2
285
     1
 65
     0
276
    -2
286
     1
 66
     0
277
    -2
287
     1
 67
     0
278
    -2
288
     1
 68
     0
279
    -2
289
     1
 69
     0
  7
Standard
140
0.18
170
     5
 62
     0
 63
   257
283
     0
 90
        4
 91
        0
  1

274
    -2
284
     1
 64
     0
275
    -2
285
     1
 65
     0
276
    -2
286
     1
 66
     0
277
    -2
287
     1
 67
     0
278
    -2
288
     1
 68
     0
279
    -2
289
     1
 69
     0
  0
VISUALSTYLE
  5
2F
102
{ACAD_REACTORS
330
2A
102
}
330
2A
100
AcDbVisualStyle
  2
2dWireframe
 70
     4
177
     3
291
     0
 70
    58
 90
        0
176
     1
 90
        2
176
     1
 90
        0
176
     1
 90
        0
176
     1
 40
0.6
176
     1
 40
30.0
176
     1
 62
     7
420
 16777215
176
     1
 90
        1
176
     1
 90
        4
176
     1
 62
     7
176
     1
 62
   257
176
     1
 90
        1
176
     1
 90
        1
176
     1
 40
1.0
176
     1
 90
        0
176
     1
 62
   257
176
     1
 40
1.0
176
     1
 90
        1
176
     1
 90
        6
176
     1
 90
        2
176
     1
 62
     7
176
     1
 90
        5
176
     1
 90
        0
176
     1
 90
        0
176
     1
290
     0
176
     1
 90
        1
176
     1
 40
0.0
176
     1
 90
        0
176
     1
290
     1
176
     1
290
     1
176
     1
290
     0
176
     1
290
     0
176
     1
290
     0
176
     1
290
     0
176
     1
290
     0
176
     1
290
     0
176
     1
290
     0
176
     1
 90
       50
176
     1
 40
0.0
176
     1
 40
1.0
176
     1
 90
        0
176
     1
 62
    18
420
        0
176
     1
 90
       50
176
     1
 90
        3
176
     1
 62
     5
420
      255
176
     1
290
     0
176
     1
 90
       50
176
     1
 90
       50
176
     1
 90
       50
176
     1
290
     0
176
     1
 90
       50
176
     1
 62
   256
176
     0
 40
1.0
176
     0
 90
        2
176
     1
  1
strokes_ogs.tif
176
     1
290
     0
176
     1
 40
1.0
176
     1
 40
1.0
176
     1
  0
VISUALSTYLE
  5
32
102
{ACAD_REACTORS
330
2A
102
}
330
2A
100
AcDbVisualStyle
  2
Basic
 70
     7
177
     3
291
     1
 70
    58
 90
        1
176
     1
 90
        0
176
     1
 90
        1
176
     1
 90
        0
176
     1
 40
0.6
176
     1
 40
30.0
176
     1
 62
     7
420
 16777215
176
     1
 90
        0
176
     1
 90
        4
176
     1
 62
     7
176
     1
 62
   257
176
     1
 90
        1
176
     1
 90
        1
176
     1
 40
1.0
176
     1
 90
        8
176
     1
 62
     7
176
     1
 40
1.0
176
     1
 90
        1
176
     1
 90
        6
176
     1
 90
        2
176
     1
 62
     7
176
     1
 90
        5
176
     1
 90
        0
176
     1
 90
        0
176
     1
290
     0
176
     1
 90
        1
176
     1
 40
0.0
176
     1
 90
        0
176
     1
290
     0
176
     1
290
     1
176
     1
290
     1
176
     1
290
     0
176
     1
290
     0
176
     1
290
     0
176
     1
290
     0
176
     1
290
     0
176
     1
290
     0
176
     1
 90
       50
176
     1
 40
0.0
176
     1
 40
1.0
176
     1
 90
        0
176
     1
 62
    18
420
        0
176
     1
 90
       50
176
     1
 90
        3
176
     1
 62
     5
420
      255
176
     1
290
     0
176
     1
 90
       50
176
     1
 90
       50
176
     1
 90
       50
176
     1
290
     0
176
     1
 90
       50
176
     1
 62
   256
176
     0
 40
1.0
176
     0
 90
        2
176
     1
  1
strokes_ogs.tif
176
     1
290
     0
176
     1
 40
1.0
176
     1
 40
1.0
176
     1
  0
VISUALSTYLE
  5
36
102
{ACAD_REACTORS
330
2A
102
}
330
2A
100
AcDbVisualStyle
  2
Brighten
 70
    12
177
     3
291
     1
 70
    58
 90
        2
176
     1
 90
        2
176
     1
 90
        0
176
     1
 90
        0
176
     1
 40
0.6
176
     1
 40
30.0
176
     1
 62
     7
420
 16777215
176
     1
 90
        1
176
     1
 90
        4
176
     1
 62
     7
176
     1
 62
   257
176
     1
 90
        1
176
     1
 90
        1
176
     1
 40
1.0
176
     1
 90
        8
176
     1
 62
     7
176
     1
 40
1.0
176
     1
 90
        1
176
     1
 90
        6
176
     1
 90
        2
176
     1
 62
     7
176
     1
 90
        5
176
     1
 90
        0
176
     1
 90
        0
176
     1
290
     0
176
     1
 90
        1
176
     1
 40
50.0
176
     1
 90
        0
176
     1
290
     0
176
     1
290
     1
176
     1
290
     1
176
     1
290
     0
176
     1
290
     0
176
     1
290
     0
176
     1
290
     0
176
     1
290
     0
176
     1
290
     0
176
     1
 90
       50
176
     1
 40
0.0
176
     1
 40
1.0
176
     1
 90
        0
176
     1
 62
    18
420
        0
176
     1
 90
       50
176
     1
 90
        3
176
     1
 62
     5
420
      255
176
     1
290
     0
176
     1
 90
       50
176
     1
 90
       50
176
     1
 90
       50
176
     1
290
     0
176
     1
 90
       50
176
     1
 62
   256
176
     0
 40
1.0
176
     0
 90
        2
176
     1
  1
strokes_ogs.tif
176
     1
290
     0
176
     1
 40
1.0
176
     1
 40
1.0
176
     1
  0
VISUALSTYLE
  5
3A
102
{ACAD_REACTORS
330
2A
102
}
330
2A
100
AcDbVisualStyle
  2
ColorChange
 70
    16
177
     3
291
     1
 70
    58
 90
        2
176
     1
 90
        2
176
     1
 90
        3
176
     1
 90
        0
176
     1
 40
0.6
176
     1
 40
30.0
176
     1
 62
     8
420
  8421504
176
     1
 90
        1
176
     1
 90
        4
176
     1
 62
     7
176
     1
 62
   257
176
     1
 90
        1
176
     1
 90
        1
176
     1
 40
1.0
176
     1
 90
        8
176
     1
 62
     8
420
  8421504
176
     1
 40
1.0
176
     1
 90
        1
176
     1
 90
        6
176
     1
 90
        2
176
     1
 62
     7
176
     1
 90
        5
176
     1
 90
        0
176
     1
 90
        0
176
     1
290
     0
176
     1
 90
        1
176
     1
 40
0.0
176
     1
 90
        0
176
     1
290
     0
176
     1
290
     1
176
     1
290
     1
176
     1
290
     0
176
     1
290
     0
176
     1
290
     0
176
     1
290
     0
176
     1
290
     0
176
     1
290
     0
176
     1
 90
       50
176
     1
 40
0.0
176
     1
 40
1.0
176
     1
 90
        0
176
     1
 62
    18
420
        0
176
     1
 90
       50
176
     1
 90
        3
176
     1
 62
     5
420
      255
176
     1
290
     0
176
     1
 90
       50
176
     1
 90
       50
176
     1
 90
       50
176
     1
290
     0
176
     1
 90
       50
176
     1
 62
   256
176
     0
 40
1.0
176
     0
 90
        2
176
     1
  1
strokes_ogs.tif
176
     1
290
     0
176
     1
 40
1.0
176
     1
 40
1.0
176
     1
  0
VISUALSTYLE
  5
34
102
{ACAD_REACTORS
330
2A
102
}
330
2A
100
AcDbVisualStyle
  2
Conceptual
 70
     9
177
     3
291
     0
 70
    58
 90
        3
176
     1
 90
        2
176
     1
 90
        0
176
     1
 90
        0
176
     1
 40
0.6
176
     1
 40
30.0
176
     1
 62
     7
420
 16777215
176
     1
 90
        2
176
     1
 90
        2
176
     1
 62
     7
176
     1
 62
   257
176
     1
 90
        1
176
     1
 90
        1
176
     1
 40
179.0
176
     1
 90
        8
176
     1
 62
     7
176
     1
 40
1.0
176
     1
 90
        1
176
     1
 90
        6
176
     1
 90
        2
176
     1
 62
     7
176
     1
 90
        3
176
     1
 90
        0
176
     1
 90
        0
176
     1
290
     0
176
     1
 90
        1
176
     1
 40
0.0
176
     1
 90
        0
176
     1
290
     0
176
     1
290
     1
176
     1
290
     1
176
     1
290
     0
176
     1
290
     0
176
     1
290
     0
176
     1
290
     0
176
     1
290
     0
176
     1
290
     0
176
     1
 90
       50
176
     1
 40
0.0
176
     1
 40
1.0
176
     1
 90
        0
176
     1
 62
    18
420
        0
176
     1
 90
       50
176
     1
 90
        3
176
     1
 62
     5
420
      255
176
     1
290
     0
176
     1
 90
       50
176
     1
 90
       50
176
     1
 90
       50
176
     1
290
     0
176
     1
 90
       50
176
     1
 62
   256
176
     0
 40
1.0
176
     0
 90
        2
176
     1
  1
strokes_ogs.tif
176
     1
290
     0
176
     1
 40
1.0
176
     1
 40
1.0
176
     1
  0
VISUALSTYLE
  5
35
102
{ACAD_REACTORS
330
2A
102
}
330
2A
100
AcDbVisualStyle
  2
Dim
 70
    11
177
     3
291
     1
 70
    58
 90
        2
176
     1
 90
        2
176
     1
 90
        0
176
     1
 90
        0
176
     1
 40
0.6
176
     1
 40
30.0
176
     1
 62
     7
420
 16777215
176
     1
 90
        1
176
     1
 90
        4
176
     1
 62
     7
176
     1
 62
   257
176
     1
 90
        1
176
     1
 90
        1
176
     1
 40
1.0
176
     1
 90
        8
176
     1
 62
     7
176
     1
 40
1.0
176
     1
 90
        1
176
     1
 90
        6
176
     1
 90
        2
176
     1
 62
     7
176
     1
 90
        5
176
     1
 90
        0
176
     1
 90
        0
176
     1
290
     0
176
     1
 90
        1
176
     1
 40
-50.0
176
     1
 90
        0
176
     1
290
     0
176
     1
290
     1
176
     1
290
     1
176
     1
290
     0
176
     1
290
     0
176
     1
290
     0
176
     1
290
     0
176
     1
290
     0
176
     1
290
     0
176
     1
 90
       50
176
     1
 40
0.0
176
     1
 40
1.0
176
     1
 90
        0
176
     1
 62
    18
420
        0
176
     1
 90
       50
176
     1
 90
        3
176
     1
 62
     5
420
      255
176
     1
290
     0
176
     1
 90
       50
176
     1
 90
       50
176
     1
 90
       50
176
     1
290
     0
176
     1
 90
       50
176
     1
 62
   256
176
     0
 40
1.0
176
     0
 90
        2
176
     1
  1
strokes_ogs.tif
176
     1
290
     0
176
     1
 40
1.0
176
     1
 40
1.0
176
     1
  0
VISUALSTYLE
  5
3D
102
{ACAD_REACTORS
330
2A
102
}
330
2A
100
AcDbVisualStyle
  2
EdgeColorOff
 70
    22
177
     3
291
     1
 70
    58
 90
        2
176
     0
 90
        2
176
     0
 90
        0
176
     0
 90
        0
176
     0
 40
0.6
176
     0
 40
30.0
176
     0
 62
     7
420
 16777215
176
     0
 90
        1
176
     0
 90
        4
176
     0
 62
     7
176
     0
 62
   257
176
     0
 90
        1
176
     0
 90
        1
176
     0
 40
1.0
176
     0
 90
        8
176
     2
 62
     7
176
     0
 40
1.0
176
     0
 90
        1
176
     0
 90
        6
176
     0
 90
        2
176
     0
 62
     7
176
     0
 90
        5
176
     0
 90
        0
176
     0
 90
        0
176
     0
290
     0
176
     0
 90
        1
176
     0
 40
0.0
176
     0
 90
        0
176
     0
290
     0
176
     0
290
     1
176
     0
290
     1
176
     0
290
     0
176
     0
290
     0
176
     0
290
     0
176
     0
290
     0
176
     0
290
     0
176
     0
290
     0
176
     0
 90
       50
176
     0
 40
0.0
176
     0
 40
1.0
176
     0
 90
        0
176
     0
 62
    18
420
        0
176
     0
 90
       50
176
     0
 90
        3
176
     0
 62
     5
420
      255
176
     0
290
     0
176
     0
 90
       50
176
     0
 90
       50
176
     0
 90
       50
176
     0
290
     0
176
     0
 90
       50
176
     0
 62
   256
176
     0
 40
1.0
176
     0
 90
        2
176
     0
  1
strokes_ogs.tif
176
     0
290
     0
176
     0
 40
1.0
176
     0
 40
1.0
176
     0
  0
VISUALSTYLE
  5
39
102
{ACAD_REACTORS
330
2A
102
}
330
2A
100
AcDbVisualStyle
  2
Facepattern
 70
    15
177
     3
291
     1
 70
    58
 90
        2
176
     1
 90
        2
176
     1
 90
        0
176
     1
 90
        0
176
     1
 40
0.6
176
     1
 40
30.0
176
     1
 62
     7
420
 16777215
176
     1
 90
        1
176
     1
 90
        4
176
     1
 62
     7
176
     1
 62
   257
176
     1
 90
        1
176
     1
 90
        1
176
     1
 40
1.0
176
     1
 90
        8
176
     1
 62
     7
176
     1
 40
1.0
176
     1
 90
        1
176
     1
 90
        6
176
     1
 90
        2
176
     1
 62
     7
176
     1
 90
        5
176
     1
 90
        0
176
     1
 90
        0
176
     1
290
     0
176
     1
 90
        1
176
     1
 40
0.0
176
     1
 90
        0
176
     1
290
     0
176
     1
290
     1
176
     1
290
     1
176
     1
290
     0
176
     1
290
     0
176
     1
290
     0
176
     1
290
     0
176
     1
290
     0
176
     1
290
     0
176
     1
 90
       50
176
     1
 40
0.0
176
     1
 40
1.0
176
     1
 90
        0
176
     1
 62
    18
420
        0
176
     1
 90
       50
176
     1
 90
        3
176
     1
 62
     5
420
      255
176
     1
290
     0
176
     1
 90
       50
176
     1
 90
       50
176
     1
 90
       50
176
     1
290
     0
176
     1
 90
       50
176
     1
 62
   256
176
     0
 40
1.0
176
     0
 90
        2
176
     1
  1
strokes_ogs.tif
176
     1
290
     0
176
     1
 40
1.0
176
     1
 40
1.0
176
     1
  0
VISUALSTYLE
  5
2B
102
{ACAD_REACTORS
330
2A
102
}
330
2A
100
AcDbVisualStyle
  2
Flat
 70
     0
177
     3
291
     1
 70
    58
 90
        2
176
     1
 90
        1
176
     1
 90
        1
176
     1
 90
        2
176
     1
 40
0.6
176
     1
 40
30.0
176
     1
 62
     7
420
 16777215
176
     1
 90
        0
176
     1
 90
        0
176
     1
 62
     7
176
     1
 62
   257
176
     1
 90
        1
176
     1
 90
        1
176
     1
 40
1.0
176
     1
 90
        8
176
     1
 62
     7
176
     1
 40
1.0
176
     1
 90
        1
176
     1
 90
        6
176
     1
 90
        2
176
     1
 62
     7
176
     1
 90
        5
176
     1
 90
        0
176
     1
 90
        0
176
     1
290
     0
176
     1
 90
       13
176
     1
 40
0.0
176
     1
 90
        0
176
     1
290
     0
176
     1
290
     1
176
     1
290
     1
176
     1
290
     0
176
     1
290
     0
176
     1
290
     0
176
     1
290
     0
176
     1
290
     0
176
     1
290
     0
176
     1
 90
       50
176
     1
 40
0.0
176
     1
 40
1.0
176
     1
 90
        0
176
     1
 62
    18
420
        0
176
     1
 90
       50
176
     1
 90
        3
176
     1
 62
     5
420
      255
176
     1
290
     0
176
     1
 90
       50
176
     1
 90
       50
176
     1
 90
       50
176
     1
290
     0
176
     1
 90
       50
176
     1
 62
   256
176
     0
 40
1.0
176
     0
 90
        2
176
     1
  1
strokes_ogs.tif
176
     1
290
     0
176
     1
 40
1.0
176
     1
 40
1.0
176
     1
  0
VISUALSTYLE
  5
2C
102
{ACAD_REACTORS
330
2A
102
}
330
2A
100
AcDbVisualStyle
  2
FlatWithEdges
 70
     1
177
     3
291
     1
 70
    58
 90
        2
176
     1
 90
        1
176
     1
 90
        1
176
     1
 90
        2
176
     1
 40
0.6
176
     1
 40
30.0
176
     1
 62
     7
420
 16777215
176
     1
 90
        1
176
     1
 90
        0
176
     1
 62
     7
176
     1
 62
   257
176
     1
 90
        1
176
     1
 90
        1
176
     1
 40
1.0
176
     1
 90
        0
176
     1
 62
   257
176
     1
 40
1.0
176
     1
 90
        1
176
     1
 90
        6
176
     1
 90
        2
176
     1
 62
     7
176
     1
 90
        5
176
     1
 90
        0
176
     1
 90
        0
176
     1
290
     0
176
     1
 90
       13
176
     1
 40
0.0
176
     1
 90
        0
176
     1
290
     0
176
     1
290
     1
176
     1
290
     1
176
     1
290
     0
176
     1
290
     0
176
     1
290
     0
176
     1
290
     0
176
     1
290
     0
176
     1
290
     0
176
     1
 90
       50
176
     1
 40
0.0
176
     1
 40
1.0
176
     1
 90
        0
176
     1
 62
    18
420
        0
176
     1
 90
       50
176
     1
 90
        3
176
     1
 62
     5
420
      255
176
     1
290
     0
176
     1
 90
       50
176
     1
 90
       50
176
     1
 90
       50
176
     1
290
     0
176
     1
 90
       50
176
     1
 62
   256
176
     0
 40
1.0
176
     0
 90
        2
176
     1
  1
strokes_ogs.tif
176
     1
290
     0
176
     1
 40
1.0
176
     1
 40
1.0
176
     1
  0
VISUALSTYLE
  5
2D
102
{ACAD_REACTORS
330
2A
102
}
330
2A
100
AcDbVisualStyle
  2
Gouraud
 70
     2
177
     3
291
     1
 70
    58
 90
        2
176
     1
 90
        2
176
     1
 90
        1
176
     1
 90
        2
176
     1
 40
0.6
176
     1
 40
30.0
176
     1
 62
     7
420
 16777215
176
     1
 90
        0
176
     1
 90
        0
176
     1
 62
     7
176
     1
 62
   257
176
     1
 90
        1
176
     1
 90
        1
176
     1
 40
1.0
176
     1
 90
        0
176
     1
 62
     7
176
     1
 40
1.0
176
     1
 90
        1
176
     1
 90
        6
176
     1
 90
        2
176
     1
 62
     7
176
     1
 90
        5
176
     1
 90
        0
176
     1
 90
        0
176
     1
290
     0
176
     1
 90
       13
176
     1
 40
0.0
176
     1
 90
        0
176
     1
290
     0
176
     1
290
     1
176
     1
290
     1
176
     1
290
     0
176
     1
290
     0
176
     1
290
     0
176
     1
290
     0
176
     1
290
     0
176
     1
290
     0
176
     1
 90
       50
176
     1
 40
0.0
176
     1
 40
1.0
176
     1
 90
        0
176
     1
 62
    18
420
        0
176
     1
 90
       50
176
     1
 90
        3
176
     1
 62
     5
420
      255
176
     1
290
     0
176
     1
 90
       50
176
     1
 90
       50
176
     1
 90
       50
176
     1
290
     0
176
     1
 90
       50
176
     1
 62
   256
176
     0
 40
1.0
176
     0
 90
        2
176
     1
  1
strokes_ogs.tif
176
     1
290
     0
176
     1
 40
1.0
176
     1
 40
1.0
176
     1
  0
VISUALSTYLE
  5
2E
102
{ACAD_REACTORS
330
2A
102
}
330
2A
100
AcDbVisualStyle
  2
GouraudWithEdges
 70
     3
177
     3
291
     1
 70
    58
 90
        2
176
     1
 90
        2
176
     1
 90
        1
176
     1
 90
        2
176
     1
 40
0.6
176
     1
 40
30.0
176
     1
 62
     7
420
 16777215
176
     1
 90
        1
176
     1
 90
        0
176
     1
 62
     7
176
     1
 62
   257
176
     1
 90
        1
176
     1
 90
        1
176
     1
 40
1.0
176
     1
 90
        0
176
     1
 62
   257
176
     1
 40
1.0
176
     1
 90
        1
176
     1
 90
        6
176
     1
 90
        2
176
     1
 62
     7
176
     1
 90
        5
176
     1
 90
        0
176
     1
 90
        0
176
     1
290
     0
176
     1
 90
       13
176
     1
 40
0.0
176
     1
 90
        0
176
     1
290
     0
176
     1
290
     1
176
     1
290
     1
176
     1
290
     0
176
     1
290
     0
176
     1
290
     0
176
     1
290
     0
176
     1
290
     0
176
     1
290
     0
176
     1
 90
       50
176
     1
 40
0.0
176
     1
 40
1.0
176
     1
 90
        0
176
     1
 62
    18
420
        0
176
     1
 90
       50
176
     1
 90
        3
176
     1
 62
     5
420
      255
176
     1
290
     0
176
     1
 90
       50
176
     1
 90
       50
176
     1
 90
       50
176
     1
290
     0
176
     1
 90
       50
176
     1
 62
   256
176
     0
 40
1.0
176
     0
 90
        2
176
     1
  1
strokes_ogs.tif
176
     1
290
     0
176
     1
 40
1.0
176
     1
 40
1.0
176
     1
  0
VISUALSTYLE
  5
31
102
{ACAD_REACTORS
330
2A
102
}
330
2A
100
AcDbVisualStyle
  2
Hidden
 70
     6
177
     3
291
     0
 70
    58
 90
        1
176
     1
 90
        2
176
     1
 90
        2
176
     1
 90
        0
176
     1
 40
0.6
176
     1
 40
30.0
176
     1
 62
     7
420
 16777215
176
     1
 90
        2
176
     1
 90
        2
176
     1
 62
     7
176
     1
 62
   257
176
     1
 90
        2
176
     1
 90
        1
176
     1
 40
40.0
176
     1
 90
        0
176
     1
 62
   257
176
     1
 40
1.0
176
     1
 90
        1
176
     1
 90
        6
176
     1
 90
        2
176
     1
 62
     7
176
     1
 90
        3
176
     1
 90
        0
176
     1
 90
        0
176
     1
290
     0
176
     1
 90
        1
176
     1
 40
0.0
176
     1
 90
        0
176
     1
290
     0
176
     1
290
     1
176
     1
290
     1
176
     1
290
     0
176
     1
290
     0
176
     1
290
     0
176
     1
290
     0
176
     1
290
     0
176
     1
290
     0
176
     1
 90
       50
176
     1
 40
0.0
176
     1
 40
1.0
176
     1
 90
        0
176
     1
 62
    18
420
        0
176
     1
 90
       50
176
     1
 90
        3
176
     1
 62
     5
420
      255
176
     1
290
     0
176
     1
 90
       50
176
     1
 90
       50
176
     1
 90
       50
176
     1
290
     0
176
     1
 90
       50
176
     1
 62
   256
176
     0
 40
1.0
176
     0
 90
        2
176
     1
  1
strokes_ogs.tif
176
     1
290
     0
176
     1
 40
1.0
176
     1
 40
1.0
176
     1
  0
VISUALSTYLE
  5
3B
102
{ACAD_REACTORS
330
2A
102
}
330
2A
100
AcDbVisualStyle
  2
JitterOff
 70
    20
177
     3
291
     1
 70
    58
 90
        2
176
     0
 90
        2
176
     0
 90
        0
176
     0
 90
        0
176
     0
 40
0.6
176
     0
 40
30.0
176
     0
 62
     7
420
 16777215
176
     0
 90
        1
176
     0
 90
        4
176
     0
 62
     7
176
     0
 62
   257
176
     0
 90
        1
176
     0
 90
        1
176
     0
 40
1.0
176
     0
 90
       10
176
     2
 62
     7
176
     0
 40
1.0
176
     0
 90
        1
176
     0
 90
        6
176
     0
 90
        2
176
     0
 62
     7
176
     0
 90
        5
176
     0
 90
        0
176
     0
 90
        0
176
     0
290
     0
176
     0
 90
        1
176
     0
 40
0.0
176
     0
 90
        0
176
     0
290
     0
176
     0
290
     1
176
     0
290
     1
176
     0
290
     0
176
     0
290
     0
176
     0
290
     0
176
     0
290
     0
176
     0
290
     0
176
     0
290
     0
176
     0
 90
       50
176
     0
 40
0.0
176
     0
 40
1.0
176
     0
 90
        0
176
     0
 62
    18
420
        0
176
     0
 90
       50
176
     0
 90
        3
176
     0
 62
     5
420
      255
176
     0
290
     0
176
     0
 90
       50
176
     0
 90
       50
176
     0
 90
       50
176
     0
290
     0
176
     0
 90
       50
176
     0
 62
   256
176
     0
 40
1.0
176
     0
 90
        2
176
     0
  1
strokes_ogs.tif
176
     0
290
     0
176
     0
 40
1.0
176
     0
 40
1.0
176
     0
  0
VISUALSTYLE
  5
38
102
{ACAD_REACTORS
330
2A
102
}
330
2A
100
AcDbVisualStyle
  2
Linepattern
 70
    14
177
     3
291
     1
 70
    58
 90
        2
176
     1
 90
        2
176
     1
 90
        0
176
     1
 90
        0
176
     1
 40
0.6
176
     1
 40
30.0
176
     1
 62
     7
420
 16777215
176
     1
 90
        1
176
     1
 90
        4
176
     1
 62
     7
176
     1
 62
   257
176
     1
 90
        7
176
     1
 90
        7
176
     1
 40
1.0
176
     1
 90
        8
176
     1
 62
     7
176
     1
 40
1.0
176
     1
 90
        1
176
     1
 90
        6
176
     1
 90
        2
176
     1
 62
     7
176
     1
 90
        5
176
     1
 90
        0
176
     1
 90
        0
176
     1
290
     0
176
     1
 90
        1
176
     1
 40
0.0
176
     1
 90
        0
176
     1
290
     0
176
     1
290
     1
176
     1
290
     1
176
     1
290
     0
176
     1
290
     0
176
     1
290
     0
176
     1
290
     0
176
     1
290
     0
176
     1
290
     0
176
     1
 90
       50
176
     1
 40
0.0
176
     1
 40
1.0
176
     1
 90
        0
176
     1
 62
    18
420
        0
176
     1
 90
       50
176
     1
 90
        3
176
     1
 62
     5
420
      255
176
     1
290
     0
176
     1
 90
       50
176
     1
 90
       50
176
     1
 90
       50
176
     1
290
     0
176
     1
 90
       50
176
     1
 62
   256
176
     0
 40
1.0
176
     0
 90
        2
176
     1
  1
strokes_ogs.tif
176
     1
290
     0
176
     1
 40
1.0
176
     1
 40
1.0
176
     1
  0
VISUALSTYLE
  5
3C
102
{ACAD_REACTORS
330
2A
102
}
330
2A
100
AcDbVisualStyle
  2
OverhangOff
 70
    21
177
     3
291
     1
 70
    58
 90
        2
176
     0
 90
        2
176
     0
 90
        0
176
     0
 90
        0
176
     0
 40
0.6
176
     0
 40
30.0
176
     0
 62
     7
420
 16777215
176
     0
 90
        1
176
     0
 90
        4
176
     0
 62
     7
176
     0
 62
   257
176
     0
 90
        1
176
     0
 90
        1
176
     0
 40
1.0
176
     0
 90
        9
176
     2
 62
     7
176
     0
 40
1.0
176
     0
 90
        1
176
     0
 90
        6
176
     0
 90
        2
176
     0
 62
     7
176
     0
 90
        5
176
     0
 90
        0
176
     0
 90
        0
176
     0
290
     0
176
     0
 90
        1
176
     0
 40
0.0
176
     0
 90
        0
176
     0
290
     0
176
     0
290
     1
176
     0
290
     1
176
     0
290
     0
176
     0
290
     0
176
     0
290
     0
176
     0
290
     0
176
     0
290
     0
176
     0
290
     0
176
     0
 90
       50
176
     0
 40
0.0
176
     0
 40
1.0
176
     0
 90
        0
176
     0
 62
    18
420
        0
176
     0
 90
       50
176
     0
 90
        3
176
     0
 62
     5
420
      255
176
     0
290
     0
176
     0
 90
       50
176
     0
 90
       50
176
     0
 90
       50
176
     0
290
     0
176
     0
 90
       50
176
     0
 62
   256
176
     0
 40
1.0
176
     0
 90
        2
176
     0
  1
strokes_ogs.tif
176
     0
290
     0
176
     0
 40
1.0
176
     0
 40
1.0
176
     0
  0
VISUALSTYLE
  5
33
102
{ACAD_REACTORS
330
2A
102
}
330
2A
100
AcDbVisualStyle
  2
Realistic
 70
     8
177
     3
291
     0
 70
    58
 90
        2
176
     1
 90
        3
176
     1
 90
        0
176
     1
 90
        2
176
     1
 40
0.6
176
     1
 40
30.0
176
     1
 62
     7
420
 16777215
176
     1
 90
        0
176
     1
 90
        0
176
     1
 62
     7
176
     1
 62
   257
176
     1
 90
        1
176
     1
 90
        1
176
     1
 40
1.0
176
     1
 90
        8
176
     1
 62
   257
176
     1
 40
1.0
176
     1
 90
        1
176
     1
 90
        6
176
     1
 90
        2
176
     1
 62
     7
176
     1
 90
        3
176
     1
 90
        0
176
     1
 90
        0
176
     1
290
     0
176
     1
 90
       13
176
     1
 40
0.0
176
     1
 90
        0
176
     1
290
     0
176
     1
290
     1
176
     1
290
     1
176
     1
290
     0
176
     1
290
     0
176
     1
290
     0
176
     1
290
     0
176
     1
290
     0
176
     1
290
     0
176
     1
 90
       50
176
     1
 40
0.0
176
     1
 40
1.0
176
     1
 90
        0
176
     1
 62
    18
420
        0
176
     1
 90
       50
176
     1
 90
        3
176
     1
 62
     5
420
      255
176
     1
290
     0
176
     1
 90
       50
176
     1
 90
       50
176
     1
 90
       50
176
     1
290
     0
176
     1
 90
       50
176
     1
 62
   256
176
     0
 40
1.0
176
     0
 90
        2
176
     1
  1
strokes_ogs.tif
176
     1
290
     0
176
     1
 40
1.0
176
     1
 40
1.0
176
     1
  0
VISUALSTYLE
  5
42
102
{ACAD_REACTORS
330
2A
102
}
330
2A
100
AcDbVisualStyle
  2
Shaded
 70
    27
177
     3
291
     0
 70
    58
 90
        2
176
     1
 90
        2
176
     1
 90
        1
176
     1
 90
        2
176
     1
 40
0.6
176
     1
 40
30.0
176
     1
 62
     7
420
 16777215
176
     1
 90
        0
176
     1
 90
        4
176
     1
 62
     7
176
     1
 62
   257
176
     1
 90
        1
176
     1
 90
        1
176
     1
 40
1.0
176
     1
 90
        8
176
     1
 62
   257
176
     1
 40
1.0
176
     1
 90
        1
176
     1
 90
        6
176
     1
 90
        2
176
     1
 62
     8
420
  7895160
176
     1
 90
        3
176
     1
 90
        0
176
     1
 90
        0
176
     1
290
     0
176
     1
 90
        5
176
     1
 40
0.0
176
     1
 90
        0
176
     1
290
     0
176
     1
290
     1
176
     1
290
     1
176
     1
290
     0
176
     1
290
     0
176
     1
290
     0
176
     1
290
     0
176
     1
290
     0
176
     1
290
     0
176
     1
 90
       50
176
     1
 40
0.0
176
     1
 40
1.0
176
     1
 90
        0
176
     1
 62
    18
420
        0
176
     1
 90
       50
176
     1
 90
        3
176
     1
 62
     5
420
      255
176
     1
290
     0
176
     1
 90
       50
176
     1
 90
       50
176
     1
 90
       50
176
     1
290
     0
176
     1
 90
       50
176
     1
 62
   256
176
     0
 40
1.0
176
     0
 90
        2
176
     1
  1
strokes_ogs.tif
176
     1
290
     0
176
     1
 40
1.0
176
     1
 40
1.0
176
     1
  0
VISUALSTYLE
  5
41
102
{ACAD_REACTORS
330
2A
102
}
330
2A
100
AcDbVisualStyle
  2
Shaded with edges
 70
    26
177
     3
291
     0
 70
    58
 90
        2
176
     1
 90
        2
176
     1
 90
        1
176
     1
 90
        2
176
     1
 40
0.6
176
     1
 40
30.0
176
     1
 62
     7
420
 16777215
176
     1
 90
        1
176
     1
 90
       10
176
     1
 62
     7
176
     1
 62
   257
176
     1
 90
        2
176
     1
 90
        1
176
     1
 40
1.0
176
     1
 90
        8
176
     1
 62
   257
176
     1
 40
1.0
176
     1
 90
        1
176
     1
 90
        6
176
     1
 90
        2
176
     1
 62
     7
176
     1
 90
        3
176
     1
 90
        0
176
     1
 90
        0
176
     1
290
     0
176
     1
 90
        5
176
     1
 40
0.0
176
     1
 90
        0
176
     1
290
     0
176
     1
290
     1
176
     1
290
     1
176
     1
290
     0
176
     1
290
     0
176
     1
290
     0
176
     1
290
     0
176
     1
290
     0
176
     1
290
     0
176
     1
 90
       50
176
     1
 40
0.0
176
     1
 40
1.0
176
     1
 90
        0
176
     1
 62
    18
420
        0
176
     1
 90
       50
176
     1
 90
        3
176
     1
 62
     5
420
      255
176
     1
290
     0
176
     1
 90
       50
176
     1
 90
       50
176
     1
 90
       50
176
     1
290
     0
176
     1
 90
       50
176
     1
 62
   256
176
     0
 40
1.0
176
     0
 90
        2
176
     1
  1
strokes_ogs.tif
176
     1
290
     0
176
     1
 40
1.0
176
     1
 40
1.0
176
     1
  0
VISUALSTYLE
  5
3E
102
{ACAD_REACTORS
330
2A
102
}
330
2A
100
AcDbVisualStyle
  2
Shades of Gray
 70
    23
177
     3
291
     0
 70
    58
 90
        2
176
     1
 90
        2
176
     1
 90
        3
176
     1
 90
        0
176
     1
 40
0.6
176
     1
 40
30.0
176
     1
 62
     7
420
 16777215
176
     1
 90
        2
176
     1
 90
        2
176
     1
 62
     7
176
     1
 62
     7
176
     1
 90
        1
176
     1
 90
        1
176
     1
 40
40.0
176
     1
 90
        8
176
     1
 62
     7
176
     1
 40
1.0
176
     1
 90
        1
176
     1
 90
        6
176
     1
 90
        2
176
     1
 62
     7
176
     1
 90
        3
176
     1
 90
        0
176
     1
 90
        0
176
     1
290
     0
176
     1
 90
        1
176
     1
 40
0.0
176
     1
 90
        0
176
     1
290
     0
176
     1
290
     1
176
     1
290
     1
176
     1
290
     0
176
     1
290
     0
176
     1
290
     0
176
     1
290
     0
176
     1
290
     0
176
     1
290
     0
176
     1
 90
       50
176
     1
 40
0.0
176
     1
 40
1.0
176
     1
 90
        0
176
     1
 62
    18
420
        0
176
     1
 90
       50
176
     1
 90
        3
176
     1
 62
     5
420
      255
176
     1
290
     0
176
     1
 90
       50
176
     1
 90
       50
176
     1
 90
       50
176
     1
290
     0
176
     1
 90
       50
176
     1
 62
   256
176
     0
 40
1.0
176
     0
 90
        2
176
     1
  1
strokes_ogs.tif
176
     1
290
     0
176
     1
 40
1.0
176
     1
 40
1.0
176
     1
  0
VISUALSTYLE
  5
3F
102
{ACAD_REACTORS
330
2A
102
}
330
2A
100
AcDbVisualStyle
  2
Sketchy
 70
    24
177
     3
291
     0
 70
    58
 90
        1
176
     1
 90
        2
176
     1
 90
        2
176
     1
 90
        0
176
     1
 40
0.6
176
     1
 40
30.0
176
     1
 62
     7
420
 16777215
176
     1
 90
        2
176
     1
 90
        2
176
     1
 62
     7
176
     1
 62
     7
176
     1
 90
        1
176
     1
 90
        1
176
     1
 40
40.0
176
     1
 90
       11
176
     1
 62
     7
176
     1
 40
1.0
176
     1
 90
        1
176
     1
 90
        6
176
     1
 90
        2
176
     1
 62
     7
176
     1
 90
        6
176
     1
 90
        0
176
     1
 90
        0
176
     1
290
     0
176
     1
 90
        1
176
     1
 40
0.0
176
     1
 90
        0
176
     1
290
     0
176
     1
290
     1
176
     1
290
     1
176
     1
290
     0
176
     1
290
     0
176
     1
290
     0
176
     1
290
     0
176
     1
290
     0
176
     1
290
     0
176
     1
 90
       50
176
     1
 40
0.0
176
     1
 40
1.0
176
     1
 90
        0
176
     1
 62
    18
420
        0
176
     1
 90
       50
176
     1
 90
        3
176
     1
 62
     5
420
      255
176
     1
290
     0
176
     1
 90
       50
176
     1
 90
       50
176
     1
 90
       50
176
     1
290
     0
176
     1
 90
       50
176
     1
 62
   256
176
     0
 40
1.0
176
     0
 90
        2
176
     1
  1
strokes_ogs.tif
176
     1
290
     0
176
     1
 40
1.0
176
     1
 40
1.0
176
     1
  0
VISUALSTYLE
  5
37
102
{ACAD_REACTORS
330
2A
102
}
330
2A
100
AcDbVisualStyle
  2
Thicken
 70
    13
177
     3
291
     1
 70
    58
 90
        2
176
     1
 90
        2
176
     1
 90
        0
176
     1
 90
        0
176
     1
 40
0.6
176
     1
 40
30.0
176
     1
 62
     7
420
 16777215
176
     1
 90
        1
176
     1
 90
        4
176
     1
 62
     7
176
     1
 62
   257
176
     1
 90
        1
176
     1
 90
        1
176
     1
 40
1.0
176
     1
 90
       12
176
     1
 62
     7
176
     1
 40
1.0
176
     1
 90
        1
176
     1
 90
        6
176
     1
 90
        2
176
     1
 62
     7
176
     1
 90
        5
176
     1
 90
        0
176
     1
 90
        0
176
     1
290
     0
176
     1
 90
        1
176
     1
 40
0.0
176
     1
 90
        0
176
     1
290
     0
176
     1
290
     1
176
     1
290
     1
176
     1
290
     0
176
     1
290
     0
176
     1
290
     0
176
     1
290
     0
176
     1
290
     0
176
     1
290
     0
176
     1
 90
       50
176
     1
 40
0.0
176
     1
 40
1.0
176
     1
 90
        0
176
     1
 62
    18
420
        0
176
     1
 90
       50
176
     1
 90
        3
176
     1
 62
     5
420
      255
176
     1
290
     0
176
     1
 90
       50
176
     1
 90
       50
176
     1
 90
       50
176
     1
290
     0
176
     1
 90
       50
176
     1
 62
   256
176
     0
 40
1.0
176
     0
 90
        2
176
     1
  1
strokes_ogs.tif
176
     1
290
     0
176
     1
 40
1.0
176
     1
 40
1.0
176
     1
  0
VISUALSTYLE
  5
30
102
{ACAD_REACTORS
330
2A
102
}
330
2A
100
AcDbVisualStyle
  2
Wireframe
 70
     5
177
     3
291
     0
 70
    58
 90
        0
176
     1
 90
        2
176
     1
 90
        0
176
     1
 90
        0
176
     1
 40
0.6
176
     1
 40
30.0
176
     1
 62
     7
420
 16777215
176
     1
 90
        1
176
     1
 90
        4
176
     1
 62
     7
176
     1
 62
   257
176
     1
 90
        1
176
     1
 90
        1
176
     1
 40
1.0
176
     1
 90
        0
176
     1
 62
   257
176
     1
 40
1.0
176
     1
 90
        1
176
     1
 90
        6
176
     1
 90
        2
176
     1
 62
     7
176
     1
 90
        3
176
     1
 90
        0
176
     1
 90
        0
176
     1
290
     0
176
     1
 90
        1
176
     1
 40
0.0
176
     1
 90
        0
176
     1
290
     0
176
     1
290
     1
176
     1
290
     1
176
     1
290
     0
176
     1
290
     0
176
     1
290
     0
176
     1
290
     0
176
     1
290
     0
176
     1
290
     0
176
     1
 90
       50
176
     1
 40
0.0
176
     1
 40
1.0
176
     1
 90
        0
176
     1
 62
    18
420
        0
176
     1
 90
       50
176
     1
 90
        3
176
     1
 62
     5
420
      255
176
     1
290
     0
176
     1
 90
       50
176
     1
 90
       50
176
     1
 90
       50
176
     1
290
     0
176
     1
 90
       50
176
     1
 62
   256
176
     0
 40
1.0
176
     0
 90
        2
176
     1
  1
strokes_ogs.tif
176
     1
290
     0
176
     1
 40
1.0
176
     1
 40
1.0
176
     1
  0
VISUALSTYLE
  5
40
102
{ACAD_REACTORS
330
2A
102
}
330
2A
100
AcDbVisualStyle
  2
X-Ray
 70
    25
177
     3
291
     0
 70
    58
 90
        2
176
     1
 90
        2
176
     1
 90
        1
176
     1
 90
        1
176
     1
 40
0.5
176
     1
 40
30.0
176
     1
 62
     7
420
 16777215
176
     1
 90
        1
176
     1
 90
        0
176
     1
 62
     7
176
     1
 62
   257
176
     1
 90
        1
176
     1
 90
        1
176
     1
 40
1.0
176
     1
 90
        8
176
     1
 62
     7
176
     1
 40
1.0
176
     1
 90
        1
176
     1
 90
        6
176
     1
 90
        2
176
     1
 62
     7
176
     1
 90
        3
176
     1
 90
        0
176
     1
 90
        0
176
     1
290
     0
176
     1
 90
       13
176
     1
 40
0.0
176
     1
 90
        0
176
     1
290
     0
176
     1
290
     1
176
     1
290
     1
176
     1
290
     0
176
     1
290
     0
176
     1
290
     0
176
     1
290
     0
176
     1
290
     0
176
     1
290
     0
176
     1
 90
       50
176
     1
 40
0.0
176
     1
 40
1.0
176
     1
 90
        0
176
     1
 62
    18
420
        0
176
     1
 90
       50
176
     1
 90
        3
176
     1
 62
     5
420
      255
176
     1
290
     0
176
     1
 90
       50
176
     1
 90
       50
176
     1
 90
       50
176
     1
290
     0
176
     1
 90
       50
176
     1
 62
   256
176
     0
 40
1.0
176
     0
 90
        2
176
     1
  1
strokes_ogs.tif
176
     1
290
     0
176
     1
 40
1.0
176
     1
 40
1.0
176
     1
  0
DICTIONARYVAR
  5
17C
102
{ACAD_REACTORS
330
17B
102
}
330
17B
100
DictionaryVariables
280
     0
  1
1:1
  0
DICTIONARYVAR
  5
181
102
{ACAD_REACTORS
330
17B
102
}
330
17B
100
DictionaryVariables
280
     0
  1
Standard
  0
DICTIONARYVAR
  5
180
102
{ACAD_REACTORS
330
17B
102
}
330
17B
100
DictionaryVariables
280
     0
  1
Standard
  0
DICTIONARY
  5
17D
330
6A
100
AcDbDictionary
280
     1
281
     1
  3
ACAD_ROUNDTRIP_2008_TABLESTYLE_CELLSTYLEMAP
360
17E
  0
CELLSTYLEMAP
  5
17E
102
{ACAD_REACTORS
330
17D
102
}
330
17D
100
AcDbCellStyleMap
 90
        3
300
CELLSTYLE
  1
TABLEFORMAT_BEGIN
 90
        5
170
     1
 91
        0
 92
    32768
 62
   257
 93
        1
300
CONTENTFORMAT
  1
CONTENTFORMAT_BEGIN
 90
        0
 91
        0
 92
        4
 93
        0
300

 40
0.0
140
1.0
 94
        5
 62
     0
340
11
144
0.25
309
CONTENTFORMAT_END
171
     1
301
MARGIN
  1
CELLMARGIN_BEGIN
 40
0.06
 40
0.06
 40
0.06
 40
0.06
 40
0.06
 40
0.06
309
CELLMARGIN_END
 94
        6
 95
        1
302
GRIDFORMAT
  1
GRIDFORMAT_BEGIN
 90
        0
 91
        1
 62
     0
 92
       -2
340
14
 93
        0
 40
0.045
309
GRIDFORMAT_END
 95
        2
302
GRIDFORMAT
  1
GRIDFORMAT_BEGIN
 90
        0
 91
        1
 62
     0
 92
       -2
340
14
 93
        0
 40
0.045
309
GRIDFORMAT_END
 95
        4
302
GRIDFORMAT
  1
GRIDFORMAT_BEGIN
 90
        0
 91
        1
 62
     0
 92
       -2
340
14
 93
        0
 40
0.045
309
GRIDFORMAT_END
 95
        8
302
GRIDFORMAT
  1
GRIDFORMAT_BEGIN
 90
        0
 91
        1
 62
     0
 92
       -2
340
14
 93
        0
 40
0.045
309
GRIDFORMAT_END
 95
       16
302
GRIDFORMAT
  1
GRIDFORMAT_BEGIN
 90
        0
 91
        1
 62
     0
 92
       -2
340
14
 93
        0
 40
0.045
309
GRIDFORMAT_END
 95
       32
302
GRIDFORMAT
  1
GRIDFORMAT_BEGIN
 90
        0
 91
        1
 62
     0
 92
       -2
340
14
 93
        0
 40
0.045
309
GRIDFORMAT_END
309
TABLEFORMAT_END
  1
CELLSTYLE_BEGIN
 90
        1
 91
        1
300
_TITLE
309
CELLSTYLE_END
300
CELLSTYLE
  1
TABLEFORMAT_BEGIN
 90
        5
170
     1
 91
        0
 92
        0
 62
   257
 93
        1
300
CONTENTFORMAT
  1
CONTENTFORMAT_BEGIN
 90
        0
 91
        0
 92
        4
 93
        0
300

 40
0.0
140
1.0
 94
        5
 62
     0
340
11
144
0.18
309
CONTENTFORMAT_END
171
     1
301
MARGIN
  1
CELLMARGIN_BEGIN
 40
0.06
 40
0.06
 40
0.06
 40
0.06
 40
0.06
 40
0.06
309
CELLMARGIN_END
 94
        6
 95
        1
302
GRIDFORMAT
  1
GRIDFORMAT_BEGIN
 90
        0
 91
        1
 62
     0
 92
       -2
340
14
 93
        0
 40
0.045
309
GRIDFORMAT_END
 95
        2
302
GRIDFORMAT
  1
GRIDFORMAT_BEGIN
 90
        0
 91
        1
 62
     0
 92
       -2
340
14
 93
        0
 40
0.045
309
GRIDFORMAT_END
 95
        4
302
GRIDFORMAT
  1
GRIDFORMAT_BEGIN
 90
        0
 91
        1
 62
     0
 92
       -2
340
14
 93
        0
 40
0.045
309
GRIDFORMAT_END
 95
        8
302
GRIDFORMAT
  1
GRIDFORMAT_BEGIN
 90
        0
 91
        1
 62
     0
 92
       -2
340
14
 93
        0
 40
0.045
309
GRIDFORMAT_END
 95
       16
302
GRIDFORMAT
  1
GRIDFORMAT_BEGIN
 90
        0
 91
        1
 62
     0
 92
       -2
340
14
 93
        0
 40
0.045
309
GRIDFORMAT_END
 95
       32
302
GRIDFORMAT
  1
GRIDFORMAT_BEGIN
 90
        0
 91
        1
 62
     0
 92
       -2
340
14
 93
        0
 40
0.045
309
GRIDFORMAT_END
309
TABLEFORMAT_END
  1
CELLSTYLE_BEGIN
 90
        2
 91
        1
300
_HEADER
309
CELLSTYLE_END
300
CELLSTYLE
  1
TABLEFORMAT_BEGIN
 90
        5
170
     1
 91
        0
 92
        0
 62
   257
 93
        1
300
CONTENTFORMAT
  1
CONTENTFORMAT_BEGIN
 90
        0
 91
        0
 92
        4
 93
        0
300

 40
0.0
140
1.0
 94
        2
 62
     0
340
11
144
0.18
309
CONTENTFORMAT_END
171
     1
301
MARGIN
  1
CELLMARGIN_BEGIN
 40
0.06
 40
0.06
 40
0.06
 40
0.06
 40
0.06
 40
0.06
309
CELLMARGIN_END
 94
        6
 95
        1
302
GRIDFORMAT
  1
GRIDFORMAT_BEGIN
 90
        0
 91
        1
 62
     0
 92
       -2
340
14
 93
        0
 40
0.045
309
GRIDFORMAT_END
 95
        2
302
GRIDFORMAT
  1
GRIDFORMAT_BEGIN
 90
        0
 91
        1
 62
     0
 92
       -2
340
14
 93
        0
 40
0.045
309
GRIDFORMAT_END
 95
        4
302
GRIDFORMAT
  1
GRIDFORMAT_BEGIN
 90
        0
 91
        1
 62
     0
 92
       -2
340
14
 93
        0
 40
0.045
309
GRIDFORMAT_END
 95
        8
302
GRIDFORMAT
  1
GRIDFORMAT_BEGIN
 90
        0
 91
        1
 62
     0
 92
       -2
340
14
 93
        0
 40
0.045
309
GRIDFORMAT_END
 95
       16
302
GRIDFORMAT
  1
GRIDFORMAT_BEGIN
 90
        0
 91
        1
 62
     0
 92
       -2
340
14
 93
        0
 40
0.045
309
GRIDFORMAT_END
 95
       32
302
GRIDFORMAT
  1
GRIDFORMAT_BEGIN
 90
        0
 91
        1
 62
     0
 92
       -2
340
14
 93
        0
 40
0.045
309
GRIDFORMAT_END
309
TABLEFORMAT_END
  1
CELLSTYLE_BEGIN
 90
        3
 91
        2
300
_DATA
309
CELLSTYLE_END
  0
ENDSEC
  0
EOF