0
SECTION
  2
HEADER
  9
$ACADVER
  1
AC1027
  9
$ACADMAINTVER
 70
     8
  9
$DWGCODEPAGE
  3
ANSI_1252
  9
$REQUIREDVERSIONS
160
                 0
  9
$COMMENTS
  1
File was created by Cadenas
  9
$CUSTOMPROPERTYTAG
  1
NN
  9
$CUSTOMPROPERTY
  1
Eccentric Collar Intermediate Duty Two-Bolt Pillow Block Inch Bore
  9
$CUSTOMPROPERTYTAG
  1
NT
  9
$CUSTOMPROPERTY
  1
Eccentric Collar Pillow Block Bearings -(Intermediate Duty)
  9
$CUSTOMPROPERTYTAG
  1
NB
  9
$CUSTOMPROPERTY
  1
131979
  9
$CUSTOMPROPERTYTAG
  1
NBSYN
  9
$CUSTOMPROPERTY
  1
$PN.
  9
$CUSTOMPROPERTYTAG
  1
LINA
  9
$CUSTOMPROPERTY
  1
131979
  9
$CUSTOMPROPERTYTAG
  1
SERIES
  9
$CUSTOMPROPERTY
  1
207
  9
$CUSTOMPROPERTYTAG
  1
SS
  9
$CUSTOMPROPERTY
  1
1-5/16
  9
$CUSTOMPROPERTYTAG
  1
PN
  9
$CUSTOMPROPERTY
  1
131979
  9
$CUSTOMPROPERTYTAG
  1
DESCRIPTION
  9
$CUSTOMPROPERTY
  1
P2B-SXV-105
  9
$CUSTOMPROPERTYTAG
  1
LF
  9
$CUSTOMPROPERTY
  1
RE-LUBE
  9
$CUSTOMPROPERTYTAG
  1
WEIGHT
  9
$CUSTOMPROPERTY
  1
4.30
  9
$CUSTOMPROPERTYTAG
  1
A
  9
$CUSTOMPROPERTY
  1
1.53
  9
$CUSTOMPROPERTYTAG
  1
B
  9
$CUSTOMPROPERTY
  1
6.50
  9
$CUSTOMPROPERTYTAG
  1
C
  9
$CUSTOMPROPERTY
  1
1.75
  9
$CUSTOMPROPERTYTAG
  1
DMIN
  9
$CUSTOMPROPERTY
  1
4.68
  9
$CUSTOMPROPERTYTAG
  1
DMAX
  9
$CUSTOMPROPERTY
  1
5.44
  9
$CUSTOMPROPERTYTAG
  1
F
  9
$CUSTOMPROPERTY
  1
1/2
  9
$CUSTOMPROPERTYTAG
  1
G
  9
$CUSTOMPROPERTY
  1
0.94
  9
$CUSTOMPROPERTYTAG
  1
H
  9
$CUSTOMPROPERTY
  1
0.71
  9
$CUSTOMPROPERTYTAG
  1
J
  9
$CUSTOMPROPERTY
  1
3.75
  9
$CUSTOMPROPERTYTAG
  1
L
  9
$CUSTOMPROPERTY
  1
2.13
  9
$CUSTOMPROPERTYTAG
  1
M
  9
$CUSTOMPROPERTY
  1
1.88
  9
$CUSTOMPROPERTYTAG
  1
R
  9
$CUSTOMPROPERTY
  1
0.37
  9
$CUSTOMPROPERTYTAG
  1
S
  9
$CUSTOMPROPERTY
  1
1.16
  9
$CUSTOMPROPERTYTAG
  1
U
  9
$CUSTOMPROPERTY
  1
2.91
  9
$CUSTOMPROPERTYTAG
  1
V
  9
$CUSTOMPROPERTY
  1
5.82
  9
$CUSTOMPROPERTYTAG
  1
W
  9
$CUSTOMPROPERTY
  1
0.56
  9
$CUSTOMPROPERTYTAG
  1
X
  9
$CUSTOMPROPERTY
  1
0.12
  9
$CUSTOMPROPERTYTAG
  1
COMPANY
  9
$CUSTOMPROPERTY
  1
baldor
  9
$INSBASE
 10
0.0
 20
0.0
 30
0.0
  9
$EXTMIN
 10
1.000000000000000E+20
 20
1.000000000000000E+20
 30
1.000000000000000E+20
  9
$EXTMAX
 10
-1.000000000000000E+20
 20
-1.000000000000000E+20
 30
-1.000000000000000E+20
  9
$LIMMIN
 10
0.0
 20
0.0
  9
$LIMMAX
 10
12.0
 20
9.0
  9
$ORTHOMODE
 70
     0
  9
$REGENMODE
 70
     1
  9
$FILLMODE
 70
     1
  9
$QTEXTMODE
 70
     0
  9
$MIRRTEXT
 70
     1
  9
$LTSCALE
 40
1.0
  9
$ATTMODE
 70
     1
  9
$TEXTSIZE
 40
0.2
  9
$TRACEWID
 40
0.05
  9
$TEXTSTYLE
  7
Standard
  9
$CLAYER
  8
0
  9
$CELTYPE
  6
ByLayer
  9
$CECOLOR
 62
   256
  9
$CELTSCALE
 40
1.0
  9
$DISPSILH
 70
     0
  9
$DIMSCALE
 40
1.0
  9
$DIMASZ
 40
0.18
  9
$DIMEXO
 40
0.0625
  9
$DIMDLI
 40
0.38
  9
$DIMRND
 40
0.0
  9
$DIMDLE
 40
0.0
  9
$DIMEXE
 40
0.18
  9
$DIMTP
 40
0.0
  9
$DIMTM
 40
0.0
  9
$DIMTXT
 40
0.18
  9
$DIMCEN
 40
0.09
  9
$DIMTSZ
 40
0.0
  9
$DIMTOL
 70
     0
  9
$DIMLIM
 70
     0
  9
$DIMTIH
 70
     1
  9
$DIMTOH
 70
     1
  9
$DIMSE1
 70
     0
  9
$DIMSE2
 70
     0
  9
$DIMTAD
 70
     0
  9
$DIMZIN
 70
     0
  9
$DIMBLK
  1

  9
$DIMASO
 70
     1
  9
$DIMSHO
 70
     1
  9
$DIMPOST
  1

  9
$DIMAPOST
  1

  9
$DIMALT
 70
     0
  9
$DIMALTD
 70
     2
  9
$DIMALTF
 40
25.4
  9
$DIMLFAC
 40
1.0
  9
$DIMTOFL
 70
     0
  9
$DIMTVP
 40
0.0
  9
$DIMTIX
 70
     0
  9
$DIMSOXD
 70
     0
  9
$DIMSAH
 70
     0
  9
$DIMBLK1
  1

  9
$DIMBLK2
  1

  9
$DIMSTYLE
  2
Standard
  9
$DIMCLRD
 70
     0
  9
$DIMCLRE
 70
     0
  9
$DIMCLRT
 70
     0
  9
$DIMTFAC
 40
1.0
  9
$DIMGAP
 40
0.09
  9
$DIMJUST
 70
     0
  9
$DIMSD1
 70
     0
  9
$DIMSD2
 70
     0
  9
$DIMTOLJ
 70
     1
  9
$DIMTZIN
 70
     0
  9
$DIMALTZ
 70
     0
  9
$DIMALTTZ
 70
     0
  9
$DIMUPT
 70
     0
  9
$DIMDEC
 70
     4
  9
$DIMTDEC
 70
     4
  9
$DIMALTU
 70
     2
  9
$DIMALTTD
 70
     2
  9
$DIMTXSTY
  7
Standard
  9
$DIMAUNIT
 70
     0
  9
$DIMADEC
 70
     0
  9
$DIMALTRND
 40
0.0
  9
$DIMAZIN
 70
     0
  9
$DIMDSEP
 70
    46
  9
$DIMATFIT
 70
     3
  9
$DIMFRAC
 70
     0
  9
$DIMLDRBLK
  1

  9
$DIMLUNIT
 70
     2
  9
$DIMLWD
 70
    -2
  9
$DIMLWE
 70
    -2
  9
$DIMTMOVE
 70
     0
  9
$DIMFXL
 40
1.0
  9
$DIMFXLON
 70
     0
  9
$DIMJOGANG
 40
0.7853981633974483
  9
$DIMTFILL
 70
     0
  9
$DIMTFILLCLR
 70
     0
  9
$DIMARCSYM
 70
     0
  9
$DIMLTYPE
  6

  9
$DIMLTEX1
  6

  9
$DIMLTEX2
  6

  9
$DIMTXTDIRECTION
 70
     0
  9
$LUNITS
 70
     2
  9
$LUPREC
 70
     4
  9
$SKETCHINC
 40
0.1
  9
$FILLETRAD
 40
0.5
  9
$AUNITS
 70
     0
  9
$AUPREC
 70
     0
  9
$MENU
  1
.
  9
$ELEVATION
 40
0.0
  9
$PELEVATION
 40
0.0
  9
$THICKNESS
 40
0.0
  9
$LIMCHECK
 70
     0
  9
$CHAMFERA
 40
0.0
  9
$CHAMFERB
 40
0.0
  9
$CHAMFERC
 40
0.0
  9
$CHAMFERD
 40
0.0
  9
$SKPOLY
 70
     0
  9
$TDCREATE
 40
2458169.003542963
  9
$TDUCREATE
 40
2458168.961876296
  9
$TDUPDATE
 40
2458169.003543148
  9
$TDUUPDATE
 40
2458168.961876481
  9
$TDINDWG
 40
0.0000000116
  9
$TDUSRTIMER
 40
0.0000000116
  9
$USRTIMER
 70
     1
  9
$ANGBASE
 50
0.0
  9
$ANGDIR
 70
     0
  9
$PDMODE
 70
     0
  9
$PDSIZE
 40
0.0
  9
$PLINEWID
 40
0.0
  9
$SPLFRAME
 70
     0
  9
$SPLINETYPE
 70
     6
  9
$SPLINESEGS
 70
     8
  9
$HANDSEED
  5
1AF
  9
$SURFTAB1
 70
     6
  9
$SURFTAB2
 70
     6
  9
$SURFTYPE
 70
     6
  9
$SURFU
 70
     6
  9
$SURFV
 70
     6
  9
$UCSBASE
  2

  9
$UCSNAME
  2

  9
$UCSORG
 10
0.0
 20
0.0
 30
0.0
  9
$UCSXDIR
 10
1.0
 20
0.0
 30
0.0
  9
$UCSYDIR
 10
0.0
 20
1.0
 30
0.0
  9
$UCSORTHOREF
  2

  9
$UCSORTHOVIEW
 70
     0
  9
$UCSORGTOP
 10
0.0
 20
0.0
 30
0.0
  9
$UCSORGBOTTOM
 10
0.0
 20
0.0
 30
0.0
  9
$UCSORGLEFT
 10
0.0
 20
0.0
 30
0.0
  9
$UCSORGRIGHT
 10
0.0
 20
0.0
 30
0.0
  9
$UCSORGFRONT
 10
0.0
 20
0.0
 30
0.0
  9
$UCSORGBACK
 10
0.0
 20
0.0
 30
0.0
  9
$PUCSBASE
  2

  9
$PUCSNAME
  2

  9
$PUCSORG
 10
0.0
 20
0.0
 30
0.0
  9
$PUCSXDIR
 10
1.0
 20
0.0
 30
0.0
  9
$PUCSYDIR
 10
0.0
 20
1.0
 30
0.0
  9
$PUCSORTHOREF
  2

  9
$PUCSORTHOVIEW
 70
     0
  9
$PUCSORGTOP
 10
0.0
 20
0.0
 30
0.0
  9
$PUCSORGBOTTOM
 10
0.0
 20
0.0
 30
0.0
  9
$PUCSORGLEFT
 10
0.0
 20
0.0
 30
0.0
  9
$PUCSORGRIGHT
 10
0.0
 20
0.0
 30
0.0
  9
$PUCSORGFRONT
 10
0.0
 20
0.0
 30
0.0
  9
$PUCSORGBACK
 10
0.0
 20
0.0
 30
0.0
  9
$USERI1
 70
     0
  9
$USERI2
 70
     0
  9
$USERI3
 70
     0
  9
$USERI4
 70
     0
  9
$USERI5
 70
     0
  9
$USERR1
 40
0.0
  9
$USERR2
 40
0.0
  9
$USERR3
 40
0.0
  9
$USERR4
 40
0.0
  9
$USERR5
 40
0.0
  9
$WORLDVIEW
 70
     1
  9
$SHADEDGE
 70
     3
  9
$SHADEDIF
 70
    70
  9
$TILEMODE
 70
     1
  9
$MAXACTVP
 70
    64
  9
$PINSBASE
 10
0.0
 20
0.0
 30
0.0
  9
$PLIMCHECK
 70
     0
  9
$PEXTMIN
 10
1.000000000000000E+20
 20
1.000000000000000E+20
 30
1.000000000000000E+20
  9
$PEXTMAX
 10
-1.000000000000000E+20
 20
-1.000000000000000E+20
 30
-1.000000000000000E+20
  9
$PLIMMIN
 10
0.0
 20
0.0
  9
$PLIMMAX
 10
12.0
 20
9.0
  9
$UNITMODE
 70
     0
  9
$VISRETAIN
 70
     1
  9
$PLINEGEN
 70
     0
  9
$PSLTSCALE
 70
     1
  9
$TREEDEPTH
 70
  3020
  9
$CMLSTYLE
  2
Standard
  9
$CMLJUST
 70
     0
  9
$CMLSCALE
 40
1.0
  9
$PROXYGRAPHICS
 70
     1
  9
$MEASUREMENT
 70
     0
  9
$CELWEIGHT
370
    -1
  9
$ENDCAPS
280
     0
  9
$JOINSTYLE
280
     0
  9
$LWDISPLAY
290
     0
  9
$INSUNITS
 70
     1
  9
$HYPERLINKBASE
  1

  9
$STYLESHEET
  1

  9
$XEDIT
290
     1
  9
$CEPSNTYPE
380
     0
  9
$PSTYLEMODE
290
     1
  9
$FINGERPRINTGUID
  2
{DDA36138-2625-4428-9567-199F087E4B2F}
  9
$VERSIONGUID
  2
{FAEB1C32-E019-11D5-929B-00C0DF256EC4}
  9
$EXTNAMES
290
     1
  9
$PSVPSCALE
 40
0.0
  9
$OLESTARTUP
290
     0
  9
$SORTENTS
280
   127
  9
$INDEXCTL
280
     0
  9
$HIDETEXT
280
     1
  9
$XCLIPFRAME
280
     2
  9
$HALOGAP
280
     0
  9
$OBSCOLOR
 70
   257
  9
$OBSLTYPE
280
     0
  9
$INTERSECTIONDISPLAY
280
     0
  9
$INTERSECTIONCOLOR
 70
   257
  9
$DIMASSOC
280
     2
  9
$PROJECTNAME
  1

  9
$CAMERADISPLAY
290
     0
  9
$LENSLENGTH
 40
50.0
  9
$CAMERAHEIGHT
 40
0.0
  9
$STEPSPERSEC
 40
2.0
  9
$STEPSIZE
 40
6.0
  9
$3DDWFPREC
 40
2.0
  9
$PSOLWIDTH
 40
0.25
  9
$PSOLHEIGHT
 40
4.0
  9
$LOFTANG1
 40
1.570796326794897
  9
$LOFTANG2
 40
1.570796326794897
  9
$LOFTMAG1
 40
0.0
  9
$LOFTMAG2
 40
0.0
  9
$LOFTPARAM
 70
     7
  9
$LOFTNORMALS
280
     1
  9
$LATITUDE
 40
37.795
  9
$LONGITUDE
 40
-122.394
  9
$NORTHDIRECTION
 40
0.0
  9
$TIMEZONE
 70
 -8000
  9
$LIGHTGLYPHDISPLAY
280
     1
  9
$TILEMODELIGHTSYNCH
280
     1
  9
$CMATERIAL
347
44
  9
$SOLIDHIST
280
     0
  9
$SHOWHIST
280
     1
  9
$DWFFRAME
280
     2
  9
$DGNFRAME
280
     2
  9
$REALWORLDSCALE
290
     1
  9
$INTERFERECOLOR
 62
   256
  9
$CSHADOW
280
     0
  9
$SHADOWPLANELOCATION
 40
0.0
  0
ENDSEC
  0
SECTION
  2
CLASSES
  0
CLASS
  1
ACDBDICTIONARYWDFLT
  2
AcDbDictionaryWithDefault
  3
ObjectDBX Classes
 90
        0
 91
        4
280
     0
281
     0
  0
CLASS
  1
VISUALSTYLE
  2
AcDbVisualStyle
  3
ObjectDBX Classes
 90
     4095
 91
        4
280
     0
281
     0
  0
CLASS
  1
MATERIAL
  2
AcDbMaterial
  3
ObjectDBX Classes
 90
     1153
 91
        4
280
     0
281
     0
  0
CLASS
  1
SCALE
  2
AcDbScale
  3
ObjectDBX Classes
 90
     1153
 91
        4
280
     0
281
     0
  0
CLASS
  1
TABLESTYLE
  2
AcDbTableStyle
  3
ObjectDBX Classes
 90
     4095
 91
        4
280
     0
281
     0
  0
CLASS
  1
MLEADERSTYLE
  2
AcDbMLeaderStyle
  3
ACDB_MLEADERSTYLE_CLASS
 90
     4095
 91
        4
280
     0
281
     0
  0
CLASS
  1
SUN
  2
AcDbSun
  3
SCENEOE
 90
     1153
 91
        4
280
     0
281
     0
  0
CLASS
  1
DICTIONARYVAR
  2
AcDbDictionaryVar
  3
ObjectDBX Classes
 90
        0
 91
        4
280
     0
281
     0
  0
CLASS
  1
CELLSTYLEMAP
  2
AcDbCellStyleMap
  3
ObjectDBX Classes
 90
     1152
 91
        4
280
     0
281
     0
  0
ENDSEC
  0
SECTION
  2
TABLES
  0
TABLE
  2
VPORT
  5
8
330
0
100
AcDbSymbolTable
 70
     1
  0
VPORT
  5
29
330
8
100
AcDbSymbolTableRecord
100
AcDbViewportTableRecord
  2
*Active
 70
     0
 10
0.0
 20
0.0
 11
1.0
 21
1.0
 12
-0.1371250000000011
 22
-0.004999999999999
 13
0.0
 23
0.0
 14
0.5
 24
0.5
 15
0.5
 25
0.5
 16
0.0
 26
0.0
 36
1.0
 17
0.0
 27
0.0
 37
0.0
 40
3.825000000000001
 41
0.5864666666666665
 42
50.0
 43
0.0
 44
0.0
 50
0.0
 51
0.0
 71
     0
 72
   100
 73
     1
 74
     3
 75
     0
 76
     0
 77
     0
 78
     0
281
     0
 65
     1
110
0.0
120
0.0
130
0.0
111
1.0
121
0.0
131
0.0
112
0.0
122
1.0
132
0.0
 79
     0
146
0.0
348
2F
 60
     3
 61
     5
292
     1
282
     1
141
0.0
142
0.0
 63
   250
361
6D
  0
ENDTAB
  0
TABLE
  2
LTYPE
  5
5
330
0
100
AcDbSymbolTable
 70
     3
  0
LTYPE
  5
14
330
5
100
AcDbSymbolTableRecord
100
AcDbLinetypeTableRecord
  2
ByBlock
 70
     0
  3

 72
    65
 73
     0
 40
0.0
  0
LTYPE
  5
15
330
5
100
AcDbSymbolTableRecord
100
AcDbLinetypeTableRecord
  2
ByLayer
 70
     0
  3

 72
    65
 73
     0
 40
0.0
  0
LTYPE
  5
16
330
5
100
AcDbSymbolTableRecord
100
AcDbLinetypeTableRecord
  2
Continuous
 70
     0
  3
Solid line
 72
    65
 73
     0
 40
0.0
  0
LTYPE
  5
9C
330
5
100
AcDbSymbolTableRecord
100
AcDbLinetypeTableRecord
  2
Dashed
 70
     0
  3

 72
    65
 73
     2
 40
2.0
 49
1.0
 74
     0
 49
-1.0
 74
     0
  0
LTYPE
  5
137
330
5
100
AcDbSymbolTableRecord
100
AcDbLinetypeTableRecord
  2
Center
 70
     0
  3

 72
    65
 73
     4
 40
1.5
 49
0.45
 74
     0
 49
-0.5
 74
     0
 49
0.05
 74
     0
 49
-0.5
 74
     0
  0
ENDTAB
  0
TABLE
  2
LAYER
  5
2
330
0
100
AcDbSymbolTable
 70
     7
  0
LAYER
  5
10
330
2
100
AcDbSymbolTableRecord
100
AcDbLayerTableRecord
  2
0
 70
     0
 62
     7
  6
Continuous
370
    -3
390
F
347
46
348
0
  0
LAYER
  5
72
330
2
100
AcDbSymbolTableRecord
100
AcDbLayerTableRecord
  2
AM_6
 70
     0
 62
    -2
  6
Continuous
370
    35
390
F
347
46
348
0
  0
LAYER
  5
9D
330
2
100
AcDbSymbolTableRecord
100
AcDbLayerTableRecord
  2
AM_9
 70
     0
 62
     6
  6
Dashed
370
    25
390
F
347
46
348
0
  0
LAYER
  5
C3
330
2
100
AcDbSymbolTableRecord
100
AcDbLayerTableRecord
  2
AM_4
 70
     0
 62
     7
  6
Continuous
370
    50
390
F
347
46
348
0
  0
LAYER
  5
134
330
2
100
AcDbSymbolTableRecord
100
AcDbLayerTableRecord
  2
AM_5
 70
     0
 62
     3
  6
Continuous
370
    25
390
F
347
46
348
0
  0
LAYER
  5
138
330
2
100
AcDbSymbolTableRecord
100
AcDbLayerTableRecord
  2
AM_7
 70
     0
 62
     7
  6
Center
370
    25
390
F
347
46
348
0
  0
LAYER
  5
1A1
330
2
100
AcDbSymbolTableRecord
100
AcDbLayerTableRecord
  2
ConnectionPoints
 70
     0
 62
     7
  6
Continuous
370
    50
390
F
347
46
348
0
  0
ENDTAB
  0
TABLE
  2
STYLE
  5
3
330
0
100
AcDbSymbolTable
 70
     1
  0
STYLE
  5
11
330
3
100
AcDbSymbolTableRecord
100
AcDbTextStyleTableRecord
  2
Standard
 70
     0
 40
0.0
 41
1.0
 50
0.0
 71
     0
 42
0.2
  3
txt
  4

  0
ENDTAB
  0
TABLE
  2
VIEW
  5
6
330
0
100
AcDbSymbolTable
 70
     0
  0
ENDTAB
  0
TABLE
  2
UCS
  5
7
330
0
100
AcDbSymbolTable
 70
     0
  0
ENDTAB
  0
TABLE
  2
APPID
  5
9
330
0
100
AcDbSymbolTable
 70
     1
  0
APPID
  5
12
330
9
100
AcDbSymbolTableRecord
100
AcDbRegAppTableRecord
  2
ACAD
 70
     0
  0
ENDTAB
  0
TABLE
  2
DIMSTYLE
  5
A
330
0
100
AcDbSymbolTable
 70
     1
100
AcDbDimStyleTable
  0
DIMSTYLE
105
27
330
A
100
AcDbSymbolTableRecord
100
AcDbDimStyleTableRecord
  2
Standard
 70
     0
178
     0
340
11
  0
ENDTAB
  0
TABLE
  2
BLOCK_RECORD
  5
1
330
0
100
AcDbSymbolTable
 70
     5
  0
BLOCK_RECORD
  5
1F
330
1
100
AcDbSymbolTableRecord
100
AcDbBlockTableRecord
  2
*Model_Space
340
22
 70
     0
280
     1
281
     0
  0
BLOCK_RECORD
  5
1B
330
1
100
AcDbSymbolTableRecord
100
AcDbBlockTableRecord
  2
*Paper_Space
340
1E
 70
     0
280
     1
281
     0
  0
BLOCK_RECORD
  5
23
330
1
100
AcDbSymbolTableRecord
100
AcDbBlockTableRecord
  2
*Paper_Space0
340
26
 70
     0
280
     1
281
     0
  0
BLOCK_RECORD
  5
6E
330
1
100
AcDbSymbolTableRecord
100
AcDbBlockTableRecord
  2
1_131979_2
340
0
102
{BLKREFS
331
6F
102
}
 70
     0
280
     1
281
     0
  0
BLOCK_RECORD
  5
90
330
1
100
AcDbSymbolTableRecord
100
AcDbBlockTableRecord
  2
2_405015E_Inch_0_in_131979_2
340
0
102
{BLKREFS
331
91
102
}
 70
     0
280
     1
281
     0
  0
BLOCK_RECORD
  5
E7
330
1
100
AcDbSymbolTableRecord
100
AcDbBlockTableRecord
  2
3_131444_0_in_131979_2
340
0
102
{BLKREFS
331
E8
102
}
 70
     0
280
     1
281
     0
  0
BLOCK_RECORD
  5
148
330
1
100
AcDbSymbolTableRecord
100
AcDbBlockTableRecord
  2
4_131979H_0_in_131979_2
340
0
102
{BLKREFS
331
149
102
}
 70
     0
280
     1
281
     0
  0
ENDTAB
  0
ENDSEC
  0
SECTION
  2
BLOCKS
  0
BLOCK
  5
20
330
1F
100
AcDbEntity
  8
0
100
AcDbBlockBegin
  2
*Model_Space
 70
     0
 10
0.0
 20
0.0
 30
0.0
  3
*Model_Space
  1

  0
ENDBLK
  5
21
330
1F
100
AcDbEntity
  8
0
100
AcDbBlockEnd
  0
BLOCK
  5
1C
330
1B
100
AcDbEntity
 67
     1
  8
0
100
AcDbBlockBegin
  2
*Paper_Space
 70
     0
 10
0.0
 20
0.0
 30
0.0
  3
*Paper_Space
  1

  0
ENDBLK
  5
1D
330
1B
100
AcDbEntity
 67
     1
  8
0
100
AcDbBlockEnd
  0
BLOCK
  5
24
330
23
100
AcDbEntity
  8
0
100
AcDbBlockBegin
  2
*Paper_Space0
 70
     0
 10
0.0
 20
0.0
 30
0.0
  3
*Paper_Space0
  1

  0
ENDBLK
  5
25
330
23
100
AcDbEntity
  8
0
100
AcDbBlockEnd
  0
BLOCK
  5
70
330
6E
100
AcDbEntity
  8
0
100
AcDbBlockBegin
  2
1_131979_2
 70
     2
 10
0.0
 20
0.0
 30
0.0
  3
1_131979_2
  1

  0
ATTDEF
  5
73
330
6E
100
AcDbEntity
  8
AM_6
100
AcDbText
 10
5.9625
 20
1.870000000000001
 30
0.0
 40
0.5
  1
Eccentric Collar Intermediate Duty Two-Bolt Pillow Block Inch Bore
100
AcDbAttributeDefinition
  3

  2
NN
 70
     8
280
     0
  0
ATTDEF
  5
74
330
6E
100
AcDbEntity
  8
AM_6
100
AcDbText
 10
5.9625
 20
1.370000000000001
 30
0.0
 40
0.5
  1
Eccentric Collar Pillow Block Bearings -(Intermediate Duty)
100
AcDbAttributeDefinition
  3

  2
NT
 70
     8
280
     0
  0
ATTDEF
  5
75
330
6E
100
AcDbEntity
  8
AM_6
100
AcDbText
 10
5.9625
 20
0.870000000000001
 30
0.0
 40
0.5
  1
131979
100
AcDbAttributeDefinition
  3

  2
NB
 70
     8
280
     0
  0
ATTDEF
  5
76
330
6E
100
AcDbEntity
  8
AM_6
100
AcDbText
 10
5.9625
 20
0.370000000000001
 30
0.0
 40
0.5
  1
$PN.
100
AcDbAttributeDefinition
  3

  2
NBSYN
 70
     8
280
     0
  0
ATTDEF
  5
77
330
6E
100
AcDbEntity
  8
AM_6
100
AcDbText
 10
5.9625
 20
-0.129999999999999
 30
0.0
 40
0.5
  1
131979
100
AcDbAttributeDefinition
  3

  2
LINA
 70
     8
280
     0
  0
ATTDEF
  5
78
330
6E
100
AcDbEntity
  8
AM_6
100
AcDbText
 10
5.9625
 20
-0.629999999999999
 30
0.0
 40
0.5
  1
207
100
AcDbAttributeDefinition
  3

  2
SERIES
 70
     8
280
     0
  0
ATTDEF
  5
79
330
6E
100
AcDbEntity
  8
AM_6
100
AcDbText
 10
5.9625
 20
-1.129999999999999
 30
0.0
 40
0.5
  1
1-5/16
100
AcDbAttributeDefinition
  3

  2
SS
 70
     8
280
     0
  0
ATTDEF
  5
7A
330
6E
100
AcDbEntity
  8
AM_6
100
AcDbText
 10
5.9625
 20
-1.629999999999999
 30
0.0
 40
0.5
  1
131979
100
AcDbAttributeDefinition
  3

  2
PN
 70
     8
280
     0
  0
ATTDEF
  5
7B
330
6E
100
AcDbEntity
  8
AM_6
100
AcDbText
 10
5.9625
 20
-2.129999999999999
 30
0.0
 40
0.5
  1
P2B-SXV-105
100
AcDbAttributeDefinition
  3

  2
DESCRIPTION
 70
     8
280
     0
  0
ATTDEF
  5
7C
330
6E
100
AcDbEntity
  8
AM_6
100
AcDbText
 10
5.9625
 20
-2.629999999999999
 30
0.0
 40
0.5
  1
RE-LUBE
100
AcDbAttributeDefinition
  3

  2
LF
 70
     8
280
     0
  0
ATTDEF
  5
7D
330
6E
100
AcDbEntity
  8
AM_6
100
AcDbText
 10
5.9625
 20
-3.129999999999999
 30
0.0
 40
0.5
  1
4.30
100
AcDbAttributeDefinition
  3

  2
WEIGHT
 70
     8
280
     0
  0
ATTDEF
  5
7E
330
6E
100
AcDbEntity
  8
AM_6
100
AcDbText
 10
5.9625
 20
-3.629999999999999
 30
0.0
 40
0.5
  1
1.53
100
AcDbAttributeDefinition
  3

  2
A
 70
     8
280
     0
  0
ATTDEF
  5
7F
330
6E
100
AcDbEntity
  8
AM_6
100
AcDbText
 10
5.9625
 20
-4.129999999999999
 30
0.0
 40
0.5
  1
6.50
100
AcDbAttributeDefinition
  3

  2
B
 70
     8
280
     0
  0
ATTDEF
  5
80
330
6E
100
AcDbEntity
  8
AM_6
100
AcDbText
 10
5.9625
 20
-4.629999999999999
 30
0.0
 40
0.5
  1
1.75
100
AcDbAttributeDefinition
  3

  2
C
 70
     8
280
     0
  0
ATTDEF
  5
81
330
6E
100
AcDbEntity
  8
AM_6
100
AcDbText
 10
5.9625
 20
-5.129999999999999
 30
0.0
 40
0.5
  1
4.68
100
AcDbAttributeDefinition
  3

  2
DMIN
 70
     8
280
     0
  0
ATTDEF
  5
82
330
6E
100
AcDbEntity
  8
AM_6
100
AcDbText
 10
5.9625
 20
-5.629999999999999
 30
0.0
 40
0.5
  1
5.44
100
AcDbAttributeDefinition
  3

  2
DMAX
 70
     8
280
     0
  0
ATTDEF
  5
83
330
6E
100
AcDbEntity
  8
AM_6
100
AcDbText
 10
5.9625
 20
-6.129999999999999
 30
0.0
 40
0.5
  1
1/2
100
AcDbAttributeDefinition
  3

  2
F
 70
     8
280
     0
  0
ATTDEF
  5
84
330
6E
100
AcDbEntity
  8
AM_6
100
AcDbText
 10
5.9625
 20
-6.629999999999999
 30
0.0
 40
0.5
  1
0.94
100
AcDbAttributeDefinition
  3

  2
G
 70
     8
280
     0
  0
ATTDEF
  5
85
330
6E
100
AcDbEntity
  8
AM_6
100
AcDbText
 10
5.9625
 20
-7.129999999999999
 30
0.0
 40
0.5
  1
0.71
100
AcDbAttributeDefinition
  3

  2
H
 70
     8
280
     0
  0
ATTDEF
  5
86
330
6E
100
AcDbEntity
  8
AM_6
100
AcDbText
 10
5.9625
 20
-7.629999999999999
 30
0.0
 40
0.5
  1
3.75
100
AcDbAttributeDefinition
  3

  2
J
 70
     8
280
     0
  0
ATTDEF
  5
87
330
6E
100
AcDbEntity
  8
AM_6
100
AcDbText
 10
5.9625
 20
-8.129999999999999
 30
0.0
 40
0.5
  1
2.13
100
AcDbAttributeDefinition
  3

  2
L
 70
     8
280
     0
  0
ATTDEF
  5
88
330
6E
100
AcDbEntity
  8
AM_6
100
AcDbText
 10
5.9625
 20
-8.629999999999999
 30
0.0
 40
0.5
  1
1.88
100
AcDbAttributeDefinition
  3

  2
M
 70
     8
280
     0
  0
ATTDEF
  5
89
330
6E
100
AcDbEntity
  8
AM_6
100
AcDbText
 10
5.9625
 20
-9.129999999999999
 30
0.0
 40
0.5
  1
0.37
100
AcDbAttributeDefinition
  3

  2
R
 70
     8
280
     0
  0
ATTDEF
  5
8A
330
6E
100
AcDbEntity
  8
AM_6
100
AcDbText
 10
5.9625
 20
-9.629999999999999
 30
0.0
 40
0.5
  1
1.16
100
AcDbAttributeDefinition
  3

  2
S
 70
     8
280
     0
  0
ATTDEF
  5
8B
330
6E
100
AcDbEntity
  8
AM_6
100
AcDbText
 10
5.9625
 20
-10.13
 30
0.0
 40
0.5
  1
2.91
100
AcDbAttributeDefinition
  3

  2
U
 70
     8
280
     0
  0
ATTDEF
  5
8C
330
6E
100
AcDbEntity
  8
AM_6
100
AcDbText
 10
5.9625
 20
-10.63
 30
0.0
 40
0.5
  1
5.82
100
AcDbAttributeDefinition
  3

  2
V
 70
     8
280
     0
  0
ATTDEF
  5
8D
330
6E
100
AcDbEntity
  8
AM_6
100
AcDbText
 10
5.9625
 20
-11.13
 30
0.0
 40
0.5
  1
0.56
100
AcDbAttributeDefinition
  3

  2
W
 70
     8
280
     0
  0
ATTDEF
  5
8E
330
6E
100
AcDbEntity
  8
AM_6
100
AcDbText
 10
5.9625
 20
-11.63
 30
0.0
 40
0.5
  1
0.12
100
AcDbAttributeDefinition
  3

  2
X
 70
     8
280
     0
  0
ATTDEF
  5
8F
330
6E
100
AcDbEntity
  8
AM_6
100
AcDbText
 10
5.9625
 20
-12.13
 30
0.0
 40
0.5
  1
baldor
100
AcDbAttributeDefinition
  3

  2
COMPANY
 70
     8
280
     0
  0
INSERT
  5
91
330
6E
100
AcDbEntity
  8
0
100
AcDbBlockReference
  2
2_405015E_Inch_0_in_131979_2
 10
0.0
 20
0.0
 30
0.0
  0
INSERT
  5
E8
330
6E
100
AcDbEntity
  8
0
100
AcDbBlockReference
  2
3_131444_0_in_131979_2
 10
0.0
 20
0.0
 30
0.0
  0
INSERT
  5
149
330
6E
100
AcDbEntity
  8
0
100
AcDbBlockReference
  2
4_131979H_0_in_131979_2
 10
0.0
 20
0.0
 30
0.0
  0
ENDBLK
  5
71
330
6E
100
AcDbEntity
  8
0
100
AcDbBlockEnd
  0
BLOCK
  5
92
330
90
100
AcDbEntity
  8
0
100
AcDbBlockBegin
  2
2_405015E_Inch_0_in_131979_2
 70
     2
 10
0.0
 20
0.0
 30
0.0
  3
2_405015E_Inch_0_in_131979_2
  1

  0
ATTDEF
  5
94
330
90
100
AcDbEntity
  8
AM_6
100
AcDbText
 10
5.21875
 20
1.660058964498763
 30
0.0
 40
0.5
  1
405015E -Inch
100
AcDbAttributeDefinition
  3

  2
NN
 70
     8
280
     0
  0
ATTDEF
  5
95
330
90
100
AcDbEntity
  8
AM_6
100
AcDbText
 10
5.21875
 20
1.160058964498763
 30
0.0
 40
0.5
  1
Grease Fitting
100
AcDbAttributeDefinition
  3

  2
NT
 70
     8
280
     0
  0
ATTDEF
  5
96
330
90
100
AcDbEntity
  8
AM_6
100
AcDbText
 10
5.21875
 20
0.6600589644987633
 30
0.0
 40
0.5
  1
405015E-Inch
100
AcDbAttributeDefinition
  3

  2
NB
 70
     8
280
     0
  0
ATTDEF
  5
97
330
90
100
AcDbEntity
  8
AM_6
100
AcDbText
 10
5.21875
 20
0.1600589644987633
 30
0.0
 40
0.5
  1
$MN.-Inch
100
AcDbAttributeDefinition
  3

  2
NBSYN
 70
     8
280
     0
  0
ATTDEF
  5
98
330
90
100
AcDbEntity
  8
AM_6
100
AcDbText
 10
5.21875
 20
-0.3399410355012367
 30
0.0
 40
0.5
  1
405015E
100
AcDbAttributeDefinition
  3

  2
LINA
 70
     8
280
     0
  0
ATTDEF
  5
99
330
90
100
AcDbEntity
  8
AM_6
100
AcDbText
 10
5.21875
 20
-0.8399410355012367
 30
0.0
 40
0.5
  1
405015E
100
AcDbAttributeDefinition
  3

  2
MN
 70
     8
280
     0
  0
ATTDEF
  5
9A
330
90
100
AcDbEntity
  8
AM_6
100
AcDbText
 10
5.21875
 20
-1.339941035501237
 30
0.0
 40
0.5
  1
1/8 x 27PTF
100
AcDbAttributeDefinition
  3

  2
T
 70
     8
280
     0
  0
ATTDEF
  5
9B
330
90
100
AcDbEntity
  8
AM_6
100
AcDbText
 10
5.21875
 20
-1.839941035501237
 30
0.0
 40
0.5
  1
baldor
100
AcDbAttributeDefinition
  3

  2
COMPANY
 70
     8
280
     0
  0
LWPOLYLINE
  5
9E
330
90
100
AcDbEntity
  8
AM_9
100
AcDbPolyline
 90
        3
 70
     0
 43
0.0
 10
0.0000000000000001
 20
1.507310069131345
 10
0.0544416102741496
 20
1.480379940537483
 10
0.1093750000000001
 20
1.456246151127299
  0
LWPOLYLINE
  5
9F
330
90
100
AcDbEntity
  8
AM_9
100
AcDbPolyline
 90
        3
 70
     0
 43
0.0
 10
-0.1093749999999999
 20
1.456246151127299
 10
-0.0546874999999999
 20
1.480264605295101
 10
0.0000000000000001
 20
1.507310069131345
  0
ELLIPSE
  5
A0
330
90
100
AcDbEntity
  8
AM_9
100
AcDbEllipse
 10
0.0000000000000001
 20
1.134906383804409
 30
0.0
 11
-0.161902872472269
 21
1.982738345459263E-17
 31
0.0
210
0.0
220
0.0
230
1.0
 40
0.7071067811865478
 41
0.0
 42
6.283185307179586
  0
LWPOLYLINE
  5
A1
330
90
100
AcDbEntity
  8
AM_9
100
AcDbPolyline
 90
        3
 70
     0
 43
0.0
 10
0.109375
 20
1.526956829245954
 10
0.0546875
 20
1.547590531847637
 10
0.0000000000000001
 20
1.565197224780878
  0
LWPOLYLINE
  5
A2
330
90
100
AcDbEntity
  8
AM_9
100
AcDbPolyline
 90
        3
 70
     0
 43
0.0
 10
0.0000000000000001
 20
1.565197224780878
 10
-0.0544416102741495
 20
1.547675964725697
 10
-0.1093749999999999
 20
1.526956829245954
  0
LWPOLYLINE
  5
A3
330
90
100
AcDbEntity
  8
AM_9
100
AcDbPolyline
 90
        3
 70
     0
 43
0.0
 10
-0.2187499999999999
 20
1.418005755592375
 10
-0.1643083897258503
 20
1.435527015647556
 10
-0.1093749999999999
 20
1.456246151127299
  0
LINE
  5
A4
330
90
100
AcDbEntity
  8
AM_9
100
AcDbLine
 10
0.0000000000000001
 20
1.565197224780878
 30
0.0
 11
0.0000000000000001
 21
1.507310069131345
 31
0.0
  0
LWPOLYLINE
  5
A5
330
90
100
AcDbEntity
  8
AM_9
100
AcDbPolyline
 90
        3
 70
     0
 43
0.0
 10
0.1093750000000001
 20
1.456246151127299
 10
0.1640625
 20
1.435612448525616
 10
0.2187500000000001
 20
1.418005755592375
  0
ELLIPSE
  5
A6
330
90
100
AcDbEntity
  8
AM_9
100
AcDbEllipse
 10
-0.0000000000000003
 20
1.322289680818845
 30
0.0
 11
0.2187499999999998
 21
0.0
 31
0.0
210
0.0
220
0.0
230
1.0
 40
0.7071067811865459
 41
2.094395102393195
 42
3.141592653589793
  0
LINE
  5
A7
330
90
100
AcDbEntity
  8
AM_9
100
AcDbLine
 10
0.1327014295954534
 20
1.517120844519098
 30
0.0
 11
0.109375
 21
1.526956829245954
 31
0.0
  0
LINE
  5
A8
330
90
100
AcDbEntity
  8
AM_9
100
AcDbLine
 10
-0.1093749999999999
 20
1.526956829245954
 30
0.0
 11
-0.1331019282097268
 21
1.516946543078737
 31
0.0
  0
ELLIPSE
  5
A9
330
90
100
AcDbEntity
  8
AM_9
100
AcDbEllipse
 10
-0.0000000000000002
 20
1.322289680818844
 30
0.0
 11
0.2057518972230699
 21
0.0
 31
0.0
210
0.0
220
0.0
230
1.0
 40
0.7071067811865486
 41
4.71238898038469
 42
9.456034611736145
  0
LINE
  5
AA
330
90
100
AcDbEntity
  8
AM_9
100
AcDbLine
 10
0.1985206121313389
 20
1.156478545252836
 30
0.0
 11
0.2056510525257053
 21
1.317735126611447
 31
0.0
  0
LINE
  5
AB
330
90
100
AcDbEntity
  8
AM_9
100
AcDbLine
 10
-0.2056510525257051
 20
1.317735126611447
 30
0.0
 11
-0.1985206121313388
 21
1.156478545252836
 31
0.0
  0
ELLIPSE
  5
AC
330
90
100
AcDbEntity
  8
AM_9
100
AcDbEllipse
 10
0.0000000000000003
 20
1.322289680818844
 30
0.0
 11
0.2057518972230697
 21
3.065942186460938E-9
 31
0.0
210
0.0
220
0.0
230
1.0
 40
0.7071067811865491
 41
3.172849283493427
 42
4.712388969847977
  0
ELLIPSE
  5
AD
330
90
100
AcDbEntity
  8
AM_9
100
AcDbEllipse
 10
0.0000000000000001
 20
1.322289680818843
 30
0.0
 11
0.21875
 21
0.0
 31
0.0
210
0.0
220
0.0
230
1.0
 40
0.707106781186545
 41
3.141592653589793
 42
4.188790204786389
  0
ELLIPSE
  5
AE
330
90
100
AcDbEntity
  8
AM_9
100
AcDbEllipse
 10
-0.0000000000000003
 20
1.322289680818844
 30
0.0
 11
0.2187500000000003
 21
3.259629011154180E-9
 31
0.0
210
0.0
220
0.0
230
1.0
 40
0.707106781186545
 41
4.188790191615501
 42
8.377580396401887
  0
ELLIPSE
  5
AF
330
90
100
AcDbEntity
  8
AM_9
100
AcDbEllipse
 10
-0.0000000000000074
 20
1.39300035893743
 30
0.0
 11
0.218749999999986
 21
0.0
 31
0.0
210
0.0
220
0.0
230
1.0
 40
0.707106781186843
 41
-4.188790204786462
 42
-4.057286255304573
  0
ELLIPSE
  5
B0
330
90
100
AcDbEntity
  8
AM_9
100
AcDbEllipse
 10
0.0000000000000091
 20
1.393000358937431
 30
0.0
 11
0.218749999999984
 21
3.259629011153937E-9
 31
0.0
210
0.0
220
0.0
230
1.0
 40
0.7071067811868424
 41
0.9156935872671141
 42
2.094395089222303
  0
LINE
  5
B1
330
90
100
AcDbEntity
  8
AM_9
100
AcDbLine
 10
-0.0948683298050513
 20
1.499066376115481
 30
0.0
 11
-0.1073548910028989
 21
1.480452509686415
 31
0.0
  0
LINE
  5
B2
330
90
100
AcDbEntity
  8
AM_9
100
AcDbLine
 10
0.1073548910028991
 20
1.480452509686415
 30
0.0
 11
0.0948683298050515
 21
1.499066376115481
 31
0.0
  0
ELLIPSE
  5
B3
330
90
100
AcDbEntity
  8
AM_9
100
AcDbEllipse
 10
0.0
 20
1.467246570962086
 30
0.0
 11
0.1050000000000001
 21
0.0
 31
0.0
210
0.0
220
0.0
230
1.0
 40
0.7071067811865487
 41
0.442911044073635
 42
2.698681609516152
  0
ELLIPSE
  5
B4
330
90
100
AcDbEntity
  8
AM_9
100
AcDbEllipse
 10
-0.0000000000000004
 20
1.467246570962091
 30
0.0
 11
0.1049999999999995
 21
1.564621925353996E-9
 31
0.0
210
0.0
220
0.0
230
1.0
 40
0.7071067811865424
 41
2.698681590378093
 42
3.141592638688632
  0
ELLIPSE
  5
B5
330
90
100
AcDbEntity
  8
AM_9
100
AcDbEllipse
 10
-0.000000000000014
 20
1.444444584586585
 30
0.0
 11
0.1188200907348821
 21
1.770557325108084E-9
 31
0.0
210
0.0
220
0.0
230
1.0
 40
0.7071067811862248
 41
-3.584503716800649
 42
-3.517813299340844
  0
ELLIPSE
  5
B6
330
90
100
AcDbEntity
  8
AM_9
100
AcDbEllipse
 10
0.0000000000000001
 20
1.393000358937499
 30
0.0
 11
0.2137499999999995
 21
3.185123205184930E-9
 31
0.0
210
0.0
220
0.0
230
1.0
 40
0.7071067811865471
 41
0.903655204269759
 42
2.237937420178809
  0
LINE
  5
B7
330
90
100
AcDbEntity
  8
AM_9
100
AcDbLine
 10
0.1050000000000001
 20
1.468565561844625
 30
0.0
 11
0.1050000000000001
 21
1.488459774397683
 31
0.0
  0
LINE
  5
B8
330
90
100
AcDbEntity
  8
AM_9
100
AcDbLine
 10
-0.1049999999999999
 20
1.488459774397683
 30
0.0
 11
-0.1049999999999999
 21
1.468565561844625
 31
0.0
  0
ELLIPSE
  5
B9
330
90
100
AcDbEntity
  8
AM_9
100
AcDbEllipse
 10
0.0000000000000001
 20
1.488459774397683
 30
0.0
 11
0.105
 21
0.0
 31
0.0
210
0.0
220
0.0
230
1.0
 40
0.7071067811865476
 41
0.0
 42
3.66519142918809
  0
ELLIPSE
  5
BA
330
90
100
AcDbEntity
  8
AM_9
100
AcDbEllipse
 10
0.0000000000000025
 20
1.467246570962087
 30
0.0
 11
0.1049999999999976
 21
0.0
 31
0.0
210
0.0
220
0.0
230
1.0
 40
0.7071067811865466
 41
0.0
 42
0.4429110440736406
  0
ELLIPSE
  5
BB
330
90
100
AcDbEntity
  8
AM_9
100
AcDbEllipse
 10
0.0000000000000001
 20
1.405953281344879
 30
0.0
 11
0.1725340532830157
 21
2.570957739398118E-9
 31
0.0
210
0.0
220
0.0
230
1.0
 40
0.7071067811865409
 41
0.7772913272515707
 42
1.73373058490856
  0
LINE
  5
BC
330
90
100
AcDbEntity
  8
AM_9
100
AcDbLine
 10
-0.0192743186691526
 20
1.527350297906159
 30
0.0
 11
-0.0279874918769163
 21
1.526337457715168
 31
0.0
  0
LINE
  5
BD
330
90
100
AcDbEntity
  8
AM_9
100
AcDbLine
 10
0.0279874918769165
 20
1.526337457715168
 30
0.0
 11
0.0192743186691528
 21
1.527350297906159
 31
0.0
  0
ELLIPSE
  5
BE
330
90
100
AcDbEntity
  8
AM_9
100
AcDbEllipse
 10
-0.0000000000000005
 20
1.444444584586482
 30
0.0
 11
0.1188200907348966
 21
1.770557325108299E-9
 31
0.0
210
0.0
220
0.0
230
1.0
 40
0.7071067811865482
 41
0.376220606449821
 42
2.698681590378051
  0
ELLIPSE
  5
BF
330
90
100
AcDbEntity
  8
AM_9
100
AcDbEllipse
 10
0.0000000000000002
 20
1.405953281344879
 30
0.0
 11
0.1725340532830159
 21
0.0
 31
0.0
210
0.0
220
0.0
230
1.0
 40
0.7071067811865415
 41
1.73373059572253
 42
2.364301310447738
  0
ELLIPSE
  5
C0
330
90
100
AcDbEntity
  8
AM_9
100
AcDbEllipse
 10
0.0000000000000012
 20
1.488459774397681
 30
0.0
 11
0.1049999999999989
 21
0.0
 31
0.0
210
0.0
220
0.0
230
1.0
 40
0.7071067811865419
 41
5.7595865315813
 42
6.283185307179586
  0
ELLIPSE
  5
C1
330
90
100
AcDbEntity
  8
AM_9
100
AcDbEllipse
 10
0.0000000000000001
 20
1.530886181268876
 30
0.0
 11
0.135
 21
0.0
 31
0.0
210
0.0
220
0.0
230
1.0
 40
0.7071067811865483
 41
0.4159140521025453
 42
2.725678601487248
  0
ELLIPSE
  5
C2
330
90
100
AcDbEntity
  8
AM_9
100
AcDbEllipse
 10
0.0000000000000001
 20
1.160867635545863
 30
0.0
 11
0.1986176267812153
 21
0.0
 31
0.0
210
0.0
220
0.0
230
1.0
 40
0.7071067811865469
 41
0.0
 42
6.283185307179586
  0
LWPOLYLINE
  5
C4
330
90
100
AcDbEntity
  8
AM_4
100
AcDbPolyline
 90
        3
 70
     0
 43
0.0
 10
0.2187500000000001
 20
1.475892911241908
 10
0.1643083897258504
 20
1.50282303983577
 10
0.1327014295954534
 20
1.517120844519098
  0
LWPOLYLINE
  5
C5
330
90
100
AcDbEntity
  8
AM_4
100
AcDbPolyline
 90
        3
 70
     0
 43
0.0
 10
-0.1331019282097268
 20
1.516946543078737
 10
-0.1640624999999999
 20
1.502938375078152
 10
-0.2187499999999999
 20
1.475892911241908
  0
ELLIPSE
  5
C6
330
90
100
AcDbEntity
  8
AM_4
100
AcDbEllipse
 10
-0.0000000000000001
 20
1.393000358937498
 30
0.0
 11
0.2187500000000001
 21
0.0
 31
0.0
210
0.0
220
0.0
230
1.0
 40
0.7071067811865446
 41
2.225899051875103
 42
7.198878908894274
  0
ELLIPSE
  5
C7
330
90
100
AcDbEntity
  8
AM_4
100
AcDbEllipse
 10
0.0000000000000001
 20
1.444444584586481
 30
0.0
 11
0.1188200907348975
 21
0.0
 31
0.0
210
0.0
220
0.0
230
1.0
 40
0.7071067811865465
 41
2.765372027488875
 42
4.71238898038469
  0
ELLIPSE
  5
C8
330
90
100
AcDbEntity
  8
AM_4
100
AcDbEllipse
 10
-0.0000000000000001
 20
1.393000358937499
 30
0.0
 11
0.2137499999999999
 21
0.0
 31
0.0
210
0.0
220
0.0
230
1.0
 40
0.707106781186547
 41
2.237937434749419
 42
7.186840526019957
  0
ELLIPSE
  5
C9
330
90
100
AcDbEntity
  8
AM_4
100
AcDbEllipse
 10
-0.0000000000000001
 20
1.467246570962086
 30
0.0
 11
0.1050000000000002
 21
0.0
 31
0.0
210
0.0
220
0.0
230
1.0
 40
0.7071067811865442
 41
4.71238898038469
 42
6.283185307179586
  0
LINE
  5
CA
330
90
100
AcDbEntity
  8
AM_4
100
AcDbLine
 10
0.1050000000000001
 20
1.467246570962086
 30
0.0
 11
0.1050000000000001
 21
1.468565561844625
 31
0.0
  0
LINE
  5
CB
330
90
100
AcDbEntity
  8
AM_4
100
AcDbLine
 10
-0.1049999999999999
 20
1.468565561844625
 30
0.0
 11
-0.1049999999999999
 21
1.467246570962086
 31
0.0
  0
ELLIPSE
  5
CC
330
90
100
AcDbEntity
  8
AM_4
100
AcDbEllipse
 10
0.0000000000000003
 20
1.467246570962086
 30
0.0
 11
0.1050000000000001
 21
1.564621925354006E-9
 31
0.0
210
0.0
220
0.0
230
1.0
 40
0.7071067811865442
 41
3.141592638688632
 42
4.712388969847975
  0
ELLIPSE
  5
CD
330
90
100
AcDbEntity
  8
AM_4
100
AcDbEllipse
 10
0.0000000000000001
 20
1.444444584586481
 30
0.0
 11
0.1188200907348975
 21
1.770557325108312E-9
 31
0.0
210
0.0
220
0.0
230
1.0
 40
0.7071067811865466
 41
4.712388969847977
 42
6.659405913629417
  0
ELLIPSE
  5
CE
330
90
100
AcDbEntity
  8
AM_4
100
AcDbEllipse
 10
-0.0000000000000001
 20
1.405953281344878
 30
0.0
 11
0.1725340532830155
 21
0.0
 31
0.0
210
0.0
220
0.0
230
1.0
 40
0.7071067811865469
 41
4.71238898038469
 42
7.060476650321641
  0
ELLIPSE
  5
CF
330
90
100
AcDbEntity
  8
AM_4
100
AcDbEllipse
 10
0.0000000000000003
 20
1.405953281344878
 30
0.0
 11
0.1725340532830156
 21
0.0
 31
0.0
210
0.0
220
0.0
230
1.0
 40
0.7071067811865468
 41
2.364301310447738
 42
4.71238898038469
  0
LWPOLYLINE
  5
D0
330
90
100
AcDbEntity
  8
AM_4
100
AcDbPolyline
 90
        3
 70
     0
 43
0.0
 10
-0.2187499999999999
 20
1.297284284163968
 10
-0.1643083897258503
 20
1.279763024108787
 10
-0.1093749999999999
 20
1.259043888629044
  0
LINE
  5
D1
330
90
100
AcDbEntity
  8
AM_4
100
AcDbLine
 10
-0.2187499999999999
 20
1.475892911241908
 30
0.0
 11
-0.2187499999999999
 21
1.239397128514435
 31
0.0
  0
LWPOLYLINE
  5
D2
330
90
100
AcDbEntity
  8
AM_4
100
AcDbPolyline
 90
        3
 70
     0
 43
0.0
 10
-0.1093749999999999
 20
1.188333210510389
 10
-0.1640624999999999
 20
1.212351664678191
 10
-0.2187499999999999
 20
1.239397128514435
  0
LWPOLYLINE
  5
D3
330
90
100
AcDbEntity
  8
AM_4
100
AcDbPolyline
 90
        3
 70
     0
 43
0.0
 10
0.0000000000000001
 20
1.150092814975465
 10
-0.0544416102741495
 20
1.167614075030646
 10
-0.1093749999999999
 20
1.188333210510389
  0
LWPOLYLINE
  5
D4
330
90
100
AcDbEntity
  8
AM_4
100
AcDbPolyline
 90
        3
 70
     0
 43
0.0
 10
-0.1093749999999999
 20
1.259043888629044
 10
-0.0546874999999999
 20
1.235025434461242
 10
0.0000000000000001
 20
1.207979970624998
  0
LINE
  5
D5
330
90
100
AcDbEntity
  8
AM_4
100
AcDbLine
 10
0.2187500000000001
 20
1.475892911241908
 30
0.0
 11
0.2187500000000001
 21
1.239397128514435
 31
0.0
  0
LWPOLYLINE
  5
D6
330
90
100
AcDbEntity
  8
AM_4
100
AcDbPolyline
 90
        3
 70
     0
 43
0.0
 10
0.109375
 20
1.259043888629044
 10
0.1640625
 20
1.279677591230727
 10
0.2187500000000001
 20
1.297284284163968
  0
LWPOLYLINE
  5
D7
330
90
100
AcDbEntity
  8
AM_4
100
AcDbPolyline
 90
        3
 70
     0
 43
0.0
 10
0.0000000000000001
 20
1.207979970624998
 10
0.0544416102741497
 20
1.23491009921886
 10
0.109375
 20
1.259043888629044
  0
LINE
  5
D8
330
90
100
AcDbEntity
  8
AM_4
100
AcDbLine
 10
0.0000000000000001
 20
1.207979970624998
 30
0.0
 11
0.0000000000000001
 21
1.150092814975465
 31
0.0
  0
LWPOLYLINE
  5
D9
330
90
100
AcDbEntity
  8
AM_4
100
AcDbPolyline
 90
        3
 70
     0
 43
0.0
 10
0.1093750000000001
 20
1.188333210510389
 10
0.0546875000000001
 20
1.167699507908706
 10
0.0000000000000001
 20
1.150092814975465
  0
LWPOLYLINE
  5
DA
330
90
100
AcDbEntity
  8
AM_4
100
AcDbPolyline
 90
        3
 70
     0
 43
0.0
 10
0.2187500000000001
 20
1.239397128514435
 10
0.1643083897258505
 20
1.212466999920573
 10
0.1093750000000001
 20
1.188333210510389
  0
ELLIPSE
  5
DB
330
90
100
AcDbEntity
  8
AM_4
100
AcDbEllipse
 10
0.0000000000000003
 20
1.488459774397682
 30
0.0
 11
0.1049999999999995
 21
0.0
 31
0.0
210
0.0
220
0.0
230
1.0
 40
0.7071067811865465
 41
4.71238898038469
 42
5.759586531581292
  0
LINE
  5
DC
330
90
100
AcDbEntity
  8
AM_4
100
AcDbLine
 10
0.0909326673973662
 20
1.451336668385389
 30
0.0
 11
0.1169134295108993
 21
1.483156473538784
 31
0.0
  0
LINE
  5
DD
330
90
100
AcDbEntity
  8
AM_4
100
AcDbLine
 10
-0.1169134295108991
 20
1.483156473538784
 30
0.0
 11
-0.090932667397366
 21
1.451336668385389
 31
0.0
  0
ELLIPSE
  5
DE
330
90
100
AcDbEntity
  8
AM_4
100
AcDbEllipse
 10
-0.0000000000000002
 20
1.530886181268875
 30
0.0
 11
0.1350000000000003
 21
0.0
 31
0.0
210
0.0
220
0.0
230
1.0
 40
0.7071067811865482
 41
5.759586531581292
 42
6.699099359282133
  0
ELLIPSE
  5
DF
330
90
100
AcDbEntity
  8
AM_4
100
AcDbEllipse
 10
0.0000000000000003
 20
1.530886181268875
 30
0.0
 11
0.1350000000000001
 21
0.0
 31
0.0
210
0.0
220
0.0
230
1.0
 40
0.7071067811865424
 41
3.66519142918809
 42
4.71238898038469
  0
ELLIPSE
  5
E0
330
90
100
AcDbEntity
  8
AM_4
100
AcDbEllipse
 10
-0.0000000000000001
 20
1.488459774397683
 30
0.0
 11
0.1049999999999995
 21
0.0
 31
0.0
210
0.0
220
0.0
230
1.0
 40
0.7071067811865483
 41
3.665191429188088
 42
4.71238898038469
  0
ELLIPSE
  5
E1
330
90
100
AcDbEntity
  8
AM_4
100
AcDbEllipse
 10
0.0
 20
1.587454723763799
 30
0.0
 11
0.1026779019331874
 21
0.0
 31
0.0
210
0.0
220
0.0
230
1.0
 40
0.7071067811865471
 41
4.71238898038469
 42
9.008863908666829
  0
ELLIPSE
  5
E2
330
90
100
AcDbEntity
  8
AM_4
100
AcDbEllipse
 10
-0.0000000000000001
 20
1.530886181268875
 30
0.0
 11
0.1350000000000003
 21
0.0
 31
0.0
210
0.0
220
0.0
230
1.0
 40
0.7071067811865417
 41
4.71238898038469
 42
5.759586531581291
  0
LINE
  5
E3
330
90
100
AcDbEntity
  8
AM_4
100
AcDbLine
 10
-0.0939243440009286
 20
1.616788741127574
 30
0.0
 11
-0.1234908992236334
 21
1.569454288617684
 31
0.0
  0
LINE
  5
E4
330
90
100
AcDbEntity
  8
AM_4
100
AcDbLine
 10
0.1234908992236336
 20
1.569454288617684
 30
0.0
 11
0.0939243440009288
 21
1.616788741127574
 31
0.0
  0
ELLIPSE
  5
E5
330
90
100
AcDbEntity
  8
AM_4
100
AcDbEllipse
 10
0.0000000000000002
 20
1.587454723763799
 30
0.0
 11
0.1026779019331874
 21
0.0
 31
0.0
210
0.0
220
0.0
230
1.0
 40
0.7071067811865471
 41
2.725678601487241
 42
4.71238898038469
  0
ELLIPSE
  5
E6
330
90
100
AcDbEntity
  8
AM_4
100
AcDbEllipse
 10
0.0
 20
1.530886181268876
 30
0.0
 11
0.1349999999999999
 21
0.0
 31
0.0
210
0.0
220
0.0
230
1.0
 40
0.7071067811865468
 41
2.725678601487246
 42
3.665191429188094
  0
ENDBLK
  5
93
330
90
100
AcDbEntity
  8
0
100
AcDbBlockEnd
  0
BLOCK
  5
E9
330
E7
100
AcDbEntity
  8
0
100
AcDbBlockBegin
  2
3_131444_0_in_131979_2
 70
     2
 10
0.0
 20
0.0
 30
0.0
  3
3_131444_0_in_131979_2
  1

  0
ATTDEF
  5
EB
330
E7
100
AcDbEntity
  8
AM_6
100
AcDbText
 10
5.375
 20
1.416505443401022
 30
0.0
 40
0.5
  1
Eccentric Collar Intermediate Duty Insert Inch Bore
100
AcDbAttributeDefinition
  3

  2
NN
 70
     8
280
     0
  0
ATTDEF
  5
EC
330
E7
100
AcDbEntity
  8
AM_6
100
AcDbText
 10
5.375
 20
0.9165054434010218
 30
0.0
 40
0.5
  1
Eccentric Collar Bearing Inserts -(Intermediate Duty)
100
AcDbAttributeDefinition
  3

  2
NT
 70
     8
280
     0
  0
ATTDEF
  5
ED
330
E7
100
AcDbEntity
  8
AM_6
100
AcDbText
 10
5.375
 20
0.4165054434010218
 30
0.0
 40
0.5
  1
131444
100
AcDbAttributeDefinition
  3

  2
NB
 70
     8
280
     0
  0
ATTDEF
  5
EE
330
E7
100
AcDbEntity
  8
AM_6
100
AcDbText
 10
5.375
 20
-0.0834945565989782
 30
0.0
 40
0.5
  1
$PN.
100
AcDbAttributeDefinition
  3

  2
NBSYN
 70
     8
280
     0
  0
ATTDEF
  5
EF
330
E7
100
AcDbEntity
  8
AM_6
100
AcDbText
 10
5.375
 20
-0.5834945565989782
 30
0.0
 40
0.5
  1
131444
100
AcDbAttributeDefinition
  3

  2
LINA
 70
     8
280
     0
  0
ATTDEF
  5
F0
330
E7
100
AcDbEntity
  8
AM_6
100
AcDbText
 10
5.375
 20
-1.083494556598978
 30
0.0
 40
0.5
  1
207
100
AcDbAttributeDefinition
  3

  2
SERIES
 70
     8
280
     0
  0
ATTDEF
  5
F1
330
E7
100
AcDbEntity
  8
AM_6
100
AcDbText
 10
5.375
 20
-1.583494556598978
 30
0.0
 40
0.5
  1
1-5/16
100
AcDbAttributeDefinition
  3

  2
SS
 70
     8
280
     0
  0
ATTDEF
  5
F2
330
E7
100
AcDbEntity
  8
AM_6
100
AcDbText
 10
5.375
 20
-2.083494556598978
 30
0.0
 40
0.5
  1
131444
100
AcDbAttributeDefinition
  3

  2
PN
 70
     8
280
     0
  0
ATTDEF
  5
F3
330
E7
100
AcDbEntity
  8
AM_6
100
AcDbText
 10
5.375
 20
-2.583494556598978
 30
0.0
 40
0.5
  1
INS-SXV-105
100
AcDbAttributeDefinition
  3

  2
DESCRIPTION
 70
     8
280
     0
  0
ATTDEF
  5
F4
330
E7
100
AcDbEntity
  8
AM_6
100
AcDbText
 10
5.375
 20
-3.083494556598978
 30
0.0
 40
0.5
  1
1.2
100
AcDbAttributeDefinition
  3

  2
WEIGHT
 70
     8
280
     0
  0
ATTDEF
  5
F5
330
E7
100
AcDbEntity
  8
AM_6
100
AcDbText
 10
5.375
 20
-3.583494556598978
 30
0.0
 40
0.5
  1
1.53
100
AcDbAttributeDefinition
  3

  2
A
 70
     8
280
     0
  0
ATTDEF
  5
F6
330
E7
100
AcDbEntity
  8
AM_6
100
AcDbText
 10
5.375
 20
-4.083494556598978
 30
0.0
 40
0.5
  1
0.75
100
AcDbAttributeDefinition
  3

  2
C
 70
     8
280
     0
  0
ATTDEF
  5
F7
330
E7
100
AcDbEntity
  8
AM_6
100
AcDbText
 10
5.375
 20
-4.583494556598978
 30
0.0
 40
0.5
  1
2.8346
100
AcDbAttributeDefinition
  3

  2
D
 70
     8
280
     0
  0
ATTDEF
  5
F8
330
E7
100
AcDbEntity
  8
AM_6
100
AcDbText
 10
5.375
 20
-5.083494556598978
 30
0.0
 40
0.5
  1
0.20
100
AcDbAttributeDefinition
  3

  2
J
 70
     8
280
     0
  0
ATTDEF
  5
F9
330
E7
100
AcDbEntity
  8
AM_6
100
AcDbText
 10
5.375
 20
-5.583494556598978
 30
0.0
 40
0.5
  1
2.13
100
AcDbAttributeDefinition
  3

  2
L
 70
     8
280
     0
  0
ATTDEF
  5
FA
330
E7
100
AcDbEntity
  8
AM_6
100
AcDbText
 10
5.375
 20
-6.083494556598978
 30
0.0
 40
0.5
  1
5/16 - 24
100
AcDbAttributeDefinition
  3

  2
N
 70
     8
280
     0
  0
ATTDEF
  5
FB
330
E7
100
AcDbEntity
  8
AM_6
100
AcDbText
 10
5.375
 20
-6.583494556598978
 30
0.0
 40
0.5
  1
0.37
100
AcDbAttributeDefinition
  3

  2
W
 70
     8
280
     0
  0
ATTDEF
  5
FC
330
E7
100
AcDbEntity
  8
AM_6
100
AcDbText
 10
5.375
 20
-7.083494556598978
 30
0.0
 40
0.5
  1
1.16
100
AcDbAttributeDefinition
  3

  2
Y
 70
     8
280
     0
  0
ATTDEF
  5
FD
330
E7
100
AcDbEntity
  8
AM_6
100
AcDbText
 10
5.375
 20
-7.583494556598978
 30
0.0
 40
0.5
  1
1.84
100
AcDbAttributeDefinition
  3

  2
Z
 70
     8
280
     0
  0
ATTDEF
  5
FE
330
E7
100
AcDbEntity
  8
AM_6
100
AcDbText
 10
5.375
 20
-8.083494556598978
 30
0.0
 40
0.5
  1
baldor
100
AcDbAttributeDefinition
  3

  2
COMPANY
 70
     8
280
     0
  0
LINE
  5
FF
330
E7
100
AcDbEntity
  8
AM_9
100
AcDbLine
 10
-0.7862750000000002
 20
1.05932564637252
 30
0.0
 11
-0.7806006463725205
 21
1.065
 31
0.0
  0
LINE
  5
100
330
E7
100
AcDbEntity
  8
AM_9
100
AcDbLine
 10
-1.07064935362748
 20
1.065
 30
0.0
 11
-1.064975
 21
1.05932564637252
 31
0.0
  0
LINE
  5
101
330
E7
100
AcDbEntity
  8
AM_9
100
AcDbLine
 10
-0.8398098057593634
 20
1.05932564637252
 30
0.0
 11
-0.7862750000000002
 21
1.05932564637252
 31
0.0
  0
LINE
  5
102
330
E7
100
AcDbEntity
  8
AM_9
100
AcDbLine
 10
-0.7862750000000002
 20
0.65625
 30
0.0
 11
-0.7862750000000002
 21
1.05932564637252
 31
0.0
  0
LINE
  5
103
330
E7
100
AcDbEntity
  8
AM_9
100
AcDbLine
 10
-1.064975
 20
1.05932564637252
 30
0.0
 11
-1.064975
 21
0.6562499999999999
 31
0.0
  0
LINE
  5
104
330
E7
100
AcDbEntity
  8
AM_9
100
AcDbLine
 10
-1.064975
 20
1.05932564637252
 30
0.0
 11
-1.011440194240637
 21
1.05932564637252
 31
0.0
  0
LINE
  5
105
330
E7
100
AcDbEntity
  8
AM_9
100
AcDbLine
 10
-0.678125
 20
-0.65625
 30
0.0
 11
-0.2625
 21
-0.65625
 31
0.0
  0
LINE
  5
106
330
E7
100
AcDbEntity
  8
AM_9
100
AcDbLine
 10
-0.2625
 20
0.65625
 30
0.0
 11
-0.678125
 21
0.65625
 31
0.0
  0
LWPOLYLINE
  5
107
330
E7
100
AcDbEntity
  8
AM_9
100
AcDbPolyline
 90
       20
 70
     0
 43
0.0
 10
-1.064975
 20
0.65625
 10
-1.063101547944046
 20
0.6558547409561141
 10
-1.057321383543535
 20
0.6546675319873789
 10
-1.048140341013525
 20
0.6528825689078092
 10
-1.035311803979054
 20
0.6505972909312945
 10
-1.019657486355669
 20
0.6481417657351122
 10
-1.000877353372422
 20
0.6456845643873547
 10
-0.9802910501682373
 20
0.6436101436747219
 10
-0.9574544502070074
 20
0.6420737916318344
 10
-0.9346812571466359
 20
0.6413483108214334
 10
-0.9109593382281617
 20
0.6414520415706898
 10
-0.8887142851172263
 20
0.6423457331322109
 10
-0.866888381515761
 20
0.6439686563420328
 10
-0.8471174740371775
 20
0.6460720328514487
 10
-0.8289987444639028
 20
0.6485231478204361
 10
-0.8137013344643815
 20
0.650978146259096
 10
-0.8011813521930257
 20
0.6532471672188914
 10
-0.7924848175499297
 20
0.654959501177621
 10
-0.7874010630125267
 20
0.6560118114457368
 10
-0.7862750000015943
 20
0.6562499999996615
  0
LINE
  5
108
330
E7
100
AcDbEntity
  8
AM_9
100
AcDbLine
 10
-1.141438446993853
 20
-0.65625
 30
0.0
 11
-0.7043750000000002
 21
-0.65625
 31
0.0
  0
LINE
  5
109
330
E7
100
AcDbEntity
  8
AM_9
100
AcDbLine
 10
-0.7043750000000002
 20
0.65625
 30
0.0
 11
-0.7862750000000002
 21
0.65625
 31
0.0
  0
LINE
  5
10A
330
E7
100
AcDbEntity
  8
AM_9
100
AcDbLine
 10
-1.064975
 20
0.65625
 30
0.0
 11
-1.141438446993853
 21
0.65625
 31
0.0
  0
LINE
  5
10B
330
E7
100
AcDbEntity
  8
AM_9
100
AcDbLine
 10
-0.7043750000000002
 20
-0.65625
 30
0.0
 11
-0.6912500000000001
 21
-0.6693750000000003
 31
0.0
  0
LINE
  5
10C
330
E7
100
AcDbEntity
  8
AM_9
100
AcDbLine
 10
-0.6912500000000001
 20
0.6693750000000003
 30
0.0
 11
-0.7043750000000002
 21
0.65625
 31
0.0
  0
LINE
  5
10D
330
E7
100
AcDbEntity
  8
AM_9
100
AcDbLine
 10
-0.7043750000000002
 20
0.65625
 30
0.0
 11
-0.7043750000000002
 21
-0.65625
 31
0.0
  0
LINE
  5
10E
330
E7
100
AcDbEntity
  8
AM_9
100
AcDbLine
 10
-0.678125
 20
0.65625
 30
0.0
 11
-0.6912500000000001
 21
0.6693750000000003
 31
0.0
  0
LINE
  5
10F
330
E7
100
AcDbEntity
  8
AM_9
100
AcDbLine
 10
-0.6912500000000001
 20
-0.6693750000000003
 30
0.0
 11
-0.678125
 21
-0.65625
 31
0.0
  0
LINE
  5
110
330
E7
100
AcDbEntity
  8
AM_9
100
AcDbLine
 10
-0.678125
 20
0.65625
 30
0.0
 11
-0.678125
 21
-0.65625
 31
0.0
  0
LINE
  5
111
330
E7
100
AcDbEntity
  8
AM_9
100
AcDbLine
 10
-0.6912500000000001
 20
0.6693750000000003
 30
0.0
 11
-0.6912500000000001
 21
-0.6693750000000003
 31
0.0
  0
LINE
  5
112
330
E7
100
AcDbEntity
  8
AM_9
100
AcDbLine
 10
-1.141438446993853
 20
0.65625
 30
0.0
 11
-1.16
 21
0.6748115530061469
 31
0.0
  0
LINE
  5
113
330
E7
100
AcDbEntity
  8
AM_9
100
AcDbLine
 10
-1.16
 20
-0.6748115530061469
 30
0.0
 11
-1.141438446993853
 21
-0.65625
 31
0.0
  0
LINE
  5
114
330
E7
100
AcDbEntity
  8
AM_9
100
AcDbLine
 10
-1.141438446993853
 20
0.65625
 30
0.0
 11
-1.141438446993853
 21
-0.65625
 31
0.0
  0
LINE
  5
115
330
E7
100
AcDbEntity
  8
AM_9
100
AcDbLine
 10
-0.5975000000000001
 20
-0.8761904761904762
 30
0.0
 11
-0.5662500000000001
 21
-0.8761904761904762
 31
0.0
  0
LINE
  5
116
330
E7
100
AcDbEntity
  8
AM_9
100
AcDbLine
 10
-0.5662500000000001
 20
0.8761904761904762
 30
0.0
 11
-0.5805235745614032
 21
0.8761904761904762
 31
0.0
  0
LINE
  5
117
330
E7
100
AcDbEntity
  8
AM_9
100
AcDbLine
 10
0.37
 20
-0.92
 30
0.0
 11
0.3749999999999999
 21
-0.92
 31
0.0
  0
LINE
  5
118
330
E7
100
AcDbEntity
  8
AM_9
100
AcDbLine
 10
0.3749999999999999
 20
0.92
 30
0.0
 11
0.37
 21
0.92
 31
0.0
  0
LINE
  5
119
330
E7
100
AcDbEntity
  8
AM_9
100
AcDbLine
 10
0.37
 20
0.92
 30
0.0
 11
0.37
 21
-0.92
 31
0.0
  0
LINE
  5
11A
330
E7
100
AcDbEntity
  8
AM_9
100
AcDbLine
 10
-0.5662500000000003
 20
-0.92
 30
0.0
 11
-0.3749999999999999
 21
-0.92
 31
0.0
  0
LINE
  5
11B
330
E7
100
AcDbEntity
  8
AM_9
100
AcDbLine
 10
-0.3749999999999999
 20
0.92
 30
0.0
 11
-0.5662500000000003
 21
0.92
 31
0.0
  0
LINE
  5
11C
330
E7
100
AcDbEntity
  8
AM_9
100
AcDbLine
 10
-0.5662500000000003
 20
0.92
 30
0.0
 11
-0.5662500000000003
 21
-0.92
 31
0.0
  0
LINE
  5
11D
330
E7
100
AcDbEntity
  8
AM_9
100
AcDbLine
 10
-0.5975
 20
0.758228571428569
 30
0.0
 11
-0.5975000000000001
 21
-1.0125
 31
0.0
  0
ARC
  5
11E
330
E7
100
AcDbEntity
  8
AM_9
100
AcDbCircle
 10
-0.6500000000000009
 20
-1.012499999999999
 30
0.0
 40
0.0525000000000009
100
AcDbArc
 50
270.0
 51
0.0
  0
LINE
  5
11F
330
E7
100
AcDbEntity
  8
AM_9
100
AcDbLine
 10
-0.8598889802631577
 20
-1.065
 30
0.0
 11
-0.6500000000000008
 21
-1.065
 31
0.0
  0
LINE
  5
120
330
E7
100
AcDbEntity
  8
AM_9
100
AcDbLine
 10
-0.6500000000000008
 20
0.3934285714285639
 30
0.0
 11
-0.6500000000000008
 21
-1.065
 31
0.0
  0
LINE
  5
121
330
E7
100
AcDbEntity
  8
AM_9
100
AcDbLine
 10
-0.24
 20
-1.349809523809525
 30
0.0
 11
-0.16
 21
-1.349809523809525
 31
0.0
  0
LINE
  5
122
330
E7
100
AcDbEntity
  8
AM_9
100
AcDbLine
 10
-0.16
 20
1.349809523809525
 30
0.0
 11
-0.24
 21
1.349809523809525
 31
0.0
  0
LINE
  5
123
330
E7
100
AcDbEntity
  8
AM_9
100
AcDbLine
 10
-0.3749999999999999
 20
1.346623013318873
 30
0.0
 11
-0.3749999999999999
 21
-1.346623013318873
 31
0.0
  0
ARC
  5
124
330
E7
100
AcDbEntity
  8
AM_9
100
AcDbCircle
 10
-0.3487500000000014
 20
-1.346623013318873
 30
0.0
 40
0.0262499999999985
100
AcDbArc
 50
180.0
 51
255.480475896006
  0
ARC
  5
125
330
E7
100
AcDbEntity
  8
AM_9
100
AcDbCircle
 10
-0.3487500000000014
 20
1.346623013318873
 30
0.0
 40
0.0262499999999984
100
AcDbArc
 50
104.5195241039941
 51
180.0
  0
LINE
  5
126
330
E7
100
AcDbEntity
  8
AM_9
100
AcDbLine
 10
0.3749999999999999
 20
1.346623013318872
 30
0.0
 11
0.3749999999999999
 21
-1.346623013318872
 31
0.0
  0
ARC
  5
127
330
E7
100
AcDbEntity
  8
AM_9
100
AcDbCircle
 10
0.3487500000000006
 20
-1.346623013318873
 30
0.0
 40
0.0262499999999993
100
AcDbArc
 50
284.519524103996
 51
0.0
  0
ARC
  5
128
330
E7
100
AcDbEntity
  8
AM_9
100
AcDbCircle
 10
0.3487500000000001
 20
1.346623013318873
 30
0.0
 40
0.0262499999999998
100
AcDbArc
 50
0.0
 51
75.48047589600307
  0
ARC
  5
129
330
E7
100
AcDbEntity
  8
AM_9
100
AcDbCircle
 10
-0.0000000000001109
 20
0.0000000000005245
 30
0.0
 40
1.417299999999464
100
AcDbArc
 50
99.7492185249132
 51
104.5195241039978
  0
ARC
  5
12A
330
E7
100
AcDbEntity
  8
AM_9
100
AcDbCircle
 10
0.0000000000600263
 20
0.0000000002794247
 30
0.0
 40
1.417300000285305
100
AcDbArc
 50
255.4804758964835
 51
260.2507814746054
  0
LINE
  5
12B
330
E7
100
AcDbEntity
  8
AM_9
100
AcDbLine
 10
-0.3553311347543221
 20
1.372034647767397
 30
0.0
 11
-0.3553311347543221
 21
-1.372034647767144
 31
0.0
  0
LINE
  5
12C
330
E7
100
AcDbEntity
  8
AM_9
100
AcDbLine
 10
-0.24
 20
1.396831876068126
 30
0.0
 11
-0.24
 21
-1.396831876067873
 31
0.0
  0
LWPOLYLINE
  5
12D
330
E7
100
AcDbEntity
  8
AM_9
100
AcDbPolyline
 90
        4
 70
     0
 43
0.0
 10
0.2778518375010062
 20
0.0065274055119123
 10
0.2779925164135809
 20
0.0044080401156249
 10
0.2776412898511622
 20
-0.0086801921204452
 10
0.2770341694468683
 20
-0.0130097026342752
  0
ARC
  5
12E
330
E7
100
AcDbEntity
  8
AM_9
100
AcDbCircle
 10
-0.0000000000000013
 20
-0.0000000000000218
 30
0.0
 40
1.417300000000021
100
AcDbArc
 50
75.48047589600336
 51
96.48197920051784
  0
ARC
  5
12F
330
E7
100
AcDbEntity
  8
AM_9
100
AcDbCircle
 10
-0.0000000000000756
 20
0.0000000000010969
 30
0.0
 40
1.417300000001063
100
AcDbArc
 50
263.51802079949
 51
284.5195241039888
  0
LINE
  5
130
330
E7
100
AcDbEntity
  8
AM_9
100
AcDbLine
 10
-0.1599999999999995
 20
1.40823978426971
 30
0.0
 11
-0.1599999999999995
 21
-1.408239784269692
 31
0.0
  0
LINE
  5
131
330
E7
100
AcDbEntity
  8
AM_9
100
AcDbLine
 10
0.3553311347543224
 20
1.372034647767397
 30
0.0
 11
0.3553311347543224
 21
-1.372034647767379
 31
0.0
  0
ELLIPSE
  5
132
330
E7
100
AcDbEntity
  8
AM_9
100
AcDbEllipse
 10
0.1994622565495381
 20
0.0000000000000001
 30
0.0
 11
-1.433420686214053E-17
 21
-0.07803178773461082
 31
0.0
210
0.0
220
0.0
230
1.0
 40
0.9900170353042079
 41
3.49215224813701
 42
5.932625712632183
  0
ARC
  5
133
330
E7
100
AcDbEntity
  8
AM_9
100
AcDbCircle
 10
0.1999999999999997
 20
0.0
 30
0.0
 40
0.0781250000000004
100
AcDbArc
 50
249.7282914182405
 51
110.271708581749
  0
LINE
  5
135
330
E7
100
AcDbEntity
  8
AM_5
100
AcDbLine
 10
-0.7693749999999999
 20
0.65625
 30
0.0
 11
-0.7693749999999999
 21
1.065
 31
0.0
  0
LINE
  5
136
330
E7
100
AcDbEntity
  8
AM_5
100
AcDbLine
 10
-1.081875
 20
0.65625
 30
0.0
 11
-1.081875
 21
1.065
 31
0.0
  0
LINE
  5
139
330
E7
100
AcDbEntity
  8
AM_7
100
AcDbLine
 10
-0.9256249999999999
 20
1.099305556731192
 30
0.0
 11
-0.9256249999999999
 21
0.5915475288404264
 31
0.0
  0
LINE
  5
13A
330
E7
100
AcDbEntity
  8
AM_4
100
AcDbLine
 10
-0.5805235745614032
 20
0.8761904761904762
 30
0.0
 11
-0.5975000000000001
 21
0.8761904761904762
 31
0.0
  0
LINE
  5
13B
330
E7
100
AcDbEntity
  8
AM_4
100
AcDbLine
 10
-0.5975000000000001
 20
1.0125
 30
0.0
 11
-0.5975
 21
0.758228571428569
 31
0.0
  0
ARC
  5
13C
330
E7
100
AcDbEntity
  8
AM_4
100
AcDbCircle
 10
-0.6500000000000009
 20
1.012499999999999
 30
0.0
 40
0.0525000000000008
100
AcDbArc
 50
0.0
 51
90.0
  0
LWPOLYLINE
  5
13D
330
E7
100
AcDbEntity
  8
AM_4
100
AcDbPolyline
 90
        9
 70
     0
 43
0.0
 10
-0.8398098057593634
 20
1.05932564637252
 10
-0.8593936913794888
 20
1.057921610146198
 10
-0.8808449402884019
 20
1.056793182816664
 10
-0.9035922098103687
 20
1.056077455030058
 10
-0.926967313407408
 20
1.055844865169729
 10
-0.9501775766954783
 20
1.056132914322295
 10
-0.9726959793200127
 20
1.056892735614237
 10
-0.9929217295665151
 20
1.057988363157618
 10
-1.011440194240637
 20
1.05932564637252
  0
LWPOLYLINE
  5
13E
330
E7
100
AcDbEntity
  8
AM_4
100
AcDbPolyline
 90
        8
 70
     0
 43
0.0
 10
-1.011440194240631
 20
1.059325646372513
 10
-1.023660907552734
 20
1.060262112245195
 10
-1.034911440504007
 20
1.061232752943995
 10
-1.049562469865489
 20
1.062651867856834
 10
-1.060982597651649
 20
1.063878990650547
 10
-1.067680485187675
 20
1.064647713501732
 10
-1.070575154573991
 20
1.064991109273103
 10
-1.070649353627315
 20
1.06499999999998
  0
LINE
  5
13F
330
E7
100
AcDbEntity
  8
AM_4
100
AcDbLine
 10
-1.1075
 20
-1.065
 30
0.0
 11
-0.8598889802631577
 21
-1.065
 31
0.0
  0
LINE
  5
140
330
E7
100
AcDbEntity
  8
AM_4
100
AcDbLine
 10
-0.6500000000000008
 20
1.065
 30
0.0
 11
-0.7806006463725205
 21
1.065
 31
0.0
  0
LINE
  5
141
330
E7
100
AcDbEntity
  8
AM_4
100
AcDbLine
 10
-1.07064935362748
 20
1.065
 30
0.0
 11
-1.1075
 21
1.065
 31
0.0
  0
LWPOLYLINE
  5
142
330
E7
100
AcDbEntity
  8
AM_4
100
AcDbPolyline
 90
        8
 70
     0
 43
0.0
 10
-0.780600646372685
 20
1.06499999999998
 10
-0.7817290929557673
 20
1.064865264121535
 10
-0.7864825828558267
 20
1.064308937036114
 10
-0.7944169158971331
 20
1.063420904138356
 10
-0.8056920051444602
 20
1.062246624822131
 10
-0.8199751902486817
 20
1.060907654503725
 10
-0.8371566014888351
 20
1.059518499038573
 10
-0.8398098057593634
 20
1.05932564637252
  0
LINE
  5
143
330
E7
100
AcDbEntity
  8
AM_4
100
AcDbLine
 10
-0.6500000000000008
 20
1.065
 30
0.0
 11
-0.6500000000000008
 21
0.3934285714285639
 31
0.0
  0
LINE
  5
144
330
E7
100
AcDbEntity
  8
AM_4
100
AcDbLine
 10
-1.16
 20
1.0125
 30
0.0
 11
-1.16
 21
-1.0125
 31
0.0
  0
ARC
  5
145
330
E7
100
AcDbEntity
  8
AM_4
100
AcDbCircle
 10
-1.1075
 20
-1.012499999999999
 30
0.0
 40
0.0525000000000004
100
AcDbArc
 50
180.0
 51
270.0
  0
ARC
  5
146
330
E7
100
AcDbEntity
  8
AM_4
100
AcDbCircle
 10
-1.1075
 20
1.012499999999999
 30
0.0
 40
0.0525000000000007
100
AcDbArc
 50
90.0
 51
180.0
  0
LINE
  5
147
330
E7
100
AcDbEntity
  8
AM_4
100
AcDbLine
 10
-1.1075
 20
1.065
 30
0.0
 11
-1.1075
 21
-1.065
 31
0.0
  0
ENDBLK
  5
EA
330
E7
100
AcDbEntity
  8
0
100
AcDbBlockEnd
  0
BLOCK
  5
14A
330
148
100
AcDbEntity
  8
0
100
AcDbBlockBegin
  2
4_131979H_0_in_131979_2
 70
     2
 10
0.0
 20
0.0
 30
0.0
  3
4_131979H_0_in_131979_2
  1

  0
ATTDEF
  5
14C
330
148
100
AcDbEntity
  8
AM_6
100
AcDbText
 10
5.9625
 20
1.870000000000001
 30
0.0
 40
0.5
  1
P2B-SXV and P2B-SXV-NL -I-Housing
100
AcDbAttributeDefinition
  3

  2
NN
 70
     8
280
     0
  0
ATTDEF
  5
14D
330
148
100
AcDbEntity
  8
AM_6
100
AcDbText
 10
5.9625
 20
1.370000000000001
 30
0.0
 40
0.5
  1
Eccentric Collar Pillow Block Bearings -(Intermediate Duty)
100
AcDbAttributeDefinition
  3

  2
NT
 70
     8
280
     0
  0
ATTDEF
  5
14E
330
148
100
AcDbEntity
  8
AM_6
100
AcDbText
 10
5.9625
 20
0.870000000000001
 30
0.0
 40
0.5
  1
131979H
100
AcDbAttributeDefinition
  3

  2
NB
 70
     8
280
     0
  0
ATTDEF
  5
14F
330
148
100
AcDbEntity
  8
AM_6
100
AcDbText
 10
5.9625
 20
0.370000000000001
 30
0.0
 40
0.5
  1
$PN.H
100
AcDbAttributeDefinition
  3

  2
NBSYN
 70
     8
280
     0
  0
ATTDEF
  5
150
330
148
100
AcDbEntity
  8
AM_6
100
AcDbText
 10
5.9625
 20
-0.129999999999999
 30
0.0
 40
0.5
  1
131979
100
AcDbAttributeDefinition
  3

  2
LINA
 70
     8
280
     0
  0
ATTDEF
  5
151
330
148
100
AcDbEntity
  8
AM_6
100
AcDbText
 10
5.9625
 20
-0.629999999999999
 30
0.0
 40
0.5
  1
207
100
AcDbAttributeDefinition
  3

  2
SERIES
 70
     8
280
     0
  0
ATTDEF
  5
152
330
148
100
AcDbEntity
  8
AM_6
100
AcDbText
 10
5.9625
 20
-1.129999999999999
 30
0.0
 40
0.5
  1
1-5/16
100
AcDbAttributeDefinition
  3

  2
SS
 70
     8
280
     0
  0
ATTDEF
  5
153
330
148
100
AcDbEntity
  8
AM_6
100
AcDbText
 10
5.9625
 20
-1.629999999999999
 30
0.0
 40
0.5
  1
131979
100
AcDbAttributeDefinition
  3

  2
PN
 70
     8
280
     0
  0
ATTDEF
  5
154
330
148
100
AcDbEntity
  8
AM_6
100
AcDbText
 10
5.9625
 20
-2.129999999999999
 30
0.0
 40
0.5
  1
P2B-SXV-105
100
AcDbAttributeDefinition
  3

  2
DESCRIPTION
 70
     8
280
     0
  0
ATTDEF
  5
155
330
148
100
AcDbEntity
  8
AM_6
100
AcDbText
 10
5.9625
 20
-2.629999999999999
 30
0.0
 40
0.5
  1
RE-LUBE
100
AcDbAttributeDefinition
  3

  2
LF
 70
     8
280
     0
  0
ATTDEF
  5
156
330
148
100
AcDbEntity
  8
AM_6
100
AcDbText
 10
5.9625
 20
-3.129999999999999
 30
0.0
 40
0.5
  1
4.30
100
AcDbAttributeDefinition
  3

  2
WEIGHT
 70
     8
280
     0
  0
ATTDEF
  5
157
330
148
100
AcDbEntity
  8
AM_6
100
AcDbText
 10
5.9625
 20
-3.629999999999999
 30
0.0
 40
0.5
  1
1.53
100
AcDbAttributeDefinition
  3

  2
A
 70
     8
280
     0
  0
ATTDEF
  5
158
330
148
100
AcDbEntity
  8
AM_6
100
AcDbText
 10
5.9625
 20
-4.129999999999999
 30
0.0
 40
0.5
  1
6.50
100
AcDbAttributeDefinition
  3

  2
B
 70
     8
280
     0
  0
ATTDEF
  5
159
330
148
100
AcDbEntity
  8
AM_6
100
AcDbText
 10
5.9625
 20
-4.629999999999999
 30
0.0
 40
0.5
  1
1.75
100
AcDbAttributeDefinition
  3

  2
C
 70
     8
280
     0
  0
ATTDEF
  5
15A
330
148
100
AcDbEntity
  8
AM_6
100
AcDbText
 10
5.9625
 20
-5.129999999999999
 30
0.0
 40
0.5
  1
4.68
100
AcDbAttributeDefinition
  3

  2
DMIN
 70
     8
280
     0
  0
ATTDEF
  5
15B
330
148
100
AcDbEntity
  8
AM_6
100
AcDbText
 10
5.9625
 20
-5.629999999999999
 30
0.0
 40
0.5
  1
5.44
100
AcDbAttributeDefinition
  3

  2
DMAX
 70
     8
280
     0
  0
ATTDEF
  5
15C
330
148
100
AcDbEntity
  8
AM_6
100
AcDbText
 10
5.9625
 20
-6.129999999999999
 30
0.0
 40
0.5
  1
1/2
100
AcDbAttributeDefinition
  3

  2
F
 70
     8
280
     0
  0
ATTDEF
  5
15D
330
148
100
AcDbEntity
  8
AM_6
100
AcDbText
 10
5.9625
 20
-6.629999999999999
 30
0.0
 40
0.5
  1
0.94
100
AcDbAttributeDefinition
  3

  2
G
 70
     8
280
     0
  0
ATTDEF
  5
15E
330
148
100
AcDbEntity
  8
AM_6
100
AcDbText
 10
5.9625
 20
-7.129999999999999
 30
0.0
 40
0.5
  1
0.71
100
AcDbAttributeDefinition
  3

  2
H
 70
     8
280
     0
  0
ATTDEF
  5
15F
330
148
100
AcDbEntity
  8
AM_6
100
AcDbText
 10
5.9625
 20
-7.629999999999999
 30
0.0
 40
0.5
  1
3.75
100
AcDbAttributeDefinition
  3

  2
J
 70
     8
280
     0
  0
ATTDEF
  5
160
330
148
100
AcDbEntity
  8
AM_6
100
AcDbText
 10
5.9625
 20
-8.129999999999999
 30
0.0
 40
0.5
  1
2.13
100
AcDbAttributeDefinition
  3

  2
L
 70
     8
280
     0
  0
ATTDEF
  5
161
330
148
100
AcDbEntity
  8
AM_6
100
AcDbText
 10
5.9625
 20
-8.629999999999999
 30
0.0
 40
0.5
  1
1.88
100
AcDbAttributeDefinition
  3

  2
M
 70
     8
280
     0
  0
ATTDEF
  5
162
330
148
100
AcDbEntity
  8
AM_6
100
AcDbText
 10
5.9625
 20
-9.129999999999999
 30
0.0
 40
0.5
  1
0.37
100
AcDbAttributeDefinition
  3

  2
R
 70
     8
280
     0
  0
ATTDEF
  5
163
330
148
100
AcDbEntity
  8
AM_6
100
AcDbText
 10
5.9625
 20
-9.629999999999999
 30
0.0
 40
0.5
  1
1.16
100
AcDbAttributeDefinition
  3

  2
S
 70
     8
280
     0
  0
ATTDEF
  5
164
330
148
100
AcDbEntity
  8
AM_6
100
AcDbText
 10
5.9625
 20
-10.13
 30
0.0
 40
0.5
  1
2.91
100
AcDbAttributeDefinition
  3

  2
U
 70
     8
280
     0
  0
ATTDEF
  5
165
330
148
100
AcDbEntity
  8
AM_6
100
AcDbText
 10
5.9625
 20
-10.63
 30
0.0
 40
0.5
  1
5.82
100
AcDbAttributeDefinition
  3

  2
V
 70
     8
280
     0
  0
ATTDEF
  5
166
330
148
100
AcDbEntity
  8
AM_6
100
AcDbText
 10
5.9625
 20
-11.13
 30
0.0
 40
0.5
  1
0.56
100
AcDbAttributeDefinition
  3

  2
W
 70
     8
280
     0
  0
ATTDEF
  5
167
330
148
100
AcDbEntity
  8
AM_6
100
AcDbText
 10
5.9625
 20
-11.63
 30
0.0
 40
0.5
  1
0.12
100
AcDbAttributeDefinition
  3

  2
X
 70
     8
280
     0
  0
ATTDEF
  5
168
330
148
100
AcDbEntity
  8
AM_6
100
AcDbText
 10
5.9625
 20
-12.13
 30
0.0
 40
0.5
  1
3065
100
AcDbAttributeDefinition
  3

  2
CAPS
 70
     8
280
     0
  0
ATTDEF
  5
169
330
148
100
AcDbEntity
  8
AM_6
100
AcDbText
 10
5.9625
 20
-12.63
 30
0.0
 40
0.5
  1
5759
100
AcDbAttributeDefinition
  3

  2
CAPD
 70
     8
280
     0
  0
ATTDEF
  5
16A
330
148
100
AcDbEntity
  8
AM_6
100
AcDbText
 10
5.9625
 20
-13.13
 30
0.0
 40
0.5
  1
baldor
100
AcDbAttributeDefinition
  3

  2
COMPANY
 70
     8
280
     0
  0
LINE
  5
16B
330
148
100
AcDbEntity
  8
AM_9
100
AcDbLine
 10
-0.4374999999999999
 20
-1.472579147836024
 30
0.0
 11
0.4375000000000001
 21
-1.472579147836024
 31
0.0
  0
LINE
  5
16C
330
148
100
AcDbEntity
  8
AM_9
100
AcDbLine
 10
-0.4374999999999999
 20
-1.515053309239442
 30
0.0
 11
0.4375000000000001
 21
-1.515053309239442
 31
0.0
  0
LINE
  5
16D
330
148
100
AcDbEntity
  8
AM_9
100
AcDbLine
 10
0.4375000000000001
 20
-1.460482816168643
 30
0.0
 11
-0.4374999999999999
 21
-1.460482816168643
 31
0.0
  0
LINE
  5
16E
330
148
100
AcDbEntity
  8
AM_9
100
AcDbLine
 10
-0.2625
 20
0.6562500000000004
 30
0.0
 11
0.6121761924342105
 21
0.6562500000000004
 31
0.0
  0
LINE
  5
16F
330
148
100
AcDbEntity
  8
AM_9
100
AcDbLine
 10
-0.2625
 20
-0.65625
 30
0.0
 11
0.7000000000000001
 21
-0.65625
 31
0.0
  0
LINE
  5
170
330
148
100
AcDbEntity
  8
AM_9
100
AcDbLine
 10
-0.7
 20
-1.4173
 30
0.0
 11
0.7000000000000001
 21
-1.4173
 31
0.0
  0
LINE
  5
171
330
148
100
AcDbEntity
  8
AM_9
100
AcDbLine
 10
0.502650082236842
 20
1.4173
 30
0.0
 11
-0.5026500822368419
 21
1.4173
 31
0.0
  0
LINE
  5
172
330
148
100
AcDbEntity
  8
AM_9
100
AcDbLine
 10
-0.2625
 20
-0.65625
 30
0.0
 11
-0.2625
 21
0.6562500000000004
 31
0.0
  0
LINE
  5
173
330
148
100
AcDbEntity
  8
AM_9
100
AcDbLine
 10
-0.6999999999999997
 20
-1.86225
 30
0.0
 11
-0.4374999999999999
 21
-1.86225
 31
0.0
  0
LINE
  5
174
330
148
100
AcDbEntity
  8
AM_9
100
AcDbLine
 10
0.4375
 20
-1.86225
 30
0.0
 11
0.7099999999999994
 21
-1.86225
 31
0.0
  0
LINE
  5
175
330
148
100
AcDbEntity
  8
AM_9
100
AcDbLine
 10
-0.6999999999999997
 20
-1.79125
 30
0.0
 11
0.7000000000000001
 21
-1.79125
 31
0.0
  0
LINE
  5
176
330
148
100
AcDbEntity
  8
AM_9
100
AcDbLine
 10
0.7099999999999985
 20
-0.0234857142856906
 30
0.0
 11
0.7099999999999994
 21
-1.86225
 31
0.0
  0
LINE
  5
177
330
148
100
AcDbEntity
  8
AM_9
100
AcDbLine
 10
0.7
 20
-0.1719258561124547
 30
0.0
 11
0.7000000000000001
 21
-1.82591819575083
 31
0.0
  0
LWPOLYLINE
  5
178
330
148
100
AcDbEntity
  8
AM_9
100
AcDbPolyline
 90
        5
 70
     0
 43
0.0
 10
0.7
 20
-0.1719258561124547
 10
0.7002415800335614
 20
-0.1520450877311331
 10
0.7018165884822533
 20
-0.1122261237747742
 10
0.7043276766311819
 20
-0.072318029114825
 10
0.7087735283014774
 20
-0.0149634880834075
  0
LWPOLYLINE
  5
179
330
148
100
AcDbEntity
  8
AM_9
100
AcDbPolyline
 90
        5
 70
     0
 43
0.0
 10
0.7099999999999994
 20
-1.86225
 10
0.7098825118246989
 20
-1.861936938420928
 10
0.7056514296988914
 20
-1.850405141863549
 10
0.7019783694232096
 20
-1.838672926216202
 10
0.7
 20
-1.82591819575083
  0
LINE
  5
17A
330
148
100
AcDbEntity
  8
AM_9
100
AcDbLine
 10
-0.6999999999999997
 20
0.0459999999999995
 30
0.0
 11
-0.6999999999999997
 21
-1.86225
 31
0.0
  0
LINE
  5
17B
330
148
100
AcDbEntity
  8
AM_9
100
AcDbLine
 10
-0.4374999999999998
 20
-1.619140669998572
 30
0.0
 11
0.4375000000000001
 21
-1.619140669998572
 31
0.0
  0
LINE
  5
17C
330
148
100
AcDbEntity
  8
AM_9
100
AcDbLine
 10
-0.62
 20
-1.2325
 30
0.0
 11
-0.4999999999999998
 21
-1.2325
 31
0.0
  0
LINE
  5
17D
330
148
100
AcDbEntity
  8
AM_9
100
AcDbLine
 10
-0.4999999999999998
 20
-1.2325
 30
0.0
 11
-0.4999999999999998
 21
-1.17
 31
0.0
  0
LINE
  5
17E
330
148
100
AcDbEntity
  8
AM_9
100
AcDbLine
 10
-0.62
 20
-1.17
 30
0.0
 11
-0.62
 21
-1.2325
 31
0.0
  0
LINE
  5
17F
330
148
100
AcDbEntity
  8
AM_9
100
AcDbLine
 10
-0.2799999999999996
 20
-1.17
 30
0.0
 11
-0.2799999999999996
 21
-1.643333333333333
 31
0.0
  0
LINE
  5
180
330
148
100
AcDbEntity
  8
AM_9
100
AcDbLine
 10
0.2799999999999999
 20
-1.17
 30
0.0
 11
0.2799999999999999
 21
-1.643333333333333
 31
0.0
  0
LINE
  5
181
330
148
100
AcDbEntity
  8
AM_9
100
AcDbLine
 10
-0.4374999999999998
 20
-1.88
 30
0.0
 11
-0.4374999999999999
 21
-1.460482816168643
 31
0.0
  0
LINE
  5
182
330
148
100
AcDbEntity
  8
AM_9
100
AcDbLine
 10
-0.4374999999999998
 20
-1.785333333333333
 30
0.0
 11
0.4375000000000002
 21
-1.785333333333333
 31
0.0
  0
LWPOLYLINE
  5
183
330
148
100
AcDbEntity
  8
AM_9
100
AcDbPolyline
 90
       16
 70
     0
 43
0.0
 10
0.0000000000000001
 20
-1.785333333333333
 10
-0.0005408975438792
 20
-1.784948138929278
 10
-0.022021188582286
 20
-1.769662996656441
 10
-0.0435317677252386
 20
-1.754424917287472
 10
-0.0675639174182055
 20
-1.73756974843309
 10
-0.0913628609196217
 20
-1.721165913511509
 10
-0.1154333313533255
 20
-1.705007792338834
 10
-0.1390043045436238
 20
-1.689800343599645
 10
-0.1549426600127734
 20
-1.679992163777355
 10
-0.1704808587629719
 20
-1.670929614084151
 10
-0.1858975580743412
 20
-1.662580232511679
 10
-0.2006753419231601
 20
-1.655393230445127
 10
-0.2123107036407958
 20
-1.650502411152162
 10
-0.2233101363818367
 20
-1.646739658105851
 10
-0.233939964271907
 20
-1.64422305871482
 10
-0.2436308683233709
 20
-1.643333333333333
  0
LINE
  5
184
330
148
100
AcDbEntity
  8
AM_9
100
AcDbLine
 10
0.4375000000000002
 20
-1.88
 30
0.0
 11
0.4375000000000001
 21
-1.460482816168643
 31
0.0
  0
LINE
  5
185
330
148
100
AcDbEntity
  8
AM_9
100
AcDbLine
 10
-0.4374999999999998
 20
-1.643333333333333
 30
0.0
 11
0.4375000000000002
 21
-1.643333333333333
 31
0.0
  0
LWPOLYLINE
  5
186
330
148
100
AcDbEntity
  8
AM_9
100
AcDbPolyline
 90
       16
 70
     0
 43
0.0
 10
0.2436308683233711
 20
-1.643333333333333
 10
0.2343926271070647
 20
-1.644145637582845
 10
0.2241683702983176
 20
-1.646490136879139
 10
0.2128198515334219
 20
-1.650307644921331
 10
0.2006753419231604
 20
-1.655393230445127
 10
0.1863394805308017
 20
-1.662353027344384
 10
0.171282083970012
 20
-1.670478313992514
 10
0.1553999947344562
 20
-1.679718210560365
 10
0.1390043045436241
 20
-1.689800343599645
 10
0.1161483857202816
 20
-1.704537651046948
 10
0.092642395457655
 20
-1.720294591804131
 10
0.068285760663676
 20
-1.737067899950849
 10
0.0435317677252385
 20
-1.754424917287472
 10
0.0221070609795595
 20
-1.769601982715067
 10
0.0005408975438796
 20
-1.784948138929279
 10
0.0000000000000001
 20
-1.785333333333333
  0
LINE
  5
187
330
148
100
AcDbEntity
  8
AM_7
100
AcDbLine
 10
0.9625
 20
0.0
 30
0.0
 11
-1.23675
 21
0.0
 31
0.0
  0
LINE
  5
188
330
148
100
AcDbEntity
  8
AM_7
100
AcDbLine
 10
-0.5600000000000003
 20
-1.166875
 30
0.0
 11
-0.5600000000000003
 21
-1.235625
 31
0.0
  0
LINE
  5
189
330
148
100
AcDbEntity
  8
AM_4
100
AcDbLine
 10
0.8750000000000001
 20
-1.169999999999999
 30
0.0
 11
0.4374999999999999
 21
1.870000000000001
 31
0.0
  0
LINE
  5
18A
330
148
100
AcDbEntity
  8
AM_4
100
AcDbLine
 10
0.4375000000000001
 20
1.870000000000001
 30
0.0
 11
-0.4374999999999996
 21
1.870000000000001
 31
0.0
  0
LINE
  5
18B
330
148
100
AcDbEntity
  8
AM_4
100
AcDbLine
 10
-0.4374999999999996
 20
1.870000000000001
 30
0.0
 11
-0.8749999999999998
 21
-1.170000000000002
 31
0.0
  0
LWPOLYLINE
  5
18C
330
148
100
AcDbEntity
  8
AM_4
100
AcDbPolyline
 90
       31
 70
     0
 43
0.0
 10
0.3863002598135894
 20
0.5719609326078596
 10
0.3666614016221602
 20
0.6111230949384976
 10
0.3446667386801588
 20
0.6488520366514678
 10
0.3196609577689484
 20
0.6855121648606576
 10
0.2918331586121272
 20
0.7200633499685332
 10
0.2676355451022163
 20
0.7457034034585502
 10
0.2414990068805023
 20
0.7695221203732849
 10
0.2126473415050232
 20
0.7917728043422495
 10
0.1817576515909768
 20
0.811509239716192
 10
0.1569562291489617
 20
0.824619545938168
 10
0.1311072644285357
 20
0.8359295204000734
 10
0.1035774897101191
 20
0.8455108250384554
 10
0.0752208723428455
 20
0.8528935771481796
 10
0.0469550978772813
 20
0.8578479296611231
 10
0.0183036583754939
 20
0.8605126022401787
 10
-0.0115193038813978
 20
0.8607957365058739
 10
-0.0412389662820236
 20
0.8585703329601548
 10
-0.0671307244682152
 20
0.8545508136927796
 10
-0.0925724896881537
 20
0.8486707364999703
 10
-0.1180571605922834
 20
0.8407769302197983
 10
-0.1427776894060381
 20
0.8311105727903987
 10
-0.167293179247805
 20
0.8194345468161832
 10
-0.1907997576470906
 20
0.8061403455065669
 10
-0.2136759743780011
 20
0.7910485012662806
 10
-0.2354062075799841
 20
0.7745551684070984
 10
-0.2670121346649842
 20
0.7463141547955512
 10
-0.2958375378090253
 20
0.7154473038670698
 10
-0.3226567019962283
 20
0.681424438816151
 10
-0.3468038076357719
 20
0.6454311187328406
 10
-0.3676197009954251
 20
0.6093424953009372
 10
-0.3863002598135896
 20
0.5719609326078599
  0
LINE
  5
18D
330
148
100
AcDbEntity
  8
AM_4
100
AcDbLine
 10
0.3863002598135898
 20
0.5719609326078597
 30
0.0
 11
0.6243066092052837
 21
0.5719609326078597
 31
0.0
  0
LWPOLYLINE
  5
18E
330
148
100
AcDbEntity
  8
AM_4
100
AcDbPolyline
 90
       13
 70
     0
 43
0.0
 10
0.6800000000000004
 20
-1.17
 10
0.6774123947023875
 20
-0.9855189367047249
 10
0.6696692720483016
 20
-0.8024418856938382
 10
0.6568295618765667
 20
-0.6221621738704789
 10
0.638990982134418
 20
-0.4460518386974889
 10
0.6162892951849223
 20
-0.2754511861638625
 10
0.5888972745734186
 20
-0.111658590246871
 10
0.5570233901165148
 20
0.0440793884978842
 10
0.5209102213209056
 20
0.1905774900149923
 10
0.4808326112068529
 20
0.3267207752939363
 10
0.4370955745868473
 20
0.4514731117281802
 10
0.3900319767187119
 20
0.5638850587099389
 10
0.3863002598135898
 20
0.5719609326078597
  0
LINE
  5
18F
330
148
100
AcDbEntity
  8
AM_4
100
AcDbLine
 10
-0.624306609205283
 20
0.5719609326078597
 30
0.0
 11
-0.3863002598135894
 21
0.5719609326078596
 31
0.0
  0
LWPOLYLINE
  5
190
330
148
100
AcDbEntity
  8
AM_4
100
AcDbPolyline
 90
       13
 70
     0
 43
0.0
 10
-0.3863002598135895
 20
0.57196093260786
 10
-0.4336041778289651
 20
0.4605306531680025
 10
-0.4776081062337013
 20
0.3366910509162097
 10
-0.5179771485623398
 20
0.2013846200020145
 10
-0.5544040720272652
 20
0.05564112406493
 10
-0.5866116457457318
 20
-0.0994302408886332
 10
-0.6143547506342775
 20
-0.2626492881367287
 10
-0.6374222449129555
 20
-0.4327738221754425
 10
-0.6556385710217713
 20
-0.6085090925767384
 10
-0.6688650917197183
 20
-0.7885176478210046
 10
-0.6770011451978936
 20
-0.9714295141106953
 10
-0.6799848111766449
 20
-1.155852621698141
 10
-0.6800000000000002
 20
-1.170000000000001
  0
LINE
  5
191
330
148
100
AcDbEntity
  8
AM_4
100
AcDbLine
 10
-0.8749999999999998
 20
-1.284432327502843
 30
0.0
 11
-0.6799999999999998
 21
-1.284432327502843
 31
0.0
  0
LINE
  5
192
330
148
100
AcDbEntity
  8
AM_4
100
AcDbLine
 10
0.6800000000000002
 20
-1.284432327502843
 30
0.0
 11
0.8750000000000001
 21
-1.284432327502843
 31
0.0
  0
LINE
  5
193
330
148
100
AcDbEntity
  8
AM_4
100
AcDbLine
 10
-0.8749999999999998
 20
-1.383
 30
0.0
 11
-0.6436308683233711
 21
-1.383
 31
0.0
  0
LINE
  5
194
330
148
100
AcDbEntity
  8
AM_4
100
AcDbLine
 10
0.6436308683233715
 20
-1.383
 30
0.0
 11
0.8750000000000001
 21
-1.383
 31
0.0
  0
LWPOLYLINE
  5
195
330
148
100
AcDbEntity
  8
AM_4
100
AcDbPolyline
 90
       13
 70
     0
 43
0.0
 10
-0.6436308683233711
 20
-1.383
 10
-0.6307696080700178
 20
-1.38450695914791
 10
-0.6163136724067482
 20
-1.388693895431774
 10
-0.6006753419231607
 20
-1.395059897111794
 10
-0.5810983190104617
 20
-1.404758487978327
 10
-0.5604178226407834
 20
-1.416395666471094
 10
-0.5390043045436248
 20
-1.429467010266311
 10
-0.507906652922255
 20
-1.449658858949413
 10
-0.475921924801525
 20
-1.471426334203658
 10
-0.4435317677252408
 20
-1.494091583954139
 10
-0.4220640780387978
 20
-1.509299092403787
 10
-0.4005408975439514
 20
-1.524614805596048
 10
-0.399999999999999
 20
-1.525
  0
LINE
  5
196
330
148
100
AcDbEntity
  8
AM_4
100
AcDbLine
 10
-0.6799999999999998
 20
-1.17
 30
0.0
 11
-0.6799999999999998
 21
-1.383
 31
0.0
  0
LWPOLYLINE
  5
197
330
148
100
AcDbEntity
  8
AM_4
100
AcDbPolyline
 90
       13
 70
     0
 43
0.0
 10
0.4000000000000002
 20
-1.525
 10
0.400540897543965
 20
-1.524614805596067
 10
0.4220640780386729
 20
-1.509299092403612
 10
0.4435317677252406
 20
-1.49409158395414
 10
0.4759219248015248
 20
-1.471426334203658
 10
0.507906652922255
 20
-1.449658858949413
 10
0.5390043045436249
 20
-1.429467010266311
 10
0.5604178226407839
 20
-1.416395666471095
 10
0.581098319010462
 20
-1.404758487978327
 10
0.6006753419231611
 20
-1.395059897111794
 10
0.6163136724067486
 20
-1.388693895431774
 10
0.630769608070018
 20
-1.38450695914791
 10
0.6436308683233715
 20
-1.383
  0
LINE
  5
198
330
148
100
AcDbEntity
  8
AM_4
100
AcDbLine
 10
0.6800000000000002
 20
-1.17
 30
0.0
 11
0.6800000000000002
 21
-1.383
 31
0.0
  0
LINE
  5
199
330
148
100
AcDbEntity
  8
AM_4
100
AcDbLine
 10
-0.6799999999999998
 20
-1.17
 30
0.0
 11
0.6800000000000002
 21
-1.17
 31
0.0
  0
LINE
  5
19A
330
148
100
AcDbEntity
  8
AM_4
100
AcDbLine
 10
-0.8749999999999998
 20
-1.88
 30
0.0
 11
0.8750000000000001
 21
-1.88
 31
0.0
  0
LINE
  5
19B
330
148
100
AcDbEntity
  8
AM_4
100
AcDbLine
 10
0.8750000000000001
 20
-1.88
 30
0.0
 11
0.8750000000000001
 21
-1.169999999999999
 31
0.0
  0
LINE
  5
19C
330
148
100
AcDbEntity
  8
AM_4
100
AcDbLine
 10
0.4000000000000002
 20
-1.525
 30
0.0
 11
0.8750000000000001
 21
-1.525
 31
0.0
  0
LINE
  5
19D
330
148
100
AcDbEntity
  8
AM_4
100
AcDbLine
 10
0.4000000000000002
 20
-1.17
 30
0.0
 11
0.4000000000000002
 21
-1.525
 31
0.0
  0
LINE
  5
19E
330
148
100
AcDbEntity
  8
AM_4
100
AcDbLine
 10
-0.399999999999999
 20
-1.17
 30
0.0
 11
-0.399999999999999
 21
-1.525
 31
0.0
  0
LINE
  5
19F
330
148
100
AcDbEntity
  8
AM_4
100
AcDbLine
 10
-0.8749999999999998
 20
-1.525
 30
0.0
 11
-0.399999999999999
 21
-1.525
 31
0.0
  0
LINE
  5
1A0
330
148
100
AcDbEntity
  8
AM_4
100
AcDbLine
 10
-0.8749999999999998
 20
-1.88
 30
0.0
 11
-0.8749999999999998
 21
-1.170000000000002
 31
0.0
  0
ENDBLK
  5
14B
330
148
100
AcDbEntity
  8
0
100
AcDbBlockEnd
  0
ENDSEC
  0
SECTION
  2
ENTITIES
  0
INSERT
  5
6F
330
1F
100
AcDbEntity
  8
0
100
AcDbBlockReference
  2
1_131979_2
 10
0.0
 20
0.0
 30
0.0
  0
POINT
  5
1A2
330
1F
100
AcDbEntity
  8
ConnectionPoints
100
AcDbPoint
 10
-1.16
 20
0.0
 30
0.0000000000000001
  0
POINT
  5
1A3
330
1F
100
AcDbEntity
  8
ConnectionPoints
100
AcDbPoint
 10
0.0000000000000001
 20
1.322289680818844
 30
1.322289680818844
  0
POINT
  5
1A4
330
1F
100
AcDbEntity
  8
ConnectionPoints
100
AcDbPoint
 10
0.0000000000000001
 20
1.322289680818844
 30
1.322289680818844
  0
POINT
  5
1A5
330
1F
100
AcDbEntity
  8
ConnectionPoints
100
AcDbPoint
 10
-1.16
 20
0.0
 30
0.0000000000000001
  0
ENDSEC
  0
SECTION
  2
OBJECTS
  0
DICTIONARY
  5
C
330
0
100
AcDbDictionary
281
     1
  3
ACAD_DETAILVIEWSTYLE
350
1AD
  3
ACAD_GROUP
350
D
  3
ACAD_LAYOUT
350
1A
  3
ACAD_MATERIAL
350
43
  3
ACAD_MLEADERSTYLE
350
6B
  3
ACAD_MLINESTYLE
350
17
  3
ACAD_PLOTSETTINGS
350
19
  3
ACAD_PLOTSTYLENAME
350
E
  3
ACAD_SCALELIST
350
47
  3
ACAD_SECTIONVIEWSTYLE
350
1AE
  3
ACAD_TABLESTYLE
350
69
  3
ACAD_VISUALSTYLE
350
2A
  3
ACDB_RECOMPOSE_DATA
350
1AA
  3
AcDbVariableDictionary
350
1A6
  0
SUN
  5
6D
330
29
100
AcDbSun
 90
        1
290
     0
 63
     7
421
 16777215
 40
1.0
291
     1
 91
  2455826
 92
 54000000
292
     0
 70
     2
 71
   256
280
     1
  0
DICTIONARY
  5
1AD
102
{ACAD_REACTORS
330
C
102
}
330
C
100
AcDbDictionary
281
     1
  0
DICTIONARY
  5
D
102
{ACAD_REACTORS
330
C
102
}
330
C
100
AcDbDictionary
281
     1
  0
DICTIONARY
  5
1A
102
{ACAD_REACTORS
330
C
102
}
330
C
100
AcDbDictionary
281
     1
  3
Layout1
350
1E
  3
Layout2
350
26
  3
Model
350
22
  0
DICTIONARY
  5
43
102
{ACAD_REACTORS
330
C
102
}
330
C
100
AcDbDictionary
281
     1
  3
ByBlock
350
45
  3
ByLayer
350
44
  3
Global
350
46
  0
DICTIONARY
  5
6B
102
{ACAD_REACTORS
330
C
102
}
330
C
100
AcDbDictionary
281
     1
  3
Standard
350
6C
  0
DICTIONARY
  5
17
102
{ACAD_REACTORS
330
C
102
}
330
C
100
AcDbDictionary
281
     1
  3
Standard
350
18
  0
DICTIONARY
  5
19
102
{ACAD_REACTORS
330
C
102
}
330
C
100
AcDbDictionary
281
     1
  0
ACDBDICTIONARYWDFLT
  5
E
102
{ACAD_REACTORS
330
C
102
}
330
C
100
AcDbDictionary
281
     1
  3
Normal
350
F
100
AcDbDictionaryWithDefault
340
F
  0
DICTIONARY
  5
47
102
{ACAD_REACTORS
330
C
102
}
330
C
100
AcDbDictionary
281
     1
  3
A0
350
48
  3
A1
350
49
  3
A2
350
4A
  3
A3
350
4B
  3
A4
350
4C
  3
A5
350
4D
  3
A6
350
4E
  3
A7
350
4F
  3
A8
350
50
  3
A9
350
51
  3
B0
350
52
  3
B1
350
53
  3
B2
350
54
  3
B3
350
55
  3
B4
350
56
  3
B5
350
57
  3
B6
350
58
  3
B7
350
59
  3
B8
350
5A
  3
B9
350
5B
  3
C0
350
5C
  3
C1
350
5D
  3
C2
350
5E
  3
C3
350
5F
  3
C4
350
60
  3
C5
350
61
  3
C6
350
62
  3
C7
350
63
  3
C8
350
64
  3
C9
350
65
  3
D0
350
66
  3
D1
350
67
  3
D2
350
68
  0
DICTIONARY
  5
1AE
102
{ACAD_REACTORS
330
C
102
}
330
C
100
AcDbDictionary
281
     1
  0
DICTIONARY
  5
69
102
{ACAD_REACTORS
330
C
102
}
330
C
100
AcDbDictionary
281
     1
  3
Standard
350
6A
  0
DICTIONARY
  5
2A
102
{ACAD_REACTORS
330
C
102
}
330
C
100
AcDbDictionary
281
     1
  3
2dWireframe
350
2F
  3
Basic
350
32
  3
Brighten
350
36
  3
ColorChange
350
3A
  3
Conceptual
350
34
  3
Dim
350
35
  3
EdgeColorOff
350
3D
  3
Facepattern
350
39
  3
Flat
350
2B
  3
FlatWithEdges
350
2C
  3
Gouraud
350
2D
  3
GouraudWithEdges
350
2E
  3
Hidden
350
31
  3
JitterOff
350
3B
  3
Linepattern
350
38
  3
OverhangOff
350
3C
  3
Realistic
350
33
  3
Shaded
350
42
  3
Shaded with edges
350
41
  3
Shades of Gray
350
3E
  3
Sketchy
350
3F
  3
Thicken
350
37
  3
Wireframe
350
30
  3
X-Ray
350
40
  0
XRECORD
  5
1AA
102
{ACAD_REACTORS
330
C
102
}
330
C
100
AcDbXrecord
280
     1
 90
        1
330
6A
  0
DICTIONARY
  5
1A6
102
{ACAD_REACTORS
330
C
102
}
330
C
100
AcDbDictionary
281
     1
  3
CANNOSCALE
350
1A7
  3
CMLEADERSTYLE
350
1AC
  3
CTABLESTYLE
350
1AB
  0
LAYOUT
  5
1E
102
{ACAD_REACTORS
330
1A
102
}
330
1A
100
AcDbPlotSettings
  1

  2
none_device
  4

  6

 40
0.0
 41
0.0
 42
0.0
 43
0.0
 44
0.0
 45
0.0
 46
0.0
 47
0.0
 48
0.0
 49
0.0
140
0.0
141
0.0
142
1.0
143
1.0
 70
   688
 72
     0
 73
     0
 74
     5
  7

 75
    16
 76
     0
 77
     2
 78
   300
147
1.0
148
0.0
149
0.0
100
AcDbLayout
  1
Layout1
 70
     1
 71
     1
 10
0.0
 20
0.0
 11
12.0
 21
9.0
 12
0.0
 22
0.0
 32
0.0
 14
1.000000000000000E+20
 24
1.000000000000000E+20
 34
1.000000000000000E+20
 15
-1.000000000000000E+20
 25
-1.000000000000000E+20
 35
-1.000000000000000E+20
146
0.0
 13
0.0
 23
0.0
 33
0.0
 16
1.0
 26
0.0
 36
0.0
 17
0.0
 27
1.0
 37
0.0
 76
     0
330
1B
  0
LAYOUT
  5
26
102
{ACAD_REACTORS
330
1A
102
}
330
1A
100
AcDbPlotSettings
  1

  2
none_device
  4

  6

 40
0.0
 41
0.0
 42
0.0
 43
0.0
 44
0.0
 45
0.0
 46
0.0
 47
0.0
 48
0.0
 49
0.0
140
0.0
141
0.0
142
1.0
143
1.0
 70
   688
 72
     0
 73
     0
 74
     5
  7

 75
    16
 76
     0
 77
     2
 78
   300
147
1.0
148
0.0
149
0.0
100
AcDbLayout
  1
Layout2
 70
     1
 71
     2
 10
0.0
 20
0.0
 11
0.0
 21
0.0
 12
0.0
 22
0.0
 32
0.0
 14
0.0
 24
0.0
 34
0.0
 15
0.0
 25
0.0
 35
0.0
146
0.0
 13
0.0
 23
0.0
 33
0.0
 16
1.0
 26
0.0
 36
0.0
 17
0.0
 27
1.0
 37
0.0
 76
     0
330
23
  0
LAYOUT
  5
22
102
{ACAD_REACTORS
330
1A
102
}
330
1A
100
AcDbPlotSettings
  1

  2
none_device
  4
Letter_(8.50_x_11.00_Inches)
  6

 40
6.35
 41
6.35
 42
6.35000508
 43
6.35000508
 44
215.9
 45
279.4
 46
0.0
 47
0.0
 48
0.0
 49
0.0
140
0.0
141
0.0
142
1.0
143
1.0
 70
  1712
 72
     0
 73
     0
 74
     0
  7

 75
     0
 76
     0
 77
     2
 78
   300
147
1.0
148
0.0
149
0.0
100
AcDbLayout
  1
Model
 70
     1
 71
     0
 10
0.0
 20
0.0
 11
12.0
 21
9.0
 12
0.0
 22
0.0
 32
0.0
 14
1.000000000000000E+20
 24
1.000000000000000E+20
 34
1.000000000000000E+20
 15
-1.000000000000000E+20
 25
-1.000000000000000E+20
 35
-1.000000000000000E+20
146
0.0
 13
0.0
 23
0.0
 33
0.0
 16
1.0
 26
0.0
 36
0.0
 17
0.0
 27
1.0
 37
0.0
 76
     0
330
1F
331
29
  0
MATERIAL
  5
45
102
{ACAD_REACTORS
330
43
102
}
330
43
100
AcDbMaterial
  1
ByBlock
 72
     1
 94
      127
  0
MATERIAL
  5
44
102
{ACAD_REACTORS
330
43
102
}
330
43
100
AcDbMaterial
  1
ByLayer
 72
     1
 94
      127
  0
MATERIAL
  5
46
102
{ACAD_REACTORS
330
43
102
}
330
43
100
AcDbMaterial
  1
Global
 72
     1
 94
      127
  0
MLEADERSTYLE
  5
6C
102
{ACAD_REACTORS
330
6B
102
}
330
6B
100
AcDbMLeaderStyle
179
     2
170
     2
171
     1
172
     0
 90
        2
 40
0.0
 41
0.0
173
     1
 91
-1056964608
340
14
 92
       -2
290
     1
 42
0.09
291
     1
 43
0.36
  3
Standard
341
0
 44
0.18
300

342
11
174
     1
178
     6
175
     1
176
     0
 93
-1056964608
 45
0.18
292
     0
297
     0
 46
0.18
343
0
 94
-1056964608
 47
1.0
 49
1.0
140
1.0
293
     1
141
0.0
294
     1
177
     0
142
1.0
295
     0
296
     0
143
0.125
271
     0
272
     9
273
     9
298
     0
  0
MLINESTYLE
  5
18
102
{ACAD_REACTORS
330
17
102
}
330
17
100
AcDbMlineStyle
  2
Standard
 70
     0
  3

 62
   256
 51
90.0
 52
90.0
 71
     2
 49
0.5
 62
   256
  6
BYLAYER
 49
-0.5
 62
   256
  6
BYLAYER
  0
ACDBPLACEHOLDER
  5
F
102
{ACAD_REACTORS
330
E
102
}
330
E
  0
SCALE
  5
48
102
{ACAD_REACTORS
330
47
102
}
330
47
100
AcDbScale
 70
     0
300
1:1
140
1.0
141
1.0
290
     1
  0
SCALE
  5
49
102
{ACAD_REACTORS
330
47
102
}
330
47
100
AcDbScale
 70
     0
300
1:2
140
1.0
141
2.0
290
     0
  0
SCALE
  5
4A
102
{ACAD_REACTORS
330
47
102
}
330
47
100
AcDbScale
 70
     0
300
1:4
140
1.0
141
4.0
290
     0
  0
SCALE
  5
4B
102
{ACAD_REACTORS
330
47
102
}
330
47
100
AcDbScale
 70
     0
300
1:5
140
1.0
141
5.0
290
     0
  0
SCALE
  5
4C
102
{ACAD_REACTORS
330
47
102
}
330
47
100
AcDbScale
 70
     0
300
1:8
140
1.0
141
8.0
290
     0
  0
SCALE
  5
4D
102
{ACAD_REACTORS
330
47
102
}
330
47
100
AcDbScale
 70
     0
300
1:10
140
1.0
141
10.0
290
     0
  0
SCALE
  5
4E
102
{ACAD_REACTORS
330
47
102
}
330
47
100
AcDbScale
 70
     0
300
1:16
140
1.0
141
16.0
290
     0
  0
SCALE
  5
4F
102
{ACAD_REACTORS
330
47
102
}
330
47
100
AcDbScale
 70
     0
300
1:20
140
1.0
141
20.0
290
     0
  0
SCALE
  5
50
102
{ACAD_REACTORS
330
47
102
}
330
47
100
AcDbScale
 70
     0
300
1:30
140
1.0
141
30.0
290
     0
  0
SCALE
  5
51
102
{ACAD_REACTORS
330
47
102
}
330
47
100
AcDbScale
 70
     0
300
1:40
140
1.0
141
40.0
290
     0
  0
SCALE
  5
52
102
{ACAD_REACTORS
330
47
102
}
330
47
100
AcDbScale
 70
     0
300
1:50
140
1.0
141
50.0
290
     0
  0
SCALE
  5
53
102
{ACAD_REACTORS
330
47
102
}
330
47
100
AcDbScale
 70
     0
300
1:100
140
1.0
141
100.0
290
     0
  0
SCALE
  5
54
102
{ACAD_REACTORS
330
47
102
}
330
47
100
AcDbScale
 70
     0
300
2:1
140
2.0
141
1.0
290
     0
  0
SCALE
  5
55
102
{ACAD_REACTORS
330
47
102
}
330
47
100
AcDbScale
 70
     0
300
4:1
140
4.0
141
1.0
290
     0
  0
SCALE
  5
56
102
{ACAD_REACTORS
330
47
102
}
330
47
100
AcDbScale
 70
     0
300
8:1
140
8.0
141
1.0
290
     0
  0
SCALE
  5
57
102
{ACAD_REACTORS
330
47
102
}
330
47
100
AcDbScale
 70
     0
300
10:1
140
10.0
141
1.0
290
     0
  0
SCALE
  5
58
102
{ACAD_REACTORS
330
47
102
}
330
47
100
AcDbScale
 70
     0
300
100:1
140
100.0
141
1.0
290
     0
  0
SCALE
  5
59
102
{ACAD_REACTORS
330
47
102
}
330
47
100
AcDbScale
 70
     0
300
1/128" = 1'-0"
140
0.0078125
141
12.0
290
     0
  0
SCALE
  5
5A
102
{ACAD_REACTORS
330
47
102
}
330
47
100
AcDbScale
 70
     0
300
1/64" = 1'-0"
140
0.015625
141
12.0
290
     0
  0
SCALE
  5
5B
102
{ACAD_REACTORS
330
47
102
}
330
47
100
AcDbScale
 70
     0
300
1/32" = 1'-0"
140
0.03125
141
12.0
290
     0
  0
SCALE
  5
5C
102
{ACAD_REACTORS
330
47
102
}
330
47
100
AcDbScale
 70
     0
300
1/16" = 1'-0"
140
0.0625
141
12.0
290
     0
  0
SCALE
  5
5D
102
{ACAD_REACTORS
330
47
102
}
330
47
100
AcDbScale
 70
     0
300
3/32" = 1'-0"
140
0.09375
141
12.0
290
     0
  0
SCALE
  5
5E
102
{ACAD_REACTORS
330
47
102
}
330
47
100
AcDbScale
 70
     0
300
1/8" = 1'-0"
140
0.125
141
12.0
290
     0
  0
SCALE
  5
5F
102
{ACAD_REACTORS
330
47
102
}
330
47
100
AcDbScale
 70
     0
300
3/16" = 1'-0"
140
0.1875
141
12.0
290
     0
  0
SCALE
  5
60
102
{ACAD_REACTORS
330
47
102
}
330
47
100
AcDbScale
 70
     0
300
1/4" = 1'-0"
140
0.25
141
12.0
290
     0
  0
SCALE
  5
61
102
{ACAD_REACTORS
330
47
102
}
330
47
100
AcDbScale
 70
     0
300
3/8" = 1'-0"
140
0.375
141
12.0
290
     0
  0
SCALE
  5
62
102
{ACAD_REACTORS
330
47
102
}
330
47
100
AcDbScale
 70
     0
300
1/2" = 1'-0"
140
0.5
141
12.0
290
     0
  0
SCALE
  5
63
102
{ACAD_REACTORS
330
47
102
}
330
47
100
AcDbScale
 70
     0
300
3/4" = 1'-0"
140
0.75
141
12.0
290
     0
  0
SCALE
  5
64
102
{ACAD_REACTORS
330
47
102
}
330
47
100
AcDbScale
 70
     0
300
1" = 1'-0"
140
1.0
141
12.0
290
     0
  0
SCALE
  5
65
102
{ACAD_REACTORS
330
47
102
}
330
47
100
AcDbScale
 70
     0
300
1-1/2" = 1'-0"
140
1.5
141
12.0
290
     0
  0
SCALE
  5
66
102
{ACAD_REACTORS
330
47
102
}
330
47
100
AcDbScale
 70
     0
300
3" = 1'-0"
140
3.0
141
12.0
290
     0
  0
SCALE
  5
67
102
{ACAD_REACTORS
330
47
102
}
330
47
100
AcDbScale
 70
     0
300
6" = 1'-0"
140
6.0
141
12.0
290
     0
  0
SCALE
  5
68
102
{ACAD_REACTORS
330
47
102
}
330
47
100
AcDbScale
 70
     0
300
1'-0" = 1'-0"
140
12.0
141
12.0
290
     0
  0
TABLESTYLE
  5
6A
102
{ACAD_REACTORS
330
69
102
}
102
{ACAD_XDICTIONARY
360
1A8
102
}
330
69
100
AcDbTableStyle
  3
Standard
 70
     0
 71
     0
 40
0.06
 41
0.06
280
     0
281
     0
  7
Standard
140
0.18
170
     2
 62
     0
 63
   257
283
     0
 90
        4
 91
        0
  1

274
    -2
284
     1
 64
     0
275
    -2
285
     1
 65
     0
276
    -2
286
     1
 66
     0
277
    -2
287
     1
 67
     0
278
    -2
288
     1
 68
     0
279
    -2
289
     1
 69
     0
  7
Standard
140
0.25
170
     5
 62
     0
 63
   257
283
     0
 90
        4
 91
        0
  1

274
    -2
284
     1
 64
     0
275
    -2
285
     1
 65
     0
276
    -2
286
     1
 66
     0
277
    -2
287
     1
 67
     0
278
    -2
288
     1
 68
     0
279
    -2
289
     1
 69
     0
  7
Standard
140
0.18
170
     5
 62
     0
 63
   257
283
     0
 90
        4
 91
        0
  1

274
    -2
284
     1
 64
     0
275
    -2
285
     1
 65
     0
276
    -2
286
     1
 66
     0
277
    -2
287
     1
 67
     0
278
    -2
288
     1
 68
     0
279
    -2
289
     1
 69
     0
  0
VISUALSTYLE
  5
2F
102
{ACAD_REACTORS
330
2A
102
}
330
2A
100
AcDbVisualStyle
  2
2dWireframe
 70
     4
177
     3
291
     0
 70
    58
 90
        0
176
     1
 90
        2
176
     1
 90
        0
176
     1
 90
        0
176
     1
 40
0.6
176
     1
 40
30.0
176
     1
 62
     7
420
 16777215
176
     1
 90
        1
176
     1
 90
        4
176
     1
 62
     7
176
     1
 62
   257
176
     1
 90
        1
176
     1
 90
        1
176
     1
 40
1.0
176
     1
 90
        0
176
     1
 62
   257
176
     1
 40
1.0
176
     1
 90
        1
176
     1
 90
        6
176
     1
 90
        2
176
     1
 62
     7
176
     1
 90
        5
176
     1
 90
        0
176
     1
 90
        0
176
     1
290
     0
176
     1
 90
        1
176
     1
 40
0.0
176
     1
 90
        0
176
     1
290
     1
176
     1
290
     1
176
     1
290
     0
176
     1
290
     0
176
     1
290
     0
176
     1
290
     0
176
     1
290
     0
176
     1
290
     0
176
     1
290
     0
176
     1
 90
       50
176
     1
 40
0.0
176
     1
 40
1.0
176
     1
 90
        0
176
     1
 62
    18
420
        0
176
     1
 90
       50
176
     1
 90
        3
176
     1
 62
     5
420
      255
176
     1
290
     0
176
     1
 90
       50
176
     1
 90
       50
176
     1
 90
       50
176
     1
290
     0
176
     1
 90
       50
176
     1
 62
   256
176
     0
 40
1.0
176
     0
 90
        2
176
     1
  1
strokes_ogs.tif
176
     1
290
     0
176
     1
 40
1.0
176
     1
 40
1.0
176
     1
  0
VISUALSTYLE
  5
32
102
{ACAD_REACTORS
330
2A
102
}
330
2A
100
AcDbVisualStyle
  2
Basic
 70
     7
177
     3
291
     1
 70
    58
 90
        1
176
     1
 90
        0
176
     1
 90
        1
176
     1
 90
        0
176
     1
 40
0.6
176
     1
 40
30.0
176
     1
 62
     7
420
 16777215
176
     1
 90
        0
176
     1
 90
        4
176
     1
 62
     7
176
     1
 62
   257
176
     1
 90
        1
176
     1
 90
        1
176
     1
 40
1.0
176
     1
 90
        8
176
     1
 62
     7
176
     1
 40
1.0
176
     1
 90
        1
176
     1
 90
        6
176
     1
 90
        2
176
     1
 62
     7
176
     1
 90
        5
176
     1
 90
        0
176
     1
 90
        0
176
     1
290
     0
176
     1
 90
        1
176
     1
 40
0.0
176
     1
 90
        0
176
     1
290
     0
176
     1
290
     1
176
     1
290
     1
176
     1
290
     0
176
     1
290
     0
176
     1
290
     0
176
     1
290
     0
176
     1
290
     0
176
     1
290
     0
176
     1
 90
       50
176
     1
 40
0.0
176
     1
 40
1.0
176
     1
 90
        0
176
     1
 62
    18
420
        0
176
     1
 90
       50
176
     1
 90
        3
176
     1
 62
     5
420
      255
176
     1
290
     0
176
     1
 90
       50
176
     1
 90
       50
176
     1
 90
       50
176
     1
290
     0
176
     1
 90
       50
176
     1
 62
   256
176
     0
 40
1.0
176
     0
 90
        2
176
     1
  1
strokes_ogs.tif
176
     1
290
     0
176
     1
 40
1.0
176
     1
 40
1.0
176
     1
  0
VISUALSTYLE
  5
36
102
{ACAD_REACTORS
330
2A
102
}
330
2A
100
AcDbVisualStyle
  2
Brighten
 70
    12
177
     3
291
     1
 70
    58
 90
        2
176
     1
 90
        2
176
     1
 90
        0
176
     1
 90
        0
176
     1
 40
0.6
176
     1
 40
30.0
176
     1
 62
     7
420
 16777215
176
     1
 90
        1
176
     1
 90
        4
176
     1
 62
     7
176
     1
 62
   257
176
     1
 90
        1
176
     1
 90
        1
176
     1
 40
1.0
176
     1
 90
        8
176
     1
 62
     7
176
     1
 40
1.0
176
     1
 90
        1
176
     1
 90
        6
176
     1
 90
        2
176
     1
 62
     7
176
     1
 90
        5
176
     1
 90
        0
176
     1
 90
        0
176
     1
290
     0
176
     1
 90
        1
176
     1
 40
50.0
176
     1
 90
        0
176
     1
290
     0
176
     1
290
     1
176
     1
290
     1
176
     1
290
     0
176
     1
290
     0
176
     1
290
     0
176
     1
290
     0
176
     1
290
     0
176
     1
290
     0
176
     1
 90
       50
176
     1
 40
0.0
176
     1
 40
1.0
176
     1
 90
        0
176
     1
 62
    18
420
        0
176
     1
 90
       50
176
     1
 90
        3
176
     1
 62
     5
420
      255
176
     1
290
     0
176
     1
 90
       50
176
     1
 90
       50
176
     1
 90
       50
176
     1
290
     0
176
     1
 90
       50
176
     1
 62
   256
176
     0
 40
1.0
176
     0
 90
        2
176
     1
  1
strokes_ogs.tif
176
     1
290
     0
176
     1
 40
1.0
176
     1
 40
1.0
176
     1
  0
VISUALSTYLE
  5
3A
102
{ACAD_REACTORS
330
2A
102
}
330
2A
100
AcDbVisualStyle
  2
ColorChange
 70
    16
177
     3
291
     1
 70
    58
 90
        2
176
     1
 90
        2
176
     1
 90
        3
176
     1
 90
        0
176
     1
 40
0.6
176
     1
 40
30.0
176
     1
 62
     8
420
  8421504
176
     1
 90
        1
176
     1
 90
        4
176
     1
 62
     7
176
     1
 62
   257
176
     1
 90
        1
176
     1
 90
        1
176
     1
 40
1.0
176
     1
 90
        8
176
     1
 62
     8
420
  8421504
176
     1
 40
1.0
176
     1
 90
        1
176
     1
 90
        6
176
     1
 90
        2
176
     1
 62
     7
176
     1
 90
        5
176
     1
 90
        0
176
     1
 90
        0
176
     1
290
     0
176
     1
 90
        1
176
     1
 40
0.0
176
     1
 90
        0
176
     1
290
     0
176
     1
290
     1
176
     1
290
     1
176
     1
290
     0
176
     1
290
     0
176
     1
290
     0
176
     1
290
     0
176
     1
290
     0
176
     1
290
     0
176
     1
 90
       50
176
     1
 40
0.0
176
     1
 40
1.0
176
     1
 90
        0
176
     1
 62
    18
420
        0
176
     1
 90
       50
176
     1
 90
        3
176
     1
 62
     5
420
      255
176
     1
290
     0
176
     1
 90
       50
176
     1
 90
       50
176
     1
 90
       50
176
     1
290
     0
176
     1
 90
       50
176
     1
 62
   256
176
     0
 40
1.0
176
     0
 90
        2
176
     1
  1
strokes_ogs.tif
176
     1
290
     0
176
     1
 40
1.0
176
     1
 40
1.0
176
     1
  0
VISUALSTYLE
  5
34
102
{ACAD_REACTORS
330
2A
102
}
330
2A
100
AcDbVisualStyle
  2
Conceptual
 70
     9
177
     3
291
     0
 70
    58
 90
        3
176
     1
 90
        2
176
     1
 90
        0
176
     1
 90
        0
176
     1
 40
0.6
176
     1
 40
30.0
176
     1
 62
     7
420
 16777215
176
     1
 90
        2
176
     1
 90
        2
176
     1
 62
     7
176
     1
 62
   257
176
     1
 90
        1
176
     1
 90
        1
176
     1
 40
179.0
176
     1
 90
        8
176
     1
 62
     7
176
     1
 40
1.0
176
     1
 90
        1
176
     1
 90
        6
176
     1
 90
        2
176
     1
 62
     7
176
     1
 90
        3
176
     1
 90
        0
176
     1
 90
        0
176
     1
290
     0
176
     1
 90
        1
176
     1
 40
0.0
176
     1
 90
        0
176
     1
290
     0
176
     1
290
     1
176
     1
290
     1
176
     1
290
     0
176
     1
290
     0
176
     1
290
     0
176
     1
290
     0
176
     1
290
     0
176
     1
290
     0
176
     1
 90
       50
176
     1
 40
0.0
176
     1
 40
1.0
176
     1
 90
        0
176
     1
 62
    18
420
        0
176
     1
 90
       50
176
     1
 90
        3
176
     1
 62
     5
420
      255
176
     1
290
     0
176
     1
 90
       50
176
     1
 90
       50
176
     1
 90
       50
176
     1
290
     0
176
     1
 90
       50
176
     1
 62
   256
176
     0
 40
1.0
176
     0
 90
        2
176
     1
  1
strokes_ogs.tif
176
     1
290
     0
176
     1
 40
1.0
176
     1
 40
1.0
176
     1
  0
VISUALSTYLE
  5
35
102
{ACAD_REACTORS
330
2A
102
}
330
2A
100
AcDbVisualStyle
  2
Dim
 70
    11
177
     3
291
     1
 70
    58
 90
        2
176
     1
 90
        2
176
     1
 90
        0
176
     1
 90
        0
176
     1
 40
0.6
176
     1
 40
30.0
176
     1
 62
     7
420
 16777215
176
     1
 90
        1
176
     1
 90
        4
176
     1
 62
     7
176
     1
 62
   257
176
     1
 90
        1
176
     1
 90
        1
176
     1
 40
1.0
176
     1
 90
        8
176
     1
 62
     7
176
     1
 40
1.0
176
     1
 90
        1
176
     1
 90
        6
176
     1
 90
        2
176
     1
 62
     7
176
     1
 90
        5
176
     1
 90
        0
176
     1
 90
        0
176
     1
290
     0
176
     1
 90
        1
176
     1
 40
-50.0
176
     1
 90
        0
176
     1
290
     0
176
     1
290
     1
176
     1
290
     1
176
     1
290
     0
176
     1
290
     0
176
     1
290
     0
176
     1
290
     0
176
     1
290
     0
176
     1
290
     0
176
     1
 90
       50
176
     1
 40
0.0
176
     1
 40
1.0
176
     1
 90
        0
176
     1
 62
    18
420
        0
176
     1
 90
       50
176
     1
 90
        3
176
     1
 62
     5
420
      255
176
     1
290
     0
176
     1
 90
       50
176
     1
 90
       50
176
     1
 90
       50
176
     1
290
     0
176
     1
 90
       50
176
     1
 62
   256
176
     0
 40
1.0
176
     0
 90
        2
176
     1
  1
strokes_ogs.tif
176
     1
290
     0
176
     1
 40
1.0
176
     1
 40
1.0
176
     1
  0
VISUALSTYLE
  5
3D
102
{ACAD_REACTORS
330
2A
102
}
330
2A
100
AcDbVisualStyle
  2
EdgeColorOff
 70
    22
177
     3
291
     1
 70
    58
 90
        2
176
     0
 90
        2
176
     0
 90
        0
176
     0
 90
        0
176
     0
 40
0.6
176
     0
 40
30.0
176
     0
 62
     7
420
 16777215
176
     0
 90
        1
176
     0
 90
        4
176
     0
 62
     7
176
     0
 62
   257
176
     0
 90
        1
176
     0
 90
        1
176
     0
 40
1.0
176
     0
 90
        8
176
     2
 62
     7
176
     0
 40
1.0
176
     0
 90
        1
176
     0
 90
        6
176
     0
 90
        2
176
     0
 62
     7
176
     0
 90
        5
176
     0
 90
        0
176
     0
 90
        0
176
     0
290
     0
176
     0
 90
        1
176
     0
 40
0.0
176
     0
 90
        0
176
     0
290
     0
176
     0
290
     1
176
     0
290
     1
176
     0
290
     0
176
     0
290
     0
176
     0
290
     0
176
     0
290
     0
176
     0
290
     0
176
     0
290
     0
176
     0
 90
       50
176
     0
 40
0.0
176
     0
 40
1.0
176
     0
 90
        0
176
     0
 62
    18
420
        0
176
     0
 90
       50
176
     0
 90
        3
176
     0
 62
     5
420
      255
176
     0
290
     0
176
     0
 90
       50
176
     0
 90
       50
176
     0
 90
       50
176
     0
290
     0
176
     0
 90
       50
176
     0
 62
   256
176
     0
 40
1.0
176
     0
 90
        2
176
     0
  1
strokes_ogs.tif
176
     0
290
     0
176
     0
 40
1.0
176
     0
 40
1.0
176
     0
  0
VISUALSTYLE
  5
39
102
{ACAD_REACTORS
330
2A
102
}
330
2A
100
AcDbVisualStyle
  2
Facepattern
 70
    15
177
     3
291
     1
 70
    58
 90
        2
176
     1
 90
        2
176
     1
 90
        0
176
     1
 90
        0
176
     1
 40
0.6
176
     1
 40
30.0
176
     1
 62
     7
420
 16777215
176
     1
 90
        1
176
     1
 90
        4
176
     1
 62
     7
176
     1
 62
   257
176
     1
 90
        1
176
     1
 90
        1
176
     1
 40
1.0
176
     1
 90
        8
176
     1
 62
     7
176
     1
 40
1.0
176
     1
 90
        1
176
     1
 90
        6
176
     1
 90
        2
176
     1
 62
     7
176
     1
 90
        5
176
     1
 90
        0
176
     1
 90
        0
176
     1
290
     0
176
     1
 90
        1
176
     1
 40
0.0
176
     1
 90
        0
176
     1
290
     0
176
     1
290
     1
176
     1
290
     1
176
     1
290
     0
176
     1
290
     0
176
     1
290
     0
176
     1
290
     0
176
     1
290
     0
176
     1
290
     0
176
     1
 90
       50
176
     1
 40
0.0
176
     1
 40
1.0
176
     1
 90
        0
176
     1
 62
    18
420
        0
176
     1
 90
       50
176
     1
 90
        3
176
     1
 62
     5
420
      255
176
     1
290
     0
176
     1
 90
       50
176
     1
 90
       50
176
     1
 90
       50
176
     1
290
     0
176
     1
 90
       50
176
     1
 62
   256
176
     0
 40
1.0
176
     0
 90
        2
176
     1
  1
strokes_ogs.tif
176
     1
290
     0
176
     1
 40
1.0
176
     1
 40
1.0
176
     1
  0
VISUALSTYLE
  5
2B
102
{ACAD_REACTORS
330
2A
102
}
330
2A
100
AcDbVisualStyle
  2
Flat
 70
     0
177
     3
291
     1
 70
    58
 90
        2
176
     1
 90
        1
176
     1
 90
        1
176
     1
 90
        2
176
     1
 40
0.6
176
     1
 40
30.0
176
     1
 62
     7
420
 16777215
176
     1
 90
        0
176
     1
 90
        0
176
     1
 62
     7
176
     1
 62
   257
176
     1
 90
        1
176
     1
 90
        1
176
     1
 40
1.0
176
     1
 90
        8
176
     1
 62
     7
176
     1
 40
1.0
176
     1
 90
        1
176
     1
 90
        6
176
     1
 90
        2
176
     1
 62
     7
176
     1
 90
        5
176
     1
 90
        0
176
     1
 90
        0
176
     1
290
     0
176
     1
 90
       13
176
     1
 40
0.0
176
     1
 90
        0
176
     1
290
     0
176
     1
290
     1
176
     1
290
     1
176
     1
290
     0
176
     1
290
     0
176
     1
290
     0
176
     1
290
     0
176
     1
290
     0
176
     1
290
     0
176
     1
 90
       50
176
     1
 40
0.0
176
     1
 40
1.0
176
     1
 90
        0
176
     1
 62
    18
420
        0
176
     1
 90
       50
176
     1
 90
        3
176
     1
 62
     5
420
      255
176
     1
290
     0
176
     1
 90
       50
176
     1
 90
       50
176
     1
 90
       50
176
     1
290
     0
176
     1
 90
       50
176
     1
 62
   256
176
     0
 40
1.0
176
     0
 90
        2
176
     1
  1
strokes_ogs.tif
176
     1
290
     0
176
     1
 40
1.0
176
     1
 40
1.0
176
     1
  0
VISUALSTYLE
  5
2C
102
{ACAD_REACTORS
330
2A
102
}
330
2A
100
AcDbVisualStyle
  2
FlatWithEdges
 70
     1
177
     3
291
     1
 70
    58
 90
        2
176
     1
 90
        1
176
     1
 90
        1
176
     1
 90
        2
176
     1
 40
0.6
176
     1
 40
30.0
176
     1
 62
     7
420
 16777215
176
     1
 90
        1
176
     1
 90
        0
176
     1
 62
     7
176
     1
 62
   257
176
     1
 90
        1
176
     1
 90
        1
176
     1
 40
1.0
176
     1
 90
        0
176
     1
 62
   257
176
     1
 40
1.0
176
     1
 90
        1
176
     1
 90
        6
176
     1
 90
        2
176
     1
 62
     7
176
     1
 90
        5
176
     1
 90
        0
176
     1
 90
        0
176
     1
290
     0
176
     1
 90
       13
176
     1
 40
0.0
176
     1
 90
        0
176
     1
290
     0
176
     1
290
     1
176
     1
290
     1
176
     1
290
     0
176
     1
290
     0
176
     1
290
     0
176
     1
290
     0
176
     1
290
     0
176
     1
290
     0
176
     1
 90
       50
176
     1
 40
0.0
176
     1
 40
1.0
176
     1
 90
        0
176
     1
 62
    18
420
        0
176
     1
 90
       50
176
     1
 90
        3
176
     1
 62
     5
420
      255
176
     1
290
     0
176
     1
 90
       50
176
     1
 90
       50
176
     1
 90
       50
176
     1
290
     0
176
     1
 90
       50
176
     1
 62
   256
176
     0
 40
1.0
176
     0
 90
        2
176
     1
  1
strokes_ogs.tif
176
     1
290
     0
176
     1
 40
1.0
176
     1
 40
1.0
176
     1
  0
VISUALSTYLE
  5
2D
102
{ACAD_REACTORS
330
2A
102
}
330
2A
100
AcDbVisualStyle
  2
Gouraud
 70
     2
177
     3
291
     1
 70
    58
 90
        2
176
     1
 90
        2
176
     1
 90
        1
176
     1
 90
        2
176
     1
 40
0.6
176
     1
 40
30.0
176
     1
 62
     7
420
 16777215
176
     1
 90
        0
176
     1
 90
        0
176
     1
 62
     7
176
     1
 62
   257
176
     1
 90
        1
176
     1
 90
        1
176
     1
 40
1.0
176
     1
 90
        0
176
     1
 62
     7
176
     1
 40
1.0
176
     1
 90
        1
176
     1
 90
        6
176
     1
 90
        2
176
     1
 62
     7
176
     1
 90
        5
176
     1
 90
        0
176
     1
 90
        0
176
     1
290
     0
176
     1
 90
       13
176
     1
 40
0.0
176
     1
 90
        0
176
     1
290
     0
176
     1
290
     1
176
     1
290
     1
176
     1
290
     0
176
     1
290
     0
176
     1
290
     0
176
     1
290
     0
176
     1
290
     0
176
     1
290
     0
176
     1
 90
       50
176
     1
 40
0.0
176
     1
 40
1.0
176
     1
 90
        0
176
     1
 62
    18
420
        0
176
     1
 90
       50
176
     1
 90
        3
176
     1
 62
     5
420
      255
176
     1
290
     0
176
     1
 90
       50
176
     1
 90
       50
176
     1
 90
       50
176
     1
290
     0
176
     1
 90
       50
176
     1
 62
   256
176
     0
 40
1.0
176
     0
 90
        2
176
     1
  1
strokes_ogs.tif
176
     1
290
     0
176
     1
 40
1.0
176
     1
 40
1.0
176
     1
  0
VISUALSTYLE
  5
2E
102
{ACAD_REACTORS
330
2A
102
}
330
2A
100
AcDbVisualStyle
  2
GouraudWithEdges
 70
     3
177
     3
291
     1
 70
    58
 90
        2
176
     1
 90
        2
176
     1
 90
        1
176
     1
 90
        2
176
     1
 40
0.6
176
     1
 40
30.0
176
     1
 62
     7
420
 16777215
176
     1
 90
        1
176
     1
 90
        0
176
     1
 62
     7
176
     1
 62
   257
176
     1
 90
        1
176
     1
 90
        1
176
     1
 40
1.0
176
     1
 90
        0
176
     1
 62
   257
176
     1
 40
1.0
176
     1
 90
        1
176
     1
 90
        6
176
     1
 90
        2
176
     1
 62
     7
176
     1
 90
        5
176
     1
 90
        0
176
     1
 90
        0
176
     1
290
     0
176
     1
 90
       13
176
     1
 40
0.0
176
     1
 90
        0
176
     1
290
     0
176
     1
290
     1
176
     1
290
     1
176
     1
290
     0
176
     1
290
     0
176
     1
290
     0
176
     1
290
     0
176
     1
290
     0
176
     1
290
     0
176
     1
 90
       50
176
     1
 40
0.0
176
     1
 40
1.0
176
     1
 90
        0
176
     1
 62
    18
420
        0
176
     1
 90
       50
176
     1
 90
        3
176
     1
 62
     5
420
      255
176
     1
290
     0
176
     1
 90
       50
176
     1
 90
       50
176
     1
 90
       50
176
     1
290
     0
176
     1
 90
       50
176
     1
 62
   256
176
     0
 40
1.0
176
     0
 90
        2
176
     1
  1
strokes_ogs.tif
176
     1
290
     0
176
     1
 40
1.0
176
     1
 40
1.0
176
     1
  0
VISUALSTYLE
  5
31
102
{ACAD_REACTORS
330
2A
102
}
330
2A
100
AcDbVisualStyle
  2
Hidden
 70
     6
177
     3
291
     0
 70
    58
 90
        1
176
     1
 90
        2
176
     1
 90
        2
176
     1
 90
        0
176
     1
 40
0.6
176
     1
 40
30.0
176
     1
 62
     7
420
 16777215
176
     1
 90
        2
176
     1
 90
        2
176
     1
 62
     7
176
     1
 62
   257
176
     1
 90
        2
176
     1
 90
        1
176
     1
 40
40.0
176
     1
 90
        0
176
     1
 62
   257
176
     1
 40
1.0
176
     1
 90
        1
176
     1
 90
        6
176
     1
 90
        2
176
     1
 62
     7
176
     1
 90
        3
176
     1
 90
        0
176
     1
 90
        0
176
     1
290
     0
176
     1
 90
        1
176
     1
 40
0.0
176
     1
 90
        0
176
     1
290
     0
176
     1
290
     1
176
     1
290
     1
176
     1
290
     0
176
     1
290
     0
176
     1
290
     0
176
     1
290
     0
176
     1
290
     0
176
     1
290
     0
176
     1
 90
       50
176
     1
 40
0.0
176
     1
 40
1.0
176
     1
 90
        0
176
     1
 62
    18
420
        0
176
     1
 90
       50
176
     1
 90
        3
176
     1
 62
     5
420
      255
176
     1
290
     0
176
     1
 90
       50
176
     1
 90
       50
176
     1
 90
       50
176
     1
290
     0
176
     1
 90
       50
176
     1
 62
   256
176
     0
 40
1.0
176
     0
 90
        2
176
     1
  1
strokes_ogs.tif
176
     1
290
     0
176
     1
 40
1.0
176
     1
 40
1.0
176
     1
  0
VISUALSTYLE
  5
3B
102
{ACAD_REACTORS
330
2A
102
}
330
2A
100
AcDbVisualStyle
  2
JitterOff
 70
    20
177
     3
291
     1
 70
    58
 90
        2
176
     0
 90
        2
176
     0
 90
        0
176
     0
 90
        0
176
     0
 40
0.6
176
     0
 40
30.0
176
     0
 62
     7
420
 16777215
176
     0
 90
        1
176
     0
 90
        4
176
     0
 62
     7
176
     0
 62
   257
176
     0
 90
        1
176
     0
 90
        1
176
     0
 40
1.0
176
     0
 90
       10
176
     2
 62
     7
176
     0
 40
1.0
176
     0
 90
        1
176
     0
 90
        6
176
     0
 90
        2
176
     0
 62
     7
176
     0
 90
        5
176
     0
 90
        0
176
     0
 90
        0
176
     0
290
     0
176
     0
 90
        1
176
     0
 40
0.0
176
     0
 90
        0
176
     0
290
     0
176
     0
290
     1
176
     0
290
     1
176
     0
290
     0
176
     0
290
     0
176
     0
290
     0
176
     0
290
     0
176
     0
290
     0
176
     0
290
     0
176
     0
 90
       50
176
     0
 40
0.0
176
     0
 40
1.0
176
     0
 90
        0
176
     0
 62
    18
420
        0
176
     0
 90
       50
176
     0
 90
        3
176
     0
 62
     5
420
      255
176
     0
290
     0
176
     0
 90
       50
176
     0
 90
       50
176
     0
 90
       50
176
     0
290
     0
176
     0
 90
       50
176
     0
 62
   256
176
     0
 40
1.0
176
     0
 90
        2
176
     0
  1
strokes_ogs.tif
176
     0
290
     0
176
     0
 40
1.0
176
     0
 40
1.0
176
     0
  0
VISUALSTYLE
  5
38
102
{ACAD_REACTORS
330
2A
102
}
330
2A
100
AcDbVisualStyle
  2
Linepattern
 70
    14
177
     3
291
     1
 70
    58
 90
        2
176
     1
 90
        2
176
     1
 90
        0
176
     1
 90
        0
176
     1
 40
0.6
176
     1
 40
30.0
176
     1
 62
     7
420
 16777215
176
     1
 90
        1
176
     1
 90
        4
176
     1
 62
     7
176
     1
 62
   257
176
     1
 90
        7
176
     1
 90
        7
176
     1
 40
1.0
176
     1
 90
        8
176
     1
 62
     7
176
     1
 40
1.0
176
     1
 90
        1
176
     1
 90
        6
176
     1
 90
        2
176
     1
 62
     7
176
     1
 90
        5
176
     1
 90
        0
176
     1
 90
        0
176
     1
290
     0
176
     1
 90
        1
176
     1
 40
0.0
176
     1
 90
        0
176
     1
290
     0
176
     1
290
     1
176
     1
290
     1
176
     1
290
     0
176
     1
290
     0
176
     1
290
     0
176
     1
290
     0
176
     1
290
     0
176
     1
290
     0
176
     1
 90
       50
176
     1
 40
0.0
176
     1
 40
1.0
176
     1
 90
        0
176
     1
 62
    18
420
        0
176
     1
 90
       50
176
     1
 90
        3
176
     1
 62
     5
420
      255
176
     1
290
     0
176
     1
 90
       50
176
     1
 90
       50
176
     1
 90
       50
176
     1
290
     0
176
     1
 90
       50
176
     1
 62
   256
176
     0
 40
1.0
176
     0
 90
        2
176
     1
  1
strokes_ogs.tif
176
     1
290
     0
176
     1
 40
1.0
176
     1
 40
1.0
176
     1
  0
VISUALSTYLE
  5
3C
102
{ACAD_REACTORS
330
2A
102
}
330
2A
100
AcDbVisualStyle
  2
OverhangOff
 70
    21
177
     3
291
     1
 70
    58
 90
        2
176
     0
 90
        2
176
     0
 90
        0
176
     0
 90
        0
176
     0
 40
0.6
176
     0
 40
30.0
176
     0
 62
     7
420
 16777215
176
     0
 90
        1
176
     0
 90
        4
176
     0
 62
     7
176
     0
 62
   257
176
     0
 90
        1
176
     0
 90
        1
176
     0
 40
1.0
176
     0
 90
        9
176
     2
 62
     7
176
     0
 40
1.0
176
     0
 90
        1
176
     0
 90
        6
176
     0
 90
        2
176
     0
 62
     7
176
     0
 90
        5
176
     0
 90
        0
176
     0
 90
        0
176
     0
290
     0
176
     0
 90
        1
176
     0
 40
0.0
176
     0
 90
        0
176
     0
290
     0
176
     0
290
     1
176
     0
290
     1
176
     0
290
     0
176
     0
290
     0
176
     0
290
     0
176
     0
290
     0
176
     0
290
     0
176
     0
290
     0
176
     0
 90
       50
176
     0
 40
0.0
176
     0
 40
1.0
176
     0
 90
        0
176
     0
 62
    18
420
        0
176
     0
 90
       50
176
     0
 90
        3
176
     0
 62
     5
420
      255
176
     0
290
     0
176
     0
 90
       50
176
     0
 90
       50
176
     0
 90
       50
176
     0
290
     0
176
     0
 90
       50
176
     0
 62
   256
176
     0
 40
1.0
176
     0
 90
        2
176
     0
  1
strokes_ogs.tif
176
     0
290
     0
176
     0
 40
1.0
176
     0
 40
1.0
176
     0
  0
VISUALSTYLE
  5
33
102
{ACAD_REACTORS
330
2A
102
}
330
2A
100
AcDbVisualStyle
  2
Realistic
 70
     8
177
     3
291
     0
 70
    58
 90
        2
176
     1
 90
        3
176
     1
 90
        0
176
     1
 90
        2
176
     1
 40
0.6
176
     1
 40
30.0
176
     1
 62
     7
420
 16777215
176
     1
 90
        0
176
     1
 90
        0
176
     1
 62
     7
176
     1
 62
   257
176
     1
 90
        1
176
     1
 90
        1
176
     1
 40
1.0
176
     1
 90
        8
176
     1
 62
   257
176
     1
 40
1.0
176
     1
 90
        1
176
     1
 90
        6
176
     1
 90
        2
176
     1
 62
     7
176
     1
 90
        3
176
     1
 90
        0
176
     1
 90
        0
176
     1
290
     0
176
     1
 90
       13
176
     1
 40
0.0
176
     1
 90
        0
176
     1
290
     0
176
     1
290
     1
176
     1
290
     1
176
     1
290
     0
176
     1
290
     0
176
     1
290
     0
176
     1
290
     0
176
     1
290
     0
176
     1
290
     0
176
     1
 90
       50
176
     1
 40
0.0
176
     1
 40
1.0
176
     1
 90
        0
176
     1
 62
    18
420
        0
176
     1
 90
       50
176
     1
 90
        3
176
     1
 62
     5
420
      255
176
     1
290
     0
176
     1
 90
       50
176
     1
 90
       50
176
     1
 90
       50
176
     1
290
     0
176
     1
 90
       50
176
     1
 62
   256
176
     0
 40
1.0
176
     0
 90
        2
176
     1
  1
strokes_ogs.tif
176
     1
290
     0
176
     1
 40
1.0
176
     1
 40
1.0
176
     1
  0
VISUALSTYLE
  5
42
102
{ACAD_REACTORS
330
2A
102
}
330
2A
100
AcDbVisualStyle
  2
Shaded
 70
    27
177
     3
291
     0
 70
    58
 90
        2
176
     1
 90
        2
176
     1
 90
        1
176
     1
 90
        2
176
     1
 40
0.6
176
     1
 40
30.0
176
     1
 62
     7
420
 16777215
176
     1
 90
        0
176
     1
 90
        4
176
     1
 62
     7
176
     1
 62
   257
176
     1
 90
        1
176
     1
 90
        1
176
     1
 40
1.0
176
     1
 90
        8
176
     1
 62
   257
176
     1
 40
1.0
176
     1
 90
        1
176
     1
 90
        6
176
     1
 90
        2
176
     1
 62
     8
420
  7895160
176
     1
 90
        3
176
     1
 90
        0
176
     1
 90
        0
176
     1
290
     0
176
     1
 90
        5
176
     1
 40
0.0
176
     1
 90
        0
176
     1
290
     0
176
     1
290
     1
176
     1
290
     1
176
     1
290
     0
176
     1
290
     0
176
     1
290
     0
176
     1
290
     0
176
     1
290
     0
176
     1
290
     0
176
     1
 90
       50
176
     1
 40
0.0
176
     1
 40
1.0
176
     1
 90
        0
176
     1
 62
    18
420
        0
176
     1
 90
       50
176
     1
 90
        3
176
     1
 62
     5
420
      255
176
     1
290
     0
176
     1
 90
       50
176
     1
 90
       50
176
     1
 90
       50
176
     1
290
     0
176
     1
 90
       50
176
     1
 62
   256
176
     0
 40
1.0
176
     0
 90
        2
176
     1
  1
strokes_ogs.tif
176
     1
290
     0
176
     1
 40
1.0
176
     1
 40
1.0
176
     1
  0
VISUALSTYLE
  5
41
102
{ACAD_REACTORS
330
2A
102
}
330
2A
100
AcDbVisualStyle
  2
Shaded with edges
 70
    26
177
     3
291
     0
 70
    58
 90
        2
176
     1
 90
        2
176
     1
 90
        1
176
     1
 90
        2
176
     1
 40
0.6
176
     1
 40
30.0
176
     1
 62
     7
420
 16777215
176
     1
 90
        1
176
     1
 90
       10
176
     1
 62
     7
176
     1
 62
   257
176
     1
 90
        2
176
     1
 90
        1
176
     1
 40
1.0
176
     1
 90
        8
176
     1
 62
   257
176
     1
 40
1.0
176
     1
 90
        1
176
     1
 90
        6
176
     1
 90
        2
176
     1
 62
     7
176
     1
 90
        3
176
     1
 90
        0
176
     1
 90
        0
176
     1
290
     0
176
     1
 90
        5
176
     1
 40
0.0
176
     1
 90
        0
176
     1
290
     0
176
     1
290
     1
176
     1
290
     1
176
     1
290
     0
176
     1
290
     0
176
     1
290
     0
176
     1
290
     0
176
     1
290
     0
176
     1
290
     0
176
     1
 90
       50
176
     1
 40
0.0
176
     1
 40
1.0
176
     1
 90
        0
176
     1
 62
    18
420
        0
176
     1
 90
       50
176
     1
 90
        3
176
     1
 62
     5
420
      255
176
     1
290
     0
176
     1
 90
       50
176
     1
 90
       50
176
     1
 90
       50
176
     1
290
     0
176
     1
 90
       50
176
     1
 62
   256
176
     0
 40
1.0
176
     0
 90
        2
176
     1
  1
strokes_ogs.tif
176
     1
290
     0
176
     1
 40
1.0
176
     1
 40
1.0
176
     1
  0
VISUALSTYLE
  5
3E
102
{ACAD_REACTORS
330
2A
102
}
330
2A
100
AcDbVisualStyle
  2
Shades of Gray
 70
    23
177
     3
291
     0
 70
    58
 90
        2
176
     1
 90
        2
176
     1
 90
        3
176
     1
 90
        0
176
     1
 40
0.6
176
     1
 40
30.0
176
     1
 62
     7
420
 16777215
176
     1
 90
        2
176
     1
 90
        2
176
     1
 62
     7
176
     1
 62
     7
176
     1
 90
        1
176
     1
 90
        1
176
     1
 40
40.0
176
     1
 90
        8
176
     1
 62
     7
176
     1
 40
1.0
176
     1
 90
        1
176
     1
 90
        6
176
     1
 90
        2
176
     1
 62
     7
176
     1
 90
        3
176
     1
 90
        0
176
     1
 90
        0
176
     1
290
     0
176
     1
 90
        1
176
     1
 40
0.0
176
     1
 90
        0
176
     1
290
     0
176
     1
290
     1
176
     1
290
     1
176
     1
290
     0
176
     1
290
     0
176
     1
290
     0
176
     1
290
     0
176
     1
290
     0
176
     1
290
     0
176
     1
 90
       50
176
     1
 40
0.0
176
     1
 40
1.0
176
     1
 90
        0
176
     1
 62
    18
420
        0
176
     1
 90
       50
176
     1
 90
        3
176
     1
 62
     5
420
      255
176
     1
290
     0
176
     1
 90
       50
176
     1
 90
       50
176
     1
 90
       50
176
     1
290
     0
176
     1
 90
       50
176
     1
 62
   256
176
     0
 40
1.0
176
     0
 90
        2
176
     1
  1
strokes_ogs.tif
176
     1
290
     0
176
     1
 40
1.0
176
     1
 40
1.0
176
     1
  0
VISUALSTYLE
  5
3F
102
{ACAD_REACTORS
330
2A
102
}
330
2A
100
AcDbVisualStyle
  2
Sketchy
 70
    24
177
     3
291
     0
 70
    58
 90
        1
176
     1
 90
        2
176
     1
 90
        2
176
     1
 90
        0
176
     1
 40
0.6
176
     1
 40
30.0
176
     1
 62
     7
420
 16777215
176
     1
 90
        2
176
     1
 90
        2
176
     1
 62
     7
176
     1
 62
     7
176
     1
 90
        1
176
     1
 90
        1
176
     1
 40
40.0
176
     1
 90
       11
176
     1
 62
     7
176
     1
 40
1.0
176
     1
 90
        1
176
     1
 90
        6
176
     1
 90
        2
176
     1
 62
     7
176
     1
 90
        6
176
     1
 90
        0
176
     1
 90
        0
176
     1
290
     0
176
     1
 90
        1
176
     1
 40
0.0
176
     1
 90
        0
176
     1
290
     0
176
     1
290
     1
176
     1
290
     1
176
     1
290
     0
176
     1
290
     0
176
     1
290
     0
176
     1
290
     0
176
     1
290
     0
176
     1
290
     0
176
     1
 90
       50
176
     1
 40
0.0
176
     1
 40
1.0
176
     1
 90
        0
176
     1
 62
    18
420
        0
176
     1
 90
       50
176
     1
 90
        3
176
     1
 62
     5
420
      255
176
     1
290
     0
176
     1
 90
       50
176
     1
 90
       50
176
     1
 90
       50
176
     1
290
     0
176
     1
 90
       50
176
     1
 62
   256
176
     0
 40
1.0
176
     0
 90
        2
176
     1
  1
strokes_ogs.tif
176
     1
290
     0
176
     1
 40
1.0
176
     1
 40
1.0
176
     1
  0
VISUALSTYLE
  5
37
102
{ACAD_REACTORS
330
2A
102
}
330
2A
100
AcDbVisualStyle
  2
Thicken
 70
    13
177
     3
291
     1
 70
    58
 90
        2
176
     1
 90
        2
176
     1
 90
        0
176
     1
 90
        0
176
     1
 40
0.6
176
     1
 40
30.0
176
     1
 62
     7
420
 16777215
176
     1
 90
        1
176
     1
 90
        4
176
     1
 62
     7
176
     1
 62
   257
176
     1
 90
        1
176
     1
 90
        1
176
     1
 40
1.0
176
     1
 90
       12
176
     1
 62
     7
176
     1
 40
1.0
176
     1
 90
        1
176
     1
 90
        6
176
     1
 90
        2
176
     1
 62
     7
176
     1
 90
        5
176
     1
 90
        0
176
     1
 90
        0
176
     1
290
     0
176
     1
 90
        1
176
     1
 40
0.0
176
     1
 90
        0
176
     1
290
     0
176
     1
290
     1
176
     1
290
     1
176
     1
290
     0
176
     1
290
     0
176
     1
290
     0
176
     1
290
     0
176
     1
290
     0
176
     1
290
     0
176
     1
 90
       50
176
     1
 40
0.0
176
     1
 40
1.0
176
     1
 90
        0
176
     1
 62
    18
420
        0
176
     1
 90
       50
176
     1
 90
        3
176
     1
 62
     5
420
      255
176
     1
290
     0
176
     1
 90
       50
176
     1
 90
       50
176
     1
 90
       50
176
     1
290
     0
176
     1
 90
       50
176
     1
 62
   256
176
     0
 40
1.0
176
     0
 90
        2
176
     1
  1
strokes_ogs.tif
176
     1
290
     0
176
     1
 40
1.0
176
     1
 40
1.0
176
     1
  0
VISUALSTYLE
  5
30
102
{ACAD_REACTORS
330
2A
102
}
330
2A
100
AcDbVisualStyle
  2
Wireframe
 70
     5
177
     3
291
     0
 70
    58
 90
        0
176
     1
 90
        2
176
     1
 90
        0
176
     1
 90
        0
176
     1
 40
0.6
176
     1
 40
30.0
176
     1
 62
     7
420
 16777215
176
     1
 90
        1
176
     1
 90
        4
176
     1
 62
     7
176
     1
 62
   257
176
     1
 90
        1
176
     1
 90
        1
176
     1
 40
1.0
176
     1
 90
        0
176
     1
 62
   257
176
     1
 40
1.0
176
     1
 90
        1
176
     1
 90
        6
176
     1
 90
        2
176
     1
 62
     7
176
     1
 90
        3
176
     1
 90
        0
176
     1
 90
        0
176
     1
290
     0
176
     1
 90
        1
176
     1
 40
0.0
176
     1
 90
        0
176
     1
290
     0
176
     1
290
     1
176
     1
290
     1
176
     1
290
     0
176
     1
290
     0
176
     1
290
     0
176
     1
290
     0
176
     1
290
     0
176
     1
290
     0
176
     1
 90
       50
176
     1
 40
0.0
176
     1
 40
1.0
176
     1
 90
        0
176
     1
 62
    18
420
        0
176
     1
 90
       50
176
     1
 90
        3
176
     1
 62
     5
420
      255
176
     1
290
     0
176
     1
 90
       50
176
     1
 90
       50
176
     1
 90
       50
176
     1
290
     0
176
     1
 90
       50
176
     1
 62
   256
176
     0
 40
1.0
176
     0
 90
        2
176
     1
  1
strokes_ogs.tif
176
     1
290
     0
176
     1
 40
1.0
176
     1
 40
1.0
176
     1
  0
VISUALSTYLE
  5
40
102
{ACAD_REACTORS
330
2A
102
}
330
2A
100
AcDbVisualStyle
  2
X-Ray
 70
    25
177
     3
291
     0
 70
    58
 90
        2
176
     1
 90
        2
176
     1
 90
        1
176
     1
 90
        1
176
     1
 40
0.5
176
     1
 40
30.0
176
     1
 62
     7
420
 16777215
176
     1
 90
        1
176
     1
 90
        0
176
     1
 62
     7
176
     1
 62
   257
176
     1
 90
        1
176
     1
 90
        1
176
     1
 40
1.0
176
     1
 90
        8
176
     1
 62
     7
176
     1
 40
1.0
176
     1
 90
        1
176
     1
 90
        6
176
     1
 90
        2
176
     1
 62
     7
176
     1
 90
        3
176
     1
 90
        0
176
     1
 90
        0
176
     1
290
     0
176
     1
 90
       13
176
     1
 40
0.0
176
     1
 90
        0
176
     1
290
     0
176
     1
290
     1
176
     1
290
     1
176
     1
290
     0
176
     1
290
     0
176
     1
290
     0
176
     1
290
     0
176
     1
290
     0
176
     1
290
     0
176
     1
 90
       50
176
     1
 40
0.0
176
     1
 40
1.0
176
     1
 90
        0
176
     1
 62
    18
420
        0
176
     1
 90
       50
176
     1
 90
        3
176
     1
 62
     5
420
      255
176
     1
290
     0
176
     1
 90
       50
176
     1
 90
       50
176
     1
 90
       50
176
     1
290
     0
176
     1
 90
       50
176
     1
 62
   256
176
     0
 40
1.0
176
     0
 90
        2
176
     1
  1
strokes_ogs.tif
176
     1
290
     0
176
     1
 40
1.0
176
     1
 40
1.0
176
     1
  0
DICTIONARYVAR
  5
1A7
102
{ACAD_REACTORS
330
1A6
102
}
330
1A6
100
DictionaryVariables
280
     0
  1
1:1
  0
DICTIONARYVAR
  5
1AC
102
{ACAD_REACTORS
330
1A6
102
}
330
1A6
100
DictionaryVariables
280
     0
  1
Standard
  0
DICTIONARYVAR
  5
1AB
102
{ACAD_REACTORS
330
1A6
102
}
330
1A6
100
DictionaryVariables
280
     0
  1
Standard
  0
DICTIONARY
  5
1A8
330
6A
100
AcDbDictionary
280
     1
281
     1
  3
ACAD_ROUNDTRIP_2008_TABLESTYLE_CELLSTYLEMAP
360
1A9
  0
CELLSTYLEMAP
  5
1A9
102
{ACAD_REACTORS
330
1A8
102
}
330
1A8
100
AcDbCellStyleMap
 90
        3
300
CELLSTYLE
  1
TABLEFORMAT_BEGIN
 90
        5
170
     1
 91
        0
 92
    32768
 62
   257
 93
        1
300
CONTENTFORMAT
  1
CONTENTFORMAT_BEGIN
 90
        0
 91
        0
 92
        4
 93
        0
300

 40
0.0
140
1.0
 94
        5
 62
     0
340
11
144
0.25
309
CONTENTFORMAT_END
171
     1
301
MARGIN
  1
CELLMARGIN_BEGIN
 40
0.06
 40
0.06
 40
0.06
 40
0.06
 40
0.06
 40
0.06
309
CELLMARGIN_END
 94
        6
 95
        1
302
GRIDFORMAT
  1
GRIDFORMAT_BEGIN
 90
        0
 91
        1
 62
     0
 92
       -2
340
14
 93
        0
 40
0.045
309
GRIDFORMAT_END
 95
        2
302
GRIDFORMAT
  1
GRIDFORMAT_BEGIN
 90
        0
 91
        1
 62
     0
 92
       -2
340
14
 93
        0
 40
0.045
309
GRIDFORMAT_END
 95
        4
302
GRIDFORMAT
  1
GRIDFORMAT_BEGIN
 90
        0
 91
        1
 62
     0
 92
       -2
340
14
 93
        0
 40
0.045
309
GRIDFORMAT_END
 95
        8
302
GRIDFORMAT
  1
GRIDFORMAT_BEGIN
 90
        0
 91
        1
 62
     0
 92
       -2
340
14
 93
        0
 40
0.045
309
GRIDFORMAT_END
 95
       16
302
GRIDFORMAT
  1
GRIDFORMAT_BEGIN
 90
        0
 91
        1
 62
     0
 92
       -2
340
14
 93
        0
 40
0.045
309
GRIDFORMAT_END
 95
       32
302
GRIDFORMAT
  1
GRIDFORMAT_BEGIN
 90
        0
 91
        1
 62
     0
 92
       -2
340
14
 93
        0
 40
0.045
309
GRIDFORMAT_END
309
TABLEFORMAT_END
  1
CELLSTYLE_BEGIN
 90
        1
 91
        1
300
_TITLE
309
CELLSTYLE_END
300
CELLSTYLE
  1
TABLEFORMAT_BEGIN
 90
        5
170
     1
 91
        0
 92
        0
 62
   257
 93
        1
300
CONTENTFORMAT
  1
CONTENTFORMAT_BEGIN
 90
        0
 91
        0
 92
        4
 93
        0
300

 40
0.0
140
1.0
 94
        5
 62
     0
340
11
144
0.18
309
CONTENTFORMAT_END
171
     1
301
MARGIN
  1
CELLMARGIN_BEGIN
 40
0.06
 40
0.06
 40
0.06
 40
0.06
 40
0.06
 40
0.06
309
CELLMARGIN_END
 94
        6
 95
        1
302
GRIDFORMAT
  1
GRIDFORMAT_BEGIN
 90
        0
 91
        1
 62
     0
 92
       -2
340
14
 93
        0
 40
0.045
309
GRIDFORMAT_END
 95
        2
302
GRIDFORMAT
  1
GRIDFORMAT_BEGIN
 90
        0
 91
        1
 62
     0
 92
       -2
340
14
 93
        0
 40
0.045
309
GRIDFORMAT_END
 95
        4
302
GRIDFORMAT
  1
GRIDFORMAT_BEGIN
 90
        0
 91
        1
 62
     0
 92
       -2
340
14
 93
        0
 40
0.045
309
GRIDFORMAT_END
 95
        8
302
GRIDFORMAT
  1
GRIDFORMAT_BEGIN
 90
        0
 91
        1
 62
     0
 92
       -2
340
14
 93
        0
 40
0.045
309
GRIDFORMAT_END
 95
       16
302
GRIDFORMAT
  1
GRIDFORMAT_BEGIN
 90
        0
 91
        1
 62
     0
 92
       -2
340
14
 93
        0
 40
0.045
309
GRIDFORMAT_END
 95
       32
302
GRIDFORMAT
  1
GRIDFORMAT_BEGIN
 90
        0
 91
        1
 62
     0
 92
       -2
340
14
 93
        0
 40
0.045
309
GRIDFORMAT_END
309
TABLEFORMAT_END
  1
CELLSTYLE_BEGIN
 90
        2
 91
        1
300
_HEADER
309
CELLSTYLE_END
300
CELLSTYLE
  1
TABLEFORMAT_BEGIN
 90
        5
170
     1
 91
        0
 92
        0
 62
   257
 93
        1
300
CONTENTFORMAT
  1
CONTENTFORMAT_BEGIN
 90
        0
 91
        0
 92
        4
 93
        0
300

 40
0.0
140
1.0
 94
        2
 62
     0
340
11
144
0.18
309
CONTENTFORMAT_END
171
     1
301
MARGIN
  1
CELLMARGIN_BEGIN
 40
0.06
 40
0.06
 40
0.06
 40
0.06
 40
0.06
 40
0.06
309
CELLMARGIN_END
 94
        6
 95
        1
302
GRIDFORMAT
  1
GRIDFORMAT_BEGIN
 90
        0
 91
        1
 62
     0
 92
       -2
340
14
 93
        0
 40
0.045
309
GRIDFORMAT_END
 95
        2
302
GRIDFORMAT
  1
GRIDFORMAT_BEGIN
 90
        0
 91
        1
 62
     0
 92
       -2
340
14
 93
        0
 40
0.045
309
GRIDFORMAT_END
 95
        4
302
GRIDFORMAT
  1
GRIDFORMAT_BEGIN
 90
        0
 91
        1
 62
     0
 92
       -2
340
14
 93
        0
 40
0.045
309
GRIDFORMAT_END
 95
        8
302
GRIDFORMAT
  1
GRIDFORMAT_BEGIN
 90
        0
 91
        1
 62
     0
 92
       -2
340
14
 93
        0
 40
0.045
309
GRIDFORMAT_END
 95
       16
302
GRIDFORMAT
  1
GRIDFORMAT_BEGIN
 90
        0
 91
        1
 62
     0
 92
       -2
340
14
 93
        0
 40
0.045
309
GRIDFORMAT_END
 95
       32
302
GRIDFORMAT
  1
GRIDFORMAT_BEGIN
 90
        0
 91
        1
 62
     0
 92
       -2
340
14
 93
        0
 40
0.045
309
GRIDFORMAT_END
309
TABLEFORMAT_END
  1
CELLSTYLE_BEGIN
 90
        3
 91
        2
300
_DATA
309
CELLSTYLE_END
  0
ENDSEC
  0
EOF