0
SECTION
  2
HEADER
  9
$ACADVER
  1
AC1027
  9
$ACADMAINTVER
 70
     8
  9
$DWGCODEPAGE
  3
ANSI_1252
  9
$REQUIREDVERSIONS
160
                 0
  9
$COMMENTS
  1
File was created by Cadenas
  9
$CUSTOMPROPERTYTAG
  1
NN
  9
$CUSTOMPROPERTY
  1
Eccentric Collar Intermediate Duty Two-Bolt Pillow Block Inch Bore
  9
$CUSTOMPROPERTYTAG
  1
NT
  9
$CUSTOMPROPERTY
  1
Eccentric Collar Pillow Block Bearings -(Intermediate Duty)
  9
$CUSTOMPROPERTYTAG
  1
NB
  9
$CUSTOMPROPERTY
  1
131976
  9
$CUSTOMPROPERTYTAG
  1
NBSYN
  9
$CUSTOMPROPERTY
  1
$PN.
  9
$CUSTOMPROPERTYTAG
  1
LINA
  9
$CUSTOMPROPERTY
  1
131976
  9
$CUSTOMPROPERTYTAG
  1
SERIES
  9
$CUSTOMPROPERTY
  1
206
  9
$CUSTOMPROPERTYTAG
  1
SS
  9
$CUSTOMPROPERTY
  1
1-3/16
  9
$CUSTOMPROPERTYTAG
  1
PN
  9
$CUSTOMPROPERTY
  1
131976
  9
$CUSTOMPROPERTYTAG
  1
DESCRIPTION
  9
$CUSTOMPROPERTY
  1
P2B-SXV-103
  9
$CUSTOMPROPERTYTAG
  1
LF
  9
$CUSTOMPROPERTY
  1
RE-LUBE
  9
$CUSTOMPROPERTYTAG
  1
WEIGHT
  9
$CUSTOMPROPERTY
  1
2.70
  9
$CUSTOMPROPERTYTAG
  1
A
  9
$CUSTOMPROPERTY
  1
1.41
  9
$CUSTOMPROPERTYTAG
  1
B
  9
$CUSTOMPROPERTY
  1
6.25
  9
$CUSTOMPROPERTYTAG
  1
C
  9
$CUSTOMPROPERTY
  1
1.75
  9
$CUSTOMPROPERTYTAG
  1
DMIN
  9
$CUSTOMPROPERTY
  1
4.25
  9
$CUSTOMPROPERTYTAG
  1
DMAX
  9
$CUSTOMPROPERTY
  1
5.00
  9
$CUSTOMPROPERTYTAG
  1
F
  9
$CUSTOMPROPERTY
  1
1/2
  9
$CUSTOMPROPERTYTAG
  1
G
  9
$CUSTOMPROPERTY
  1
0.94
  9
$CUSTOMPROPERTYTAG
  1
H
  9
$CUSTOMPROPERTY
  1
0.68
  9
$CUSTOMPROPERTYTAG
  1
J
  9
$CUSTOMPROPERTY
  1
3.25
  9
$CUSTOMPROPERTYTAG
  1
L
  9
$CUSTOMPROPERTY
  1
1.75
  9
$CUSTOMPROPERTYTAG
  1
M
  9
$CUSTOMPROPERTY
  1
1.63
  9
$CUSTOMPROPERTYTAG
  1
R
  9
$CUSTOMPROPERTY
  1
0.35
  9
$CUSTOMPROPERTYTAG
  1
S
  9
$CUSTOMPROPERTY
  1
1.05
  9
$CUSTOMPROPERTYTAG
  1
U
  9
$CUSTOMPROPERTY
  1
2.88
  9
$CUSTOMPROPERTYTAG
  1
V
  9
$CUSTOMPROPERTY
  1
5.76
  9
$CUSTOMPROPERTYTAG
  1
W
  9
$CUSTOMPROPERTY
  1
0.56
  9
$CUSTOMPROPERTYTAG
  1
X
  9
$CUSTOMPROPERTY
  1
0.12
  9
$CUSTOMPROPERTYTAG
  1
COMPANY
  9
$CUSTOMPROPERTY
  1
baldor
  9
$INSBASE
 10
0.0
 20
0.0
 30
0.0
  9
$EXTMIN
 10
1.000000000000000E+20
 20
1.000000000000000E+20
 30
1.000000000000000E+20
  9
$EXTMAX
 10
-1.000000000000000E+20
 20
-1.000000000000000E+20
 30
-1.000000000000000E+20
  9
$LIMMIN
 10
0.0
 20
0.0
  9
$LIMMAX
 10
12.0
 20
9.0
  9
$ORTHOMODE
 70
     0
  9
$REGENMODE
 70
     1
  9
$FILLMODE
 70
     1
  9
$QTEXTMODE
 70
     0
  9
$MIRRTEXT
 70
     1
  9
$LTSCALE
 40
1.0
  9
$ATTMODE
 70
     1
  9
$TEXTSIZE
 40
0.2
  9
$TRACEWID
 40
0.05
  9
$TEXTSTYLE
  7
Standard
  9
$CLAYER
  8
0
  9
$CELTYPE
  6
ByLayer
  9
$CECOLOR
 62
   256
  9
$CELTSCALE
 40
1.0
  9
$DISPSILH
 70
     0
  9
$DIMSCALE
 40
1.0
  9
$DIMASZ
 40
0.18
  9
$DIMEXO
 40
0.0625
  9
$DIMDLI
 40
0.38
  9
$DIMRND
 40
0.0
  9
$DIMDLE
 40
0.0
  9
$DIMEXE
 40
0.18
  9
$DIMTP
 40
0.0
  9
$DIMTM
 40
0.0
  9
$DIMTXT
 40
0.18
  9
$DIMCEN
 40
0.09
  9
$DIMTSZ
 40
0.0
  9
$DIMTOL
 70
     0
  9
$DIMLIM
 70
     0
  9
$DIMTIH
 70
     1
  9
$DIMTOH
 70
     1
  9
$DIMSE1
 70
     0
  9
$DIMSE2
 70
     0
  9
$DIMTAD
 70
     0
  9
$DIMZIN
 70
     0
  9
$DIMBLK
  1

  9
$DIMASO
 70
     1
  9
$DIMSHO
 70
     1
  9
$DIMPOST
  1

  9
$DIMAPOST
  1

  9
$DIMALT
 70
     0
  9
$DIMALTD
 70
     2
  9
$DIMALTF
 40
25.4
  9
$DIMLFAC
 40
1.0
  9
$DIMTOFL
 70
     0
  9
$DIMTVP
 40
0.0
  9
$DIMTIX
 70
     0
  9
$DIMSOXD
 70
     0
  9
$DIMSAH
 70
     0
  9
$DIMBLK1
  1

  9
$DIMBLK2
  1

  9
$DIMSTYLE
  2
Standard
  9
$DIMCLRD
 70
     0
  9
$DIMCLRE
 70
     0
  9
$DIMCLRT
 70
     0
  9
$DIMTFAC
 40
1.0
  9
$DIMGAP
 40
0.09
  9
$DIMJUST
 70
     0
  9
$DIMSD1
 70
     0
  9
$DIMSD2
 70
     0
  9
$DIMTOLJ
 70
     1
  9
$DIMTZIN
 70
     0
  9
$DIMALTZ
 70
     0
  9
$DIMALTTZ
 70
     0
  9
$DIMUPT
 70
     0
  9
$DIMDEC
 70
     4
  9
$DIMTDEC
 70
     4
  9
$DIMALTU
 70
     2
  9
$DIMALTTD
 70
     2
  9
$DIMTXSTY
  7
Standard
  9
$DIMAUNIT
 70
     0
  9
$DIMADEC
 70
     0
  9
$DIMALTRND
 40
0.0
  9
$DIMAZIN
 70
     0
  9
$DIMDSEP
 70
    46
  9
$DIMATFIT
 70
     3
  9
$DIMFRAC
 70
     0
  9
$DIMLDRBLK
  1

  9
$DIMLUNIT
 70
     2
  9
$DIMLWD
 70
    -2
  9
$DIMLWE
 70
    -2
  9
$DIMTMOVE
 70
     0
  9
$DIMFXL
 40
1.0
  9
$DIMFXLON
 70
     0
  9
$DIMJOGANG
 40
0.7853981633974483
  9
$DIMTFILL
 70
     0
  9
$DIMTFILLCLR
 70
     0
  9
$DIMARCSYM
 70
     0
  9
$DIMLTYPE
  6

  9
$DIMLTEX1
  6

  9
$DIMLTEX2
  6

  9
$DIMTXTDIRECTION
 70
     0
  9
$LUNITS
 70
     2
  9
$LUPREC
 70
     4
  9
$SKETCHINC
 40
0.1
  9
$FILLETRAD
 40
0.5
  9
$AUNITS
 70
     0
  9
$AUPREC
 70
     0
  9
$MENU
  1
.
  9
$ELEVATION
 40
0.0
  9
$PELEVATION
 40
0.0
  9
$THICKNESS
 40
0.0
  9
$LIMCHECK
 70
     0
  9
$CHAMFERA
 40
0.0
  9
$CHAMFERB
 40
0.0
  9
$CHAMFERC
 40
0.0
  9
$CHAMFERD
 40
0.0
  9
$SKPOLY
 70
     0
  9
$TDCREATE
 40
2458169.003579502
  9
$TDUCREATE
 40
2458168.961912835
  9
$TDUPDATE
 40
2458169.003579676
  9
$TDUUPDATE
 40
2458168.961913009
  9
$TDINDWG
 40
0.0000000116
  9
$TDUSRTIMER
 40
0.0000000116
  9
$USRTIMER
 70
     1
  9
$ANGBASE
 50
0.0
  9
$ANGDIR
 70
     0
  9
$PDMODE
 70
     0
  9
$PDSIZE
 40
0.0
  9
$PLINEWID
 40
0.0
  9
$SPLFRAME
 70
     0
  9
$SPLINETYPE
 70
     6
  9
$SPLINESEGS
 70
     8
  9
$HANDSEED
  5
1E0
  9
$SURFTAB1
 70
     6
  9
$SURFTAB2
 70
     6
  9
$SURFTYPE
 70
     6
  9
$SURFU
 70
     6
  9
$SURFV
 70
     6
  9
$UCSBASE
  2

  9
$UCSNAME
  2

  9
$UCSORG
 10
0.0
 20
0.0
 30
0.0
  9
$UCSXDIR
 10
1.0
 20
0.0
 30
0.0
  9
$UCSYDIR
 10
0.0
 20
1.0
 30
0.0
  9
$UCSORTHOREF
  2

  9
$UCSORTHOVIEW
 70
     0
  9
$UCSORGTOP
 10
0.0
 20
0.0
 30
0.0
  9
$UCSORGBOTTOM
 10
0.0
 20
0.0
 30
0.0
  9
$UCSORGLEFT
 10
0.0
 20
0.0
 30
0.0
  9
$UCSORGRIGHT
 10
0.0
 20
0.0
 30
0.0
  9
$UCSORGFRONT
 10
0.0
 20
0.0
 30
0.0
  9
$UCSORGBACK
 10
0.0
 20
0.0
 30
0.0
  9
$PUCSBASE
  2

  9
$PUCSNAME
  2

  9
$PUCSORG
 10
0.0
 20
0.0
 30
0.0
  9
$PUCSXDIR
 10
1.0
 20
0.0
 30
0.0
  9
$PUCSYDIR
 10
0.0
 20
1.0
 30
0.0
  9
$PUCSORTHOREF
  2

  9
$PUCSORTHOVIEW
 70
     0
  9
$PUCSORGTOP
 10
0.0
 20
0.0
 30
0.0
  9
$PUCSORGBOTTOM
 10
0.0
 20
0.0
 30
0.0
  9
$PUCSORGLEFT
 10
0.0
 20
0.0
 30
0.0
  9
$PUCSORGRIGHT
 10
0.0
 20
0.0
 30
0.0
  9
$PUCSORGFRONT
 10
0.0
 20
0.0
 30
0.0
  9
$PUCSORGBACK
 10
0.0
 20
0.0
 30
0.0
  9
$USERI1
 70
     0
  9
$USERI2
 70
     0
  9
$USERI3
 70
     0
  9
$USERI4
 70
     0
  9
$USERI5
 70
     0
  9
$USERR1
 40
0.0
  9
$USERR2
 40
0.0
  9
$USERR3
 40
0.0
  9
$USERR4
 40
0.0
  9
$USERR5
 40
0.0
  9
$WORLDVIEW
 70
     1
  9
$SHADEDGE
 70
     3
  9
$SHADEDIF
 70
    70
  9
$TILEMODE
 70
     1
  9
$MAXACTVP
 70
    64
  9
$PINSBASE
 10
0.0
 20
0.0
 30
0.0
  9
$PLIMCHECK
 70
     0
  9
$PEXTMIN
 10
1.000000000000000E+20
 20
1.000000000000000E+20
 30
1.000000000000000E+20
  9
$PEXTMAX
 10
-1.000000000000000E+20
 20
-1.000000000000000E+20
 30
-1.000000000000000E+20
  9
$PLIMMIN
 10
0.0
 20
0.0
  9
$PLIMMAX
 10
12.0
 20
9.0
  9
$UNITMODE
 70
     0
  9
$VISRETAIN
 70
     1
  9
$PLINEGEN
 70
     0
  9
$PSLTSCALE
 70
     1
  9
$TREEDEPTH
 70
  3020
  9
$CMLSTYLE
  2
Standard
  9
$CMLJUST
 70
     0
  9
$CMLSCALE
 40
1.0
  9
$PROXYGRAPHICS
 70
     1
  9
$MEASUREMENT
 70
     0
  9
$CELWEIGHT
370
    -1
  9
$ENDCAPS
280
     0
  9
$JOINSTYLE
280
     0
  9
$LWDISPLAY
290
     0
  9
$INSUNITS
 70
     1
  9
$HYPERLINKBASE
  1

  9
$STYLESHEET
  1

  9
$XEDIT
290
     1
  9
$CEPSNTYPE
380
     0
  9
$PSTYLEMODE
290
     1
  9
$FINGERPRINTGUID
  2
{7D4DDE72-0866-44BA-A348-C477B83BCA13}
  9
$VERSIONGUID
  2
{FAEB1C32-E019-11D5-929B-00C0DF256EC4}
  9
$EXTNAMES
290
     1
  9
$PSVPSCALE
 40
0.0
  9
$OLESTARTUP
290
     0
  9
$SORTENTS
280
   127
  9
$INDEXCTL
280
     0
  9
$HIDETEXT
280
     1
  9
$XCLIPFRAME
280
     2
  9
$HALOGAP
280
     0
  9
$OBSCOLOR
 70
   257
  9
$OBSLTYPE
280
     0
  9
$INTERSECTIONDISPLAY
280
     0
  9
$INTERSECTIONCOLOR
 70
   257
  9
$DIMASSOC
280
     2
  9
$PROJECTNAME
  1

  9
$CAMERADISPLAY
290
     0
  9
$LENSLENGTH
 40
50.0
  9
$CAMERAHEIGHT
 40
0.0
  9
$STEPSPERSEC
 40
2.0
  9
$STEPSIZE
 40
6.0
  9
$3DDWFPREC
 40
2.0
  9
$PSOLWIDTH
 40
0.25
  9
$PSOLHEIGHT
 40
4.0
  9
$LOFTANG1
 40
1.570796326794897
  9
$LOFTANG2
 40
1.570796326794897
  9
$LOFTMAG1
 40
0.0
  9
$LOFTMAG2
 40
0.0
  9
$LOFTPARAM
 70
     7
  9
$LOFTNORMALS
280
     1
  9
$LATITUDE
 40
37.795
  9
$LONGITUDE
 40
-122.394
  9
$NORTHDIRECTION
 40
0.0
  9
$TIMEZONE
 70
 -8000
  9
$LIGHTGLYPHDISPLAY
280
     1
  9
$TILEMODELIGHTSYNCH
280
     1
  9
$CMATERIAL
347
44
  9
$SOLIDHIST
280
     0
  9
$SHOWHIST
280
     1
  9
$DWFFRAME
280
     2
  9
$DGNFRAME
280
     2
  9
$REALWORLDSCALE
290
     1
  9
$INTERFERECOLOR
 62
   256
  9
$CSHADOW
280
     0
  9
$SHADOWPLANELOCATION
 40
0.0
  0
ENDSEC
  0
SECTION
  2
CLASSES
  0
CLASS
  1
ACDBDICTIONARYWDFLT
  2
AcDbDictionaryWithDefault
  3
ObjectDBX Classes
 90
        0
 91
        4
280
     0
281
     0
  0
CLASS
  1
VISUALSTYLE
  2
AcDbVisualStyle
  3
ObjectDBX Classes
 90
     4095
 91
        4
280
     0
281
     0
  0
CLASS
  1
MATERIAL
  2
AcDbMaterial
  3
ObjectDBX Classes
 90
     1153
 91
        4
280
     0
281
     0
  0
CLASS
  1
SCALE
  2
AcDbScale
  3
ObjectDBX Classes
 90
     1153
 91
        4
280
     0
281
     0
  0
CLASS
  1
TABLESTYLE
  2
AcDbTableStyle
  3
ObjectDBX Classes
 90
     4095
 91
        4
280
     0
281
     0
  0
CLASS
  1
MLEADERSTYLE
  2
AcDbMLeaderStyle
  3
ACDB_MLEADERSTYLE_CLASS
 90
     4095
 91
        4
280
     0
281
     0
  0
CLASS
  1
SUN
  2
AcDbSun
  3
SCENEOE
 90
     1153
 91
        4
280
     0
281
     0
  0
CLASS
  1
DICTIONARYVAR
  2
AcDbDictionaryVar
  3
ObjectDBX Classes
 90
        0
 91
        4
280
     0
281
     0
  0
CLASS
  1
CELLSTYLEMAP
  2
AcDbCellStyleMap
  3
ObjectDBX Classes
 90
     1152
 91
        4
280
     0
281
     0
  0
ENDSEC
  0
SECTION
  2
TABLES
  0
TABLE
  2
VPORT
  5
8
330
0
100
AcDbSymbolTable
 70
     1
  0
VPORT
  5
29
330
8
100
AcDbSymbolTableRecord
100
AcDbViewportTableRecord
  2
*Active
 70
     0
 10
0.0
 20
0.0
 11
1.0
 21
1.0
 12
0.0
 22
-0.0789999999999997
 13
0.0
 23
0.0
 14
0.5
 24
0.5
 15
0.5
 25
0.5
 16
0.0
 26
0.0
 36
1.0
 17
0.0
 27
0.0
 37
0.0
 40
2.12466
 41
3.000480076812289
 42
50.0
 43
0.0
 44
0.0
 50
0.0
 51
0.0
 71
     0
 72
   100
 73
     1
 74
     3
 75
     0
 76
     0
 77
     0
 78
     0
281
     0
 65
     1
110
0.0
120
0.0
130
0.0
111
1.0
121
0.0
131
0.0
112
0.0
122
1.0
132
0.0
 79
     0
146
0.0
348
2F
 60
     3
 61
     5
292
     1
282
     1
141
0.0
142
0.0
 63
   250
361
6D
  0
ENDTAB
  0
TABLE
  2
LTYPE
  5
5
330
0
100
AcDbSymbolTable
 70
     3
  0
LTYPE
  5
14
330
5
100
AcDbSymbolTableRecord
100
AcDbLinetypeTableRecord
  2
ByBlock
 70
     0
  3

 72
    65
 73
     0
 40
0.0
  0
LTYPE
  5
15
330
5
100
AcDbSymbolTableRecord
100
AcDbLinetypeTableRecord
  2
ByLayer
 70
     0
  3

 72
    65
 73
     0
 40
0.0
  0
LTYPE
  5
16
330
5
100
AcDbSymbolTableRecord
100
AcDbLinetypeTableRecord
  2
Continuous
 70
     0
  3
Solid line
 72
    65
 73
     0
 40
0.0
  0
LTYPE
  5
9C
330
5
100
AcDbSymbolTableRecord
100
AcDbLinetypeTableRecord
  2
Dashed
 70
     0
  3

 72
    65
 73
     2
 40
2.0
 49
1.0
 74
     0
 49
-1.0
 74
     0
  0
LTYPE
  5
123
330
5
100
AcDbSymbolTableRecord
100
AcDbLinetypeTableRecord
  2
Center
 70
     0
  3

 72
    65
 73
     4
 40
1.5
 49
0.45
 74
     0
 49
-0.5
 74
     0
 49
0.05
 74
     0
 49
-0.5
 74
     0
  0
ENDTAB
  0
TABLE
  2
LAYER
  5
2
330
0
100
AcDbSymbolTable
 70
     7
  0
LAYER
  5
10
330
2
100
AcDbSymbolTableRecord
100
AcDbLayerTableRecord
  2
0
 70
     0
 62
     7
  6
Continuous
370
    -3
390
F
347
46
348
0
  0
LAYER
  5
72
330
2
100
AcDbSymbolTableRecord
100
AcDbLayerTableRecord
  2
AM_6
 70
     0
 62
    -2
  6
Continuous
370
    35
390
F
347
46
348
0
  0
LAYER
  5
9D
330
2
100
AcDbSymbolTableRecord
100
AcDbLayerTableRecord
  2
AM_9
 70
     0
 62
     6
  6
Dashed
370
    25
390
F
347
46
348
0
  0
LAYER
  5
BA
330
2
100
AcDbSymbolTableRecord
100
AcDbLayerTableRecord
  2
AM_4
 70
     0
 62
     7
  6
Continuous
370
    50
390
F
347
46
348
0
  0
LAYER
  5
124
330
2
100
AcDbSymbolTableRecord
100
AcDbLayerTableRecord
  2
AM_7
 70
     0
 62
     7
  6
Center
370
    25
390
F
347
46
348
0
  0
LAYER
  5
133
330
2
100
AcDbSymbolTableRecord
100
AcDbLayerTableRecord
  2
AM_5
 70
     0
 62
     3
  6
Continuous
370
    25
390
F
347
46
348
0
  0
LAYER
  5
1D2
330
2
100
AcDbSymbolTableRecord
100
AcDbLayerTableRecord
  2
ConnectionPoints
 70
     0
 62
     7
  6
Continuous
370
    50
390
F
347
46
348
0
  0
ENDTAB
  0
TABLE
  2
STYLE
  5
3
330
0
100
AcDbSymbolTable
 70
     1
  0
STYLE
  5
11
330
3
100
AcDbSymbolTableRecord
100
AcDbTextStyleTableRecord
  2
Standard
 70
     0
 40
0.0
 41
1.0
 50
0.0
 71
     0
 42
0.2
  3
txt
  4

  0
ENDTAB
  0
TABLE
  2
VIEW
  5
6
330
0
100
AcDbSymbolTable
 70
     0
  0
ENDTAB
  0
TABLE
  2
UCS
  5
7
330
0
100
AcDbSymbolTable
 70
     0
  0
ENDTAB
  0
TABLE
  2
APPID
  5
9
330
0
100
AcDbSymbolTable
 70
     1
  0
APPID
  5
12
330
9
100
AcDbSymbolTableRecord
100
AcDbRegAppTableRecord
  2
ACAD
 70
     0
  0
ENDTAB
  0
TABLE
  2
DIMSTYLE
  5
A
330
0
100
AcDbSymbolTable
 70
     1
100
AcDbDimStyleTable
  0
DIMSTYLE
105
27
330
A
100
AcDbSymbolTableRecord
100
AcDbDimStyleTableRecord
  2
Standard
 70
     0
178
     0
340
11
  0
ENDTAB
  0
TABLE
  2
BLOCK_RECORD
  5
1
330
0
100
AcDbSymbolTable
 70
     5
  0
BLOCK_RECORD
  5
1F
330
1
100
AcDbSymbolTableRecord
100
AcDbBlockTableRecord
  2
*Model_Space
340
22
 70
     0
280
     1
281
     0
  0
BLOCK_RECORD
  5
1B
330
1
100
AcDbSymbolTableRecord
100
AcDbBlockTableRecord
  2
*Paper_Space
340
1E
 70
     0
280
     1
281
     0
  0
BLOCK_RECORD
  5
23
330
1
100
AcDbSymbolTableRecord
100
AcDbBlockTableRecord
  2
*Paper_Space0
340
26
 70
     0
280
     1
281
     0
  0
BLOCK_RECORD
  5
6E
330
1
100
AcDbSymbolTableRecord
100
AcDbBlockTableRecord
  2
1_131976_4
340
0
102
{BLKREFS
331
6F
102
}
 70
     0
280
     1
281
     0
  0
BLOCK_RECORD
  5
90
330
1
100
AcDbSymbolTableRecord
100
AcDbBlockTableRecord
  2
2_405015E_Inch_0_in_131976_4
340
0
102
{BLKREFS
331
91
102
}
 70
     0
280
     1
281
     0
  0
BLOCK_RECORD
  5
D6
330
1
100
AcDbSymbolTableRecord
100
AcDbBlockTableRecord
  2
3_131441_0_in_131976_4
340
0
102
{BLKREFS
331
D7
102
}
 70
     0
280
     1
281
     0
  0
BLOCK_RECORD
  5
135
330
1
100
AcDbSymbolTableRecord
100
AcDbBlockTableRecord
  2
4_131976H_0_in_131976_4
340
0
102
{BLKREFS
331
136
102
}
 70
     0
280
     1
281
     0
  0
ENDTAB
  0
ENDSEC
  0
SECTION
  2
BLOCKS
  0
BLOCK
  5
20
330
1F
100
AcDbEntity
  8
0
100
AcDbBlockBegin
  2
*Model_Space
 70
     0
 10
0.0
 20
0.0
 30
0.0
  3
*Model_Space
  1

  0
ENDBLK
  5
21
330
1F
100
AcDbEntity
  8
0
100
AcDbBlockEnd
  0
BLOCK
  5
1C
330
1B
100
AcDbEntity
 67
     1
  8
0
100
AcDbBlockBegin
  2
*Paper_Space
 70
     0
 10
0.0
 20
0.0
 30
0.0
  3
*Paper_Space
  1

  0
ENDBLK
  5
1D
330
1B
100
AcDbEntity
 67
     1
  8
0
100
AcDbBlockEnd
  0
BLOCK
  5
24
330
23
100
AcDbEntity
  8
0
100
AcDbBlockBegin
  2
*Paper_Space0
 70
     0
 10
0.0
 20
0.0
 30
0.0
  3
*Paper_Space0
  1

  0
ENDBLK
  5
25
330
23
100
AcDbEntity
  8
0
100
AcDbBlockEnd
  0
BLOCK
  5
70
330
6E
100
AcDbEntity
  8
0
100
AcDbBlockBegin
  2
1_131976_4
 70
     2
 10
0.0
 20
0.0
 30
0.0
  3
1_131976_4
  1

  0
ATTDEF
  5
73
330
6E
100
AcDbEntity
  8
AM_6
100
AcDbText
 10
8.125
 20
0.9625
 30
0.0
 40
0.5
  1
Eccentric Collar Intermediate Duty Two-Bolt Pillow Block Inch Bore
100
AcDbAttributeDefinition
  3

  2
NN
 70
     8
280
     0
  0
ATTDEF
  5
74
330
6E
100
AcDbEntity
  8
AM_6
100
AcDbText
 10
8.125
 20
0.4625
 30
0.0
 40
0.5
  1
Eccentric Collar Pillow Block Bearings -(Intermediate Duty)
100
AcDbAttributeDefinition
  3

  2
NT
 70
     8
280
     0
  0
ATTDEF
  5
75
330
6E
100
AcDbEntity
  8
AM_6
100
AcDbText
 10
8.125
 20
-0.0375
 30
0.0
 40
0.5
  1
131976
100
AcDbAttributeDefinition
  3

  2
NB
 70
     8
280
     0
  0
ATTDEF
  5
76
330
6E
100
AcDbEntity
  8
AM_6
100
AcDbText
 10
8.125
 20
-0.5375
 30
0.0
 40
0.5
  1
$PN.
100
AcDbAttributeDefinition
  3

  2
NBSYN
 70
     8
280
     0
  0
ATTDEF
  5
77
330
6E
100
AcDbEntity
  8
AM_6
100
AcDbText
 10
8.125
 20
-1.0375
 30
0.0
 40
0.5
  1
131976
100
AcDbAttributeDefinition
  3

  2
LINA
 70
     8
280
     0
  0
ATTDEF
  5
78
330
6E
100
AcDbEntity
  8
AM_6
100
AcDbText
 10
8.125
 20
-1.5375
 30
0.0
 40
0.5
  1
206
100
AcDbAttributeDefinition
  3

  2
SERIES
 70
     8
280
     0
  0
ATTDEF
  5
79
330
6E
100
AcDbEntity
  8
AM_6
100
AcDbText
 10
8.125
 20
-2.0375
 30
0.0
 40
0.5
  1
1-3/16
100
AcDbAttributeDefinition
  3

  2
SS
 70
     8
280
     0
  0
ATTDEF
  5
7A
330
6E
100
AcDbEntity
  8
AM_6
100
AcDbText
 10
8.125
 20
-2.5375
 30
0.0
 40
0.5
  1
131976
100
AcDbAttributeDefinition
  3

  2
PN
 70
     8
280
     0
  0
ATTDEF
  5
7B
330
6E
100
AcDbEntity
  8
AM_6
100
AcDbText
 10
8.125
 20
-3.0375
 30
0.0
 40
0.5
  1
P2B-SXV-103
100
AcDbAttributeDefinition
  3

  2
DESCRIPTION
 70
     8
280
     0
  0
ATTDEF
  5
7C
330
6E
100
AcDbEntity
  8
AM_6
100
AcDbText
 10
8.125
 20
-3.5375
 30
0.0
 40
0.5
  1
RE-LUBE
100
AcDbAttributeDefinition
  3

  2
LF
 70
     8
280
     0
  0
ATTDEF
  5
7D
330
6E
100
AcDbEntity
  8
AM_6
100
AcDbText
 10
8.125
 20
-4.0375
 30
0.0
 40
0.5
  1
2.70
100
AcDbAttributeDefinition
  3

  2
WEIGHT
 70
     8
280
     0
  0
ATTDEF
  5
7E
330
6E
100
AcDbEntity
  8
AM_6
100
AcDbText
 10
8.125
 20
-4.5375
 30
0.0
 40
0.5
  1
1.41
100
AcDbAttributeDefinition
  3

  2
A
 70
     8
280
     0
  0
ATTDEF
  5
7F
330
6E
100
AcDbEntity
  8
AM_6
100
AcDbText
 10
8.125
 20
-5.0375
 30
0.0
 40
0.5
  1
6.25
100
AcDbAttributeDefinition
  3

  2
B
 70
     8
280
     0
  0
ATTDEF
  5
80
330
6E
100
AcDbEntity
  8
AM_6
100
AcDbText
 10
8.125
 20
-5.5375
 30
0.0
 40
0.5
  1
1.75
100
AcDbAttributeDefinition
  3

  2
C
 70
     8
280
     0
  0
ATTDEF
  5
81
330
6E
100
AcDbEntity
  8
AM_6
100
AcDbText
 10
8.125
 20
-6.0375
 30
0.0
 40
0.5
  1
4.25
100
AcDbAttributeDefinition
  3

  2
DMIN
 70
     8
280
     0
  0
ATTDEF
  5
82
330
6E
100
AcDbEntity
  8
AM_6
100
AcDbText
 10
8.125
 20
-6.5375
 30
0.0
 40
0.5
  1
5.00
100
AcDbAttributeDefinition
  3

  2
DMAX
 70
     8
280
     0
  0
ATTDEF
  5
83
330
6E
100
AcDbEntity
  8
AM_6
100
AcDbText
 10
8.125
 20
-7.0375
 30
0.0
 40
0.5
  1
1/2
100
AcDbAttributeDefinition
  3

  2
F
 70
     8
280
     0
  0
ATTDEF
  5
84
330
6E
100
AcDbEntity
  8
AM_6
100
AcDbText
 10
8.125
 20
-7.5375
 30
0.0
 40
0.5
  1
0.94
100
AcDbAttributeDefinition
  3

  2
G
 70
     8
280
     0
  0
ATTDEF
  5
85
330
6E
100
AcDbEntity
  8
AM_6
100
AcDbText
 10
8.125
 20
-8.0375
 30
0.0
 40
0.5
  1
0.68
100
AcDbAttributeDefinition
  3

  2
H
 70
     8
280
     0
  0
ATTDEF
  5
86
330
6E
100
AcDbEntity
  8
AM_6
100
AcDbText
 10
8.125
 20
-8.5375
 30
0.0
 40
0.5
  1
3.25
100
AcDbAttributeDefinition
  3

  2
J
 70
     8
280
     0
  0
ATTDEF
  5
87
330
6E
100
AcDbEntity
  8
AM_6
100
AcDbText
 10
8.125
 20
-9.0375
 30
0.0
 40
0.5
  1
1.75
100
AcDbAttributeDefinition
  3

  2
L
 70
     8
280
     0
  0
ATTDEF
  5
88
330
6E
100
AcDbEntity
  8
AM_6
100
AcDbText
 10
8.125
 20
-9.5375
 30
0.0
 40
0.5
  1
1.63
100
AcDbAttributeDefinition
  3

  2
M
 70
     8
280
     0
  0
ATTDEF
  5
89
330
6E
100
AcDbEntity
  8
AM_6
100
AcDbText
 10
8.125
 20
-10.0375
 30
0.0
 40
0.5
  1
0.35
100
AcDbAttributeDefinition
  3

  2
R
 70
     8
280
     0
  0
ATTDEF
  5
8A
330
6E
100
AcDbEntity
  8
AM_6
100
AcDbText
 10
8.125
 20
-10.5375
 30
0.0
 40
0.5
  1
1.05
100
AcDbAttributeDefinition
  3

  2
S
 70
     8
280
     0
  0
ATTDEF
  5
8B
330
6E
100
AcDbEntity
  8
AM_6
100
AcDbText
 10
8.125
 20
-11.0375
 30
0.0
 40
0.5
  1
2.88
100
AcDbAttributeDefinition
  3

  2
U
 70
     8
280
     0
  0
ATTDEF
  5
8C
330
6E
100
AcDbEntity
  8
AM_6
100
AcDbText
 10
8.125
 20
-11.5375
 30
0.0
 40
0.5
  1
5.76
100
AcDbAttributeDefinition
  3

  2
V
 70
     8
280
     0
  0
ATTDEF
  5
8D
330
6E
100
AcDbEntity
  8
AM_6
100
AcDbText
 10
8.125
 20
-12.0375
 30
0.0
 40
0.5
  1
0.56
100
AcDbAttributeDefinition
  3

  2
W
 70
     8
280
     0
  0
ATTDEF
  5
8E
330
6E
100
AcDbEntity
  8
AM_6
100
AcDbText
 10
8.125
 20
-12.5375
 30
0.0
 40
0.5
  1
0.12
100
AcDbAttributeDefinition
  3

  2
X
 70
     8
280
     0
  0
ATTDEF
  5
8F
330
6E
100
AcDbEntity
  8
AM_6
100
AcDbText
 10
8.125
 20
-13.0375
 30
0.0
 40
0.5
  1
baldor
100
AcDbAttributeDefinition
  3

  2
COMPANY
 70
     8
280
     0
  0
INSERT
  5
91
330
6E
100
AcDbEntity
  8
0
100
AcDbBlockReference
  2
2_405015E_Inch_0_in_131976_4
 10
0.0
 20
0.0
 30
0.0
  0
INSERT
  5
D7
330
6E
100
AcDbEntity
  8
0
100
AcDbBlockReference
  2
3_131441_0_in_131976_4
 10
0.0
 20
0.0
 30
0.0
  0
INSERT
  5
136
330
6E
100
AcDbEntity
  8
0
100
AcDbBlockReference
  2
4_131976H_0_in_131976_4
 10
0.0
 20
0.0
 30
0.0
  0
ENDBLK
  5
71
330
6E
100
AcDbEntity
  8
0
100
AcDbBlockEnd
  0
BLOCK
  5
92
330
90
100
AcDbEntity
  8
0
100
AcDbBlockBegin
  2
2_405015E_Inch_0_in_131976_4
 70
     2
 10
0.0
 20
0.0
 30
0.0
  3
2_405015E_Inch_0_in_131976_4
  1

  0
ATTDEF
  5
94
330
90
100
AcDbEntity
  8
AM_6
100
AcDbText
 10
6.483282269202126
 20
0.2187500000000001
 30
0.0
 40
0.5
  1
405015E -Inch
100
AcDbAttributeDefinition
  3

  2
NN
 70
     8
280
     0
  0
ATTDEF
  5
95
330
90
100
AcDbEntity
  8
AM_6
100
AcDbText
 10
6.483282269202126
 20
-0.2812499999999999
 30
0.0
 40
0.5
  1
Grease Fitting
100
AcDbAttributeDefinition
  3

  2
NT
 70
     8
280
     0
  0
ATTDEF
  5
96
330
90
100
AcDbEntity
  8
AM_6
100
AcDbText
 10
6.483282269202126
 20
-0.78125
 30
0.0
 40
0.5
  1
405015E-Inch
100
AcDbAttributeDefinition
  3

  2
NB
 70
     8
280
     0
  0
ATTDEF
  5
97
330
90
100
AcDbEntity
  8
AM_6
100
AcDbText
 10
6.483282269202126
 20
-1.28125
 30
0.0
 40
0.5
  1
$MN.-Inch
100
AcDbAttributeDefinition
  3

  2
NBSYN
 70
     8
280
     0
  0
ATTDEF
  5
98
330
90
100
AcDbEntity
  8
AM_6
100
AcDbText
 10
6.483282269202126
 20
-1.78125
 30
0.0
 40
0.5
  1
405015E
100
AcDbAttributeDefinition
  3

  2
LINA
 70
     8
280
     0
  0
ATTDEF
  5
99
330
90
100
AcDbEntity
  8
AM_6
100
AcDbText
 10
6.483282269202126
 20
-2.28125
 30
0.0
 40
0.5
  1
405015E
100
AcDbAttributeDefinition
  3

  2
MN
 70
     8
280
     0
  0
ATTDEF
  5
9A
330
90
100
AcDbEntity
  8
AM_6
100
AcDbText
 10
6.483282269202126
 20
-2.78125
 30
0.0
 40
0.5
  1
1/8 x 27PTF
100
AcDbAttributeDefinition
  3

  2
T
 70
     8
280
     0
  0
ATTDEF
  5
9B
330
90
100
AcDbEntity
  8
AM_6
100
AcDbText
 10
6.483282269202126
 20
-3.28125
 30
0.0
 40
0.5
  1
baldor
100
AcDbAttributeDefinition
  3

  2
COMPANY
 70
     8
280
     0
  0
LWPOLYLINE
  5
9E
330
90
100
AcDbEntity
  8
AM_9
100
AcDbPolyline
 90
        3
 70
     0
 43
0.0
 10
1.330533373834708
 20
0.0000000000000001
 10
1.303603245240846
 20
-0.0544416102741495
 10
1.279469455830662
 20
-0.1093749999999999
  0
LWPOLYLINE
  5
9F
330
90
100
AcDbEntity
  8
AM_9
100
AcDbPolyline
 90
        3
 70
     0
 43
0.0
 10
1.279469455830662
 20
0.109375
 10
1.303487909998464
 20
0.0546875000000001
 10
1.330533373834708
 20
0.0000000000000001
  0
ELLIPSE
  5
A0
330
90
100
AcDbEntity
  8
AM_9
100
AcDbEllipse
 10
0.9581296885077717
 20
0.0000000000000001
 30
0.0
 11
9.913691727296317E-18
 21
0.161902872472269
 31
0.0
210
0.0
220
0.0
230
1.0
 40
0.7071067811865478
 41
0.0
 42
6.283185307179586
  0
LWPOLYLINE
  5
A1
330
90
100
AcDbEntity
  8
AM_9
100
AcDbPolyline
 90
        3
 70
     0
 43
0.0
 10
1.350180133949317
 20
-0.1093749999999999
 10
1.370813836550999
 20
-0.0546874999999999
 10
1.38842052948424
 20
0.0000000000000001
  0
LWPOLYLINE
  5
A2
330
90
100
AcDbEntity
  8
AM_9
100
AcDbPolyline
 90
        3
 70
     0
 43
0.0
 10
1.38842052948424
 20
0.0000000000000001
 10
1.37089926942906
 20
0.0544416102741496
 10
1.350180133949317
 20
0.109375
  0
LWPOLYLINE
  5
A3
330
90
100
AcDbEntity
  8
AM_9
100
AcDbPolyline
 90
        3
 70
     0
 43
0.0
 10
1.241229060295738
 20
0.2187500000000001
 10
1.258750320350918
 20
0.1643083897258505
 10
1.279469455830662
 20
0.109375
  0
LINE
  5
A4
330
90
100
AcDbEntity
  8
AM_9
100
AcDbLine
 10
1.38842052948424
 20
0.0000000000000001
 30
0.0
 11
1.330533373834708
 21
0.0000000000000001
 31
0.0
  0
LWPOLYLINE
  5
A5
330
90
100
AcDbEntity
  8
AM_9
100
AcDbPolyline
 90
        3
 70
     0
 43
0.0
 10
1.279469455830662
 20
-0.1093749999999999
 10
1.258835753228979
 20
-0.1640624999999999
 10
1.241229060295738
 20
-0.2187499999999999
  0
LINE
  5
A6
330
90
100
AcDbEntity
  8
AM_9
100
AcDbLine
 10
1.350180133949317
 20
0.109375
 30
0.0
 11
1.340088675063728
 21
0.1332882998612084
 31
0.0
  0
LINE
  5
A7
330
90
100
AcDbEntity
  8
AM_9
100
AcDbLine
 10
1.340299037123246
 20
-0.1328051251792724
 30
0.0
 11
1.350180133949317
 21
-0.1093749999999999
 31
0.0
  0
LINE
  5
A8
330
90
100
AcDbEntity
  8
AM_9
100
AcDbLine
 10
0.9797018499561987
 20
-0.1985206121313388
 30
0.0
 11
1.140957226149812
 21
-0.2056509992357426
 31
0.0
  0
LINE
  5
A9
330
90
100
AcDbEntity
  8
AM_9
100
AcDbLine
 10
1.140957226149812
 20
0.2056509992357427
 30
0.0
 11
0.9797018499561987
 21
0.1985206121313389
 31
0.0
  0
ELLIPSE
  5
AA
330
90
100
AcDbEntity
  8
AM_9
100
AcDbEllipse
 10
1.216223663640818
 20
-0.0000000000000428
 30
0.0
 11
-4.018372309703634E-17
 21
-0.2187500000000752
 31
0.0
210
0.0
220
0.0
230
1.0
 40
0.7071067811865476
 41
0.9156936017150157
 42
2.225899051875089
  0
LINE
  5
AB
330
90
100
AcDbEntity
  8
AM_9
100
AcDbLine
 10
1.322289680818844
 20
0.0948683298050515
 30
0.0
 11
1.303675814389778
 21
0.107354891002899
 31
0.0
  0
LINE
  5
AC
330
90
100
AcDbEntity
  8
AM_9
100
AcDbLine
 10
1.303675814389778
 20
-0.1073548910028989
 30
0.0
 11
1.322289680818844
 21
-0.0948683298050513
 31
0.0
  0
ELLIPSE
  5
AD
330
90
100
AcDbEntity
  8
AM_9
100
AcDbEllipse
 10
1.29046987566545
 20
0.0
 30
0.0
 11
-1.928818708657084E-17
 21
-0.1050000000000001
 31
0.0
210
0.0
220
0.0
230
1.0
 40
0.7071067811865422
 41
0.0
 42
3.141592653589793
  0
ELLIPSE
  5
AE
330
90
100
AcDbEntity
  8
AM_9
100
AcDbEllipse
 10
1.216223663640861
 20
-0.0000000000000002
 30
0.0
 11
-3.926523799766175E-17
 21
-0.2137499999999986
 31
0.0
210
0.0
220
0.0
230
1.0
 40
0.7071067811865563
 41
0.9036552188403588
 42
2.237937434749436
  0
LINE
  5
AF
330
90
100
AcDbEntity
  8
AM_9
100
AcDbLine
 10
1.291788866547987
 20
-0.1049999999999999
 30
0.0
 11
1.311683079101045
 21
-0.1049999999999999
 31
0.0
  0
LINE
  5
B0
330
90
100
AcDbEntity
  8
AM_9
100
AcDbLine
 10
1.311683079101045
 20
0.1050000000000001
 30
0.0
 11
1.291788866547987
 21
0.1050000000000001
 31
0.0
  0
ELLIPSE
  5
B1
330
90
100
AcDbEntity
  8
AM_9
100
AcDbEllipse
 10
1.311683079101045
 20
0.0000000000000002
 30
0.0
 11
-1.928818708657086E-17
 21
-0.1050000000000003
 31
0.0
210
0.0
220
0.0
230
1.0
 40
0.7071067811865477
 41
5.759586531581288
 42
9.948376736367678
  0
ELLIPSE
  5
B2
330
90
100
AcDbEntity
  8
AM_9
100
AcDbEllipse
 10
1.267667889289826
 20
0.0000000000000013
 30
0.0
 11
-2.182689656892948E-17
 21
-0.1188200907348754
 31
0.0
210
0.0
220
0.0
230
1.0
 40
0.7071067811868278
 41
0.3762206261009755
 42
2.765372027488812
  0
LINE
  5
B3
330
90
100
AcDbEntity
  8
AM_9
100
AcDbLine
 10
1.350573602609522
 20
0.0192743186691521
 30
0.0
 11
1.34956076241853
 21
0.0279874918769154
 31
0.0
  0
LINE
  5
B4
330
90
100
AcDbEntity
  8
AM_9
100
AcDbLine
 10
1.34956076241853
 20
-0.0279874918769153
 30
0.0
 11
1.350573602609522
 21
-0.0192743186691519
 31
0.0
  0
ELLIPSE
  5
B5
330
90
100
AcDbEntity
  8
AM_9
100
AcDbEllipse
 10
1.22917658604824
 20
-0.0000000000000004
 30
0.0
 11
-3.169399141454446E-17
 21
-0.1725340532830149
 31
0.0
210
0.0
220
0.0
230
1.0
 40
0.7071067811865522
 41
0.7772913431420756
 42
2.364301310447723
  0
ELLIPSE
  5
B6
330
90
100
AcDbEntity
  8
AM_9
100
AcDbEllipse
 10
1.354109485972239
 20
0.0000000000000006
 30
0.0
 11
-2.479909768273380E-17
 21
-0.1349999999999995
 31
0.0
210
0.0
220
0.0
230
1.0
 40
0.707106781186546
 41
0.4159140521025408
 42
2.72567860148725
  0
ELLIPSE
  5
B7
330
90
100
AcDbEntity
  8
AM_9
100
AcDbEllipse
 10
1.145512985522207
 20
0.0000000000000002
 30
0.0
 11
-3.779601035290907E-17
 21
-0.2057518972230694
 31
0.0
210
0.0
220
0.0
230
1.0
 40
0.7071067811865458
 41
0.0
 42
6.283185307179586
  0
ELLIPSE
  5
B8
330
90
100
AcDbEntity
  8
AM_9
100
AcDbEllipse
 10
0.9840909402492257
 20
-0.0000000000000002
 30
0.0
 11
-3.648546613377890E-17
 21
-0.1986176267812156
 31
0.0
210
0.0
220
0.0
230
1.0
 40
0.7071067811865469
 41
0.0
 42
6.283185307179586
  0
ELLIPSE
  5
B9
330
90
100
AcDbEntity
  8
AM_9
100
AcDbEllipse
 10
1.145512985522207
 20
-0.0000000000000001
 30
0.0
 11
-4.018372309702250E-17
 21
-0.2187499999999998
 31
0.0
210
0.0
220
0.0
230
1.0
 40
0.7071067811865477
 41
0.0
 42
6.283185307179586
  0
LWPOLYLINE
  5
BB
330
90
100
AcDbEntity
  8
AM_4
100
AcDbPolyline
 90
        3
 70
     0
 43
0.0
 10
1.340088675063728
 20
0.1332882998612084
 10
1.326161679781515
 20
0.1640625
 10
1.29911621594527
 20
0.2187500000000001
  0
LWPOLYLINE
  5
BC
330
90
100
AcDbEntity
  8
AM_4
100
AcDbPolyline
 90
        3
 70
     0
 43
0.0
 10
1.29911621594527
 20
-0.2187499999999999
 10
1.326046344539133
 20
-0.1643083897258503
 10
1.340299037123246
 20
-0.1328051251792724
  0
ELLIPSE
  5
BD
330
90
100
AcDbEntity
  8
AM_4
100
AcDbEllipse
 10
1.216223663640863
 20
0.0000000000000006
 30
0.0
 11
-4.018372309702242E-17
 21
-0.2187499999999994
 31
0.0
210
0.0
220
0.0
230
1.0
 40
0.707106781186545
 41
2.225899051875107
 42
7.198878908894269
  0
ELLIPSE
  5
BE
330
90
100
AcDbEntity
  8
AM_4
100
AcDbEllipse
 10
1.267667889289844
 20
0.0000000000000001
 30
0.0
 11
-2.182689656893354E-17
 21
-0.1188200907348975
 31
0.0
210
0.0
220
0.0
230
1.0
 40
0.7071067811865483
 41
2.765372027488874
 42
6.659405933280507
  0
ELLIPSE
  5
BF
330
90
100
AcDbEntity
  8
AM_4
100
AcDbEllipse
 10
1.216223663640861
 20
0.0000000000000001
 30
0.0
 11
-3.926523799766204E-17
 21
-0.2137500000000002
 31
0.0
210
0.0
220
0.0
230
1.0
 40
0.707106781186547
 41
2.237937434749432
 42
7.186840526019948
  0
LINE
  5
C0
330
90
100
AcDbEntity
  8
AM_4
100
AcDbLine
 10
1.290469875665449
 20
-0.1049999999999999
 30
0.0
 11
1.291788866547987
 21
-0.1049999999999999
 31
0.0
  0
LINE
  5
C1
330
90
100
AcDbEntity
  8
AM_4
100
AcDbLine
 10
1.291788866547987
 20
0.1050000000000001
 30
0.0
 11
1.290469875665449
 21
0.1050000000000001
 31
0.0
  0
ELLIPSE
  5
C2
330
90
100
AcDbEntity
  8
AM_4
100
AcDbEllipse
 10
1.290469875665449
 20
0.0000000000000001
 30
0.0
 11
-1.928818708657084E-17
 21
-0.1050000000000001
 31
0.0
210
0.0
220
0.0
230
1.0
 40
0.7071067811865486
 41
3.141592653589793
 42
6.283185307179586
  0
ELLIPSE
  5
C3
330
90
100
AcDbEntity
  8
AM_4
100
AcDbEllipse
 10
1.229176586048241
 20
-0.0000000000000002
 30
0.0
 11
-3.169399141454455E-17
 21
-0.1725340532830154
 31
0.0
210
0.0
220
0.0
230
1.0
 40
0.7071067811865475
 41
2.364301310447727
 42
7.060476650321657
  0
LINE
  5
C4
330
90
100
AcDbEntity
  8
AM_4
100
AcDbLine
 10
1.29911621594527
 20
-0.2187499999999999
 30
0.0
 11
1.062620433217798
 21
-0.2187499999999999
 31
0.0
  0
LWPOLYLINE
  5
C5
330
90
100
AcDbEntity
  8
AM_4
100
AcDbPolyline
 90
        3
 70
     0
 43
0.0
 10
1.082267193332406
 20
-0.1093749999999999
 10
1.102900895934089
 20
-0.1640624999999999
 10
1.12050758886733
 20
-0.2187499999999999
  0
LWPOLYLINE
  5
C6
330
90
100
AcDbEntity
  8
AM_4
100
AcDbPolyline
 90
        3
 70
     0
 43
0.0
 10
1.011556515213752
 20
-0.1093749999999999
 10
0.9909228126120687
 20
-0.0546874999999999
 10
0.9733161196788278
 20
0.0000000000000001
  0
LWPOLYLINE
  5
C7
330
90
100
AcDbEntity
  8
AM_4
100
AcDbPolyline
 90
        3
 70
     0
 43
0.0
 10
1.062620433217798
 20
-0.2187499999999999
 10
1.035690304623936
 20
-0.1643083897258503
 10
1.011556515213752
 20
-0.1093749999999999
  0
LWPOLYLINE
  5
C8
330
90
100
AcDbEntity
  8
AM_4
100
AcDbPolyline
 90
        3
 70
     0
 43
0.0
 10
1.03120327532836
 20
0.0000000000000001
 10
1.058133403922223
 20
-0.0544416102741495
 10
1.082267193332406
 20
-0.1093749999999999
  0
LINE
  5
C9
330
90
100
AcDbEntity
  8
AM_4
100
AcDbLine
 10
1.03120327532836
 20
0.0000000000000001
 30
0.0
 11
0.9733161196788278
 21
0.0000000000000001
 31
0.0
  0
LWPOLYLINE
  5
CA
330
90
100
AcDbEntity
  8
AM_4
100
AcDbPolyline
 90
        3
 70
     0
 43
0.0
 10
1.082267193332406
 20
0.109375
 10
1.058248739164604
 20
0.0546875
 10
1.03120327532836
 20
0.0000000000000001
  0
LWPOLYLINE
  5
CB
330
90
100
AcDbEntity
  8
AM_4
100
AcDbPolyline
 90
        3
 70
     0
 43
0.0
 10
1.12050758886733
 20
0.2187500000000001
 10
1.10298632881215
 20
0.1643083897258504
 10
1.082267193332406
 20
0.109375
  0
LINE
  5
CC
330
90
100
AcDbEntity
  8
AM_4
100
AcDbLine
 10
1.29911621594527
 20
0.2187500000000001
 30
0.0
 11
1.062620433217798
 21
0.2187500000000001
 31
0.0
  0
LWPOLYLINE
  5
CD
330
90
100
AcDbEntity
  8
AM_4
100
AcDbPolyline
 90
        3
 70
     0
 43
0.0
 10
1.011556515213752
 20
0.109375
 10
1.035574969381554
 20
0.1640625
 10
1.062620433217798
 20
0.2187500000000001
  0
LWPOLYLINE
  5
CE
330
90
100
AcDbEntity
  8
AM_4
100
AcDbPolyline
 90
        3
 70
     0
 43
0.0
 10
0.9733161196788278
 20
0.0000000000000001
 10
0.9908373797340085
 20
0.0544416102741497
 10
1.011556515213752
 20
0.109375
  0
LINE
  5
CF
330
90
100
AcDbEntity
  8
AM_4
100
AcDbLine
 10
1.274559973088752
 20
-0.090932667397366
 30
0.0
 11
1.306379778242146
 21
-0.1169134295108991
 31
0.0
  0
LINE
  5
D0
330
90
100
AcDbEntity
  8
AM_4
100
AcDbLine
 10
1.306379778242146
 20
0.1169134295108993
 30
0.0
 11
1.274559973088752
 21
0.0909326673973661
 31
0.0
  0
ELLIPSE
  5
D1
330
90
100
AcDbEntity
  8
AM_4
100
AcDbEllipse
 10
1.354109485972238
 20
0.0000000000000001
 30
0.0
 11
-2.479909768273392E-17
 21
-0.1350000000000001
 31
0.0
210
0.0
220
0.0
230
1.0
 40
0.7071067811865458
 41
2.725678601487247
 42
6.699099359282133
  0
ELLIPSE
  5
D2
330
90
100
AcDbEntity
  8
AM_4
100
AcDbEllipse
 10
1.311683079101045
 20
0.0000000000000001
 30
0.0
 11
-1.928818708657081E-17
 21
-0.105
 31
0.0
210
0.0
220
0.0
230
1.0
 40
0.7071067811865476
 41
3.665191429188091
 42
5.75958653158129
  0
LINE
  5
D3
330
90
100
AcDbEntity
  8
AM_4
100
AcDbLine
 10
1.440012045830937
 20
0.0939243440009288
 30
0.0
 11
1.392677593321047
 21
0.1234908992236335
 31
0.0
  0
LINE
  5
D4
330
90
100
AcDbEntity
  8
AM_4
100
AcDbLine
 10
1.392677593321047
 20
-0.1234908992236334
 30
0.0
 11
1.440012045830937
 21
-0.0939243440009286
 31
0.0
  0
ELLIPSE
  5
D5
330
90
100
AcDbEntity
  8
AM_4
100
AcDbEllipse
 10
1.410678028467161
 20
0.0000000000000002
 30
0.0
 11
-1.886162459184656E-17
 21
-0.1026779019331873
 31
0.0
210
0.0
220
0.0
230
1.0
 40
0.7071067811865539
 41
0.0
 42
6.283185307179586
  0
ENDBLK
  5
93
330
90
100
AcDbEntity
  8
0
100
AcDbBlockEnd
  0
BLOCK
  5
D8
330
D6
100
AcDbEntity
  8
0
100
AcDbBlockBegin
  2
3_131441_0_in_131976_4
 70
     2
 10
0.0
 20
0.0
 30
0.0
  3
3_131441_0_in_131976_4
  1

  0
ATTDEF
  5
DA
330
D6
100
AcDbEntity
  8
AM_6
100
AcDbText
 10
6.30456625
 20
0.36
 30
0.0
 40
0.5
  1
Eccentric Collar Intermediate Duty Insert Inch Bore
100
AcDbAttributeDefinition
  3

  2
NN
 70
     8
280
     0
  0
ATTDEF
  5
DB
330
D6
100
AcDbEntity
  8
AM_6
100
AcDbText
 10
6.30456625
 20
-0.14
 30
0.0
 40
0.5
  1
Eccentric Collar Bearing Inserts -(Intermediate Duty)
100
AcDbAttributeDefinition
  3

  2
NT
 70
     8
280
     0
  0
ATTDEF
  5
DC
330
D6
100
AcDbEntity
  8
AM_6
100
AcDbText
 10
6.30456625
 20
-0.64
 30
0.0
 40
0.5
  1
131441
100
AcDbAttributeDefinition
  3

  2
NB
 70
     8
280
     0
  0
ATTDEF
  5
DD
330
D6
100
AcDbEntity
  8
AM_6
100
AcDbText
 10
6.30456625
 20
-1.14
 30
0.0
 40
0.5
  1
$PN.
100
AcDbAttributeDefinition
  3

  2
NBSYN
 70
     8
280
     0
  0
ATTDEF
  5
DE
330
D6
100
AcDbEntity
  8
AM_6
100
AcDbText
 10
6.30456625
 20
-1.64
 30
0.0
 40
0.5
  1
131441
100
AcDbAttributeDefinition
  3

  2
LINA
 70
     8
280
     0
  0
ATTDEF
  5
DF
330
D6
100
AcDbEntity
  8
AM_6
100
AcDbText
 10
6.30456625
 20
-2.14
 30
0.0
 40
0.5
  1
206
100
AcDbAttributeDefinition
  3

  2
SERIES
 70
     8
280
     0
  0
ATTDEF
  5
E0
330
D6
100
AcDbEntity
  8
AM_6
100
AcDbText
 10
6.30456625
 20
-2.64
 30
0.0
 40
0.5
  1
1-3/16
100
AcDbAttributeDefinition
  3

  2
SS
 70
     8
280
     0
  0
ATTDEF
  5
E1
330
D6
100
AcDbEntity
  8
AM_6
100
AcDbText
 10
6.30456625
 20
-3.14
 30
0.0
 40
0.5
  1
131441
100
AcDbAttributeDefinition
  3

  2
PN
 70
     8
280
     0
  0
ATTDEF
  5
E2
330
D6
100
AcDbEntity
  8
AM_6
100
AcDbText
 10
6.30456625
 20
-3.64
 30
0.0
 40
0.5
  1
INS-SXV-103
100
AcDbAttributeDefinition
  3

  2
DESCRIPTION
 70
     8
280
     0
  0
ATTDEF
  5
E3
330
D6
100
AcDbEntity
  8
AM_6
100
AcDbText
 10
6.30456625
 20
-4.140000000000001
 30
0.0
 40
0.5
  1
0.7
100
AcDbAttributeDefinition
  3

  2
WEIGHT
 70
     8
280
     0
  0
ATTDEF
  5
E4
330
D6
100
AcDbEntity
  8
AM_6
100
AcDbText
 10
6.30456625
 20
-4.640000000000001
 30
0.0
 40
0.5
  1
1.41
100
AcDbAttributeDefinition
  3

  2
A
 70
     8
280
     0
  0
ATTDEF
  5
E5
330
D6
100
AcDbEntity
  8
AM_6
100
AcDbText
 10
6.30456625
 20
-5.140000000000001
 30
0.0
 40
0.5
  1
0.69
100
AcDbAttributeDefinition
  3

  2
C
 70
     8
280
     0
  0
ATTDEF
  5
E6
330
D6
100
AcDbEntity
  8
AM_6
100
AcDbText
 10
6.30456625
 20
-5.640000000000001
 30
0.0
 40
0.5
  1
2.4409
100
AcDbAttributeDefinition
  3

  2
D
 70
     8
280
     0
  0
ATTDEF
  5
E7
330
D6
100
AcDbEntity
  8
AM_6
100
AcDbText
 10
6.30456625
 20
-6.140000000000001
 30
0.0
 40
0.5
  1
0.16
100
AcDbAttributeDefinition
  3

  2
J
 70
     8
280
     0
  0
ATTDEF
  5
E8
330
D6
100
AcDbEntity
  8
AM_6
100
AcDbText
 10
6.30456625
 20
-6.640000000000001
 30
0.0
 40
0.5
  1
1.75
100
AcDbAttributeDefinition
  3

  2
L
 70
     8
280
     0
  0
ATTDEF
  5
E9
330
D6
100
AcDbEntity
  8
AM_6
100
AcDbText
 10
6.30456625
 20
-7.140000000000001
 30
0.0
 40
0.5
  1
5/16 - 24
100
AcDbAttributeDefinition
  3

  2
N
 70
     8
280
     0
  0
ATTDEF
  5
EA
330
D6
100
AcDbEntity
  8
AM_6
100
AcDbText
 10
6.30456625
 20
-7.640000000000001
 30
0.0
 40
0.5
  1
0.35
100
AcDbAttributeDefinition
  3

  2
W
 70
     8
280
     0
  0
ATTDEF
  5
EB
330
D6
100
AcDbEntity
  8
AM_6
100
AcDbText
 10
6.30456625
 20
-8.14
 30
0.0
 40
0.5
  1
1.05
100
AcDbAttributeDefinition
  3

  2
Y
 70
     8
280
     0
  0
ATTDEF
  5
EC
330
D6
100
AcDbEntity
  8
AM_6
100
AcDbText
 10
6.30456625
 20
-8.64
 30
0.0
 40
0.5
  1
1.57
100
AcDbAttributeDefinition
  3

  2
Z
 70
     8
280
     0
  0
ATTDEF
  5
ED
330
D6
100
AcDbEntity
  8
AM_6
100
AcDbText
 10
6.30456625
 20
-9.14
 30
0.0
 40
0.5
  1
baldor
100
AcDbAttributeDefinition
  3

  2
COMPANY
 70
     8
280
     0
  0
LINE
  5
EE
330
D6
100
AcDbEntity
  8
AM_9
100
AcDbLine
 10
1.2017
 20
0.248125
 30
0.0
 11
1.197009656770254
 21
0.248125
 31
0.0
  0
ARC
  5
EF
330
D6
100
AcDbEntity
  8
AM_9
100
AcDbCircle
 10
1.2017
 20
0.1700000000000001
 30
0.0
 40
0.0781249999999997
100
AcDbArc
 50
281.7351435010414
 51
90.0
  0
LINE
  5
F0
330
D6
100
AcDbEntity
  8
AM_9
100
AcDbLine
 10
1.2017
 20
0.248125
 30
0.0
 11
1.2017
 21
0.2128493652343085
 31
0.0
  0
LINE
  5
F1
330
D6
100
AcDbEntity
  8
AM_9
100
AcDbLine
 10
0.59375
 20
-1.033206213946819
 30
0.0
 11
0.59375
 21
-0.593125
 31
0.0
  0
LINE
  5
F2
330
D6
100
AcDbEntity
  8
AM_9
100
AcDbLine
 10
-0.59375
 20
-0.593125
 30
0.0
 11
-0.59375
 21
-1.033206213946819
 31
0.0
  0
LINE
  5
F3
330
D6
100
AcDbEntity
  8
AM_9
100
AcDbLine
 10
0.59375
 20
-0.569375
 30
0.0
 11
0.59375
 21
0.3432062139468195
 31
0.0
  0
LINE
  5
F4
330
D6
100
AcDbEntity
  8
AM_9
100
AcDbLine
 10
-0.59375
 20
0.3432062139468195
 30
0.0
 11
-0.59375
 21
-0.569375
 31
0.0
  0
LINE
  5
F5
330
D6
100
AcDbEntity
  8
AM_9
100
AcDbLine
 10
-0.59375
 20
-0.593125
 30
0.0
 11
0.59375
 21
-0.593125
 31
0.0
  0
LINE
  5
F6
330
D6
100
AcDbEntity
  8
AM_9
100
AcDbLine
 10
0.59375
 20
-0.593125
 30
0.0
 11
0.6056250000000002
 21
-0.5812499999999999
 31
0.0
  0
LINE
  5
F7
330
D6
100
AcDbEntity
  8
AM_9
100
AcDbLine
 10
-0.6056250000000002
 20
-0.5812499999999999
 30
0.0
 11
-0.59375
 21
-0.593125
 31
0.0
  0
LINE
  5
F8
330
D6
100
AcDbEntity
  8
AM_9
100
AcDbLine
 10
-0.59375
 20
-0.569375
 30
0.0
 11
0.59375
 21
-0.569375
 31
0.0
  0
LINE
  5
F9
330
D6
100
AcDbEntity
  8
AM_9
100
AcDbLine
 10
-0.6056250000000002
 20
-0.5812499999999999
 30
0.0
 11
0.6056250000000002
 21
-0.5812499999999999
 31
0.0
  0
LINE
  5
FA
330
D6
100
AcDbEntity
  8
AM_9
100
AcDbLine
 10
-0.59375
 20
-0.569375
 30
0.0
 11
-0.6056250000000002
 21
-0.5812499999999999
 31
0.0
  0
LINE
  5
FB
330
D6
100
AcDbEntity
  8
AM_9
100
AcDbLine
 10
0.6056250000000002
 20
-0.5812499999999999
 30
0.0
 11
0.59375
 21
-0.569375
 31
0.0
  0
LINE
  5
FC
330
D6
100
AcDbEntity
  8
AM_9
100
AcDbLine
 10
-0.59375
 20
0.3432062139468195
 30
0.0
 11
0.59375
 21
0.3432062139468195
 31
0.0
  0
LINE
  5
FD
330
D6
100
AcDbEntity
  8
AM_9
100
AcDbLine
 10
0.59375
 20
0.3432062139468195
 30
0.0
 11
0.6105437860531805
 21
0.36
 31
0.0
  0
LINE
  5
FE
330
D6
100
AcDbEntity
  8
AM_9
100
AcDbLine
 10
-0.6105437860531805
 20
0.36
 30
0.0
 11
-0.59375
 21
0.3432062139468195
 31
0.0
  0
LINE
  5
FF
330
D6
100
AcDbEntity
  8
AM_9
100
AcDbLine
 10
-0.59375
 20
-1.033206213946819
 30
0.0
 11
0.59375
 21
-1.033206213946819
 31
0.0
  0
LINE
  5
100
330
D6
100
AcDbEntity
  8
AM_9
100
AcDbLine
 10
-0.59375
 20
-1.033206213946819
 30
0.0
 11
-0.6105437860531805
 21
-1.05
 31
0.0
  0
LINE
  5
101
330
D6
100
AcDbEntity
  8
AM_9
100
AcDbLine
 10
0.6105437860531805
 20
-1.05
 30
0.0
 11
0.59375
 21
-1.033206213946819
 31
0.0
  0
LINE
  5
102
330
D6
100
AcDbEntity
  8
AM_9
100
AcDbLine
 10
0.7476190476190476
 20
-0.4874999999999999
 30
0.0
 11
0.7476190476190476
 21
-0.4562500000000001
 31
0.0
  0
LINE
  5
103
330
D6
100
AcDbEntity
  8
AM_9
100
AcDbLine
 10
-0.7476190476190476
 20
-0.4562500000000001
 30
0.0
 11
-0.7476190476190476
 21
-0.4874999999999999
 31
0.0
  0
LINE
  5
104
330
D6
100
AcDbEntity
  8
AM_9
100
AcDbLine
 10
-0.7849999999999999
 20
-0.4562500000000001
 30
0.0
 11
0.7849999999999999
 21
-0.4562500000000001
 31
0.0
  0
LINE
  5
105
330
D6
100
AcDbEntity
  8
AM_9
100
AcDbLine
 10
0.7849999999999999
 20
-0.4562500000000001
 30
0.0
 11
0.7849999999999999
 21
-0.3349999999999999
 31
0.0
  0
LINE
  5
106
330
D6
100
AcDbEntity
  8
AM_9
100
AcDbLine
 10
-0.7849999999999999
 20
-0.3349999999999999
 30
0.0
 11
-0.7849999999999999
 21
-0.4562500000000001
 31
0.0
  0
LINE
  5
107
330
D6
100
AcDbEntity
  8
AM_9
100
AcDbLine
 10
-0.7849999999999999
 20
0.36
 30
0.0
 11
0.7849999999999999
 21
0.36
 31
0.0
  0
LINE
  5
108
330
D6
100
AcDbEntity
  8
AM_9
100
AcDbLine
 10
0.7849999999999999
 20
0.355
 30
0.0
 11
0.7849999999999999
 21
0.36
 31
0.0
  0
LINE
  5
109
330
D6
100
AcDbEntity
  8
AM_9
100
AcDbLine
 10
-0.7849999999999999
 20
0.36
 30
0.0
 11
-0.7849999999999999
 21
0.355
 31
0.0
  0
LINE
  5
10A
330
D6
100
AcDbEntity
  8
AM_9
100
AcDbLine
 10
-0.8275
 20
-0.4874999999999999
 30
0.0
 11
0.827499999997708
 21
-0.4874999999999999
 31
0.0
  0
ARC
  5
10B
330
D6
100
AcDbEntity
  8
AM_9
100
AcDbCircle
 10
0.8274999999999999
 20
-0.535
 30
0.0
 40
0.0475000000000001
100
AcDbArc
 50
0.0000008537736463
 51
90.0
  0
ARC
  5
10C
330
D6
100
AcDbEntity
  8
AM_9
100
AcDbCircle
 10
-0.8274999999999999
 20
-0.535
 30
0.0
 40
0.0475000000000001
100
AcDbArc
 50
90.0
 51
179.9999991462263
  0
LINE
  5
10D
330
D6
100
AcDbEntity
  8
AM_9
100
AcDbLine
 10
0.6266982361828508
 20
-0.5350000000000001
 30
0.0
 11
0.875
 21
-0.5350000000000001
 31
0.0
  0
LINE
  5
10E
330
D6
100
AcDbEntity
  8
AM_9
100
AcDbLine
 10
-0.875
 20
-0.5350000000000001
 30
0.0
 11
-0.6266982361828508
 21
-0.5350000000000001
 31
0.0
  0
LINE
  5
10F
330
D6
100
AcDbEntity
  8
AM_9
100
AcDbLine
 10
0.875
 20
-0.56844232297963
 30
0.0
 11
0.875
 21
-0.5350000000000001
 31
0.0
  0
LINE
  5
110
330
D6
100
AcDbEntity
  8
AM_9
100
AcDbLine
 10
-0.875
 20
-0.5350000000000001
 30
0.0
 11
-0.875
 21
-0.56844232297963
 31
0.0
  0
LINE
  5
111
330
D6
100
AcDbEntity
  8
AM_9
100
AcDbLine
 10
1.162333333333333
 20
-0.182
 30
0.0
 11
1.162333333333333
 21
-0.118
 31
0.0
  0
LINE
  5
112
330
D6
100
AcDbEntity
  8
AM_9
100
AcDbLine
 10
-1.162333333333333
 20
-0.118
 30
0.0
 11
-1.162333333333333
 21
-0.182
 31
0.0
  0
LINE
  5
113
330
D6
100
AcDbEntity
  8
AM_9
100
AcDbLine
 10
-1.152774621294205
 20
-0.335
 30
0.0
 11
1.152774621293857
 21
-0.335
 31
0.0
  0
ARC
  5
114
330
D6
100
AcDbEntity
  8
AM_9
100
AcDbCircle
 10
1.152774621294205
 20
-0.3112499999999992
 30
0.0
 40
0.0237500000000007
100
AcDbArc
 50
270.0
 51
344.428150905397
  0
ARC
  5
115
330
D6
100
AcDbEntity
  8
AM_9
100
AcDbCircle
 10
-1.152774621294205
 20
-0.3112499999999992
 30
0.0
 40
0.0237500000000008
100
AcDbArc
 50
195.571849094603
 51
270.0
  0
LINE
  5
116
330
D6
100
AcDbEntity
  8
AM_9
100
AcDbLine
 10
-1.152774621294206
 20
0.355
 30
0.0
 11
1.152774621293858
 21
0.355
 31
0.0
  0
ARC
  5
117
330
D6
100
AcDbEntity
  8
AM_9
100
AcDbCircle
 10
1.152774621294206
 20
0.3312499999999998
 30
0.0
 40
0.0237500000000002
100
AcDbArc
 50
15.57184413386241
 51
90.0
  0
ARC
  5
118
330
D6
100
AcDbEntity
  8
AM_9
100
AcDbCircle
 10
-1.152774621294206
 20
0.3312499999999999
 30
0.0
 40
0.0237500000000001
100
AcDbArc
 50
90.0
 51
164.4281558661377
  0
LINE
  5
119
330
D6
100
AcDbEntity
  8
AM_9
100
AcDbLine
 10
-1.175652867517769
 20
-0.3176256058327064
 30
0.0
 11
1.175652867517763
 21
-0.3176256058327064
 31
0.0
  0
LINE
  5
11A
330
D6
100
AcDbEntity
  8
AM_9
100
AcDbLine
 10
-1.205252754612077
 20
-0.182
 30
0.0
 11
1.205252754612072
 21
-0.182
 31
0.0
  0
ARC
  5
11B
330
D6
100
AcDbEntity
  8
AM_9
100
AcDbCircle
 10
0.000000000003902
 20
0.0099999999991479
 30
0.0
 40
1.220449999996007
100
AcDbArc
 50
344.4281509053873
 51
350.9486832420342
  0
ARC
  5
11C
330
D6
100
AcDbEntity
  8
AM_9
100
AcDbCircle
 10
0.0000000000031886
 20
0.0100000000006953
 30
0.0
 40
1.220450000003253
100
AcDbArc
 50
189.0513167579853
 51
195.5718490945934
  0
LINE
  5
11D
330
D6
100
AcDbEntity
  8
AM_9
100
AcDbLine
 10
-1.213719161297209
 20
-0.1179999999999997
 30
0.0
 11
1.213719161297204
 21
-0.1179999999999997
 31
0.0
  0
LINE
  5
11E
330
D6
100
AcDbEntity
  8
AM_9
100
AcDbLine
 10
-1.175652868069777
 20
0.3376256038518795
 30
0.0
 11
1.175652868069772
 21
0.3376256038518795
 31
0.0
  0
LINE
  5
11F
330
D6
100
AcDbEntity
  8
AM_9
100
AcDbLine
 10
1.196994021236688
 20
0.2481249999956272
 30
0.0
 11
1.217589678349653
 21
0.0935079497794422
 31
0.0
  0
ARC
  5
120
330
D6
100
AcDbEntity
  8
AM_9
100
AcDbCircle
 10
-0.0000000000006808
 20
0.0099999999999848
 30
0.0
 40
1.220450000000671
100
AcDbArc
 50
353.9797846834528
 51
3.923466307368757
  0
ARC
  5
121
330
D6
100
AcDbEntity
  8
AM_9
100
AcDbCircle
 10
-0.0000000000033786
 20
0.0099999999992567
 30
0.0
 40
1.220450000003449
100
AcDbArc
 50
11.24587071910207
 51
15.57184899805701
  0
ARC
  5
122
330
D6
100
AcDbEntity
  8
AM_9
100
AcDbCircle
 10
0.0000000000002676
 20
0.0099999999999777
 30
0.0
 40
1.220450000000259
100
AcDbArc
 50
164.4281510019364
 51
186.0202153165489
  0
LINE
  5
125
330
D6
100
AcDbEntity
  8
AM_7
100
AcDbLine
 10
0.7602587499999999
 20
0.17
 30
0.0
 11
1.30456625
 21
0.17
 31
0.0
  0
ARC
  5
126
330
D6
100
AcDbEntity
  8
AM_4
100
AcDbCircle
 10
0.0
 20
-0.815625
 30
0.0
 40
0.13935
100
AcDbArc
 50
210.8679120398981
 51
329.132087960102
  0
LINE
  5
127
330
D6
100
AcDbEntity
  8
AM_4
100
AcDbLine
 10
-0.8275
 20
-1.05
 30
0.0
 11
0.827499999997708
 21
-1.05
 31
0.0
  0
ARC
  5
128
330
D6
100
AcDbEntity
  8
AM_4
100
AcDbCircle
 10
0.8274999999999998
 20
-1.0025
 30
0.0
 40
0.0475000000000003
100
AcDbArc
 50
270.0
 51
0.0
  0
ARC
  5
129
330
D6
100
AcDbEntity
  8
AM_4
100
AcDbCircle
 10
-0.8274999999999998
 20
-1.0025
 30
0.0
 40
0.0475000000000002
100
AcDbArc
 50
180.0
 51
270.0
  0
ARC
  5
12A
330
D6
100
AcDbEntity
  8
AM_4
100
AcDbCircle
 10
0.0
 20
-0.8156249999999998
 30
0.0
 40
0.1393499999999999
100
AcDbArc
 50
30.867912039898
 51
149.132087960102
  0
LINE
  5
12B
330
D6
100
AcDbEntity
  8
AM_4
100
AcDbLine
 10
-0.875
 20
-1.0025
 30
0.0
 11
0.875
 21
-1.0025
 31
0.0
  0
LWPOLYLINE
  5
12C
330
D6
100
AcDbEntity
  8
AM_4
100
AcDbPolyline
 90
        8
 70
     0
 43
0.0
 10
-0.1196114034662647
 20
-0.8871199974531815
 10
-0.1298314143998839
 20
-0.8662056562845624
 10
-0.1364580339227481
 20
-0.8438672994449485
 10
-0.1392429548040496
 20
-0.8207062877266508
 10
-0.1381531485863606
 20
-0.797400564873638
 10
-0.1332076147938108
 20
-0.7747549347382867
 10
-0.1246111254288674
 20
-0.7532512080730129
 10
-0.1196114034662648
 20
-0.7441300025468185
  0
LWPOLYLINE
  5
12D
330
D6
100
AcDbEntity
  8
AM_4
100
AcDbPolyline
 90
       15
 70
     0
 43
0.0
 10
-0.1196114034662647
 20
-0.7441300025468185
 10
-0.1103512699409539
 20
-0.7285351973791043
 10
-0.0990752927004443
 20
-0.713987793789937
 10
-0.081119336461671
 20
-0.6968949306435906
 10
-0.0596532036351504
 20
-0.6828849211810005
 10
-0.0383835646768858
 20
-0.6740130723543581
 10
-0.0150767632130476
 20
-0.6689638915667555
 10
0.0062686939971924
 20
-0.6682167688445521
 10
0.0280732809231466
 20
-0.6712149615443763
 10
0.0479263561701207
 20
-0.6774503167018575
 10
0.067004789697993
 20
-0.6870411648369877
 10
0.0845046350403331
 20
-0.69967807810174
 10
0.1001955667032146
 20
-0.7152733635566746
 10
0.1106831644786779
 20
-0.729025957308755
 10
0.1196114034662647
 20
-0.7441300025468185
  0
LWPOLYLINE
  5
12E
330
D6
100
AcDbEntity
  8
AM_4
100
AcDbPolyline
 90
        8
 70
     0
 43
0.0
 10
0.1196114034662647
 20
-0.7441300025468185
 10
0.1298314143998839
 20
-0.7650443437154376
 10
0.1364580339227481
 20
-0.7873827005550514
 10
0.1392429548040496
 20
-0.8105437122733492
 10
0.1381531485863606
 20
-0.833849435126362
 10
0.1332076147938108
 20
-0.8564950652617133
 10
0.1246111254288674
 20
-0.877998791926987
 10
0.1196114034662648
 20
-0.8871199974531815
  0
LWPOLYLINE
  5
12F
330
D6
100
AcDbEntity
  8
AM_4
100
AcDbPolyline
 90
       15
 70
     0
 43
0.0
 10
0.1196114034662647
 20
-0.8871199974531815
 10
0.1103512699409538
 20
-0.9027148026208958
 10
0.0990752927004444
 20
-0.9172622062100632
 10
0.0811193364616709
 20
-0.9343550693564093
 10
0.0596532036351503
 20
-0.9483650788189996
 10
0.0383835646768857
 20
-0.9572369276456418
 10
0.0150767632130475
 20
-0.9622861084332445
 10
-0.0062686939971925
 20
-0.9630332311554479
 10
-0.0280732809231466
 20
-0.9600350384556235
 10
-0.0479263561701208
 20
-0.9537996832981425
 10
-0.0670047896979931
 20
-0.9442088351630122
 10
-0.0845046350403332
 20
-0.93157192189826
 10
-0.1001955667032146
 20
-0.9159766364433254
 10
-0.1106831644786779
 20
-0.902224042691245
 10
-0.1196114034662647
 20
-0.8871199974531815
  0
LINE
  5
130
330
D6
100
AcDbEntity
  8
AM_4
100
AcDbLine
 10
-0.6266982361828508
 20
-0.5350000000000001
 30
0.0
 11
0.6266982361828508
 21
-0.5350000000000001
 31
0.0
  0
LINE
  5
131
330
D6
100
AcDbEntity
  8
AM_4
100
AcDbLine
 10
0.875
 20
-1.0025
 30
0.0
 11
0.875
 21
-0.56844232297963
 31
0.0
  0
LINE
  5
132
330
D6
100
AcDbEntity
  8
AM_4
100
AcDbLine
 10
-0.875
 20
-0.56844232297963
 30
0.0
 11
-0.875
 21
-1.0025
 31
0.0
  0
ARC
  5
134
330
D6
100
AcDbEntity
  8
AM_5
100
AcDbCircle
 10
0.0
 20
-0.815625
 30
0.0
 40
0.1562499999999999
100
AcDbArc
 50
75.00000000000001
 51
15.0
  0
ENDBLK
  5
D9
330
D6
100
AcDbEntity
  8
0
100
AcDbBlockEnd
  0
BLOCK
  5
137
330
135
100
AcDbEntity
  8
0
100
AcDbBlockBegin
  2
4_131976H_0_in_131976_4
 70
     2
 10
0.0
 20
0.0
 30
0.0
  3
4_131976H_0_in_131976_4
  1

  0
ATTDEF
  5
139
330
135
100
AcDbEntity
  8
AM_6
100
AcDbText
 10
8.125
 20
0.9625
 30
0.0
 40
0.5
  1
P2B-SXV and P2B-SXV-NL -I-Housing
100
AcDbAttributeDefinition
  3

  2
NN
 70
     8
280
     0
  0
ATTDEF
  5
13A
330
135
100
AcDbEntity
  8
AM_6
100
AcDbText
 10
8.125
 20
0.4625
 30
0.0
 40
0.5
  1
Eccentric Collar Pillow Block Bearings -(Intermediate Duty)
100
AcDbAttributeDefinition
  3

  2
NT
 70
     8
280
     0
  0
ATTDEF
  5
13B
330
135
100
AcDbEntity
  8
AM_6
100
AcDbText
 10
8.125
 20
-0.0375
 30
0.0
 40
0.5
  1
131976H
100
AcDbAttributeDefinition
  3

  2
NB
 70
     8
280
     0
  0
ATTDEF
  5
13C
330
135
100
AcDbEntity
  8
AM_6
100
AcDbText
 10
8.125
 20
-0.5375
 30
0.0
 40
0.5
  1
$PN.H
100
AcDbAttributeDefinition
  3

  2
NBSYN
 70
     8
280
     0
  0
ATTDEF
  5
13D
330
135
100
AcDbEntity
  8
AM_6
100
AcDbText
 10
8.125
 20
-1.0375
 30
0.0
 40
0.5
  1
131976
100
AcDbAttributeDefinition
  3

  2
LINA
 70
     8
280
     0
  0
ATTDEF
  5
13E
330
135
100
AcDbEntity
  8
AM_6
100
AcDbText
 10
8.125
 20
-1.5375
 30
0.0
 40
0.5
  1
206
100
AcDbAttributeDefinition
  3

  2
SERIES
 70
     8
280
     0
  0
ATTDEF
  5
13F
330
135
100
AcDbEntity
  8
AM_6
100
AcDbText
 10
8.125
 20
-2.0375
 30
0.0
 40
0.5
  1
1-3/16
100
AcDbAttributeDefinition
  3

  2
SS
 70
     8
280
     0
  0
ATTDEF
  5
140
330
135
100
AcDbEntity
  8
AM_6
100
AcDbText
 10
8.125
 20
-2.5375
 30
0.0
 40
0.5
  1
131976
100
AcDbAttributeDefinition
  3

  2
PN
 70
     8
280
     0
  0
ATTDEF
  5
141
330
135
100
AcDbEntity
  8
AM_6
100
AcDbText
 10
8.125
 20
-3.0375
 30
0.0
 40
0.5
  1
P2B-SXV-103
100
AcDbAttributeDefinition
  3

  2
DESCRIPTION
 70
     8
280
     0
  0
ATTDEF
  5
142
330
135
100
AcDbEntity
  8
AM_6
100
AcDbText
 10
8.125
 20
-3.5375
 30
0.0
 40
0.5
  1
RE-LUBE
100
AcDbAttributeDefinition
  3

  2
LF
 70
     8
280
     0
  0
ATTDEF
  5
143
330
135
100
AcDbEntity
  8
AM_6
100
AcDbText
 10
8.125
 20
-4.0375
 30
0.0
 40
0.5
  1
2.70
100
AcDbAttributeDefinition
  3

  2
WEIGHT
 70
     8
280
     0
  0
ATTDEF
  5
144
330
135
100
AcDbEntity
  8
AM_6
100
AcDbText
 10
8.125
 20
-4.5375
 30
0.0
 40
0.5
  1
1.41
100
AcDbAttributeDefinition
  3

  2
A
 70
     8
280
     0
  0
ATTDEF
  5
145
330
135
100
AcDbEntity
  8
AM_6
100
AcDbText
 10
8.125
 20
-5.0375
 30
0.0
 40
0.5
  1
6.25
100
AcDbAttributeDefinition
  3

  2
B
 70
     8
280
     0
  0
ATTDEF
  5
146
330
135
100
AcDbEntity
  8
AM_6
100
AcDbText
 10
8.125
 20
-5.5375
 30
0.0
 40
0.5
  1
1.75
100
AcDbAttributeDefinition
  3

  2
C
 70
     8
280
     0
  0
ATTDEF
  5
147
330
135
100
AcDbEntity
  8
AM_6
100
AcDbText
 10
8.125
 20
-6.0375
 30
0.0
 40
0.5
  1
4.25
100
AcDbAttributeDefinition
  3

  2
DMIN
 70
     8
280
     0
  0
ATTDEF
  5
148
330
135
100
AcDbEntity
  8
AM_6
100
AcDbText
 10
8.125
 20
-6.5375
 30
0.0
 40
0.5
  1
5.00
100
AcDbAttributeDefinition
  3

  2
DMAX
 70
     8
280
     0
  0
ATTDEF
  5
149
330
135
100
AcDbEntity
  8
AM_6
100
AcDbText
 10
8.125
 20
-7.0375
 30
0.0
 40
0.5
  1
1/2
100
AcDbAttributeDefinition
  3

  2
F
 70
     8
280
     0
  0
ATTDEF
  5
14A
330
135
100
AcDbEntity
  8
AM_6
100
AcDbText
 10
8.125
 20
-7.5375
 30
0.0
 40
0.5
  1
0.94
100
AcDbAttributeDefinition
  3

  2
G
 70
     8
280
     0
  0
ATTDEF
  5
14B
330
135
100
AcDbEntity
  8
AM_6
100
AcDbText
 10
8.125
 20
-8.0375
 30
0.0
 40
0.5
  1
0.68
100
AcDbAttributeDefinition
  3

  2
H
 70
     8
280
     0
  0
ATTDEF
  5
14C
330
135
100
AcDbEntity
  8
AM_6
100
AcDbText
 10
8.125
 20
-8.5375
 30
0.0
 40
0.5
  1
3.25
100
AcDbAttributeDefinition
  3

  2
J
 70
     8
280
     0
  0
ATTDEF
  5
14D
330
135
100
AcDbEntity
  8
AM_6
100
AcDbText
 10
8.125
 20
-9.0375
 30
0.0
 40
0.5
  1
1.75
100
AcDbAttributeDefinition
  3

  2
L
 70
     8
280
     0
  0
ATTDEF
  5
14E
330
135
100
AcDbEntity
  8
AM_6
100
AcDbText
 10
8.125
 20
-9.5375
 30
0.0
 40
0.5
  1
1.63
100
AcDbAttributeDefinition
  3

  2
M
 70
     8
280
     0
  0
ATTDEF
  5
14F
330
135
100
AcDbEntity
  8
AM_6
100
AcDbText
 10
8.125
 20
-10.0375
 30
0.0
 40
0.5
  1
0.35
100
AcDbAttributeDefinition
  3

  2
R
 70
     8
280
     0
  0
ATTDEF
  5
150
330
135
100
AcDbEntity
  8
AM_6
100
AcDbText
 10
8.125
 20
-10.5375
 30
0.0
 40
0.5
  1
1.05
100
AcDbAttributeDefinition
  3

  2
S
 70
     8
280
     0
  0
ATTDEF
  5
151
330
135
100
AcDbEntity
  8
AM_6
100
AcDbText
 10
8.125
 20
-11.0375
 30
0.0
 40
0.5
  1
2.88
100
AcDbAttributeDefinition
  3

  2
U
 70
     8
280
     0
  0
ATTDEF
  5
152
330
135
100
AcDbEntity
  8
AM_6
100
AcDbText
 10
8.125
 20
-11.5375
 30
0.0
 40
0.5
  1
5.76
100
AcDbAttributeDefinition
  3

  2
V
 70
     8
280
     0
  0
ATTDEF
  5
153
330
135
100
AcDbEntity
  8
AM_6
100
AcDbText
 10
8.125
 20
-12.0375
 30
0.0
 40
0.5
  1
0.56
100
AcDbAttributeDefinition
  3

  2
W
 70
     8
280
     0
  0
ATTDEF
  5
154
330
135
100
AcDbEntity
  8
AM_6
100
AcDbText
 10
8.125
 20
-12.5375
 30
0.0
 40
0.5
  1
0.12
100
AcDbAttributeDefinition
  3

  2
X
 70
     8
280
     0
  0
ATTDEF
  5
155
330
135
100
AcDbEntity
  8
AM_6
100
AcDbText
 10
8.125
 20
-13.0375
 30
0.0
 40
0.5
  1
2250
100
AcDbAttributeDefinition
  3

  2
CAPS
 70
     8
280
     0
  0
ATTDEF
  5
156
330
135
100
AcDbEntity
  8
AM_6
100
AcDbText
 10
8.125
 20
-13.5375
 30
0.0
 40
0.5
  1
4368
100
AcDbAttributeDefinition
  3

  2
CAPD
 70
     8
280
     0
  0
ATTDEF
  5
157
330
135
100
AcDbEntity
  8
AM_6
100
AcDbText
 10
8.125
 20
-14.0375
 30
0.0
 40
0.5
  1
baldor
100
AcDbAttributeDefinition
  3

  2
COMPANY
 70
     8
280
     0
  0
LINE
  5
158
330
135
100
AcDbEntity
  8
AM_9
100
AcDbLine
 10
1.211824999999999
 20
0.4374999999999998
 30
0.0
 11
1.211824999999999
 21
0.6999999999999997
 31
0.0
  0
LINE
  5
159
330
135
100
AcDbEntity
  8
AM_9
100
AcDbLine
 10
-1.211825
 20
0.4374999999999998
 30
0.0
 11
-1.211825
 21
0.6999999999999997
 31
0.0
  0
LINE
  5
15A
330
135
100
AcDbEntity
  8
AM_9
100
AcDbLine
 10
1.279825
 20
-0.7000000000000001
 30
0.0
 11
1.279825
 21
-0.4375000000000001
 31
0.0
  0
LINE
  5
15B
330
135
100
AcDbEntity
  8
AM_9
100
AcDbLine
 10
1.211824999999999
 20
-0.7000000000000001
 30
0.0
 11
1.211824999999999
 21
-0.4375000000000001
 31
0.0
  0
LINE
  5
15C
330
135
100
AcDbEntity
  8
AM_9
100
AcDbLine
 10
-1.279825
 20
-0.7000000000000001
 30
0.0
 11
-1.279825
 21
-0.4375000000000001
 31
0.0
  0
LINE
  5
15D
330
135
100
AcDbEntity
  8
AM_9
100
AcDbLine
 10
-1.211825
 20
-0.7000000000000001
 30
0.0
 11
-1.211825
 21
-0.4375000000000001
 31
0.0
  0
LINE
  5
15E
330
135
100
AcDbEntity
  8
AM_9
100
AcDbLine
 10
2.6465
 20
-0.4375000000000001
 30
0.0
 11
2.6465
 21
-0.2415450268583481
 31
0.0
  0
LINE
  5
15F
330
135
100
AcDbEntity
  8
AM_9
100
AcDbLine
 10
2.7825
 20
-0.4375000000000001
 30
0.0
 11
2.7825
 21
0.4374999999999999
 31
0.0
  0
LINE
  5
160
330
135
100
AcDbEntity
  8
AM_9
100
AcDbLine
 10
2.6465
 20
0.241545026858348
 30
0.0
 11
2.6465
 21
0.4374999999999999
 31
0.0
  0
LINE
  5
161
330
135
100
AcDbEntity
  8
AM_9
100
AcDbLine
 10
-2.6465
 20
-0.4375000000000001
 30
0.0
 11
-2.6465
 21
-0.2415450268583479
 31
0.0
  0
LINE
  5
162
330
135
100
AcDbEntity
  8
AM_9
100
AcDbLine
 10
-2.7825
 20
-0.4375000000000001
 30
0.0
 11
-2.7825
 21
0.4374999999999999
 31
0.0
  0
LINE
  5
163
330
135
100
AcDbEntity
  8
AM_9
100
AcDbLine
 10
-1.744023698359427
 20
-0.4375000000000001
 30
0.0
 11
-1.744023698359427
 21
0.4374999999999999
 31
0.0
  0
LINE
  5
164
330
135
100
AcDbEntity
  8
AM_9
100
AcDbLine
 10
-2.6465
 20
0.2415450268583483
 30
0.0
 11
-2.6465
 21
0.4374999999999999
 31
0.0
  0
LINE
  5
165
330
135
100
AcDbEntity
  8
AM_9
100
AcDbLine
 10
1.744023698359429
 20
-0.4375000000000001
 30
0.0
 11
1.744023698359429
 21
0.4374999999999999
 31
0.0
  0
LINE
  5
166
330
135
100
AcDbEntity
  8
AM_9
100
AcDbLine
 10
-1.568026747689715
 20
-0.4375000000000001
 30
0.0
 11
-1.568026747689715
 21
0.4374999999999999
 31
0.0
  0
LINE
  5
167
330
135
100
AcDbEntity
  8
AM_9
100
AcDbLine
 10
1.568026747689714
 20
-0.4375000000000001
 30
0.0
 11
1.568026747689714
 21
0.4374999999999999
 31
0.0
  0
LINE
  5
168
330
135
100
AcDbEntity
  8
AM_9
100
AcDbLine
 10
-0.834742289369663
 20
-0.4375000000000001
 30
0.0
 11
-0.834742289369663
 21
0.4374999999999999
 31
0.0
  0
LINE
  5
169
330
135
100
AcDbEntity
  8
AM_9
100
AcDbLine
 10
0.8347422893696628
 20
-0.4375000000000001
 30
0.0
 11
0.8347422893696628
 21
0.4374999999999999
 31
0.0
  0
LINE
  5
16A
330
135
100
AcDbEntity
  8
AM_9
100
AcDbLine
 10
-1.106557071949135
 20
-0.4375000000000001
 30
0.0
 11
-1.106557071949135
 21
0.4374999999999999
 31
0.0
  0
LINE
  5
16B
330
135
100
AcDbEntity
  8
AM_9
100
AcDbLine
 10
1.106557071949135
 20
-0.4375000000000001
 30
0.0
 11
1.106557071949135
 21
0.4374999999999999
 31
0.0
  0
LINE
  5
16C
330
135
100
AcDbEntity
  8
AM_9
100
AcDbLine
 10
2.7825
 20
0.4374999999999999
 30
0.0
 11
-2.7825
 21
0.4374999999999999
 31
0.0
  0
LINE
  5
16D
330
135
100
AcDbEntity
  8
AM_9
100
AcDbLine
 10
2.7825
 20
-0.4375000000000001
 30
0.0
 11
-2.7825
 21
-0.4375000000000001
 31
0.0
  0
LINE
  5
16E
330
135
100
AcDbEntity
  8
AM_9
100
AcDbLine
 10
1.133760542674246
 20
-0.2625
 30
0.0
 11
1.133760542674246
 21
0.6122020914396891
 31
0.0
  0
LINE
  5
16F
330
135
100
AcDbEntity
  8
AM_9
100
AcDbLine
 10
1.279169380132356
 20
0.7064387418035143
 30
0.0
 11
1.279824170126573
 21
0.7098711715085404
 31
0.0
  0
LINE
  5
170
330
135
100
AcDbEntity
  8
AM_9
100
AcDbLine
 10
1.279825
 20
-0.2625
 30
0.0
 11
1.279825
 21
0.7100000000000001
 31
0.0
  0
LINE
  5
171
330
135
100
AcDbEntity
  8
AM_9
100
AcDbLine
 10
1.279825
 20
-0.2625
 30
0.0
 11
1.066282861158333
 21
-0.2625
 31
0.0
  0
LINE
  5
172
330
135
100
AcDbEntity
  8
AM_9
100
AcDbLine
 10
-1.066282861158333
 20
-0.2625
 30
0.0
 11
-1.279825
 21
-0.2625
 31
0.0
  0
LINE
  5
173
330
135
100
AcDbEntity
  8
AM_9
100
AcDbLine
 10
-1.133760542674246
 20
-0.2625
 30
0.0
 11
-1.133760542674246
 21
0.6122020914396891
 31
0.0
  0
LINE
  5
174
330
135
100
AcDbEntity
  8
AM_9
100
AcDbLine
 10
-1.279820688687325
 20
0.7097063885694144
 30
0.0
 11
-1.279171683278776
 21
0.706444790908223
 31
0.0
  0
LINE
  5
175
330
135
100
AcDbEntity
  8
AM_9
100
AcDbLine
 10
-1.279825
 20
0.7099999999999995
 30
0.0
 11
-1.279825
 21
-0.2625
 31
0.0
  0
LINE
  5
176
330
135
100
AcDbEntity
  8
AM_9
100
AcDbLine
 10
-1.066282861158333
 20
-0.2625
 30
0.0
 11
-1.066282861158333
 21
0.6122020914396885
 31
0.0
  0
LINE
  5
177
330
135
100
AcDbEntity
  8
AM_9
100
AcDbLine
 10
1.066282861158333
 20
0.6122020914396885
 30
0.0
 11
1.066282861158333
 21
-0.2625
 31
0.0
  0
LINE
  5
178
330
135
100
AcDbEntity
  8
AM_9
100
AcDbLine
 10
1.22045
 20
-0.7
 30
0.0
 11
1.22045
 21
-0.2625
 31
0.0
  0
LINE
  5
179
330
135
100
AcDbEntity
  8
AM_9
100
AcDbLine
 10
-1.22045
 20
-0.2625
 30
0.0
 11
-1.22045
 21
-0.7
 31
0.0
  0
LINE
  5
17A
330
135
100
AcDbEntity
  8
AM_9
100
AcDbLine
 10
0.875
 20
-0.7
 30
0.0
 11
-0.875
 21
-0.7
 31
0.0
  0
LWPOLYLINE
  5
17B
330
135
100
AcDbEntity
  8
AM_9
100
AcDbPolyline
 90
        4
 70
     0
 43
0.0
 10
1.445901544679993
 20
-0.0350041137865369
 10
1.446165234532765
 20
-0.0397914713606523
 10
1.44813664105161
 20
-0.065223957693197
 10
1.450346154686925
 20
-0.0851010517225361
  0
LWPOLYLINE
  5
17C
330
135
100
AcDbEntity
  8
AM_9
100
AcDbPolyline
 90
        6
 70
     0
 43
0.0
 10
1.450430315023395
 20
0.0857656114686335
 10
1.449428187738062
 20
0.0774772642594324
 10
1.446776118711037
 20
0.0490843445997129
 10
1.445302112904946
 20
0.0202677645170635
 10
1.445073575652087
 20
-0.009808283667679
 10
1.445901544679993
 20
-0.0350041137865369
  0
LINE
  5
17D
330
135
100
AcDbEntity
  8
AM_7
100
AcDbLine
 10
2.817
 20
-0.56
 30
0.0
 11
2.943
 21
-0.56
 31
0.0
  0
LINE
  5
17E
330
135
100
AcDbEntity
  8
AM_7
100
AcDbLine
 10
2.88
 20
-0.623
 30
0.0
 11
2.88
 21
-0.4970000000000001
 31
0.0
  0
LINE
  5
17F
330
135
100
AcDbEntity
  8
AM_7
100
AcDbLine
 10
-2.943
 20
-0.56
 30
0.0
 11
-2.817
 21
-0.56
 31
0.0
  0
LINE
  5
180
330
135
100
AcDbEntity
  8
AM_7
100
AcDbLine
 10
-2.88
 20
-0.623
 30
0.0
 11
-2.88
 21
-0.4970000000000001
 31
0.0
  0
LINE
  5
181
330
135
100
AcDbEntity
  8
AM_7
100
AcDbLine
 10
0.0
 20
0.9625
 30
0.0
 11
0.0
 21
-1.1205
 31
0.0
  0
LINE
  5
182
330
135
100
AcDbEntity
  8
AM_7
100
AcDbLine
 10
1.828375
 20
0.0
 30
0.0
 11
2.796625
 21
-0.0000000000000001
 31
0.0
  0
LINE
  5
183
330
135
100
AcDbEntity
  8
AM_7
100
AcDbLine
 10
2.125
 20
-0.2966249999999997
 30
0.0
 11
2.125
 21
0.2966249999999997
 31
0.0
  0
LINE
  5
184
330
135
100
AcDbEntity
  8
AM_7
100
AcDbLine
 10
-2.796625
 20
0.0000000000000003
 30
0.0
 11
-1.828375
 21
0.0000000000000002
 31
0.0
  0
LINE
  5
185
330
135
100
AcDbEntity
  8
AM_7
100
AcDbLine
 10
-2.125
 20
-0.2966249999999999
 30
0.0
 11
-2.125
 21
0.2966250000000005
 31
0.0
  0
LINE
  5
186
330
135
100
AcDbEntity
  8
AM_7
100
AcDbLine
 10
-2.5
 20
-0.2966249999999995
 30
0.0
 11
-2.5
 21
0.296625
 31
0.0
  0
LINE
  5
187
330
135
100
AcDbEntity
  8
AM_7
100
AcDbLine
 10
2.5
 20
-0.2966249999999998
 30
0.0
 11
2.5
 21
0.2966249999999997
 31
0.0
  0
LINE
  5
188
330
135
100
AcDbEntity
  8
AM_4
100
AcDbLine
 10
-3.125
 20
-0.8750000000000001
 30
0.0
 11
-3.125
 21
0.8749999999999998
 31
0.0
  0
LINE
  5
189
330
135
100
AcDbEntity
  8
AM_4
100
AcDbLine
 10
-2.989
 20
-0.8750000000000001
 30
0.0
 11
-2.989
 21
-0.6401332963168582
 31
0.0
  0
LINE
  5
18A
330
135
100
AcDbEntity
  8
AM_4
100
AcDbLine
 10
-2.989
 20
0.6401332963168578
 30
0.0
 11
-2.989
 21
0.8749999999999998
 31
0.0
  0
LINE
  5
18B
330
135
100
AcDbEntity
  8
AM_4
100
AcDbLine
 10
3.125
 20
-0.8750000000000001
 30
0.0
 11
3.125
 21
0.8749999999999998
 31
0.0
  0
LINE
  5
18C
330
135
100
AcDbEntity
  8
AM_4
100
AcDbLine
 10
2.988999999999999
 20
0.6401332963168582
 30
0.0
 11
2.988999999999999
 21
0.8749999999999998
 31
0.0
  0
LINE
  5
18D
330
135
100
AcDbEntity
  8
AM_4
100
AcDbLine
 10
2.988999999999999
 20
-0.8750000000000001
 30
0.0
 11
2.988999999999999
 21
-0.6401332963168584
 31
0.0
  0
LINE
  5
18E
330
135
100
AcDbEntity
  8
AM_4
100
AcDbLine
 10
-2.298692262324803
 20
-0.8750000000000001
 30
0.0
 11
-2.298692262324803
 21
-0.6800000000000002
 31
0.0
  0
LINE
  5
18F
330
135
100
AcDbEntity
  8
AM_4
100
AcDbLine
 10
2.298692262324804
 20
-0.8750000000000001
 30
0.0
 11
2.298692262324804
 21
-0.6800000000000002
 31
0.0
  0
LINE
  5
190
330
135
100
AcDbEntity
  8
AM_4
100
AcDbLine
 10
-2.298692262324803
 20
0.6799999999999998
 30
0.0
 11
-2.298692262324803
 21
0.8749999999999998
 31
0.0
  0
LINE
  5
191
330
135
100
AcDbEntity
  8
AM_4
100
AcDbLine
 10
2.298692262324804
 20
0.6799999999999998
 30
0.0
 11
2.298692262324804
 21
0.8749999999999998
 31
0.0
  0
CIRCLE
  5
192
330
135
100
AcDbEntity
  8
AM_4
100
AcDbCircle
 10
2.88
 20
-0.56
 30
0.0
 40
0.06
  0
ARC
  5
193
330
135
100
AcDbEntity
  8
AM_4
100
AcDbCircle
 10
2.125
 20
0.0
 30
0.0
 40
0.2824999999999999
100
AcDbArc
 50
90.0
 51
270.0
  0
LINE
  5
194
330
135
100
AcDbEntity
  8
AM_4
100
AcDbLine
 10
2.125
 20
0.2824999999999999
 30
0.0
 11
2.5
 21
0.2825
 31
0.0
  0
ARC
  5
195
330
135
100
AcDbEntity
  8
AM_4
100
AcDbCircle
 10
2.5
 20
0.0
 30
0.0
 40
0.2825
100
AcDbArc
 50
270.0
 51
90.0
  0
LINE
  5
196
330
135
100
AcDbEntity
  8
AM_4
100
AcDbLine
 10
2.5
 20
-0.2825
 30
0.0
 11
2.125
 21
-0.2825
 31
0.0
  0
ARC
  5
197
330
135
100
AcDbEntity
  8
AM_4
100
AcDbCircle
 10
2.845
 20
0.3999999999999998
 30
0.0
 40
0.2799999999999998
100
AcDbArc
 50
0.0
 51
90.0
  0
LINE
  5
198
330
135
100
AcDbEntity
  8
AM_4
100
AcDbLine
 10
2.844999999999999
 20
0.6799999999999999
 30
0.0
 11
2.125
 21
0.6800000000000002
 31
0.0
  0
LINE
  5
199
330
135
100
AcDbEntity
  8
AM_4
100
AcDbLine
 10
2.125
 20
-0.6800000000000002
 30
0.0
 11
2.845
 21
-0.6799999999999999
 31
0.0
  0
ARC
  5
19A
330
135
100
AcDbEntity
  8
AM_4
100
AcDbCircle
 10
2.844999999999999
 20
-0.399999999999999
 30
0.0
 40
0.2800000000000009
100
AcDbArc
 50
270.0
 51
0.0
  0
CIRCLE
  5
19B
330
135
100
AcDbEntity
  8
AM_4
100
AcDbCircle
 10
-2.88
 20
-0.56
 30
0.0
 40
0.06
  0
ARC
  5
19C
330
135
100
AcDbEntity
  8
AM_4
100
AcDbCircle
 10
-2.5
 20
0.0000000000000002
 30
0.0
 40
0.2825000000000001
100
AcDbArc
 50
90.0
 51
270.0
  0
LINE
  5
19D
330
135
100
AcDbEntity
  8
AM_4
100
AcDbLine
 10
-2.5
 20
0.2825000000000003
 30
0.0
 11
-2.125
 21
0.2825000000000003
 31
0.0
  0
ARC
  5
19E
330
135
100
AcDbEntity
  8
AM_4
100
AcDbCircle
 10
-2.125
 20
0.0000000000000002
 30
0.0
 40
0.2824999999999999
100
AcDbArc
 50
270.0
 51
90.0
  0
LINE
  5
19F
330
135
100
AcDbEntity
  8
AM_4
100
AcDbLine
 10
-2.125
 20
-0.2824999999999998
 30
0.0
 11
-2.5
 21
-0.2824999999999998
 31
0.0
  0
ARC
  5
1A0
330
135
100
AcDbEntity
  8
AM_4
100
AcDbCircle
 10
-2.844999999999999
 20
-0.399999999999999
 30
0.0
 40
0.2800000000000007
100
AcDbArc
 50
180.0
 51
270.0
  0
LINE
  5
1A1
330
135
100
AcDbEntity
  8
AM_4
100
AcDbLine
 10
-2.844999999999999
 20
-0.6799999999999999
 30
0.0
 11
-2.125
 21
-0.6799999999999999
 31
0.0
  0
LINE
  5
1A2
330
135
100
AcDbEntity
  8
AM_4
100
AcDbLine
 10
-2.125
 20
0.6799999999999999
 30
0.0
 11
-2.845
 21
0.6799999999999999
 31
0.0
  0
ARC
  5
1A3
330
135
100
AcDbEntity
  8
AM_4
100
AcDbCircle
 10
-2.844999999999999
 20
0.3999999999999987
 30
0.0
 40
0.2800000000000012
100
AcDbArc
 50
90.0
 51
180.0
  0
LINE
  5
1A4
330
135
100
AcDbEntity
  8
AM_4
100
AcDbLine
 10
1.133760542674246
 20
0.6122020914396888
 30
0.0
 11
1.133760542674246
 21
0.7
 31
0.0
  0
LWPOLYLINE
  5
1A5
330
135
100
AcDbEntity
  8
AM_4
100
AcDbPolyline
 90
        5
 70
     0
 43
0.0
 10
1.269825
 20
0.7000000000000001
 10
1.272165222527081
 20
0.7002776875938003
 10
1.275910886862753
 20
0.7020651413939281
 10
1.278412534889953
 20
0.7048761104109686
 10
1.279169380132356
 20
0.7064387418035143
  0
LINE
  5
1A6
330
135
100
AcDbEntity
  8
AM_4
100
AcDbLine
 10
-1.133760542674246
 20
0.612202091439689
 30
0.0
 11
-1.133760542674246
 21
0.7
 31
0.0
  0
LINE
  5
1A7
330
135
100
AcDbEntity
  8
AM_4
100
AcDbLine
 10
1.269825
 20
0.7000000000000001
 30
0.0
 11
-1.269825
 21
0.7
 31
0.0
  0
LWPOLYLINE
  5
1A8
330
135
100
AcDbEntity
  8
AM_4
100
AcDbPolyline
 90
        5
 70
     0
 43
0.0
 10
-1.279171683278776
 20
0.706444790908223
 10
-1.278412534889953
 20
0.7048761104109674
 10
-1.275916008145659
 20
0.7020690719477779
 10
-1.27216522252708
 20
0.7002776875938
 10
-1.269825
 20
0.7
  0
LWPOLYLINE
  5
1A9
330
135
100
AcDbEntity
  8
AM_4
100
AcDbPolyline
 90
       15
 70
     0
 43
0.0
 10
-1.504063175954831
 20
0.2771957080199831
 10
-1.53058522585522
 20
0.3302591047623231
 10
-1.561631131104305
 20
0.3808090303015224
 10
-1.59696461361711
 20
0.4284607691813478
 10
-1.636316764256772
 20
0.4728516628960172
 10
-1.679388089395445
 20
0.5136438699404076
 10
-1.725850790241647
 20
0.5505269369879032
 10
-1.775351257586993
 20
0.5832201616276677
 10
-1.827512762985784
 20
0.6114747286794836
 10
-1.881938325885959
 20
0.6350756038275128
 10
-1.938213734890793
 20
0.6538431701612807
 10
-1.995910700157738
 20
0.6676345951688206
 10
-2.054590112942734
 20
0.6763449177783355
 10
-2.113805387482887
 20
0.6799078471753301
 10
-2.125
 20
0.6800000000000003
  0
LINE
  5
1AA
330
135
100
AcDbEntity
  8
AM_4
100
AcDbLine
 10
-2.172425230269337
 20
0.6799999999999999
 30
0.0
 11
-2.172425230269337
 21
0.875
 31
0.0
  0
LWPOLYLINE
  5
1AB
330
135
100
AcDbEntity
  8
AM_4
100
AcDbPolyline
 90
       15
 70
     0
 43
0.0
 10
2.125
 20
0.6799999999999999
 10
2.065734094931592
 20
0.677412394702387
 10
2.006919239186487
 20
0.6696692720483014
 10
1.949003049330286
 20
0.6568295618765665
 10
1.892426302538545
 20
0.6389909821344176
 10
1.837619582016324
 20
0.616289295184922
 10
1.785
 20
0.5888972745734183
 10
1.734968023281289
 20
0.5570233901165146
 10
1.687904425413153
 20
0.5209102213209053
 10
1.644167388793148
 20
0.4808326112068526
 10
1.604089778679095
 20
0.4370955745868471
 10
1.567976609883486
 20
0.3900319767187118
 10
1.536102725426582
 20
0.3400000000000005
 10
1.508710704815078
 20
0.2873804179836762
 10
1.504063175954831
 20
0.277195708019983
  0
LINE
  5
1AC
330
135
100
AcDbEntity
  8
AM_4
100
AcDbLine
 10
2.172425230269337
 20
0.6799999999999999
 30
0.0
 11
2.172425230269337
 21
0.875
 31
0.0
  0
LWPOLYLINE
  5
1AD
330
135
100
AcDbEntity
  8
AM_4
100
AcDbPolyline
 90
       15
 70
     0
 43
0.0
 10
1.504063175954831
 20
-0.2771957080199829
 10
1.53058522585522
 20
-0.3302591047623231
 10
1.561631131104305
 20
-0.3808090303015224
 10
1.59696461361711
 20
-0.4284607691813477
 10
1.636316764256772
 20
-0.4728516628960172
 10
1.679388089395445
 20
-0.5136438699404076
 10
1.725850790241647
 20
-0.5505269369879031
 10
1.775351257586993
 20
-0.5832201616276675
 10
1.827512762985784
 20
-0.6114747286794836
 10
1.881938325885959
 20
-0.6350756038275128
 10
1.938213734890793
 20
-0.6538431701612807
 10
1.995910700157738
 20
-0.6676345951688206
 10
2.054590112942734
 20
-0.6763449177783355
 10
2.113805387482887
 20
-0.6799078471753301
 10
2.125
 20
-0.6800000000000003
  0
LINE
  5
1AE
330
135
100
AcDbEntity
  8
AM_4
100
AcDbLine
 10
2.172425230269337
 20
-0.875
 30
0.0
 11
2.172425230269337
 21
-0.6799999999999999
 31
0.0
  0
LWPOLYLINE
  5
1AF
330
135
100
AcDbEntity
  8
AM_4
100
AcDbPolyline
 90
       15
 70
     0
 43
0.0
 10
-2.125
 20
-0.6799999999999999
 10
-2.065734094931592
 20
-0.677412394702387
 10
-2.006919239186487
 20
-0.6696692720483015
 10
-1.949003049330286
 20
-0.6568295618765665
 10
-1.892426302538545
 20
-0.6389909821344179
 10
-1.837619582016325
 20
-0.616289295184922
 10
-1.785
 20
-0.5888972745734186
 10
-1.734968023281289
 20
-0.5570233901165147
 10
-1.687904425413154
 20
-0.5209102213209054
 10
-1.644167388793148
 20
-0.4808326112068527
 10
-1.604089778679095
 20
-0.4370955745868472
 10
-1.567976609883486
 20
-0.3900319767187119
 10
-1.536102725426582
 20
-0.3400000000000007
 10
-1.508710704815078
 20
-0.2873804179836764
 10
-1.504063175954831
 20
-0.2771957080199829
  0
LINE
  5
1B0
330
135
100
AcDbEntity
  8
AM_4
100
AcDbLine
 10
-2.172425230269337
 20
-0.875
 30
0.0
 11
-2.172425230269337
 21
-0.6799999999999999
 31
0.0
  0
LINE
  5
1B1
330
135
100
AcDbEntity
  8
AM_4
100
AcDbLine
 10
1.066282861158333
 20
0.6122020914396887
 30
0.0
 11
1.066282861158333
 21
0.7000000000000001
 31
0.0
  0
LINE
  5
1B2
330
135
100
AcDbEntity
  8
AM_4
100
AcDbLine
 10
-1.066282861158333
 20
0.7000000000000001
 30
0.0
 11
-1.066282861158333
 21
0.6122020914396887
 31
0.0
  0
LINE
  5
1B3
330
135
100
AcDbEntity
  8
AM_4
100
AcDbLine
 10
-0.875
 20
-0.7
 30
0.0
 11
-1.279825000000005
 21
-0.7
 31
0.0
  0
LINE
  5
1B4
330
135
100
AcDbEntity
  8
AM_4
100
AcDbLine
 10
1.279825000000005
 20
-0.7
 30
0.0
 11
0.875
 21
-0.7
 31
0.0
  0
LINE
  5
1B5
330
135
100
AcDbEntity
  8
AM_4
100
AcDbLine
 10
-1.504063175954832
 20
-0.610827366825514
 30
0.0
 11
-1.504063175954832
 21
-0.2771957080199831
 31
0.0
  0
LINE
  5
1B6
330
135
100
AcDbEntity
  8
AM_4
100
AcDbLine
 10
1.504063175954832
 20
-0.610827366825514
 30
0.0
 11
1.504063175954832
 21
-0.2771957080199834
 31
0.0
  0
LWPOLYLINE
  5
1B7
330
135
100
AcDbEntity
  8
AM_4
100
AcDbPolyline
 90
       10
 70
     0
 43
0.0
 10
1.450346154686925
 20
-0.0851010517225361
 10
1.451011199086218
 20
-0.0902169398882673
 10
1.454840501679954
 20
-0.1152594931185241
 10
1.459472383631157
 20
-0.1395456622414528
 10
1.464939059298466
 20
-0.1634581576652008
 10
1.471039260524967
 20
-0.1863742236074206
 10
1.477808523839119
 20
-0.2086688862084486
 10
1.485012645193847
 20
-0.2298177227461436
 10
1.49435468054316
 20
-0.2543353712073501
 10
1.504063175954832
 20
-0.2771957080199834
  0
LWPOLYLINE
  5
1B8
330
135
100
AcDbEntity
  8
AM_4
100
AcDbPolyline
 90
        9
 70
     0
 43
0.0
 10
1.504063175954832
 20
0.2771957080199832
 10
1.49553450159185
 20
0.2572413627297818
 10
1.487232944265324
 20
0.2359092677694607
 10
1.479139021072672
 20
0.2127508425737996
 10
1.471555400509105
 20
0.188175862947896
 10
1.464743990273462
 20
0.1626667332708364
 10
1.458723518202268
 20
0.135925162509509
 10
1.453504050076764
 20
0.107192203273293
 10
1.450430315023395
 20
0.0857656114686335
  0
LINE
  5
1B9
330
135
100
AcDbEntity
  8
AM_4
100
AcDbLine
 10
1.504063175954832
 20
0.2771957080199832
 30
0.0
 11
1.504063175954832
 21
0.6108273668255142
 31
0.0
  0
LINE
  5
1BA
330
135
100
AcDbEntity
  8
AM_4
100
AcDbLine
 10
-1.504063175954832
 20
0.2771957080199828
 30
0.0
 11
-1.504063175954832
 21
0.6108273668255141
 31
0.0
  0
LWPOLYLINE
  5
1BB
330
135
100
AcDbEntity
  8
AM_4
100
AcDbPolyline
 90
       23
 70
     0
 43
0.0
 10
-1.504063175954832
 20
-0.2771957080199831
 10
-1.49553450159185
 20
-0.2572413627297818
 10
-1.487232944265324
 20
-0.2359092677694606
 10
-1.479139021072671
 20
-0.2127508425737994
 10
-1.471555400509105
 20
-0.1881758629478957
 10
-1.464743990273462
 20
-0.1626667332708361
 10
-1.458723518202268
 20
-0.1359251625095087
 10
-1.453504050076764
 20
-0.1071922032732927
 10
-1.449428187738062
 20
-0.0774772642594321
 10
-1.446776118711037
 20
-0.0490843445997125
 10
-1.445302112904946
 20
-0.0202677645170631
 10
-1.445073575652087
 20
0.0098082836676795
 10
-1.446165234532766
 20
0.0397914713606528
 10
-1.44813664105161
 20
0.0652239576931975
 10
-1.451011199086218
 20
0.0902169398882678
 10
-1.454840501679954
 20
0.1152594931185246
 10
-1.459472383631157
 20
0.1395456622414533
 10
-1.464939059298466
 20
0.1634581576652013
 10
-1.471039260524967
 20
0.1863742236074211
 10
-1.477808523839119
 20
0.2086688862084491
 10
-1.485012645193847
 20
0.229817722746144
 10
-1.49435468054316
 20
0.2543353712073505
 10
-1.504063175954832
 20
0.2771957080199836
  0
LINE
  5
1BC
330
135
100
AcDbEntity
  8
AM_4
100
AcDbLine
 10
-1.133760542674246
 20
0.6122020914396891
 30
0.0
 11
-1.066282861158333
 21
0.6122020914396885
 31
0.0
  0
LWPOLYLINE
  5
1BD
330
135
100
AcDbEntity
  8
AM_4
100
AcDbPolyline
 90
        7
 70
     0
 43
0.0
 10
-1.279218047987239
 20
0.7065691619814617
 10
-1.270915353842941
 20
0.6876151590129602
 10
-1.252940226456225
 20
0.6688564673591325
 10
-1.225429467400185
 20
0.6504358519902718
 10
-1.188592450162686
 20
0.6324935049120065
 10
-1.142709526687706
 20
0.6151659782194879
 10
-1.133760542674246
 20
0.612202091439689
  0
LWPOLYLINE
  5
1BE
330
135
100
AcDbEntity
  8
AM_4
100
AcDbPolyline
 90
        6
 70
     0
 43
0.0
 10
-1.279825
 20
0.7099999999999995
 10
-1.279786946980918
 20
0.709128442572523
 10
-1.279673077530122
 20
0.7082635182233303
 10
-1.279484258262891
 20
0.7074118095489744
 10
-1.279221926207859
 20
0.7065797985667429
 10
-1.279218047987238
 20
0.7065691619814616
  0
LINE
  5
1BF
330
135
100
AcDbEntity
  8
AM_4
100
AcDbLine
 10
-1.279825
 20
0.7099999999999995
 30
0.0
 11
-1.279825
 21
0.875
 31
0.0
  0
LINE
  5
1C0
330
135
100
AcDbEntity
  8
AM_4
100
AcDbLine
 10
-3.125
 20
0.8749999999999998
 30
0.0
 11
-1.279825
 21
0.875
 31
0.0
  0
LINE
  5
1C1
330
135
100
AcDbEntity
  8
AM_4
100
AcDbLine
 10
-1.504063175954832
 20
0.6108273668255141
 30
0.0
 11
-2.125
 21
0.875
 31
0.0
  0
LWPOLYLINE
  5
1C2
330
135
100
AcDbEntity
  8
AM_4
100
AcDbPolyline
 90
       29
 70
     0
 43
0.0
 10
1.504063175954832
 20
0.6108273668255141
 10
1.445887210831231
 20
0.5889017027218453
 10
1.376707170982637
 20
0.56792261894004
 10
1.297049558284348
 20
0.5480497789751949
 10
1.207520615267577
 20
0.5294344271389915
 10
1.108801711247739
 20
0.5122182374991597
 10
1.001644156692527
 20
0.4965322356542785
 10
0.8868634852956072
 20
0.4824958015498542
 10
0.7653332472727741
 20
0.4702157609248521
 10
0.6379783611173455
 20
0.4597855723033197
 10
0.5057680744119473
 20
0.451284615718587
 10
0.3697085872691609
 20
0.4447775885832816
 10
0.2308353945411079
 20
0.4403140133029538
 10
0.090205405078375
 20
0.4379278603806672
 10
-0.0511111019845172
 20
0.437637289880959
 10
-0.19203862269958
 20
0.4394445132207831
 10
-0.3315046135398083
 20
0.4433357763392923
 10
-0.4684476541030402
 20
0.4492814643745458
 10
-0.6018255251621207
 20
0.4572363270504908
 10
-0.7306231405825301
 20
0.4671398230588857
 10
-0.8538602727407921
 20
0.4789165808152124
 10
-0.970599012648568
 20
0.4924769720819446
 10
-1.079950908006381
 20
0.5077177940935542
 10
-1.181083724862078
 20
0.5245230549918729
 10
-1.273227781413723
 20
0.5427648565941708
 10
-1.355681805752857
 20
0.5623043677755531
 10
-1.427818272967155
 20
0.5829928810576502
 10
-1.489088180983928
 20
0.6046729443623193
 10
-1.504063175954831
 20
0.610827366825514
  0
LINE
  5
1C3
330
135
100
AcDbEntity
  8
AM_4
100
AcDbLine
 10
2.125
 20
0.875
 30
0.0
 11
1.504063175954832
 21
0.6108273668255142
 31
0.0
  0
LINE
  5
1C4
330
135
100
AcDbEntity
  8
AM_4
100
AcDbLine
 10
1.279825
 20
0.875
 30
0.0
 11
3.125
 21
0.8749999999999998
 31
0.0
  0
LINE
  5
1C5
330
135
100
AcDbEntity
  8
AM_4
100
AcDbLine
 10
1.279825
 20
0.875
 30
0.0
 11
1.279825
 21
0.709999999999999
 31
0.0
  0
LWPOLYLINE
  5
1C6
330
135
100
AcDbEntity
  8
AM_4
100
AcDbPolyline
 90
        6
 70
     0
 43
0.0
 10
1.279218047987242
 20
0.7065691619814729
 10
1.279481321839563
 20
0.7074008754299241
 10
1.279671105252039
 20
0.708252369785748
 10
1.279785953858306
 20
0.7091171646627503
 10
1.279824993591123
 20
0.7099886784497396
 10
1.279825
 20
0.7099999999999982
  0
LWPOLYLINE
  5
1C7
330
135
100
AcDbEntity
  8
AM_4
100
AcDbPolyline
 90
        7
 70
     0
 43
0.0
 10
1.133760542674246
 20
0.612202091439689
 10
1.181194963774126
 20
0.6294081221162336
 10
1.219639777974665
 20
0.6472524548046058
 10
1.248802397026185
 20
0.6655992833583442
 10
1.268460875788831
 20
0.6843089773340372
 10
1.278465601369107
 20
0.7032391446633074
 10
1.279218047987241
 20
0.7065691619814728
  0
LINE
  5
1C8
330
135
100
AcDbEntity
  8
AM_4
100
AcDbLine
 10
1.066282861158333
 20
0.6122020914396885
 30
0.0
 11
1.133760542674246
 21
0.6122020914396891
 31
0.0
  0
LWPOLYLINE
  5
1C9
330
135
100
AcDbEntity
  8
AM_4
100
AcDbPolyline
 90
       26
 70
     0
 43
0.0
 10
-1.066282861158333
 20
0.6122020914396886
 10
-1.010476610695606
 20
0.5967664655363013
 10
-0.946980023083026
 20
0.582217564360886
 10
-0.8762763456926129
 20
0.5686661138362542
 10
-0.7989036762013549
 20
0.556215248683488
 10
-0.715450867342976
 20
0.5449597275044379
 10
-0.6265530453830722
 20
0.5349852116115458
 10
-0.5328867764247305
 20
0.5263676130935341
 10
-0.4351649173319638
 20
0.5191725170785731
 10
-0.3341311904585395
 20
0.5134546825918544
 10
-0.2305545234717967
 20
0.5092576258063448
 10
-0.1252231973488062
 20
0.5066132888584344
 10
-0.0189388470821574
 20
0.5055417967489907
 10
0.0874896392463752
 20
0.5060513041799515
 10
0.1932522765925543
 20
0.508137933492118
 10
0.2975441474249491
 20
0.5117858041764836
 10
0.3995715276333716
 20
0.5169671537344955
 10
0.4985579272486193
 20
0.5236425489674329
 10
0.593749999999998
 20
0.5317611860868595
 10
0.6844232767353244
 20
0.541261277362129
 10
0.7698876790686214
 20
0.552070521362325
 10
0.8494927712933157
 20
0.5641066532138058
 10
0.9226327105907083
 20
0.5772780706855666
 10
0.9887508578596436
 20
0.5914845313375281
 10
1.047344014076175
 20
0.606617915426033
 10
1.066282861158333
 20
0.6122020914396886
  0
LINE
  5
1CA
330
135
100
AcDbEntity
  8
AM_4
100
AcDbLine
 10
1.279825000000005
 20
-0.7
 30
0.0
 11
1.279825000000005
 21
-0.875
 31
0.0
  0
LINE
  5
1CB
330
135
100
AcDbEntity
  8
AM_4
100
AcDbLine
 10
1.279825000000005
 20
-0.875
 30
0.0
 11
3.125
 21
-0.8750000000000001
 31
0.0
  0
LINE
  5
1CC
330
135
100
AcDbEntity
  8
AM_4
100
AcDbLine
 10
1.504063175954832
 20
-0.610827366825514
 30
0.0
 11
2.125000000000001
 21
-0.875
 31
0.0
  0
LWPOLYLINE
  5
1CD
330
135
100
AcDbEntity
  8
AM_4
100
AcDbPolyline
 90
       29
 70
     0
 43
0.0
 10
-1.504063175954832
 20
-0.6108273668255139
 10
-1.445887210831231
 20
-0.5889017027218449
 10
-1.376707170982637
 20
-0.5679226189400396
 10
-1.297049558284347
 20
-0.5480497789751945
 10
-1.207520615267577
 20
-0.529434427138991
 10
-1.108801711247739
 20
-0.5122182374991594
 10
-1.001644156692527
 20
-0.4965322356542782
 10
-0.8868634852956067
 20
-0.4824958015498538
 10
-0.7653332472727736
 20
-0.4702157609248518
 10
-0.637978361117345
 20
-0.4597855723033193
 10
-0.5057680744119467
 20
-0.4512846157185866
 10
-0.3697085872691605
 20
-0.4447775885832814
 10
-0.2308353945411074
 20
-0.4403140133029534
 10
-0.0902054050783744
 20
-0.4379278603806669
 10
0.0511111019845177
 20
-0.4376372898809587
 10
0.1920386226995805
 20
-0.4394445132207828
 10
0.3315046135398088
 20
-0.443335776339292
 10
0.4684476541030406
 20
-0.4492814643745456
 10
0.6018255251621213
 20
-0.4572363270504905
 10
0.7306231405825306
 20
-0.4671398230588855
 10
0.8538602727407927
 20
-0.4789165808152122
 10
0.9705990126485684
 20
-0.4924769720819444
 10
1.079950908006381
 20
-0.507717794093554
 10
1.181083724862078
 20
-0.5245230549918728
 10
1.273227781413723
 20
-0.5427648565941705
 10
1.355681805752856
 20
-0.5623043677755528
 10
1.427818272967155
 20
-0.5829928810576499
 10
1.489088180983928
 20
-0.6046729443623191
 10
1.504063175954831
 20
-0.6108273668255138
  0
LINE
  5
1CE
330
135
100
AcDbEntity
  8
AM_4
100
AcDbLine
 10
-2.125
 20
-0.875
 30
0.0
 11
-1.504063175954832
 21
-0.610827366825514
 31
0.0
  0
LINE
  5
1CF
330
135
100
AcDbEntity
  8
AM_4
100
AcDbLine
 10
-3.125
 20
-0.8750000000000001
 30
0.0
 11
-1.279825000000005
 21
-0.875
 31
0.0
  0
LINE
  5
1D0
330
135
100
AcDbEntity
  8
AM_4
100
AcDbLine
 10
-1.279825000000005
 20
-0.875
 30
0.0
 11
-1.279825000000005
 21
-0.7
 31
0.0
  0
LWPOLYLINE
  5
1D1
330
135
100
AcDbEntity
  8
AM_4
100
AcDbPolyline
 90
       36
 70
     0
 43
0.0
 10
1.217954926300641
 20
-0.7000000000000001
 10
1.206522092161104
 20
-0.6819799448248444
 10
1.185906896382263
 20
-0.6641980883469691
 10
1.156266233051792
 20
-0.6467897612311496
 10
1.117825685515156
 20
-0.6298874513581724
 10
1.070877809550146
 20
-0.6136197955120647
 10
1.01577990684076
 20
-0.5981106003764946
 10
0.9529513056956376
 20
-0.5834779002911517
 10
0.8828701697064414
 20
-0.5698330589391514
 10
0.8060698586341954
 20
-0.5572799218021628
 10
0.7231348692194551
 20
-0.54591402583359
 10
0.6346963868091828
 20
-0.5358218723646693
 10
0.541427481655136
 20
-0.5270802687771082
 10
0.4440379864428418
 20
-0.5197557439525325
 10
0.3432690940362508
 20
-0.5139040419475265
 10
0.2398877165524979
 20
-0.509569697747702
 10
0.1346806486976169
 20
-0.5067856983295688
 10
0.028448579783748
 20
-0.5055732316097235
 10
-0.0779999999999973
 20
-0.5059415251920114
 10
-0.1838549526860551
 20
-0.5078877761398898
 10
-0.2883106581675162
 20
-0.5113971723084667
 10
-0.3905721454535875
 20
-0.516443005073868
 10
-0.4898611428788476
 20
-0.5229868726019918
 10
-0.5854220012205544
 20
-0.530978972109654
 10
-0.6765274446455039
 20
-0.5403584788938393
 10
-0.7624841057182613
 20
-0.5510540092444194
 10
-0.8426378023460118
 20
-0.5629841637172883
 10
-0.9163785164992932
 20
-0.5760581466332835
 10
-0.9831450368175383
 20
-0.5901764570881274
 10
-1.042429229766398
 20
-0.6052316462143897
 10
-1.093779906840757
 20
-0.6211091349322478
 10
-1.136806258381693
 20
-0.6376880859654691
 10
-1.171180827873958
 20
-0.6548423234860464
 10
-1.196642004087784
 20
-0.6724412933884362
 10
-1.212996012098304
 20
-0.6903510568851329
 10
-1.217954926300641
 20
-0.7
  0
ENDBLK
  5
138
330
135
100
AcDbEntity
  8
0
100
AcDbBlockEnd
  0
ENDSEC
  0
SECTION
  2
ENTITIES
  0
INSERT
  5
6F
330
1F
100
AcDbEntity
  8
0
100
AcDbBlockReference
  2
1_131976_4
 10
0.0
 20
0.0
 30
0.0
  0
POINT
  5
1D3
330
1F
100
AcDbEntity
  8
ConnectionPoints
100
AcDbPoint
 10
0.0
 20
-1.05
 30
0.0000000000000001
  0
POINT
  5
1D4
330
1F
100
AcDbEntity
  8
ConnectionPoints
100
AcDbPoint
 10
1.145512985522207
 20
0.0000000000000001
 30
1.145512985522207
  0
POINT
  5
1D5
330
1F
100
AcDbEntity
  8
ConnectionPoints
100
AcDbPoint
 10
1.145512985522207
 20
0.0000000000000001
 30
1.145512985522207
  0
POINT
  5
1D6
330
1F
100
AcDbEntity
  8
ConnectionPoints
100
AcDbPoint
 10
0.0
 20
-1.05
 30
0.0000000000000001
  0
ENDSEC
  0
SECTION
  2
OBJECTS
  0
DICTIONARY
  5
C
330
0
100
AcDbDictionary
281
     1
  3
ACAD_DETAILVIEWSTYLE
350
1DE
  3
ACAD_GROUP
350
D
  3
ACAD_LAYOUT
350
1A
  3
ACAD_MATERIAL
350
43
  3
ACAD_MLEADERSTYLE
350
6B
  3
ACAD_MLINESTYLE
350
17
  3
ACAD_PLOTSETTINGS
350
19
  3
ACAD_PLOTSTYLENAME
350
E
  3
ACAD_SCALELIST
350
47
  3
ACAD_SECTIONVIEWSTYLE
350
1DF
  3
ACAD_TABLESTYLE
350
69
  3
ACAD_VISUALSTYLE
350
2A
  3
ACDB_RECOMPOSE_DATA
350
1DB
  3
AcDbVariableDictionary
350
1D7
  0
SUN
  5
6D
330
29
100
AcDbSun
 90
        1
290
     0
 63
     7
421
 16777215
 40
1.0
291
     1
 91
  2455826
 92
 54000000
292
     0
 70
     2
 71
   256
280
     1
  0
DICTIONARY
  5
1DE
102
{ACAD_REACTORS
330
C
102
}
330
C
100
AcDbDictionary
281
     1
  0
DICTIONARY
  5
D
102
{ACAD_REACTORS
330
C
102
}
330
C
100
AcDbDictionary
281
     1
  0
DICTIONARY
  5
1A
102
{ACAD_REACTORS
330
C
102
}
330
C
100
AcDbDictionary
281
     1
  3
Layout1
350
1E
  3
Layout2
350
26
  3
Model
350
22
  0
DICTIONARY
  5
43
102
{ACAD_REACTORS
330
C
102
}
330
C
100
AcDbDictionary
281
     1
  3
ByBlock
350
45
  3
ByLayer
350
44
  3
Global
350
46
  0
DICTIONARY
  5
6B
102
{ACAD_REACTORS
330
C
102
}
330
C
100
AcDbDictionary
281
     1
  3
Standard
350
6C
  0
DICTIONARY
  5
17
102
{ACAD_REACTORS
330
C
102
}
330
C
100
AcDbDictionary
281
     1
  3
Standard
350
18
  0
DICTIONARY
  5
19
102
{ACAD_REACTORS
330
C
102
}
330
C
100
AcDbDictionary
281
     1
  0
ACDBDICTIONARYWDFLT
  5
E
102
{ACAD_REACTORS
330
C
102
}
330
C
100
AcDbDictionary
281
     1
  3
Normal
350
F
100
AcDbDictionaryWithDefault
340
F
  0
DICTIONARY
  5
47
102
{ACAD_REACTORS
330
C
102
}
330
C
100
AcDbDictionary
281
     1
  3
A0
350
48
  3
A1
350
49
  3
A2
350
4A
  3
A3
350
4B
  3
A4
350
4C
  3
A5
350
4D
  3
A6
350
4E
  3
A7
350
4F
  3
A8
350
50
  3
A9
350
51
  3
B0
350
52
  3
B1
350
53
  3
B2
350
54
  3
B3
350
55
  3
B4
350
56
  3
B5
350
57
  3
B6
350
58
  3
B7
350
59
  3
B8
350
5A
  3
B9
350
5B
  3
C0
350
5C
  3
C1
350
5D
  3
C2
350
5E
  3
C3
350
5F
  3
C4
350
60
  3
C5
350
61
  3
C6
350
62
  3
C7
350
63
  3
C8
350
64
  3
C9
350
65
  3
D0
350
66
  3
D1
350
67
  3
D2
350
68
  0
DICTIONARY
  5
1DF
102
{ACAD_REACTORS
330
C
102
}
330
C
100
AcDbDictionary
281
     1
  0
DICTIONARY
  5
69
102
{ACAD_REACTORS
330
C
102
}
330
C
100
AcDbDictionary
281
     1
  3
Standard
350
6A
  0
DICTIONARY
  5
2A
102
{ACAD_REACTORS
330
C
102
}
330
C
100
AcDbDictionary
281
     1
  3
2dWireframe
350
2F
  3
Basic
350
32
  3
Brighten
350
36
  3
ColorChange
350
3A
  3
Conceptual
350
34
  3
Dim
350
35
  3
EdgeColorOff
350
3D
  3
Facepattern
350
39
  3
Flat
350
2B
  3
FlatWithEdges
350
2C
  3
Gouraud
350
2D
  3
GouraudWithEdges
350
2E
  3
Hidden
350
31
  3
JitterOff
350
3B
  3
Linepattern
350
38
  3
OverhangOff
350
3C
  3
Realistic
350
33
  3
Shaded
350
42
  3
Shaded with edges
350
41
  3
Shades of Gray
350
3E
  3
Sketchy
350
3F
  3
Thicken
350
37
  3
Wireframe
350
30
  3
X-Ray
350
40
  0
XRECORD
  5
1DB
102
{ACAD_REACTORS
330
C
102
}
330
C
100
AcDbXrecord
280
     1
 90
        1
330
6A
  0
DICTIONARY
  5
1D7
102
{ACAD_REACTORS
330
C
102
}
330
C
100
AcDbDictionary
281
     1
  3
CANNOSCALE
350
1D8
  3
CMLEADERSTYLE
350
1DD
  3
CTABLESTYLE
350
1DC
  0
LAYOUT
  5
1E
102
{ACAD_REACTORS
330
1A
102
}
330
1A
100
AcDbPlotSettings
  1

  2
none_device
  4

  6

 40
0.0
 41
0.0
 42
0.0
 43
0.0
 44
0.0
 45
0.0
 46
0.0
 47
0.0
 48
0.0
 49
0.0
140
0.0
141
0.0
142
1.0
143
1.0
 70
   688
 72
     0
 73
     0
 74
     5
  7

 75
    16
 76
     0
 77
     2
 78
   300
147
1.0
148
0.0
149
0.0
100
AcDbLayout
  1
Layout1
 70
     1
 71
     1
 10
0.0
 20
0.0
 11
12.0
 21
9.0
 12
0.0
 22
0.0
 32
0.0
 14
1.000000000000000E+20
 24
1.000000000000000E+20
 34
1.000000000000000E+20
 15
-1.000000000000000E+20
 25
-1.000000000000000E+20
 35
-1.000000000000000E+20
146
0.0
 13
0.0
 23
0.0
 33
0.0
 16
1.0
 26
0.0
 36
0.0
 17
0.0
 27
1.0
 37
0.0
 76
     0
330
1B
  0
LAYOUT
  5
26
102
{ACAD_REACTORS
330
1A
102
}
330
1A
100
AcDbPlotSettings
  1

  2
none_device
  4

  6

 40
0.0
 41
0.0
 42
0.0
 43
0.0
 44
0.0
 45
0.0
 46
0.0
 47
0.0
 48
0.0
 49
0.0
140
0.0
141
0.0
142
1.0
143
1.0
 70
   688
 72
     0
 73
     0
 74
     5
  7

 75
    16
 76
     0
 77
     2
 78
   300
147
1.0
148
0.0
149
0.0
100
AcDbLayout
  1
Layout2
 70
     1
 71
     2
 10
0.0
 20
0.0
 11
0.0
 21
0.0
 12
0.0
 22
0.0
 32
0.0
 14
0.0
 24
0.0
 34
0.0
 15
0.0
 25
0.0
 35
0.0
146
0.0
 13
0.0
 23
0.0
 33
0.0
 16
1.0
 26
0.0
 36
0.0
 17
0.0
 27
1.0
 37
0.0
 76
     0
330
23
  0
LAYOUT
  5
22
102
{ACAD_REACTORS
330
1A
102
}
330
1A
100
AcDbPlotSettings
  1

  2
none_device
  4
Letter_(8.50_x_11.00_Inches)
  6

 40
6.35
 41
6.35
 42
6.35000508
 43
6.35000508
 44
215.9
 45
279.4
 46
0.0
 47
0.0
 48
0.0
 49
0.0
140
0.0
141
0.0
142
1.0
143
1.0
 70
  1712
 72
     0
 73
     0
 74
     0
  7

 75
     0
 76
     0
 77
     2
 78
   300
147
1.0
148
0.0
149
0.0
100
AcDbLayout
  1
Model
 70
     1
 71
     0
 10
0.0
 20
0.0
 11
12.0
 21
9.0
 12
0.0
 22
0.0
 32
0.0
 14
1.000000000000000E+20
 24
1.000000000000000E+20
 34
1.000000000000000E+20
 15
-1.000000000000000E+20
 25
-1.000000000000000E+20
 35
-1.000000000000000E+20
146
0.0
 13
0.0
 23
0.0
 33
0.0
 16
1.0
 26
0.0
 36
0.0
 17
0.0
 27
1.0
 37
0.0
 76
     0
330
1F
331
29
  0
MATERIAL
  5
45
102
{ACAD_REACTORS
330
43
102
}
330
43
100
AcDbMaterial
  1
ByBlock
 72
     1
 94
      127
  0
MATERIAL
  5
44
102
{ACAD_REACTORS
330
43
102
}
330
43
100
AcDbMaterial
  1
ByLayer
 72
     1
 94
      127
  0
MATERIAL
  5
46
102
{ACAD_REACTORS
330
43
102
}
330
43
100
AcDbMaterial
  1
Global
 72
     1
 94
      127
  0
MLEADERSTYLE
  5
6C
102
{ACAD_REACTORS
330
6B
102
}
330
6B
100
AcDbMLeaderStyle
179
     2
170
     2
171
     1
172
     0
 90
        2
 40
0.0
 41
0.0
173
     1
 91
-1056964608
340
14
 92
       -2
290
     1
 42
0.09
291
     1
 43
0.36
  3
Standard
341
0
 44
0.18
300

342
11
174
     1
178
     6
175
     1
176
     0
 93
-1056964608
 45
0.18
292
     0
297
     0
 46
0.18
343
0
 94
-1056964608
 47
1.0
 49
1.0
140
1.0
293
     1
141
0.0
294
     1
177
     0
142
1.0
295
     0
296
     0
143
0.125
271
     0
272
     9
273
     9
298
     0
  0
MLINESTYLE
  5
18
102
{ACAD_REACTORS
330
17
102
}
330
17
100
AcDbMlineStyle
  2
Standard
 70
     0
  3

 62
   256
 51
90.0
 52
90.0
 71
     2
 49
0.5
 62
   256
  6
BYLAYER
 49
-0.5
 62
   256
  6
BYLAYER
  0
ACDBPLACEHOLDER
  5
F
102
{ACAD_REACTORS
330
E
102
}
330
E
  0
SCALE
  5
48
102
{ACAD_REACTORS
330
47
102
}
330
47
100
AcDbScale
 70
     0
300
1:1
140
1.0
141
1.0
290
     1
  0
SCALE
  5
49
102
{ACAD_REACTORS
330
47
102
}
330
47
100
AcDbScale
 70
     0
300
1:2
140
1.0
141
2.0
290
     0
  0
SCALE
  5
4A
102
{ACAD_REACTORS
330
47
102
}
330
47
100
AcDbScale
 70
     0
300
1:4
140
1.0
141
4.0
290
     0
  0
SCALE
  5
4B
102
{ACAD_REACTORS
330
47
102
}
330
47
100
AcDbScale
 70
     0
300
1:5
140
1.0
141
5.0
290
     0
  0
SCALE
  5
4C
102
{ACAD_REACTORS
330
47
102
}
330
47
100
AcDbScale
 70
     0
300
1:8
140
1.0
141
8.0
290
     0
  0
SCALE
  5
4D
102
{ACAD_REACTORS
330
47
102
}
330
47
100
AcDbScale
 70
     0
300
1:10
140
1.0
141
10.0
290
     0
  0
SCALE
  5
4E
102
{ACAD_REACTORS
330
47
102
}
330
47
100
AcDbScale
 70
     0
300
1:16
140
1.0
141
16.0
290
     0
  0
SCALE
  5
4F
102
{ACAD_REACTORS
330
47
102
}
330
47
100
AcDbScale
 70
     0
300
1:20
140
1.0
141
20.0
290
     0
  0
SCALE
  5
50
102
{ACAD_REACTORS
330
47
102
}
330
47
100
AcDbScale
 70
     0
300
1:30
140
1.0
141
30.0
290
     0
  0
SCALE
  5
51
102
{ACAD_REACTORS
330
47
102
}
330
47
100
AcDbScale
 70
     0
300
1:40
140
1.0
141
40.0
290
     0
  0
SCALE
  5
52
102
{ACAD_REACTORS
330
47
102
}
330
47
100
AcDbScale
 70
     0
300
1:50
140
1.0
141
50.0
290
     0
  0
SCALE
  5
53
102
{ACAD_REACTORS
330
47
102
}
330
47
100
AcDbScale
 70
     0
300
1:100
140
1.0
141
100.0
290
     0
  0
SCALE
  5
54
102
{ACAD_REACTORS
330
47
102
}
330
47
100
AcDbScale
 70
     0
300
2:1
140
2.0
141
1.0
290
     0
  0
SCALE
  5
55
102
{ACAD_REACTORS
330
47
102
}
330
47
100
AcDbScale
 70
     0
300
4:1
140
4.0
141
1.0
290
     0
  0
SCALE
  5
56
102
{ACAD_REACTORS
330
47
102
}
330
47
100
AcDbScale
 70
     0
300
8:1
140
8.0
141
1.0
290
     0
  0
SCALE
  5
57
102
{ACAD_REACTORS
330
47
102
}
330
47
100
AcDbScale
 70
     0
300
10:1
140
10.0
141
1.0
290
     0
  0
SCALE
  5
58
102
{ACAD_REACTORS
330
47
102
}
330
47
100
AcDbScale
 70
     0
300
100:1
140
100.0
141
1.0
290
     0
  0
SCALE
  5
59
102
{ACAD_REACTORS
330
47
102
}
330
47
100
AcDbScale
 70
     0
300
1/128" = 1'-0"
140
0.0078125
141
12.0
290
     0
  0
SCALE
  5
5A
102
{ACAD_REACTORS
330
47
102
}
330
47
100
AcDbScale
 70
     0
300
1/64" = 1'-0"
140
0.015625
141
12.0
290
     0
  0
SCALE
  5
5B
102
{ACAD_REACTORS
330
47
102
}
330
47
100
AcDbScale
 70
     0
300
1/32" = 1'-0"
140
0.03125
141
12.0
290
     0
  0
SCALE
  5
5C
102
{ACAD_REACTORS
330
47
102
}
330
47
100
AcDbScale
 70
     0
300
1/16" = 1'-0"
140
0.0625
141
12.0
290
     0
  0
SCALE
  5
5D
102
{ACAD_REACTORS
330
47
102
}
330
47
100
AcDbScale
 70
     0
300
3/32" = 1'-0"
140
0.09375
141
12.0
290
     0
  0
SCALE
  5
5E
102
{ACAD_REACTORS
330
47
102
}
330
47
100
AcDbScale
 70
     0
300
1/8" = 1'-0"
140
0.125
141
12.0
290
     0
  0
SCALE
  5
5F
102
{ACAD_REACTORS
330
47
102
}
330
47
100
AcDbScale
 70
     0
300
3/16" = 1'-0"
140
0.1875
141
12.0
290
     0
  0
SCALE
  5
60
102
{ACAD_REACTORS
330
47
102
}
330
47
100
AcDbScale
 70
     0
300
1/4" = 1'-0"
140
0.25
141
12.0
290
     0
  0
SCALE
  5
61
102
{ACAD_REACTORS
330
47
102
}
330
47
100
AcDbScale
 70
     0
300
3/8" = 1'-0"
140
0.375
141
12.0
290
     0
  0
SCALE
  5
62
102
{ACAD_REACTORS
330
47
102
}
330
47
100
AcDbScale
 70
     0
300
1/2" = 1'-0"
140
0.5
141
12.0
290
     0
  0
SCALE
  5
63
102
{ACAD_REACTORS
330
47
102
}
330
47
100
AcDbScale
 70
     0
300
3/4" = 1'-0"
140
0.75
141
12.0
290
     0
  0
SCALE
  5
64
102
{ACAD_REACTORS
330
47
102
}
330
47
100
AcDbScale
 70
     0
300
1" = 1'-0"
140
1.0
141
12.0
290
     0
  0
SCALE
  5
65
102
{ACAD_REACTORS
330
47
102
}
330
47
100
AcDbScale
 70
     0
300
1-1/2" = 1'-0"
140
1.5
141
12.0
290
     0
  0
SCALE
  5
66
102
{ACAD_REACTORS
330
47
102
}
330
47
100
AcDbScale
 70
     0
300
3" = 1'-0"
140
3.0
141
12.0
290
     0
  0
SCALE
  5
67
102
{ACAD_REACTORS
330
47
102
}
330
47
100
AcDbScale
 70
     0
300
6" = 1'-0"
140
6.0
141
12.0
290
     0
  0
SCALE
  5
68
102
{ACAD_REACTORS
330
47
102
}
330
47
100
AcDbScale
 70
     0
300
1'-0" = 1'-0"
140
12.0
141
12.0
290
     0
  0
TABLESTYLE
  5
6A
102
{ACAD_REACTORS
330
69
102
}
102
{ACAD_XDICTIONARY
360
1D9
102
}
330
69
100
AcDbTableStyle
  3
Standard
 70
     0
 71
     0
 40
0.06
 41
0.06
280
     0
281
     0
  7
Standard
140
0.18
170
     2
 62
     0
 63
   257
283
     0
 90
        4
 91
        0
  1

274
    -2
284
     1
 64
     0
275
    -2
285
     1
 65
     0
276
    -2
286
     1
 66
     0
277
    -2
287
     1
 67
     0
278
    -2
288
     1
 68
     0
279
    -2
289
     1
 69
     0
  7
Standard
140
0.25
170
     5
 62
     0
 63
   257
283
     0
 90
        4
 91
        0
  1

274
    -2
284
     1
 64
     0
275
    -2
285
     1
 65
     0
276
    -2
286
     1
 66
     0
277
    -2
287
     1
 67
     0
278
    -2
288
     1
 68
     0
279
    -2
289
     1
 69
     0
  7
Standard
140
0.18
170
     5
 62
     0
 63
   257
283
     0
 90
        4
 91
        0
  1

274
    -2
284
     1
 64
     0
275
    -2
285
     1
 65
     0
276
    -2
286
     1
 66
     0
277
    -2
287
     1
 67
     0
278
    -2
288
     1
 68
     0
279
    -2
289
     1
 69
     0
  0
VISUALSTYLE
  5
2F
102
{ACAD_REACTORS
330
2A
102
}
330
2A
100
AcDbVisualStyle
  2
2dWireframe
 70
     4
177
     3
291
     0
 70
    58
 90
        0
176
     1
 90
        2
176
     1
 90
        0
176
     1
 90
        0
176
     1
 40
0.6
176
     1
 40
30.0
176
     1
 62
     7
420
 16777215
176
     1
 90
        1
176
     1
 90
        4
176
     1
 62
     7
176
     1
 62
   257
176
     1
 90
        1
176
     1
 90
        1
176
     1
 40
1.0
176
     1
 90
        0
176
     1
 62
   257
176
     1
 40
1.0
176
     1
 90
        1
176
     1
 90
        6
176
     1
 90
        2
176
     1
 62
     7
176
     1
 90
        5
176
     1
 90
        0
176
     1
 90
        0
176
     1
290
     0
176
     1
 90
        1
176
     1
 40
0.0
176
     1
 90
        0
176
     1
290
     1
176
     1
290
     1
176
     1
290
     0
176
     1
290
     0
176
     1
290
     0
176
     1
290
     0
176
     1
290
     0
176
     1
290
     0
176
     1
290
     0
176
     1
 90
       50
176
     1
 40
0.0
176
     1
 40
1.0
176
     1
 90
        0
176
     1
 62
    18
420
        0
176
     1
 90
       50
176
     1
 90
        3
176
     1
 62
     5
420
      255
176
     1
290
     0
176
     1
 90
       50
176
     1
 90
       50
176
     1
 90
       50
176
     1
290
     0
176
     1
 90
       50
176
     1
 62
   256
176
     0
 40
1.0
176
     0
 90
        2
176
     1
  1
strokes_ogs.tif
176
     1
290
     0
176
     1
 40
1.0
176
     1
 40
1.0
176
     1
  0
VISUALSTYLE
  5
32
102
{ACAD_REACTORS
330
2A
102
}
330
2A
100
AcDbVisualStyle
  2
Basic
 70
     7
177
     3
291
     1
 70
    58
 90
        1
176
     1
 90
        0
176
     1
 90
        1
176
     1
 90
        0
176
     1
 40
0.6
176
     1
 40
30.0
176
     1
 62
     7
420
 16777215
176
     1
 90
        0
176
     1
 90
        4
176
     1
 62
     7
176
     1
 62
   257
176
     1
 90
        1
176
     1
 90
        1
176
     1
 40
1.0
176
     1
 90
        8
176
     1
 62
     7
176
     1
 40
1.0
176
     1
 90
        1
176
     1
 90
        6
176
     1
 90
        2
176
     1
 62
     7
176
     1
 90
        5
176
     1
 90
        0
176
     1
 90
        0
176
     1
290
     0
176
     1
 90
        1
176
     1
 40
0.0
176
     1
 90
        0
176
     1
290
     0
176
     1
290
     1
176
     1
290
     1
176
     1
290
     0
176
     1
290
     0
176
     1
290
     0
176
     1
290
     0
176
     1
290
     0
176
     1
290
     0
176
     1
 90
       50
176
     1
 40
0.0
176
     1
 40
1.0
176
     1
 90
        0
176
     1
 62
    18
420
        0
176
     1
 90
       50
176
     1
 90
        3
176
     1
 62
     5
420
      255
176
     1
290
     0
176
     1
 90
       50
176
     1
 90
       50
176
     1
 90
       50
176
     1
290
     0
176
     1
 90
       50
176
     1
 62
   256
176
     0
 40
1.0
176
     0
 90
        2
176
     1
  1
strokes_ogs.tif
176
     1
290
     0
176
     1
 40
1.0
176
     1
 40
1.0
176
     1
  0
VISUALSTYLE
  5
36
102
{ACAD_REACTORS
330
2A
102
}
330
2A
100
AcDbVisualStyle
  2
Brighten
 70
    12
177
     3
291
     1
 70
    58
 90
        2
176
     1
 90
        2
176
     1
 90
        0
176
     1
 90
        0
176
     1
 40
0.6
176
     1
 40
30.0
176
     1
 62
     7
420
 16777215
176
     1
 90
        1
176
     1
 90
        4
176
     1
 62
     7
176
     1
 62
   257
176
     1
 90
        1
176
     1
 90
        1
176
     1
 40
1.0
176
     1
 90
        8
176
     1
 62
     7
176
     1
 40
1.0
176
     1
 90
        1
176
     1
 90
        6
176
     1
 90
        2
176
     1
 62
     7
176
     1
 90
        5
176
     1
 90
        0
176
     1
 90
        0
176
     1
290
     0
176
     1
 90
        1
176
     1
 40
50.0
176
     1
 90
        0
176
     1
290
     0
176
     1
290
     1
176
     1
290
     1
176
     1
290
     0
176
     1
290
     0
176
     1
290
     0
176
     1
290
     0
176
     1
290
     0
176
     1
290
     0
176
     1
 90
       50
176
     1
 40
0.0
176
     1
 40
1.0
176
     1
 90
        0
176
     1
 62
    18
420
        0
176
     1
 90
       50
176
     1
 90
        3
176
     1
 62
     5
420
      255
176
     1
290
     0
176
     1
 90
       50
176
     1
 90
       50
176
     1
 90
       50
176
     1
290
     0
176
     1
 90
       50
176
     1
 62
   256
176
     0
 40
1.0
176
     0
 90
        2
176
     1
  1
strokes_ogs.tif
176
     1
290
     0
176
     1
 40
1.0
176
     1
 40
1.0
176
     1
  0
VISUALSTYLE
  5
3A
102
{ACAD_REACTORS
330
2A
102
}
330
2A
100
AcDbVisualStyle
  2
ColorChange
 70
    16
177
     3
291
     1
 70
    58
 90
        2
176
     1
 90
        2
176
     1
 90
        3
176
     1
 90
        0
176
     1
 40
0.6
176
     1
 40
30.0
176
     1
 62
     8
420
  8421504
176
     1
 90
        1
176
     1
 90
        4
176
     1
 62
     7
176
     1
 62
   257
176
     1
 90
        1
176
     1
 90
        1
176
     1
 40
1.0
176
     1
 90
        8
176
     1
 62
     8
420
  8421504
176
     1
 40
1.0
176
     1
 90
        1
176
     1
 90
        6
176
     1
 90
        2
176
     1
 62
     7
176
     1
 90
        5
176
     1
 90
        0
176
     1
 90
        0
176
     1
290
     0
176
     1
 90
        1
176
     1
 40
0.0
176
     1
 90
        0
176
     1
290
     0
176
     1
290
     1
176
     1
290
     1
176
     1
290
     0
176
     1
290
     0
176
     1
290
     0
176
     1
290
     0
176
     1
290
     0
176
     1
290
     0
176
     1
 90
       50
176
     1
 40
0.0
176
     1
 40
1.0
176
     1
 90
        0
176
     1
 62
    18
420
        0
176
     1
 90
       50
176
     1
 90
        3
176
     1
 62
     5
420
      255
176
     1
290
     0
176
     1
 90
       50
176
     1
 90
       50
176
     1
 90
       50
176
     1
290
     0
176
     1
 90
       50
176
     1
 62
   256
176
     0
 40
1.0
176
     0
 90
        2
176
     1
  1
strokes_ogs.tif
176
     1
290
     0
176
     1
 40
1.0
176
     1
 40
1.0
176
     1
  0
VISUALSTYLE
  5
34
102
{ACAD_REACTORS
330
2A
102
}
330
2A
100
AcDbVisualStyle
  2
Conceptual
 70
     9
177
     3
291
     0
 70
    58
 90
        3
176
     1
 90
        2
176
     1
 90
        0
176
     1
 90
        0
176
     1
 40
0.6
176
     1
 40
30.0
176
     1
 62
     7
420
 16777215
176
     1
 90
        2
176
     1
 90
        2
176
     1
 62
     7
176
     1
 62
   257
176
     1
 90
        1
176
     1
 90
        1
176
     1
 40
179.0
176
     1
 90
        8
176
     1
 62
     7
176
     1
 40
1.0
176
     1
 90
        1
176
     1
 90
        6
176
     1
 90
        2
176
     1
 62
     7
176
     1
 90
        3
176
     1
 90
        0
176
     1
 90
        0
176
     1
290
     0
176
     1
 90
        1
176
     1
 40
0.0
176
     1
 90
        0
176
     1
290
     0
176
     1
290
     1
176
     1
290
     1
176
     1
290
     0
176
     1
290
     0
176
     1
290
     0
176
     1
290
     0
176
     1
290
     0
176
     1
290
     0
176
     1
 90
       50
176
     1
 40
0.0
176
     1
 40
1.0
176
     1
 90
        0
176
     1
 62
    18
420
        0
176
     1
 90
       50
176
     1
 90
        3
176
     1
 62
     5
420
      255
176
     1
290
     0
176
     1
 90
       50
176
     1
 90
       50
176
     1
 90
       50
176
     1
290
     0
176
     1
 90
       50
176
     1
 62
   256
176
     0
 40
1.0
176
     0
 90
        2
176
     1
  1
strokes_ogs.tif
176
     1
290
     0
176
     1
 40
1.0
176
     1
 40
1.0
176
     1
  0
VISUALSTYLE
  5
35
102
{ACAD_REACTORS
330
2A
102
}
330
2A
100
AcDbVisualStyle
  2
Dim
 70
    11
177
     3
291
     1
 70
    58
 90
        2
176
     1
 90
        2
176
     1
 90
        0
176
     1
 90
        0
176
     1
 40
0.6
176
     1
 40
30.0
176
     1
 62
     7
420
 16777215
176
     1
 90
        1
176
     1
 90
        4
176
     1
 62
     7
176
     1
 62
   257
176
     1
 90
        1
176
     1
 90
        1
176
     1
 40
1.0
176
     1
 90
        8
176
     1
 62
     7
176
     1
 40
1.0
176
     1
 90
        1
176
     1
 90
        6
176
     1
 90
        2
176
     1
 62
     7
176
     1
 90
        5
176
     1
 90
        0
176
     1
 90
        0
176
     1
290
     0
176
     1
 90
        1
176
     1
 40
-50.0
176
     1
 90
        0
176
     1
290
     0
176
     1
290
     1
176
     1
290
     1
176
     1
290
     0
176
     1
290
     0
176
     1
290
     0
176
     1
290
     0
176
     1
290
     0
176
     1
290
     0
176
     1
 90
       50
176
     1
 40
0.0
176
     1
 40
1.0
176
     1
 90
        0
176
     1
 62
    18
420
        0
176
     1
 90
       50
176
     1
 90
        3
176
     1
 62
     5
420
      255
176
     1
290
     0
176
     1
 90
       50
176
     1
 90
       50
176
     1
 90
       50
176
     1
290
     0
176
     1
 90
       50
176
     1
 62
   256
176
     0
 40
1.0
176
     0
 90
        2
176
     1
  1
strokes_ogs.tif
176
     1
290
     0
176
     1
 40
1.0
176
     1
 40
1.0
176
     1
  0
VISUALSTYLE
  5
3D
102
{ACAD_REACTORS
330
2A
102
}
330
2A
100
AcDbVisualStyle
  2
EdgeColorOff
 70
    22
177
     3
291
     1
 70
    58
 90
        2
176
     0
 90
        2
176
     0
 90
        0
176
     0
 90
        0
176
     0
 40
0.6
176
     0
 40
30.0
176
     0
 62
     7
420
 16777215
176
     0
 90
        1
176
     0
 90
        4
176
     0
 62
     7
176
     0
 62
   257
176
     0
 90
        1
176
     0
 90
        1
176
     0
 40
1.0
176
     0
 90
        8
176
     2
 62
     7
176
     0
 40
1.0
176
     0
 90
        1
176
     0
 90
        6
176
     0
 90
        2
176
     0
 62
     7
176
     0
 90
        5
176
     0
 90
        0
176
     0
 90
        0
176
     0
290
     0
176
     0
 90
        1
176
     0
 40
0.0
176
     0
 90
        0
176
     0
290
     0
176
     0
290
     1
176
     0
290
     1
176
     0
290
     0
176
     0
290
     0
176
     0
290
     0
176
     0
290
     0
176
     0
290
     0
176
     0
290
     0
176
     0
 90
       50
176
     0
 40
0.0
176
     0
 40
1.0
176
     0
 90
        0
176
     0
 62
    18
420
        0
176
     0
 90
       50
176
     0
 90
        3
176
     0
 62
     5
420
      255
176
     0
290
     0
176
     0
 90
       50
176
     0
 90
       50
176
     0
 90
       50
176
     0
290
     0
176
     0
 90
       50
176
     0
 62
   256
176
     0
 40
1.0
176
     0
 90
        2
176
     0
  1
strokes_ogs.tif
176
     0
290
     0
176
     0
 40
1.0
176
     0
 40
1.0
176
     0
  0
VISUALSTYLE
  5
39
102
{ACAD_REACTORS
330
2A
102
}
330
2A
100
AcDbVisualStyle
  2
Facepattern
 70
    15
177
     3
291
     1
 70
    58
 90
        2
176
     1
 90
        2
176
     1
 90
        0
176
     1
 90
        0
176
     1
 40
0.6
176
     1
 40
30.0
176
     1
 62
     7
420
 16777215
176
     1
 90
        1
176
     1
 90
        4
176
     1
 62
     7
176
     1
 62
   257
176
     1
 90
        1
176
     1
 90
        1
176
     1
 40
1.0
176
     1
 90
        8
176
     1
 62
     7
176
     1
 40
1.0
176
     1
 90
        1
176
     1
 90
        6
176
     1
 90
        2
176
     1
 62
     7
176
     1
 90
        5
176
     1
 90
        0
176
     1
 90
        0
176
     1
290
     0
176
     1
 90
        1
176
     1
 40
0.0
176
     1
 90
        0
176
     1
290
     0
176
     1
290
     1
176
     1
290
     1
176
     1
290
     0
176
     1
290
     0
176
     1
290
     0
176
     1
290
     0
176
     1
290
     0
176
     1
290
     0
176
     1
 90
       50
176
     1
 40
0.0
176
     1
 40
1.0
176
     1
 90
        0
176
     1
 62
    18
420
        0
176
     1
 90
       50
176
     1
 90
        3
176
     1
 62
     5
420
      255
176
     1
290
     0
176
     1
 90
       50
176
     1
 90
       50
176
     1
 90
       50
176
     1
290
     0
176
     1
 90
       50
176
     1
 62
   256
176
     0
 40
1.0
176
     0
 90
        2
176
     1
  1
strokes_ogs.tif
176
     1
290
     0
176
     1
 40
1.0
176
     1
 40
1.0
176
     1
  0
VISUALSTYLE
  5
2B
102
{ACAD_REACTORS
330
2A
102
}
330
2A
100
AcDbVisualStyle
  2
Flat
 70
     0
177
     3
291
     1
 70
    58
 90
        2
176
     1
 90
        1
176
     1
 90
        1
176
     1
 90
        2
176
     1
 40
0.6
176
     1
 40
30.0
176
     1
 62
     7
420
 16777215
176
     1
 90
        0
176
     1
 90
        0
176
     1
 62
     7
176
     1
 62
   257
176
     1
 90
        1
176
     1
 90
        1
176
     1
 40
1.0
176
     1
 90
        8
176
     1
 62
     7
176
     1
 40
1.0
176
     1
 90
        1
176
     1
 90
        6
176
     1
 90
        2
176
     1
 62
     7
176
     1
 90
        5
176
     1
 90
        0
176
     1
 90
        0
176
     1
290
     0
176
     1
 90
       13
176
     1
 40
0.0
176
     1
 90
        0
176
     1
290
     0
176
     1
290
     1
176
     1
290
     1
176
     1
290
     0
176
     1
290
     0
176
     1
290
     0
176
     1
290
     0
176
     1
290
     0
176
     1
290
     0
176
     1
 90
       50
176
     1
 40
0.0
176
     1
 40
1.0
176
     1
 90
        0
176
     1
 62
    18
420
        0
176
     1
 90
       50
176
     1
 90
        3
176
     1
 62
     5
420
      255
176
     1
290
     0
176
     1
 90
       50
176
     1
 90
       50
176
     1
 90
       50
176
     1
290
     0
176
     1
 90
       50
176
     1
 62
   256
176
     0
 40
1.0
176
     0
 90
        2
176
     1
  1
strokes_ogs.tif
176
     1
290
     0
176
     1
 40
1.0
176
     1
 40
1.0
176
     1
  0
VISUALSTYLE
  5
2C
102
{ACAD_REACTORS
330
2A
102
}
330
2A
100
AcDbVisualStyle
  2
FlatWithEdges
 70
     1
177
     3
291
     1
 70
    58
 90
        2
176
     1
 90
        1
176
     1
 90
        1
176
     1
 90
        2
176
     1
 40
0.6
176
     1
 40
30.0
176
     1
 62
     7
420
 16777215
176
     1
 90
        1
176
     1
 90
        0
176
     1
 62
     7
176
     1
 62
   257
176
     1
 90
        1
176
     1
 90
        1
176
     1
 40
1.0
176
     1
 90
        0
176
     1
 62
   257
176
     1
 40
1.0
176
     1
 90
        1
176
     1
 90
        6
176
     1
 90
        2
176
     1
 62
     7
176
     1
 90
        5
176
     1
 90
        0
176
     1
 90
        0
176
     1
290
     0
176
     1
 90
       13
176
     1
 40
0.0
176
     1
 90
        0
176
     1
290
     0
176
     1
290
     1
176
     1
290
     1
176
     1
290
     0
176
     1
290
     0
176
     1
290
     0
176
     1
290
     0
176
     1
290
     0
176
     1
290
     0
176
     1
 90
       50
176
     1
 40
0.0
176
     1
 40
1.0
176
     1
 90
        0
176
     1
 62
    18
420
        0
176
     1
 90
       50
176
     1
 90
        3
176
     1
 62
     5
420
      255
176
     1
290
     0
176
     1
 90
       50
176
     1
 90
       50
176
     1
 90
       50
176
     1
290
     0
176
     1
 90
       50
176
     1
 62
   256
176
     0
 40
1.0
176
     0
 90
        2
176
     1
  1
strokes_ogs.tif
176
     1
290
     0
176
     1
 40
1.0
176
     1
 40
1.0
176
     1
  0
VISUALSTYLE
  5
2D
102
{ACAD_REACTORS
330
2A
102
}
330
2A
100
AcDbVisualStyle
  2
Gouraud
 70
     2
177
     3
291
     1
 70
    58
 90
        2
176
     1
 90
        2
176
     1
 90
        1
176
     1
 90
        2
176
     1
 40
0.6
176
     1
 40
30.0
176
     1
 62
     7
420
 16777215
176
     1
 90
        0
176
     1
 90
        0
176
     1
 62
     7
176
     1
 62
   257
176
     1
 90
        1
176
     1
 90
        1
176
     1
 40
1.0
176
     1
 90
        0
176
     1
 62
     7
176
     1
 40
1.0
176
     1
 90
        1
176
     1
 90
        6
176
     1
 90
        2
176
     1
 62
     7
176
     1
 90
        5
176
     1
 90
        0
176
     1
 90
        0
176
     1
290
     0
176
     1
 90
       13
176
     1
 40
0.0
176
     1
 90
        0
176
     1
290
     0
176
     1
290
     1
176
     1
290
     1
176
     1
290
     0
176
     1
290
     0
176
     1
290
     0
176
     1
290
     0
176
     1
290
     0
176
     1
290
     0
176
     1
 90
       50
176
     1
 40
0.0
176
     1
 40
1.0
176
     1
 90
        0
176
     1
 62
    18
420
        0
176
     1
 90
       50
176
     1
 90
        3
176
     1
 62
     5
420
      255
176
     1
290
     0
176
     1
 90
       50
176
     1
 90
       50
176
     1
 90
       50
176
     1
290
     0
176
     1
 90
       50
176
     1
 62
   256
176
     0
 40
1.0
176
     0
 90
        2
176
     1
  1
strokes_ogs.tif
176
     1
290
     0
176
     1
 40
1.0
176
     1
 40
1.0
176
     1
  0
VISUALSTYLE
  5
2E
102
{ACAD_REACTORS
330
2A
102
}
330
2A
100
AcDbVisualStyle
  2
GouraudWithEdges
 70
     3
177
     3
291
     1
 70
    58
 90
        2
176
     1
 90
        2
176
     1
 90
        1
176
     1
 90
        2
176
     1
 40
0.6
176
     1
 40
30.0
176
     1
 62
     7
420
 16777215
176
     1
 90
        1
176
     1
 90
        0
176
     1
 62
     7
176
     1
 62
   257
176
     1
 90
        1
176
     1
 90
        1
176
     1
 40
1.0
176
     1
 90
        0
176
     1
 62
   257
176
     1
 40
1.0
176
     1
 90
        1
176
     1
 90
        6
176
     1
 90
        2
176
     1
 62
     7
176
     1
 90
        5
176
     1
 90
        0
176
     1
 90
        0
176
     1
290
     0
176
     1
 90
       13
176
     1
 40
0.0
176
     1
 90
        0
176
     1
290
     0
176
     1
290
     1
176
     1
290
     1
176
     1
290
     0
176
     1
290
     0
176
     1
290
     0
176
     1
290
     0
176
     1
290
     0
176
     1
290
     0
176
     1
 90
       50
176
     1
 40
0.0
176
     1
 40
1.0
176
     1
 90
        0
176
     1
 62
    18
420
        0
176
     1
 90
       50
176
     1
 90
        3
176
     1
 62
     5
420
      255
176
     1
290
     0
176
     1
 90
       50
176
     1
 90
       50
176
     1
 90
       50
176
     1
290
     0
176
     1
 90
       50
176
     1
 62
   256
176
     0
 40
1.0
176
     0
 90
        2
176
     1
  1
strokes_ogs.tif
176
     1
290
     0
176
     1
 40
1.0
176
     1
 40
1.0
176
     1
  0
VISUALSTYLE
  5
31
102
{ACAD_REACTORS
330
2A
102
}
330
2A
100
AcDbVisualStyle
  2
Hidden
 70
     6
177
     3
291
     0
 70
    58
 90
        1
176
     1
 90
        2
176
     1
 90
        2
176
     1
 90
        0
176
     1
 40
0.6
176
     1
 40
30.0
176
     1
 62
     7
420
 16777215
176
     1
 90
        2
176
     1
 90
        2
176
     1
 62
     7
176
     1
 62
   257
176
     1
 90
        2
176
     1
 90
        1
176
     1
 40
40.0
176
     1
 90
        0
176
     1
 62
   257
176
     1
 40
1.0
176
     1
 90
        1
176
     1
 90
        6
176
     1
 90
        2
176
     1
 62
     7
176
     1
 90
        3
176
     1
 90
        0
176
     1
 90
        0
176
     1
290
     0
176
     1
 90
        1
176
     1
 40
0.0
176
     1
 90
        0
176
     1
290
     0
176
     1
290
     1
176
     1
290
     1
176
     1
290
     0
176
     1
290
     0
176
     1
290
     0
176
     1
290
     0
176
     1
290
     0
176
     1
290
     0
176
     1
 90
       50
176
     1
 40
0.0
176
     1
 40
1.0
176
     1
 90
        0
176
     1
 62
    18
420
        0
176
     1
 90
       50
176
     1
 90
        3
176
     1
 62
     5
420
      255
176
     1
290
     0
176
     1
 90
       50
176
     1
 90
       50
176
     1
 90
       50
176
     1
290
     0
176
     1
 90
       50
176
     1
 62
   256
176
     0
 40
1.0
176
     0
 90
        2
176
     1
  1
strokes_ogs.tif
176
     1
290
     0
176
     1
 40
1.0
176
     1
 40
1.0
176
     1
  0
VISUALSTYLE
  5
3B
102
{ACAD_REACTORS
330
2A
102
}
330
2A
100
AcDbVisualStyle
  2
JitterOff
 70
    20
177
     3
291
     1
 70
    58
 90
        2
176
     0
 90
        2
176
     0
 90
        0
176
     0
 90
        0
176
     0
 40
0.6
176
     0
 40
30.0
176
     0
 62
     7
420
 16777215
176
     0
 90
        1
176
     0
 90
        4
176
     0
 62
     7
176
     0
 62
   257
176
     0
 90
        1
176
     0
 90
        1
176
     0
 40
1.0
176
     0
 90
       10
176
     2
 62
     7
176
     0
 40
1.0
176
     0
 90
        1
176
     0
 90
        6
176
     0
 90
        2
176
     0
 62
     7
176
     0
 90
        5
176
     0
 90
        0
176
     0
 90
        0
176
     0
290
     0
176
     0
 90
        1
176
     0
 40
0.0
176
     0
 90
        0
176
     0
290
     0
176
     0
290
     1
176
     0
290
     1
176
     0
290
     0
176
     0
290
     0
176
     0
290
     0
176
     0
290
     0
176
     0
290
     0
176
     0
290
     0
176
     0
 90
       50
176
     0
 40
0.0
176
     0
 40
1.0
176
     0
 90
        0
176
     0
 62
    18
420
        0
176
     0
 90
       50
176
     0
 90
        3
176
     0
 62
     5
420
      255
176
     0
290
     0
176
     0
 90
       50
176
     0
 90
       50
176
     0
 90
       50
176
     0
290
     0
176
     0
 90
       50
176
     0
 62
   256
176
     0
 40
1.0
176
     0
 90
        2
176
     0
  1
strokes_ogs.tif
176
     0
290
     0
176
     0
 40
1.0
176
     0
 40
1.0
176
     0
  0
VISUALSTYLE
  5
38
102
{ACAD_REACTORS
330
2A
102
}
330
2A
100
AcDbVisualStyle
  2
Linepattern
 70
    14
177
     3
291
     1
 70
    58
 90
        2
176
     1
 90
        2
176
     1
 90
        0
176
     1
 90
        0
176
     1
 40
0.6
176
     1
 40
30.0
176
     1
 62
     7
420
 16777215
176
     1
 90
        1
176
     1
 90
        4
176
     1
 62
     7
176
     1
 62
   257
176
     1
 90
        7
176
     1
 90
        7
176
     1
 40
1.0
176
     1
 90
        8
176
     1
 62
     7
176
     1
 40
1.0
176
     1
 90
        1
176
     1
 90
        6
176
     1
 90
        2
176
     1
 62
     7
176
     1
 90
        5
176
     1
 90
        0
176
     1
 90
        0
176
     1
290
     0
176
     1
 90
        1
176
     1
 40
0.0
176
     1
 90
        0
176
     1
290
     0
176
     1
290
     1
176
     1
290
     1
176
     1
290
     0
176
     1
290
     0
176
     1
290
     0
176
     1
290
     0
176
     1
290
     0
176
     1
290
     0
176
     1
 90
       50
176
     1
 40
0.0
176
     1
 40
1.0
176
     1
 90
        0
176
     1
 62
    18
420
        0
176
     1
 90
       50
176
     1
 90
        3
176
     1
 62
     5
420
      255
176
     1
290
     0
176
     1
 90
       50
176
     1
 90
       50
176
     1
 90
       50
176
     1
290
     0
176
     1
 90
       50
176
     1
 62
   256
176
     0
 40
1.0
176
     0
 90
        2
176
     1
  1
strokes_ogs.tif
176
     1
290
     0
176
     1
 40
1.0
176
     1
 40
1.0
176
     1
  0
VISUALSTYLE
  5
3C
102
{ACAD_REACTORS
330
2A
102
}
330
2A
100
AcDbVisualStyle
  2
OverhangOff
 70
    21
177
     3
291
     1
 70
    58
 90
        2
176
     0
 90
        2
176
     0
 90
        0
176
     0
 90
        0
176
     0
 40
0.6
176
     0
 40
30.0
176
     0
 62
     7
420
 16777215
176
     0
 90
        1
176
     0
 90
        4
176
     0
 62
     7
176
     0
 62
   257
176
     0
 90
        1
176
     0
 90
        1
176
     0
 40
1.0
176
     0
 90
        9
176
     2
 62
     7
176
     0
 40
1.0
176
     0
 90
        1
176
     0
 90
        6
176
     0
 90
        2
176
     0
 62
     7
176
     0
 90
        5
176
     0
 90
        0
176
     0
 90
        0
176
     0
290
     0
176
     0
 90
        1
176
     0
 40
0.0
176
     0
 90
        0
176
     0
290
     0
176
     0
290
     1
176
     0
290
     1
176
     0
290
     0
176
     0
290
     0
176
     0
290
     0
176
     0
290
     0
176
     0
290
     0
176
     0
290
     0
176
     0
 90
       50
176
     0
 40
0.0
176
     0
 40
1.0
176
     0
 90
        0
176
     0
 62
    18
420
        0
176
     0
 90
       50
176
     0
 90
        3
176
     0
 62
     5
420
      255
176
     0
290
     0
176
     0
 90
       50
176
     0
 90
       50
176
     0
 90
       50
176
     0
290
     0
176
     0
 90
       50
176
     0
 62
   256
176
     0
 40
1.0
176
     0
 90
        2
176
     0
  1
strokes_ogs.tif
176
     0
290
     0
176
     0
 40
1.0
176
     0
 40
1.0
176
     0
  0
VISUALSTYLE
  5
33
102
{ACAD_REACTORS
330
2A
102
}
330
2A
100
AcDbVisualStyle
  2
Realistic
 70
     8
177
     3
291
     0
 70
    58
 90
        2
176
     1
 90
        3
176
     1
 90
        0
176
     1
 90
        2
176
     1
 40
0.6
176
     1
 40
30.0
176
     1
 62
     7
420
 16777215
176
     1
 90
        0
176
     1
 90
        0
176
     1
 62
     7
176
     1
 62
   257
176
     1
 90
        1
176
     1
 90
        1
176
     1
 40
1.0
176
     1
 90
        8
176
     1
 62
   257
176
     1
 40
1.0
176
     1
 90
        1
176
     1
 90
        6
176
     1
 90
        2
176
     1
 62
     7
176
     1
 90
        3
176
     1
 90
        0
176
     1
 90
        0
176
     1
290
     0
176
     1
 90
       13
176
     1
 40
0.0
176
     1
 90
        0
176
     1
290
     0
176
     1
290
     1
176
     1
290
     1
176
     1
290
     0
176
     1
290
     0
176
     1
290
     0
176
     1
290
     0
176
     1
290
     0
176
     1
290
     0
176
     1
 90
       50
176
     1
 40
0.0
176
     1
 40
1.0
176
     1
 90
        0
176
     1
 62
    18
420
        0
176
     1
 90
       50
176
     1
 90
        3
176
     1
 62
     5
420
      255
176
     1
290
     0
176
     1
 90
       50
176
     1
 90
       50
176
     1
 90
       50
176
     1
290
     0
176
     1
 90
       50
176
     1
 62
   256
176
     0
 40
1.0
176
     0
 90
        2
176
     1
  1
strokes_ogs.tif
176
     1
290
     0
176
     1
 40
1.0
176
     1
 40
1.0
176
     1
  0
VISUALSTYLE
  5
42
102
{ACAD_REACTORS
330
2A
102
}
330
2A
100
AcDbVisualStyle
  2
Shaded
 70
    27
177
     3
291
     0
 70
    58
 90
        2
176
     1
 90
        2
176
     1
 90
        1
176
     1
 90
        2
176
     1
 40
0.6
176
     1
 40
30.0
176
     1
 62
     7
420
 16777215
176
     1
 90
        0
176
     1
 90
        4
176
     1
 62
     7
176
     1
 62
   257
176
     1
 90
        1
176
     1
 90
        1
176
     1
 40
1.0
176
     1
 90
        8
176
     1
 62
   257
176
     1
 40
1.0
176
     1
 90
        1
176
     1
 90
        6
176
     1
 90
        2
176
     1
 62
     8
420
  7895160
176
     1
 90
        3
176
     1
 90
        0
176
     1
 90
        0
176
     1
290
     0
176
     1
 90
        5
176
     1
 40
0.0
176
     1
 90
        0
176
     1
290
     0
176
     1
290
     1
176
     1
290
     1
176
     1
290
     0
176
     1
290
     0
176
     1
290
     0
176
     1
290
     0
176
     1
290
     0
176
     1
290
     0
176
     1
 90
       50
176
     1
 40
0.0
176
     1
 40
1.0
176
     1
 90
        0
176
     1
 62
    18
420
        0
176
     1
 90
       50
176
     1
 90
        3
176
     1
 62
     5
420
      255
176
     1
290
     0
176
     1
 90
       50
176
     1
 90
       50
176
     1
 90
       50
176
     1
290
     0
176
     1
 90
       50
176
     1
 62
   256
176
     0
 40
1.0
176
     0
 90
        2
176
     1
  1
strokes_ogs.tif
176
     1
290
     0
176
     1
 40
1.0
176
     1
 40
1.0
176
     1
  0
VISUALSTYLE
  5
41
102
{ACAD_REACTORS
330
2A
102
}
330
2A
100
AcDbVisualStyle
  2
Shaded with edges
 70
    26
177
     3
291
     0
 70
    58
 90
        2
176
     1
 90
        2
176
     1
 90
        1
176
     1
 90
        2
176
     1
 40
0.6
176
     1
 40
30.0
176
     1
 62
     7
420
 16777215
176
     1
 90
        1
176
     1
 90
       10
176
     1
 62
     7
176
     1
 62
   257
176
     1
 90
        2
176
     1
 90
        1
176
     1
 40
1.0
176
     1
 90
        8
176
     1
 62
   257
176
     1
 40
1.0
176
     1
 90
        1
176
     1
 90
        6
176
     1
 90
        2
176
     1
 62
     7
176
     1
 90
        3
176
     1
 90
        0
176
     1
 90
        0
176
     1
290
     0
176
     1
 90
        5
176
     1
 40
0.0
176
     1
 90
        0
176
     1
290
     0
176
     1
290
     1
176
     1
290
     1
176
     1
290
     0
176
     1
290
     0
176
     1
290
     0
176
     1
290
     0
176
     1
290
     0
176
     1
290
     0
176
     1
 90
       50
176
     1
 40
0.0
176
     1
 40
1.0
176
     1
 90
        0
176
     1
 62
    18
420
        0
176
     1
 90
       50
176
     1
 90
        3
176
     1
 62
     5
420
      255
176
     1
290
     0
176
     1
 90
       50
176
     1
 90
       50
176
     1
 90
       50
176
     1
290
     0
176
     1
 90
       50
176
     1
 62
   256
176
     0
 40
1.0
176
     0
 90
        2
176
     1
  1
strokes_ogs.tif
176
     1
290
     0
176
     1
 40
1.0
176
     1
 40
1.0
176
     1
  0
VISUALSTYLE
  5
3E
102
{ACAD_REACTORS
330
2A
102
}
330
2A
100
AcDbVisualStyle
  2
Shades of Gray
 70
    23
177
     3
291
     0
 70
    58
 90
        2
176
     1
 90
        2
176
     1
 90
        3
176
     1
 90
        0
176
     1
 40
0.6
176
     1
 40
30.0
176
     1
 62
     7
420
 16777215
176
     1
 90
        2
176
     1
 90
        2
176
     1
 62
     7
176
     1
 62
     7
176
     1
 90
        1
176
     1
 90
        1
176
     1
 40
40.0
176
     1
 90
        8
176
     1
 62
     7
176
     1
 40
1.0
176
     1
 90
        1
176
     1
 90
        6
176
     1
 90
        2
176
     1
 62
     7
176
     1
 90
        3
176
     1
 90
        0
176
     1
 90
        0
176
     1
290
     0
176
     1
 90
        1
176
     1
 40
0.0
176
     1
 90
        0
176
     1
290
     0
176
     1
290
     1
176
     1
290
     1
176
     1
290
     0
176
     1
290
     0
176
     1
290
     0
176
     1
290
     0
176
     1
290
     0
176
     1
290
     0
176
     1
 90
       50
176
     1
 40
0.0
176
     1
 40
1.0
176
     1
 90
        0
176
     1
 62
    18
420
        0
176
     1
 90
       50
176
     1
 90
        3
176
     1
 62
     5
420
      255
176
     1
290
     0
176
     1
 90
       50
176
     1
 90
       50
176
     1
 90
       50
176
     1
290
     0
176
     1
 90
       50
176
     1
 62
   256
176
     0
 40
1.0
176
     0
 90
        2
176
     1
  1
strokes_ogs.tif
176
     1
290
     0
176
     1
 40
1.0
176
     1
 40
1.0
176
     1
  0
VISUALSTYLE
  5
3F
102
{ACAD_REACTORS
330
2A
102
}
330
2A
100
AcDbVisualStyle
  2
Sketchy
 70
    24
177
     3
291
     0
 70
    58
 90
        1
176
     1
 90
        2
176
     1
 90
        2
176
     1
 90
        0
176
     1
 40
0.6
176
     1
 40
30.0
176
     1
 62
     7
420
 16777215
176
     1
 90
        2
176
     1
 90
        2
176
     1
 62
     7
176
     1
 62
     7
176
     1
 90
        1
176
     1
 90
        1
176
     1
 40
40.0
176
     1
 90
       11
176
     1
 62
     7
176
     1
 40
1.0
176
     1
 90
        1
176
     1
 90
        6
176
     1
 90
        2
176
     1
 62
     7
176
     1
 90
        6
176
     1
 90
        0
176
     1
 90
        0
176
     1
290
     0
176
     1
 90
        1
176
     1
 40
0.0
176
     1
 90
        0
176
     1
290
     0
176
     1
290
     1
176
     1
290
     1
176
     1
290
     0
176
     1
290
     0
176
     1
290
     0
176
     1
290
     0
176
     1
290
     0
176
     1
290
     0
176
     1
 90
       50
176
     1
 40
0.0
176
     1
 40
1.0
176
     1
 90
        0
176
     1
 62
    18
420
        0
176
     1
 90
       50
176
     1
 90
        3
176
     1
 62
     5
420
      255
176
     1
290
     0
176
     1
 90
       50
176
     1
 90
       50
176
     1
 90
       50
176
     1
290
     0
176
     1
 90
       50
176
     1
 62
   256
176
     0
 40
1.0
176
     0
 90
        2
176
     1
  1
strokes_ogs.tif
176
     1
290
     0
176
     1
 40
1.0
176
     1
 40
1.0
176
     1
  0
VISUALSTYLE
  5
37
102
{ACAD_REACTORS
330
2A
102
}
330
2A
100
AcDbVisualStyle
  2
Thicken
 70
    13
177
     3
291
     1
 70
    58
 90
        2
176
     1
 90
        2
176
     1
 90
        0
176
     1
 90
        0
176
     1
 40
0.6
176
     1
 40
30.0
176
     1
 62
     7
420
 16777215
176
     1
 90
        1
176
     1
 90
        4
176
     1
 62
     7
176
     1
 62
   257
176
     1
 90
        1
176
     1
 90
        1
176
     1
 40
1.0
176
     1
 90
       12
176
     1
 62
     7
176
     1
 40
1.0
176
     1
 90
        1
176
     1
 90
        6
176
     1
 90
        2
176
     1
 62
     7
176
     1
 90
        5
176
     1
 90
        0
176
     1
 90
        0
176
     1
290
     0
176
     1
 90
        1
176
     1
 40
0.0
176
     1
 90
        0
176
     1
290
     0
176
     1
290
     1
176
     1
290
     1
176
     1
290
     0
176
     1
290
     0
176
     1
290
     0
176
     1
290
     0
176
     1
290
     0
176
     1
290
     0
176
     1
 90
       50
176
     1
 40
0.0
176
     1
 40
1.0
176
     1
 90
        0
176
     1
 62
    18
420
        0
176
     1
 90
       50
176
     1
 90
        3
176
     1
 62
     5
420
      255
176
     1
290
     0
176
     1
 90
       50
176
     1
 90
       50
176
     1
 90
       50
176
     1
290
     0
176
     1
 90
       50
176
     1
 62
   256
176
     0
 40
1.0
176
     0
 90
        2
176
     1
  1
strokes_ogs.tif
176
     1
290
     0
176
     1
 40
1.0
176
     1
 40
1.0
176
     1
  0
VISUALSTYLE
  5
30
102
{ACAD_REACTORS
330
2A
102
}
330
2A
100
AcDbVisualStyle
  2
Wireframe
 70
     5
177
     3
291
     0
 70
    58
 90
        0
176
     1
 90
        2
176
     1
 90
        0
176
     1
 90
        0
176
     1
 40
0.6
176
     1
 40
30.0
176
     1
 62
     7
420
 16777215
176
     1
 90
        1
176
     1
 90
        4
176
     1
 62
     7
176
     1
 62
   257
176
     1
 90
        1
176
     1
 90
        1
176
     1
 40
1.0
176
     1
 90
        0
176
     1
 62
   257
176
     1
 40
1.0
176
     1
 90
        1
176
     1
 90
        6
176
     1
 90
        2
176
     1
 62
     7
176
     1
 90
        3
176
     1
 90
        0
176
     1
 90
        0
176
     1
290
     0
176
     1
 90
        1
176
     1
 40
0.0
176
     1
 90
        0
176
     1
290
     0
176
     1
290
     1
176
     1
290
     1
176
     1
290
     0
176
     1
290
     0
176
     1
290
     0
176
     1
290
     0
176
     1
290
     0
176
     1
290
     0
176
     1
 90
       50
176
     1
 40
0.0
176
     1
 40
1.0
176
     1
 90
        0
176
     1
 62
    18
420
        0
176
     1
 90
       50
176
     1
 90
        3
176
     1
 62
     5
420
      255
176
     1
290
     0
176
     1
 90
       50
176
     1
 90
       50
176
     1
 90
       50
176
     1
290
     0
176
     1
 90
       50
176
     1
 62
   256
176
     0
 40
1.0
176
     0
 90
        2
176
     1
  1
strokes_ogs.tif
176
     1
290
     0
176
     1
 40
1.0
176
     1
 40
1.0
176
     1
  0
VISUALSTYLE
  5
40
102
{ACAD_REACTORS
330
2A
102
}
330
2A
100
AcDbVisualStyle
  2
X-Ray
 70
    25
177
     3
291
     0
 70
    58
 90
        2
176
     1
 90
        2
176
     1
 90
        1
176
     1
 90
        1
176
     1
 40
0.5
176
     1
 40
30.0
176
     1
 62
     7
420
 16777215
176
     1
 90
        1
176
     1
 90
        0
176
     1
 62
     7
176
     1
 62
   257
176
     1
 90
        1
176
     1
 90
        1
176
     1
 40
1.0
176
     1
 90
        8
176
     1
 62
     7
176
     1
 40
1.0
176
     1
 90
        1
176
     1
 90
        6
176
     1
 90
        2
176
     1
 62
     7
176
     1
 90
        3
176
     1
 90
        0
176
     1
 90
        0
176
     1
290
     0
176
     1
 90
       13
176
     1
 40
0.0
176
     1
 90
        0
176
     1
290
     0
176
     1
290
     1
176
     1
290
     1
176
     1
290
     0
176
     1
290
     0
176
     1
290
     0
176
     1
290
     0
176
     1
290
     0
176
     1
290
     0
176
     1
 90
       50
176
     1
 40
0.0
176
     1
 40
1.0
176
     1
 90
        0
176
     1
 62
    18
420
        0
176
     1
 90
       50
176
     1
 90
        3
176
     1
 62
     5
420
      255
176
     1
290
     0
176
     1
 90
       50
176
     1
 90
       50
176
     1
 90
       50
176
     1
290
     0
176
     1
 90
       50
176
     1
 62
   256
176
     0
 40
1.0
176
     0
 90
        2
176
     1
  1
strokes_ogs.tif
176
     1
290
     0
176
     1
 40
1.0
176
     1
 40
1.0
176
     1
  0
DICTIONARYVAR
  5
1D8
102
{ACAD_REACTORS
330
1D7
102
}
330
1D7
100
DictionaryVariables
280
     0
  1
1:1
  0
DICTIONARYVAR
  5
1DD
102
{ACAD_REACTORS
330
1D7
102
}
330
1D7
100
DictionaryVariables
280
     0
  1
Standard
  0
DICTIONARYVAR
  5
1DC
102
{ACAD_REACTORS
330
1D7
102
}
330
1D7
100
DictionaryVariables
280
     0
  1
Standard
  0
DICTIONARY
  5
1D9
330
6A
100
AcDbDictionary
280
     1
281
     1
  3
ACAD_ROUNDTRIP_2008_TABLESTYLE_CELLSTYLEMAP
360
1DA
  0
CELLSTYLEMAP
  5
1DA
102
{ACAD_REACTORS
330
1D9
102
}
330
1D9
100
AcDbCellStyleMap
 90
        3
300
CELLSTYLE
  1
TABLEFORMAT_BEGIN
 90
        5
170
     1
 91
        0
 92
    32768
 62
   257
 93
        1
300
CONTENTFORMAT
  1
CONTENTFORMAT_BEGIN
 90
        0
 91
        0
 92
        4
 93
        0
300

 40
0.0
140
1.0
 94
        5
 62
     0
340
11
144
0.25
309
CONTENTFORMAT_END
171
     1
301
MARGIN
  1
CELLMARGIN_BEGIN
 40
0.06
 40
0.06
 40
0.06
 40
0.06
 40
0.06
 40
0.06
309
CELLMARGIN_END
 94
        6
 95
        1
302
GRIDFORMAT
  1
GRIDFORMAT_BEGIN
 90
        0
 91
        1
 62
     0
 92
       -2
340
14
 93
        0
 40
0.045
309
GRIDFORMAT_END
 95
        2
302
GRIDFORMAT
  1
GRIDFORMAT_BEGIN
 90
        0
 91
        1
 62
     0
 92
       -2
340
14
 93
        0
 40
0.045
309
GRIDFORMAT_END
 95
        4
302
GRIDFORMAT
  1
GRIDFORMAT_BEGIN
 90
        0
 91
        1
 62
     0
 92
       -2
340
14
 93
        0
 40
0.045
309
GRIDFORMAT_END
 95
        8
302
GRIDFORMAT
  1
GRIDFORMAT_BEGIN
 90
        0
 91
        1
 62
     0
 92
       -2
340
14
 93
        0
 40
0.045
309
GRIDFORMAT_END
 95
       16
302
GRIDFORMAT
  1
GRIDFORMAT_BEGIN
 90
        0
 91
        1
 62
     0
 92
       -2
340
14
 93
        0
 40
0.045
309
GRIDFORMAT_END
 95
       32
302
GRIDFORMAT
  1
GRIDFORMAT_BEGIN
 90
        0
 91
        1
 62
     0
 92
       -2
340
14
 93
        0
 40
0.045
309
GRIDFORMAT_END
309
TABLEFORMAT_END
  1
CELLSTYLE_BEGIN
 90
        1
 91
        1
300
_TITLE
309
CELLSTYLE_END
300
CELLSTYLE
  1
TABLEFORMAT_BEGIN
 90
        5
170
     1
 91
        0
 92
        0
 62
   257
 93
        1
300
CONTENTFORMAT
  1
CONTENTFORMAT_BEGIN
 90
        0
 91
        0
 92
        4
 93
        0
300

 40
0.0
140
1.0
 94
        5
 62
     0
340
11
144
0.18
309
CONTENTFORMAT_END
171
     1
301
MARGIN
  1
CELLMARGIN_BEGIN
 40
0.06
 40
0.06
 40
0.06
 40
0.06
 40
0.06
 40
0.06
309
CELLMARGIN_END
 94
        6
 95
        1
302
GRIDFORMAT
  1
GRIDFORMAT_BEGIN
 90
        0
 91
        1
 62
     0
 92
       -2
340
14
 93
        0
 40
0.045
309
GRIDFORMAT_END
 95
        2
302
GRIDFORMAT
  1
GRIDFORMAT_BEGIN
 90
        0
 91
        1
 62
     0
 92
       -2
340
14
 93
        0
 40
0.045
309
GRIDFORMAT_END
 95
        4
302
GRIDFORMAT
  1
GRIDFORMAT_BEGIN
 90
        0
 91
        1
 62
     0
 92
       -2
340
14
 93
        0
 40
0.045
309
GRIDFORMAT_END
 95
        8
302
GRIDFORMAT
  1
GRIDFORMAT_BEGIN
 90
        0
 91
        1
 62
     0
 92
       -2
340
14
 93
        0
 40
0.045
309
GRIDFORMAT_END
 95
       16
302
GRIDFORMAT
  1
GRIDFORMAT_BEGIN
 90
        0
 91
        1
 62
     0
 92
       -2
340
14
 93
        0
 40
0.045
309
GRIDFORMAT_END
 95
       32
302
GRIDFORMAT
  1
GRIDFORMAT_BEGIN
 90
        0
 91
        1
 62
     0
 92
       -2
340
14
 93
        0
 40
0.045
309
GRIDFORMAT_END
309
TABLEFORMAT_END
  1
CELLSTYLE_BEGIN
 90
        2
 91
        1
300
_HEADER
309
CELLSTYLE_END
300
CELLSTYLE
  1
TABLEFORMAT_BEGIN
 90
        5
170
     1
 91
        0
 92
        0
 62
   257
 93
        1
300
CONTENTFORMAT
  1
CONTENTFORMAT_BEGIN
 90
        0
 91
        0
 92
        4
 93
        0
300

 40
0.0
140
1.0
 94
        2
 62
     0
340
11
144
0.18
309
CONTENTFORMAT_END
171
     1
301
MARGIN
  1
CELLMARGIN_BEGIN
 40
0.06
 40
0.06
 40
0.06
 40
0.06
 40
0.06
 40
0.06
309
CELLMARGIN_END
 94
        6
 95
        1
302
GRIDFORMAT
  1
GRIDFORMAT_BEGIN
 90
        0
 91
        1
 62
     0
 92
       -2
340
14
 93
        0
 40
0.045
309
GRIDFORMAT_END
 95
        2
302
GRIDFORMAT
  1
GRIDFORMAT_BEGIN
 90
        0
 91
        1
 62
     0
 92
       -2
340
14
 93
        0
 40
0.045
309
GRIDFORMAT_END
 95
        4
302
GRIDFORMAT
  1
GRIDFORMAT_BEGIN
 90
        0
 91
        1
 62
     0
 92
       -2
340
14
 93
        0
 40
0.045
309
GRIDFORMAT_END
 95
        8
302
GRIDFORMAT
  1
GRIDFORMAT_BEGIN
 90
        0
 91
        1
 62
     0
 92
       -2
340
14
 93
        0
 40
0.045
309
GRIDFORMAT_END
 95
       16
302
GRIDFORMAT
  1
GRIDFORMAT_BEGIN
 90
        0
 91
        1
 62
     0
 92
       -2
340
14
 93
        0
 40
0.045
309
GRIDFORMAT_END
 95
       32
302
GRIDFORMAT
  1
GRIDFORMAT_BEGIN
 90
        0
 91
        1
 62
     0
 92
       -2
340
14
 93
        0
 40
0.045
309
GRIDFORMAT_END
309
TABLEFORMAT_END
  1
CELLSTYLE_BEGIN
 90
        3
 91
        2
300
_DATA
309
CELLSTYLE_END
  0
ENDSEC
  0
EOF