0
SECTION
  2
HEADER
  9
$ACADVER
  1
AC1027
  9
$ACADMAINTVER
 70
     8
  9
$DWGCODEPAGE
  3
ANSI_1252
  9
$REQUIREDVERSIONS
160
                 0
  9
$COMMENTS
  1
File was created by Cadenas
  9
$CUSTOMPROPERTYTAG
  1
NN
  9
$CUSTOMPROPERTY
  1
Eccentric Collar Higher Back Two-Bolt Pillow Block Inch Bore
  9
$CUSTOMPROPERTYTAG
  1
NT
  9
$CUSTOMPROPERTY
  1
Eccentric Collar Pillow Block Bearings -(Normal Duty) -Higher Backing
  9
$CUSTOMPROPERTYTAG
  1
NB
  9
$CUSTOMPROPERTY
  1
131895
  9
$CUSTOMPROPERTYTAG
  1
NBSYN
  9
$CUSTOMPROPERTY
  1
$PN.
  9
$CUSTOMPROPERTYTAG
  1
LINA
  9
$CUSTOMPROPERTY
  1
131895
  9
$CUSTOMPROPERTYTAG
  1
SERIES
  9
$CUSTOMPROPERTY
  1
206
  9
$CUSTOMPROPERTYTAG
  1
SS
  9
$CUSTOMPROPERTY
  1
1-1/16
  9
$CUSTOMPROPERTYTAG
  1
PN
  9
$CUSTOMPROPERTY
  1
131895
  9
$CUSTOMPROPERTYTAG
  1
DESCRIPTION
  9
$CUSTOMPROPERTY
  1
P2B-SXRU-101
  9
$CUSTOMPROPERTYTAG
  1
WEIGHT
  9
$CUSTOMPROPERTY
  1
2.9
  9
$CUSTOMPROPERTYTAG
  1
LF
  9
$CUSTOMPROPERTY
  1
RE-LUBE
  9
$CUSTOMPROPERTYTAG
  1
A
  9
$CUSTOMPROPERTY
  1
1.77
  9
$CUSTOMPROPERTYTAG
  1
B
  9
$CUSTOMPROPERTY
  1
6.25
  9
$CUSTOMPROPERTYTAG
  1
C
  9
$CUSTOMPROPERTY
  1
1.75
  9
$CUSTOMPROPERTYTAG
  1
DMIN
  9
$CUSTOMPROPERTY
  1
4.25
  9
$CUSTOMPROPERTYTAG
  1
DMAX
  9
$CUSTOMPROPERTY
  1
5.00
  9
$CUSTOMPROPERTYTAG
  1
F
  9
$CUSTOMPROPERTY
  1
1/2
  9
$CUSTOMPROPERTYTAG
  1
G
  9
$CUSTOMPROPERTY
  1
0.94
  9
$CUSTOMPROPERTYTAG
  1
H
  9
$CUSTOMPROPERTY
  1
0.75
  9
$CUSTOMPROPERTYTAG
  1
J
  9
$CUSTOMPROPERTY
  1
3.31
  9
$CUSTOMPROPERTYTAG
  1
L
  9
$CUSTOMPROPERTY
  1
1.75
  9
$CUSTOMPROPERTYTAG
  1
M
  9
$CUSTOMPROPERTY
  1
1.69
  9
$CUSTOMPROPERTYTAG
  1
R
  9
$CUSTOMPROPERTY
  1
0.58
  9
$CUSTOMPROPERTYTAG
  1
S
  9
$CUSTOMPROPERTY
  1
1.19
  9
$CUSTOMPROPERTYTAG
  1
U
  9
$CUSTOMPROPERTY
  1
2.88
  9
$CUSTOMPROPERTYTAG
  1
V
  9
$CUSTOMPROPERTY
  1
5.76
  9
$CUSTOMPROPERTYTAG
  1
W
  9
$CUSTOMPROPERTY
  1
0.56
  9
$CUSTOMPROPERTYTAG
  1
X
  9
$CUSTOMPROPERTY
  1
0.12
  9
$CUSTOMPROPERTYTAG
  1
COMPANY
  9
$CUSTOMPROPERTY
  1
baldor
  9
$INSBASE
 10
0.0
 20
0.0
 30
0.0
  9
$EXTMIN
 10
1.000000000000000E+20
 20
1.000000000000000E+20
 30
1.000000000000000E+20
  9
$EXTMAX
 10
-1.000000000000000E+20
 20
-1.000000000000000E+20
 30
-1.000000000000000E+20
  9
$LIMMIN
 10
0.0
 20
0.0
  9
$LIMMAX
 10
12.0
 20
9.0
  9
$ORTHOMODE
 70
     0
  9
$REGENMODE
 70
     1
  9
$FILLMODE
 70
     1
  9
$QTEXTMODE
 70
     0
  9
$MIRRTEXT
 70
     1
  9
$LTSCALE
 40
1.0
  9
$ATTMODE
 70
     1
  9
$TEXTSIZE
 40
0.2
  9
$TRACEWID
 40
0.05
  9
$TEXTSTYLE
  7
Standard
  9
$CLAYER
  8
0
  9
$CELTYPE
  6
ByLayer
  9
$CECOLOR
 62
   256
  9
$CELTSCALE
 40
1.0
  9
$DISPSILH
 70
     0
  9
$DIMSCALE
 40
1.0
  9
$DIMASZ
 40
0.18
  9
$DIMEXO
 40
0.0625
  9
$DIMDLI
 40
0.38
  9
$DIMRND
 40
0.0
  9
$DIMDLE
 40
0.0
  9
$DIMEXE
 40
0.18
  9
$DIMTP
 40
0.0
  9
$DIMTM
 40
0.0
  9
$DIMTXT
 40
0.18
  9
$DIMCEN
 40
0.09
  9
$DIMTSZ
 40
0.0
  9
$DIMTOL
 70
     0
  9
$DIMLIM
 70
     0
  9
$DIMTIH
 70
     1
  9
$DIMTOH
 70
     1
  9
$DIMSE1
 70
     0
  9
$DIMSE2
 70
     0
  9
$DIMTAD
 70
     0
  9
$DIMZIN
 70
     0
  9
$DIMBLK
  1

  9
$DIMASO
 70
     1
  9
$DIMSHO
 70
     1
  9
$DIMPOST
  1

  9
$DIMAPOST
  1

  9
$DIMALT
 70
     0
  9
$DIMALTD
 70
     2
  9
$DIMALTF
 40
25.4
  9
$DIMLFAC
 40
1.0
  9
$DIMTOFL
 70
     0
  9
$DIMTVP
 40
0.0
  9
$DIMTIX
 70
     0
  9
$DIMSOXD
 70
     0
  9
$DIMSAH
 70
     0
  9
$DIMBLK1
  1

  9
$DIMBLK2
  1

  9
$DIMSTYLE
  2
Standard
  9
$DIMCLRD
 70
     0
  9
$DIMCLRE
 70
     0
  9
$DIMCLRT
 70
     0
  9
$DIMTFAC
 40
1.0
  9
$DIMGAP
 40
0.09
  9
$DIMJUST
 70
     0
  9
$DIMSD1
 70
     0
  9
$DIMSD2
 70
     0
  9
$DIMTOLJ
 70
     1
  9
$DIMTZIN
 70
     0
  9
$DIMALTZ
 70
     0
  9
$DIMALTTZ
 70
     0
  9
$DIMUPT
 70
     0
  9
$DIMDEC
 70
     4
  9
$DIMTDEC
 70
     4
  9
$DIMALTU
 70
     2
  9
$DIMALTTD
 70
     2
  9
$DIMTXSTY
  7
Standard
  9
$DIMAUNIT
 70
     0
  9
$DIMADEC
 70
     0
  9
$DIMALTRND
 40
0.0
  9
$DIMAZIN
 70
     0
  9
$DIMDSEP
 70
    46
  9
$DIMATFIT
 70
     3
  9
$DIMFRAC
 70
     0
  9
$DIMLDRBLK
  1

  9
$DIMLUNIT
 70
     2
  9
$DIMLWD
 70
    -2
  9
$DIMLWE
 70
    -2
  9
$DIMTMOVE
 70
     0
  9
$DIMFXL
 40
1.0
  9
$DIMFXLON
 70
     0
  9
$DIMJOGANG
 40
0.7853981633974483
  9
$DIMTFILL
 70
     0
  9
$DIMTFILLCLR
 70
     0
  9
$DIMARCSYM
 70
     0
  9
$DIMLTYPE
  6

  9
$DIMLTEX1
  6

  9
$DIMLTEX2
  6

  9
$DIMTXTDIRECTION
 70
     0
  9
$LUNITS
 70
     2
  9
$LUPREC
 70
     4
  9
$SKETCHINC
 40
0.1
  9
$FILLETRAD
 40
0.5
  9
$AUNITS
 70
     0
  9
$AUPREC
 70
     0
  9
$MENU
  1
.
  9
$ELEVATION
 40
0.0
  9
$PELEVATION
 40
0.0
  9
$THICKNESS
 40
0.0
  9
$LIMCHECK
 70
     0
  9
$CHAMFERA
 40
0.0
  9
$CHAMFERB
 40
0.0
  9
$CHAMFERC
 40
0.0
  9
$CHAMFERD
 40
0.0
  9
$SKPOLY
 70
     0
  9
$TDCREATE
 40
2458168.980027164
  9
$TDUCREATE
 40
2458168.938360498
  9
$TDUPDATE
 40
2458168.98002735
  9
$TDUUPDATE
 40
2458168.938360683
  9
$TDINDWG
 40
0.0000000116
  9
$TDUSRTIMER
 40
0.0000000116
  9
$USRTIMER
 70
     1
  9
$ANGBASE
 50
0.0
  9
$ANGDIR
 70
     0
  9
$PDMODE
 70
     0
  9
$PDSIZE
 40
0.0
  9
$PLINEWID
 40
0.0
  9
$SPLFRAME
 70
     0
  9
$SPLINETYPE
 70
     6
  9
$SPLINESEGS
 70
     8
  9
$HANDSEED
  5
1E4
  9
$SURFTAB1
 70
     6
  9
$SURFTAB2
 70
     6
  9
$SURFTYPE
 70
     6
  9
$SURFU
 70
     6
  9
$SURFV
 70
     6
  9
$UCSBASE
  2

  9
$UCSNAME
  2

  9
$UCSORG
 10
0.0
 20
0.0
 30
0.0
  9
$UCSXDIR
 10
1.0
 20
0.0
 30
0.0
  9
$UCSYDIR
 10
0.0
 20
1.0
 30
0.0
  9
$UCSORTHOREF
  2

  9
$UCSORTHOVIEW
 70
     0
  9
$UCSORGTOP
 10
0.0
 20
0.0
 30
0.0
  9
$UCSORGBOTTOM
 10
0.0
 20
0.0
 30
0.0
  9
$UCSORGLEFT
 10
0.0
 20
0.0
 30
0.0
  9
$UCSORGRIGHT
 10
0.0
 20
0.0
 30
0.0
  9
$UCSORGFRONT
 10
0.0
 20
0.0
 30
0.0
  9
$UCSORGBACK
 10
0.0
 20
0.0
 30
0.0
  9
$PUCSBASE
  2

  9
$PUCSNAME
  2

  9
$PUCSORG
 10
0.0
 20
0.0
 30
0.0
  9
$PUCSXDIR
 10
1.0
 20
0.0
 30
0.0
  9
$PUCSYDIR
 10
0.0
 20
1.0
 30
0.0
  9
$PUCSORTHOREF
  2

  9
$PUCSORTHOVIEW
 70
     0
  9
$PUCSORGTOP
 10
0.0
 20
0.0
 30
0.0
  9
$PUCSORGBOTTOM
 10
0.0
 20
0.0
 30
0.0
  9
$PUCSORGLEFT
 10
0.0
 20
0.0
 30
0.0
  9
$PUCSORGRIGHT
 10
0.0
 20
0.0
 30
0.0
  9
$PUCSORGFRONT
 10
0.0
 20
0.0
 30
0.0
  9
$PUCSORGBACK
 10
0.0
 20
0.0
 30
0.0
  9
$USERI1
 70
     0
  9
$USERI2
 70
     0
  9
$USERI3
 70
     0
  9
$USERI4
 70
     0
  9
$USERI5
 70
     0
  9
$USERR1
 40
0.0
  9
$USERR2
 40
0.0
  9
$USERR3
 40
0.0
  9
$USERR4
 40
0.0
  9
$USERR5
 40
0.0
  9
$WORLDVIEW
 70
     1
  9
$SHADEDGE
 70
     3
  9
$SHADEDIF
 70
    70
  9
$TILEMODE
 70
     1
  9
$MAXACTVP
 70
    64
  9
$PINSBASE
 10
0.0
 20
0.0
 30
0.0
  9
$PLIMCHECK
 70
     0
  9
$PEXTMIN
 10
1.000000000000000E+20
 20
1.000000000000000E+20
 30
1.000000000000000E+20
  9
$PEXTMAX
 10
-1.000000000000000E+20
 20
-1.000000000000000E+20
 30
-1.000000000000000E+20
  9
$PLIMMIN
 10
0.0
 20
0.0
  9
$PLIMMAX
 10
12.0
 20
9.0
  9
$UNITMODE
 70
     0
  9
$VISRETAIN
 70
     1
  9
$PLINEGEN
 70
     0
  9
$PSLTSCALE
 70
     1
  9
$TREEDEPTH
 70
  3020
  9
$CMLSTYLE
  2
Standard
  9
$CMLJUST
 70
     0
  9
$CMLSCALE
 40
1.0
  9
$PROXYGRAPHICS
 70
     1
  9
$MEASUREMENT
 70
     0
  9
$CELWEIGHT
370
    -1
  9
$ENDCAPS
280
     0
  9
$JOINSTYLE
280
     0
  9
$LWDISPLAY
290
     0
  9
$INSUNITS
 70
     1
  9
$HYPERLINKBASE
  1

  9
$STYLESHEET
  1

  9
$XEDIT
290
     1
  9
$CEPSNTYPE
380
     0
  9
$PSTYLEMODE
290
     1
  9
$FINGERPRINTGUID
  2
{BAFE2CCD-0998-493A-9E6D-A81060F61453}
  9
$VERSIONGUID
  2
{FAEB1C32-E019-11D5-929B-00C0DF256EC4}
  9
$EXTNAMES
290
     1
  9
$PSVPSCALE
 40
0.0
  9
$OLESTARTUP
290
     0
  9
$SORTENTS
280
   127
  9
$INDEXCTL
280
     0
  9
$HIDETEXT
280
     1
  9
$XCLIPFRAME
280
     2
  9
$HALOGAP
280
     0
  9
$OBSCOLOR
 70
   257
  9
$OBSLTYPE
280
     0
  9
$INTERSECTIONDISPLAY
280
     0
  9
$INTERSECTIONCOLOR
 70
   257
  9
$DIMASSOC
280
     2
  9
$PROJECTNAME
  1

  9
$CAMERADISPLAY
290
     0
  9
$LENSLENGTH
 40
50.0
  9
$CAMERAHEIGHT
 40
0.0
  9
$STEPSPERSEC
 40
2.0
  9
$STEPSIZE
 40
6.0
  9
$3DDWFPREC
 40
2.0
  9
$PSOLWIDTH
 40
0.25
  9
$PSOLHEIGHT
 40
4.0
  9
$LOFTANG1
 40
1.570796326794897
  9
$LOFTANG2
 40
1.570796326794897
  9
$LOFTMAG1
 40
0.0
  9
$LOFTMAG2
 40
0.0
  9
$LOFTPARAM
 70
     7
  9
$LOFTNORMALS
280
     1
  9
$LATITUDE
 40
37.795
  9
$LONGITUDE
 40
-122.394
  9
$NORTHDIRECTION
 40
0.0
  9
$TIMEZONE
 70
 -8000
  9
$LIGHTGLYPHDISPLAY
280
     1
  9
$TILEMODELIGHTSYNCH
280
     1
  9
$CMATERIAL
347
44
  9
$SOLIDHIST
280
     0
  9
$SHOWHIST
280
     1
  9
$DWFFRAME
280
     2
  9
$DGNFRAME
280
     2
  9
$REALWORLDSCALE
290
     1
  9
$INTERFERECOLOR
 62
   256
  9
$CSHADOW
280
     0
  9
$SHADOWPLANELOCATION
 40
0.0
  0
ENDSEC
  0
SECTION
  2
CLASSES
  0
CLASS
  1
ACDBDICTIONARYWDFLT
  2
AcDbDictionaryWithDefault
  3
ObjectDBX Classes
 90
        0
 91
        4
280
     0
281
     0
  0
CLASS
  1
VISUALSTYLE
  2
AcDbVisualStyle
  3
ObjectDBX Classes
 90
     4095
 91
        4
280
     0
281
     0
  0
CLASS
  1
MATERIAL
  2
AcDbMaterial
  3
ObjectDBX Classes
 90
     1153
 91
        4
280
     0
281
     0
  0
CLASS
  1
SCALE
  2
AcDbScale
  3
ObjectDBX Classes
 90
     1153
 91
        4
280
     0
281
     0
  0
CLASS
  1
TABLESTYLE
  2
AcDbTableStyle
  3
ObjectDBX Classes
 90
     4095
 91
        4
280
     0
281
     0
  0
CLASS
  1
MLEADERSTYLE
  2
AcDbMLeaderStyle
  3
ACDB_MLEADERSTYLE_CLASS
 90
     4095
 91
        4
280
     0
281
     0
  0
CLASS
  1
SUN
  2
AcDbSun
  3
SCENEOE
 90
     1153
 91
        4
280
     0
281
     0
  0
CLASS
  1
DICTIONARYVAR
  2
AcDbDictionaryVar
  3
ObjectDBX Classes
 90
        0
 91
        4
280
     0
281
     0
  0
CLASS
  1
CELLSTYLEMAP
  2
AcDbCellStyleMap
  3
ObjectDBX Classes
 90
     1152
 91
        4
280
     0
281
     0
  0
ENDSEC
  0
SECTION
  2
TABLES
  0
TABLE
  2
VPORT
  5
8
330
0
100
AcDbSymbolTable
 70
     1
  0
VPORT
  5
29
330
8
100
AcDbSymbolTableRecord
100
AcDbViewportTableRecord
  2
*Active
 70
     0
 10
0.0
 20
0.0
 11
1.0
 21
1.0
 12
0.0
 22
-0.1580000000000004
 13
0.0
 23
0.0
 14
0.5
 24
0.5
 15
0.5
 25
0.5
 16
0.0
 26
0.0
 36
1.0
 17
0.0
 27
0.0
 37
0.0
 40
2.28582
 41
2.788933511825078
 42
50.0
 43
0.0
 44
0.0
 50
0.0
 51
0.0
 71
     0
 72
   100
 73
     1
 74
     3
 75
     0
 76
     0
 77
     0
 78
     0
281
     0
 65
     1
110
0.0
120
0.0
130
0.0
111
1.0
121
0.0
131
0.0
112
0.0
122
1.0
132
0.0
 79
     0
146
0.0
348
2F
 60
     3
 61
     5
292
     1
282
     1
141
0.0
142
0.0
 63
   250
361
6D
  0
ENDTAB
  0
TABLE
  2
LTYPE
  5
5
330
0
100
AcDbSymbolTable
 70
     3
  0
LTYPE
  5
14
330
5
100
AcDbSymbolTableRecord
100
AcDbLinetypeTableRecord
  2
ByBlock
 70
     0
  3

 72
    65
 73
     0
 40
0.0
  0
LTYPE
  5
15
330
5
100
AcDbSymbolTableRecord
100
AcDbLinetypeTableRecord
  2
ByLayer
 70
     0
  3

 72
    65
 73
     0
 40
0.0
  0
LTYPE
  5
16
330
5
100
AcDbSymbolTableRecord
100
AcDbLinetypeTableRecord
  2
Continuous
 70
     0
  3
Solid line
 72
    65
 73
     0
 40
0.0
  0
LTYPE
  5
9C
330
5
100
AcDbSymbolTableRecord
100
AcDbLinetypeTableRecord
  2
Dashed
 70
     0
  3

 72
    65
 73
     2
 40
2.0
 49
1.0
 74
     0
 49
-1.0
 74
     0
  0
LTYPE
  5
115
330
5
100
AcDbSymbolTableRecord
100
AcDbLinetypeTableRecord
  2
Center
 70
     0
  3

 72
    65
 73
     4
 40
1.5
 49
0.45
 74
     0
 49
-0.5
 74
     0
 49
0.05
 74
     0
 49
-0.5
 74
     0
  0
ENDTAB
  0
TABLE
  2
LAYER
  5
2
330
0
100
AcDbSymbolTable
 70
     7
  0
LAYER
  5
10
330
2
100
AcDbSymbolTableRecord
100
AcDbLayerTableRecord
  2
0
 70
     0
 62
     7
  6
Continuous
370
    -3
390
F
347
46
348
0
  0
LAYER
  5
72
330
2
100
AcDbSymbolTableRecord
100
AcDbLayerTableRecord
  2
AM_6
 70
     0
 62
    -2
  6
Continuous
370
    35
390
F
347
46
348
0
  0
LAYER
  5
9D
330
2
100
AcDbSymbolTableRecord
100
AcDbLayerTableRecord
  2
AM_9
 70
     0
 62
     6
  6
Dashed
370
    25
390
F
347
46
348
0
  0
LAYER
  5
BA
330
2
100
AcDbSymbolTableRecord
100
AcDbLayerTableRecord
  2
AM_4
 70
     0
 62
     7
  6
Continuous
370
    50
390
F
347
46
348
0
  0
LAYER
  5
116
330
2
100
AcDbSymbolTableRecord
100
AcDbLayerTableRecord
  2
AM_7
 70
     0
 62
     7
  6
Center
370
    25
390
F
347
46
348
0
  0
LAYER
  5
136
330
2
100
AcDbSymbolTableRecord
100
AcDbLayerTableRecord
  2
AM_5
 70
     0
 62
     3
  6
Continuous
370
    25
390
F
347
46
348
0
  0
LAYER
  5
1D5
330
2
100
AcDbSymbolTableRecord
100
AcDbLayerTableRecord
  2
ConnectionPoints
 70
     0
 62
     7
  6
Continuous
370
    50
390
F
347
46
348
0
  0
ENDTAB
  0
TABLE
  2
STYLE
  5
3
330
0
100
AcDbSymbolTable
 70
     1
  0
STYLE
  5
11
330
3
100
AcDbSymbolTableRecord
100
AcDbTextStyleTableRecord
  2
Standard
 70
     0
 40
0.0
 41
1.0
 50
0.0
 71
     0
 42
0.2
  3
txt
  4

  0
ENDTAB
  0
TABLE
  2
VIEW
  5
6
330
0
100
AcDbSymbolTable
 70
     0
  0
ENDTAB
  0
TABLE
  2
UCS
  5
7
330
0
100
AcDbSymbolTable
 70
     0
  0
ENDTAB
  0
TABLE
  2
APPID
  5
9
330
0
100
AcDbSymbolTable
 70
     1
  0
APPID
  5
12
330
9
100
AcDbSymbolTableRecord
100
AcDbRegAppTableRecord
  2
ACAD
 70
     0
  0
ENDTAB
  0
TABLE
  2
DIMSTYLE
  5
A
330
0
100
AcDbSymbolTable
 70
     1
100
AcDbDimStyleTable
  0
DIMSTYLE
105
27
330
A
100
AcDbSymbolTableRecord
100
AcDbDimStyleTableRecord
  2
Standard
 70
     0
178
     0
340
11
  0
ENDTAB
  0
TABLE
  2
BLOCK_RECORD
  5
1
330
0
100
AcDbSymbolTable
 70
     5
  0
BLOCK_RECORD
  5
1F
330
1
100
AcDbSymbolTableRecord
100
AcDbBlockTableRecord
  2
*Model_Space
340
22
 70
     0
280
     1
281
     0
  0
BLOCK_RECORD
  5
1B
330
1
100
AcDbSymbolTableRecord
100
AcDbBlockTableRecord
  2
*Paper_Space
340
1E
 70
     0
280
     1
281
     0
  0
BLOCK_RECORD
  5
23
330
1
100
AcDbSymbolTableRecord
100
AcDbBlockTableRecord
  2
*Paper_Space0
340
26
 70
     0
280
     1
281
     0
  0
BLOCK_RECORD
  5
6E
330
1
100
AcDbSymbolTableRecord
100
AcDbBlockTableRecord
  2
1_131895_4
340
0
102
{BLKREFS
331
6F
102
}
 70
     0
280
     1
281
     0
  0
BLOCK_RECORD
  5
90
330
1
100
AcDbSymbolTableRecord
100
AcDbBlockTableRecord
  2
2_405015E_Inch_0_in_131895_4
340
0
102
{BLKREFS
331
91
102
}
 70
     0
280
     1
281
     0
  0
BLOCK_RECORD
  5
D6
330
1
100
AcDbSymbolTableRecord
100
AcDbBlockTableRecord
  2
3_131909_0_in_131895_4
340
0
102
{BLKREFS
331
D7
102
}
 70
     0
280
     1
281
     0
  0
BLOCK_RECORD
  5
138
330
1
100
AcDbSymbolTableRecord
100
AcDbBlockTableRecord
  2
4_131895H_0_in_131895_4
340
0
102
{BLKREFS
331
139
102
}
 70
     0
280
     1
281
     0
  0
ENDTAB
  0
ENDSEC
  0
SECTION
  2
BLOCKS
  0
BLOCK
  5
20
330
1F
100
AcDbEntity
  8
0
100
AcDbBlockBegin
  2
*Model_Space
 70
     0
 10
0.0
 20
0.0
 30
0.0
  3
*Model_Space
  1

  0
ENDBLK
  5
21
330
1F
100
AcDbEntity
  8
0
100
AcDbBlockEnd
  0
BLOCK
  5
1C
330
1B
100
AcDbEntity
 67
     1
  8
0
100
AcDbBlockBegin
  2
*Paper_Space
 70
     0
 10
0.0
 20
0.0
 30
0.0
  3
*Paper_Space
  1

  0
ENDBLK
  5
1D
330
1B
100
AcDbEntity
 67
     1
  8
0
100
AcDbBlockEnd
  0
BLOCK
  5
24
330
23
100
AcDbEntity
  8
0
100
AcDbBlockBegin
  2
*Paper_Space0
 70
     0
 10
0.0
 20
0.0
 30
0.0
  3
*Paper_Space0
  1

  0
ENDBLK
  5
25
330
23
100
AcDbEntity
  8
0
100
AcDbBlockEnd
  0
BLOCK
  5
70
330
6E
100
AcDbEntity
  8
0
100
AcDbBlockBegin
  2
1_131895_4
 70
     2
 10
0.0
 20
0.0
 30
0.0
  3
1_131895_4
  1

  0
ATTDEF
  5
73
330
6E
100
AcDbEntity
  8
AM_6
100
AcDbText
 10
8.125
 20
0.9625
 30
0.0
 40
0.5
  1
Eccentric Collar Higher Back Two-Bolt Pillow Block Inch Bore
100
AcDbAttributeDefinition
  3

  2
NN
 70
     8
280
     0
  0
ATTDEF
  5
74
330
6E
100
AcDbEntity
  8
AM_6
100
AcDbText
 10
8.125
 20
0.4625
 30
0.0
 40
0.5
  1
Eccentric Collar Pillow Block Bearings -(Normal Duty) -Higher Backing
100
AcDbAttributeDefinition
  3

  2
NT
 70
     8
280
     0
  0
ATTDEF
  5
75
330
6E
100
AcDbEntity
  8
AM_6
100
AcDbText
 10
8.125
 20
-0.0375
 30
0.0
 40
0.5
  1
131895
100
AcDbAttributeDefinition
  3

  2
NB
 70
     8
280
     0
  0
ATTDEF
  5
76
330
6E
100
AcDbEntity
  8
AM_6
100
AcDbText
 10
8.125
 20
-0.5375
 30
0.0
 40
0.5
  1
$PN.
100
AcDbAttributeDefinition
  3

  2
NBSYN
 70
     8
280
     0
  0
ATTDEF
  5
77
330
6E
100
AcDbEntity
  8
AM_6
100
AcDbText
 10
8.125
 20
-1.0375
 30
0.0
 40
0.5
  1
131895
100
AcDbAttributeDefinition
  3

  2
LINA
 70
     8
280
     0
  0
ATTDEF
  5
78
330
6E
100
AcDbEntity
  8
AM_6
100
AcDbText
 10
8.125
 20
-1.5375
 30
0.0
 40
0.5
  1
206
100
AcDbAttributeDefinition
  3

  2
SERIES
 70
     8
280
     0
  0
ATTDEF
  5
79
330
6E
100
AcDbEntity
  8
AM_6
100
AcDbText
 10
8.125
 20
-2.0375
 30
0.0
 40
0.5
  1
1-1/16
100
AcDbAttributeDefinition
  3

  2
SS
 70
     8
280
     0
  0
ATTDEF
  5
7A
330
6E
100
AcDbEntity
  8
AM_6
100
AcDbText
 10
8.125
 20
-2.5375
 30
0.0
 40
0.5
  1
131895
100
AcDbAttributeDefinition
  3

  2
PN
 70
     8
280
     0
  0
ATTDEF
  5
7B
330
6E
100
AcDbEntity
  8
AM_6
100
AcDbText
 10
8.125
 20
-3.0375
 30
0.0
 40
0.5
  1
P2B-SXRU-101
100
AcDbAttributeDefinition
  3

  2
DESCRIPTION
 70
     8
280
     0
  0
ATTDEF
  5
7C
330
6E
100
AcDbEntity
  8
AM_6
100
AcDbText
 10
8.125
 20
-3.5375
 30
0.0
 40
0.5
  1
2.9
100
AcDbAttributeDefinition
  3

  2
WEIGHT
 70
     8
280
     0
  0
ATTDEF
  5
7D
330
6E
100
AcDbEntity
  8
AM_6
100
AcDbText
 10
8.125
 20
-4.0375
 30
0.0
 40
0.5
  1
RE-LUBE
100
AcDbAttributeDefinition
  3

  2
LF
 70
     8
280
     0
  0
ATTDEF
  5
7E
330
6E
100
AcDbEntity
  8
AM_6
100
AcDbText
 10
8.125
 20
-4.5375
 30
0.0
 40
0.5
  1
1.77
100
AcDbAttributeDefinition
  3

  2
A
 70
     8
280
     0
  0
ATTDEF
  5
7F
330
6E
100
AcDbEntity
  8
AM_6
100
AcDbText
 10
8.125
 20
-5.0375
 30
0.0
 40
0.5
  1
6.25
100
AcDbAttributeDefinition
  3

  2
B
 70
     8
280
     0
  0
ATTDEF
  5
80
330
6E
100
AcDbEntity
  8
AM_6
100
AcDbText
 10
8.125
 20
-5.5375
 30
0.0
 40
0.5
  1
1.75
100
AcDbAttributeDefinition
  3

  2
C
 70
     8
280
     0
  0
ATTDEF
  5
81
330
6E
100
AcDbEntity
  8
AM_6
100
AcDbText
 10
8.125
 20
-6.0375
 30
0.0
 40
0.5
  1
4.25
100
AcDbAttributeDefinition
  3

  2
DMIN
 70
     8
280
     0
  0
ATTDEF
  5
82
330
6E
100
AcDbEntity
  8
AM_6
100
AcDbText
 10
8.125
 20
-6.5375
 30
0.0
 40
0.5
  1
5.00
100
AcDbAttributeDefinition
  3

  2
DMAX
 70
     8
280
     0
  0
ATTDEF
  5
83
330
6E
100
AcDbEntity
  8
AM_6
100
AcDbText
 10
8.125
 20
-7.0375
 30
0.0
 40
0.5
  1
1/2
100
AcDbAttributeDefinition
  3

  2
F
 70
     8
280
     0
  0
ATTDEF
  5
84
330
6E
100
AcDbEntity
  8
AM_6
100
AcDbText
 10
8.125
 20
-7.5375
 30
0.0
 40
0.5
  1
0.94
100
AcDbAttributeDefinition
  3

  2
G
 70
     8
280
     0
  0
ATTDEF
  5
85
330
6E
100
AcDbEntity
  8
AM_6
100
AcDbText
 10
8.125
 20
-8.0375
 30
0.0
 40
0.5
  1
0.75
100
AcDbAttributeDefinition
  3

  2
H
 70
     8
280
     0
  0
ATTDEF
  5
86
330
6E
100
AcDbEntity
  8
AM_6
100
AcDbText
 10
8.125
 20
-8.5375
 30
0.0
 40
0.5
  1
3.31
100
AcDbAttributeDefinition
  3

  2
J
 70
     8
280
     0
  0
ATTDEF
  5
87
330
6E
100
AcDbEntity
  8
AM_6
100
AcDbText
 10
8.125
 20
-9.0375
 30
0.0
 40
0.5
  1
1.75
100
AcDbAttributeDefinition
  3

  2
L
 70
     8
280
     0
  0
ATTDEF
  5
88
330
6E
100
AcDbEntity
  8
AM_6
100
AcDbText
 10
8.125
 20
-9.5375
 30
0.0
 40
0.5
  1
1.69
100
AcDbAttributeDefinition
  3

  2
M
 70
     8
280
     0
  0
ATTDEF
  5
89
330
6E
100
AcDbEntity
  8
AM_6
100
AcDbText
 10
8.125
 20
-10.0375
 30
0.0
 40
0.5
  1
0.58
100
AcDbAttributeDefinition
  3

  2
R
 70
     8
280
     0
  0
ATTDEF
  5
8A
330
6E
100
AcDbEntity
  8
AM_6
100
AcDbText
 10
8.125
 20
-10.5375
 30
0.0
 40
0.5
  1
1.19
100
AcDbAttributeDefinition
  3

  2
S
 70
     8
280
     0
  0
ATTDEF
  5
8B
330
6E
100
AcDbEntity
  8
AM_6
100
AcDbText
 10
8.125
 20
-11.0375
 30
0.0
 40
0.5
  1
2.88
100
AcDbAttributeDefinition
  3

  2
U
 70
     8
280
     0
  0
ATTDEF
  5
8C
330
6E
100
AcDbEntity
  8
AM_6
100
AcDbText
 10
8.125
 20
-11.5375
 30
0.0
 40
0.5
  1
5.76
100
AcDbAttributeDefinition
  3

  2
V
 70
     8
280
     0
  0
ATTDEF
  5
8D
330
6E
100
AcDbEntity
  8
AM_6
100
AcDbText
 10
8.125
 20
-12.0375
 30
0.0
 40
0.5
  1
0.56
100
AcDbAttributeDefinition
  3

  2
W
 70
     8
280
     0
  0
ATTDEF
  5
8E
330
6E
100
AcDbEntity
  8
AM_6
100
AcDbText
 10
8.125
 20
-12.5375
 30
0.0
 40
0.5
  1
0.12
100
AcDbAttributeDefinition
  3

  2
X
 70
     8
280
     0
  0
ATTDEF
  5
8F
330
6E
100
AcDbEntity
  8
AM_6
100
AcDbText
 10
8.125
 20
-13.0375
 30
0.0
 40
0.5
  1
baldor
100
AcDbAttributeDefinition
  3

  2
COMPANY
 70
     8
280
     0
  0
INSERT
  5
91
330
6E
100
AcDbEntity
  8
0
100
AcDbBlockReference
  2
2_405015E_Inch_0_in_131895_4
 10
0.0
 20
0.0
 30
0.0
  0
INSERT
  5
D7
330
6E
100
AcDbEntity
  8
0
100
AcDbBlockReference
  2
3_131909_0_in_131895_4
 10
0.0
 20
0.0
 30
0.0
  0
INSERT
  5
139
330
6E
100
AcDbEntity
  8
0
100
AcDbBlockReference
  2
4_131895H_0_in_131895_4
 10
0.0
 20
0.0
 30
0.0
  0
ENDBLK
  5
71
330
6E
100
AcDbEntity
  8
0
100
AcDbBlockEnd
  0
BLOCK
  5
92
330
90
100
AcDbEntity
  8
0
100
AcDbBlockBegin
  2
2_405015E_Inch_0_in_131895_4
 70
     2
 10
0.0
 20
0.0
 30
0.0
  3
2_405015E_Inch_0_in_131895_4
  1

  0
ATTDEF
  5
94
330
90
100
AcDbEntity
  8
AM_6
100
AcDbText
 10
6.483282269202126
 20
0.2187500000000001
 30
0.0
 40
0.5
  1
405015E -Inch
100
AcDbAttributeDefinition
  3

  2
NN
 70
     8
280
     0
  0
ATTDEF
  5
95
330
90
100
AcDbEntity
  8
AM_6
100
AcDbText
 10
6.483282269202126
 20
-0.2812499999999999
 30
0.0
 40
0.5
  1
Grease Fitting
100
AcDbAttributeDefinition
  3

  2
NT
 70
     8
280
     0
  0
ATTDEF
  5
96
330
90
100
AcDbEntity
  8
AM_6
100
AcDbText
 10
6.483282269202126
 20
-0.78125
 30
0.0
 40
0.5
  1
405015E-Inch
100
AcDbAttributeDefinition
  3

  2
NB
 70
     8
280
     0
  0
ATTDEF
  5
97
330
90
100
AcDbEntity
  8
AM_6
100
AcDbText
 10
6.483282269202126
 20
-1.28125
 30
0.0
 40
0.5
  1
$MN.-Inch
100
AcDbAttributeDefinition
  3

  2
NBSYN
 70
     8
280
     0
  0
ATTDEF
  5
98
330
90
100
AcDbEntity
  8
AM_6
100
AcDbText
 10
6.483282269202126
 20
-1.78125
 30
0.0
 40
0.5
  1
405015E
100
AcDbAttributeDefinition
  3

  2
LINA
 70
     8
280
     0
  0
ATTDEF
  5
99
330
90
100
AcDbEntity
  8
AM_6
100
AcDbText
 10
6.483282269202126
 20
-2.28125
 30
0.0
 40
0.5
  1
405015E
100
AcDbAttributeDefinition
  3

  2
MN
 70
     8
280
     0
  0
ATTDEF
  5
9A
330
90
100
AcDbEntity
  8
AM_6
100
AcDbText
 10
6.483282269202126
 20
-2.78125
 30
0.0
 40
0.5
  1
1/8 x 27PTF
100
AcDbAttributeDefinition
  3

  2
T
 70
     8
280
     0
  0
ATTDEF
  5
9B
330
90
100
AcDbEntity
  8
AM_6
100
AcDbText
 10
6.483282269202126
 20
-3.28125
 30
0.0
 40
0.5
  1
baldor
100
AcDbAttributeDefinition
  3

  2
COMPANY
 70
     8
280
     0
  0
LWPOLYLINE
  5
9E
330
90
100
AcDbEntity
  8
AM_9
100
AcDbPolyline
 90
        4
 70
     0
 43
0.0
 10
1.330533373834708
 20
0.0000000000000001
 10
1.303603245240846
 20
-0.0544416102741495
 10
1.291132885440866
 20
-0.081870001090765
 10
1.279469455830662
 20
-0.1093749999999999
  0
LWPOLYLINE
  5
9F
330
90
100
AcDbEntity
  8
AM_9
100
AcDbPolyline
 90
        4
 70
     0
 43
0.0
 10
1.279469455830662
 20
0.109375
 10
1.291062001584249
 20
0.0820312500000001
 10
1.303487909998464
 20
0.0546875000000001
 10
1.330533373834708
 20
0.0000000000000001
  0
ELLIPSE
  5
A0
330
90
100
AcDbEntity
  8
AM_9
100
AcDbEllipse
 10
0.9581296885077717
 20
0.0000000000000001
 30
0.0
 11
9.913691727296317E-18
 21
0.161902872472269
 31
0.0
210
0.0
220
0.0
230
1.0
 40
0.7071067811865478
 41
0.0
 42
6.283185307179586
  0
LWPOLYLINE
  5
A1
330
90
100
AcDbEntity
  8
AM_9
100
AcDbPolyline
 90
        4
 70
     0
 43
0.0
 10
1.350180133949317
 20
-0.1093749999999999
 10
1.360913666580472
 20
-0.0820312499999999
 10
1.370813836550999
 20
-0.0546874999999999
 10
1.38842052948424
 20
0.0000000000000001
  0
LWPOLYLINE
  5
A2
330
90
100
AcDbEntity
  8
AM_9
100
AcDbPolyline
 90
        4
 70
     0
 43
0.0
 10
1.38842052948424
 20
0.0000000000000001
 10
1.37089926942906
 20
0.0544416102741496
 10
1.360974441906924
 20
0.0818700010907651
 10
1.350180133949317
 20
0.109375
  0
LWPOLYLINE
  5
A3
330
90
100
AcDbEntity
  8
AM_9
100
AcDbPolyline
 90
        4
 70
     0
 43
0.0
 10
1.241229060295738
 20
0.2187500000000001
 10
1.258750320350918
 20
0.1643083897258505
 10
1.268675147873055
 20
0.1368799989092349
 10
1.279469455830662
 20
0.109375
  0
LINE
  5
A4
330
90
100
AcDbEntity
  8
AM_9
100
AcDbLine
 10
1.38842052948424
 20
0.0000000000000001
 30
0.0
 11
1.330533373834708
 21
0.0000000000000001
 31
0.0
  0
LWPOLYLINE
  5
A5
330
90
100
AcDbEntity
  8
AM_9
100
AcDbPolyline
 90
        4
 70
     0
 43
0.0
 10
1.279469455830662
 20
-0.1093749999999999
 10
1.268735923199506
 20
-0.1367187499999999
 10
1.258835753228979
 20
-0.1640624999999999
 10
1.241229060295738
 20
-0.2187499999999999
  0
LINE
  5
A6
330
90
100
AcDbEntity
  8
AM_9
100
AcDbLine
 10
1.350180133949317
 20
0.109375
 30
0.0
 11
1.340236303519054
 21
0.1329492795575143
 31
0.0
  0
LINE
  5
A7
330
90
100
AcDbEntity
  8
AM_9
100
AcDbLine
 10
1.340305318441892
 20
-0.1327906884851361
 30
0.0
 11
1.350180133949317
 21
-0.1093749999999999
 31
0.0
  0
LINE
  5
A8
330
90
100
AcDbEntity
  8
AM_9
100
AcDbLine
 10
0.9797018499561987
 20
-0.1985206121313388
 30
0.0
 11
1.140957226149812
 21
-0.2056509992357426
 31
0.0
  0
LINE
  5
A9
330
90
100
AcDbEntity
  8
AM_9
100
AcDbLine
 10
1.140957226149812
 20
0.2056509992357427
 30
0.0
 11
0.9797018499561987
 21
0.1985206121313389
 31
0.0
  0
ELLIPSE
  5
AA
330
90
100
AcDbEntity
  8
AM_9
100
AcDbEllipse
 10
1.216223663640818
 20
-0.0000000000000428
 30
0.0
 11
-4.018372309703634E-17
 21
-0.2187500000000752
 31
0.0
210
0.0
220
0.0
230
1.0
 40
0.7071067811865476
 41
0.9156936017150157
 42
2.225899051875089
  0
LINE
  5
AB
330
90
100
AcDbEntity
  8
AM_9
100
AcDbLine
 10
1.322289680818844
 20
0.0948683298050515
 30
0.0
 11
1.303675814389778
 21
0.107354891002899
 31
0.0
  0
LINE
  5
AC
330
90
100
AcDbEntity
  8
AM_9
100
AcDbLine
 10
1.303675814389778
 20
-0.1073548910028989
 30
0.0
 11
1.322289680818844
 21
-0.0948683298050513
 31
0.0
  0
ELLIPSE
  5
AD
330
90
100
AcDbEntity
  8
AM_9
100
AcDbEllipse
 10
1.29046987566545
 20
0.0
 30
0.0
 11
-1.928818708657084E-17
 21
-0.1050000000000001
 31
0.0
210
0.0
220
0.0
230
1.0
 40
0.7071067811865422
 41
0.0
 42
3.141592653589793
  0
ELLIPSE
  5
AE
330
90
100
AcDbEntity
  8
AM_9
100
AcDbEllipse
 10
1.216223663640861
 20
-0.0000000000000002
 30
0.0
 11
-3.926523799766175E-17
 21
-0.2137499999999986
 31
0.0
210
0.0
220
0.0
230
1.0
 40
0.7071067811865563
 41
0.9036552188403588
 42
2.237937434749436
  0
LINE
  5
AF
330
90
100
AcDbEntity
  8
AM_9
100
AcDbLine
 10
1.291788866547987
 20
-0.1049999999999999
 30
0.0
 11
1.311683079101045
 21
-0.1049999999999999
 31
0.0
  0
LINE
  5
B0
330
90
100
AcDbEntity
  8
AM_9
100
AcDbLine
 10
1.311683079101045
 20
0.1050000000000001
 30
0.0
 11
1.291788866547987
 21
0.1050000000000001
 31
0.0
  0
ELLIPSE
  5
B1
330
90
100
AcDbEntity
  8
AM_9
100
AcDbEllipse
 10
1.311683079101045
 20
0.0000000000000002
 30
0.0
 11
-1.928818708657086E-17
 21
-0.1050000000000003
 31
0.0
210
0.0
220
0.0
230
1.0
 40
0.7071067811865477
 41
5.759586531581288
 42
9.948376736367678
  0
ELLIPSE
  5
B2
330
90
100
AcDbEntity
  8
AM_9
100
AcDbEllipse
 10
1.267667889289826
 20
0.0000000000000013
 30
0.0
 11
-2.182689656892948E-17
 21
-0.1188200907348754
 31
0.0
210
0.0
220
0.0
230
1.0
 40
0.7071067811868278
 41
0.3762206261009755
 42
2.765372027488812
  0
LINE
  5
B3
330
90
100
AcDbEntity
  8
AM_9
100
AcDbLine
 10
1.350573602609522
 20
0.0192743186691521
 30
0.0
 11
1.34956076241853
 21
0.0279874918769154
 31
0.0
  0
LINE
  5
B4
330
90
100
AcDbEntity
  8
AM_9
100
AcDbLine
 10
1.34956076241853
 20
-0.0279874918769153
 30
0.0
 11
1.350573602609522
 21
-0.0192743186691519
 31
0.0
  0
ELLIPSE
  5
B5
330
90
100
AcDbEntity
  8
AM_9
100
AcDbEllipse
 10
1.22917658604824
 20
-0.0000000000000004
 30
0.0
 11
-3.169399141454446E-17
 21
-0.1725340532830149
 31
0.0
210
0.0
220
0.0
230
1.0
 40
0.7071067811865522
 41
0.7772913431420756
 42
2.364301310447723
  0
ELLIPSE
  5
B6
330
90
100
AcDbEntity
  8
AM_9
100
AcDbEllipse
 10
1.354109485972239
 20
0.0000000000000006
 30
0.0
 11
-2.479909768273380E-17
 21
-0.1349999999999995
 31
0.0
210
0.0
220
0.0
230
1.0
 40
0.707106781186546
 41
0.4159140521025408
 42
2.72567860148725
  0
ELLIPSE
  5
B7
330
90
100
AcDbEntity
  8
AM_9
100
AcDbEllipse
 10
1.145512985522207
 20
0.0000000000000002
 30
0.0
 11
-3.779601035290907E-17
 21
-0.2057518972230694
 31
0.0
210
0.0
220
0.0
230
1.0
 40
0.7071067811865458
 41
0.0
 42
6.283185307179586
  0
ELLIPSE
  5
B8
330
90
100
AcDbEntity
  8
AM_9
100
AcDbEllipse
 10
0.9840909402492257
 20
-0.0000000000000002
 30
0.0
 11
-3.648546613377890E-17
 21
-0.1986176267812156
 31
0.0
210
0.0
220
0.0
230
1.0
 40
0.7071067811865469
 41
0.0
 42
6.283185307179586
  0
ELLIPSE
  5
B9
330
90
100
AcDbEntity
  8
AM_9
100
AcDbEllipse
 10
1.145512985522207
 20
-0.0000000000000001
 30
0.0
 11
-4.018372309702250E-17
 21
-0.2187499999999998
 31
0.0
210
0.0
220
0.0
230
1.0
 40
0.7071067811865477
 41
0.0
 42
6.283185307179586
  0
LWPOLYLINE
  5
BB
330
90
100
AcDbEntity
  8
AM_4
100
AcDbPolyline
 90
        4
 70
     0
 43
0.0
 10
1.340236303519054
 20
0.1329492795575143
 10
1.33858758819573
 20
0.13671875
 10
1.326161679781515
 20
0.1640625
 10
1.29911621594527
 20
0.2187500000000001
  0
LWPOLYLINE
  5
BC
330
90
100
AcDbEntity
  8
AM_4
100
AcDbPolyline
 90
        4
 70
     0
 43
0.0
 10
1.29911621594527
 20
-0.2187499999999999
 10
1.326046344539133
 20
-0.1643083897258503
 10
1.338516704339113
 20
-0.1368799989092348
 10
1.340305318441892
 20
-0.1327906884851361
  0
ELLIPSE
  5
BD
330
90
100
AcDbEntity
  8
AM_4
100
AcDbEllipse
 10
1.216223663640863
 20
0.0000000000000006
 30
0.0
 11
-4.018372309702242E-17
 21
-0.2187499999999994
 31
0.0
210
0.0
220
0.0
230
1.0
 40
0.707106781186545
 41
2.225899051875107
 42
7.198878908894269
  0
ELLIPSE
  5
BE
330
90
100
AcDbEntity
  8
AM_4
100
AcDbEllipse
 10
1.267667889289844
 20
0.0000000000000001
 30
0.0
 11
-2.182689656893354E-17
 21
-0.1188200907348975
 31
0.0
210
0.0
220
0.0
230
1.0
 40
0.7071067811865483
 41
2.765372027488874
 42
6.659405933280507
  0
ELLIPSE
  5
BF
330
90
100
AcDbEntity
  8
AM_4
100
AcDbEllipse
 10
1.216223663640861
 20
0.0000000000000001
 30
0.0
 11
-3.926523799766204E-17
 21
-0.2137500000000002
 31
0.0
210
0.0
220
0.0
230
1.0
 40
0.707106781186547
 41
2.237937434749432
 42
7.186840526019948
  0
LINE
  5
C0
330
90
100
AcDbEntity
  8
AM_4
100
AcDbLine
 10
1.290469875665449
 20
-0.1049999999999999
 30
0.0
 11
1.291788866547987
 21
-0.1049999999999999
 31
0.0
  0
LINE
  5
C1
330
90
100
AcDbEntity
  8
AM_4
100
AcDbLine
 10
1.291788866547987
 20
0.1050000000000001
 30
0.0
 11
1.290469875665449
 21
0.1050000000000001
 31
0.0
  0
ELLIPSE
  5
C2
330
90
100
AcDbEntity
  8
AM_4
100
AcDbEllipse
 10
1.290469875665449
 20
0.0000000000000001
 30
0.0
 11
-1.928818708657084E-17
 21
-0.1050000000000001
 31
0.0
210
0.0
220
0.0
230
1.0
 40
0.7071067811865486
 41
3.141592653589793
 42
6.283185307179586
  0
ELLIPSE
  5
C3
330
90
100
AcDbEntity
  8
AM_4
100
AcDbEllipse
 10
1.229176586048241
 20
-0.0000000000000002
 30
0.0
 11
-3.169399141454455E-17
 21
-0.1725340532830154
 31
0.0
210
0.0
220
0.0
230
1.0
 40
0.7071067811865475
 41
2.364301310447727
 42
7.060476650321657
  0
LINE
  5
C4
330
90
100
AcDbEntity
  8
AM_4
100
AcDbLine
 10
1.29911621594527
 20
-0.2187499999999999
 30
0.0
 11
1.062620433217798
 21
-0.2187499999999999
 31
0.0
  0
LWPOLYLINE
  5
C5
330
90
100
AcDbEntity
  8
AM_4
100
AcDbPolyline
 90
        4
 70
     0
 43
0.0
 10
1.082267193332406
 20
-0.1093749999999999
 10
1.093000725963562
 20
-0.1367187499999999
 10
1.102900895934089
 20
-0.1640624999999999
 10
1.12050758886733
 20
-0.2187499999999999
  0
LWPOLYLINE
  5
C6
330
90
100
AcDbEntity
  8
AM_4
100
AcDbPolyline
 90
        4
 70
     0
 43
0.0
 10
1.011556515213752
 20
-0.1093749999999999
 10
1.000822982582596
 20
-0.0820312499999999
 10
0.9909228126120687
 20
-0.0546874999999999
 10
0.9733161196788278
 20
0.0000000000000001
  0
LWPOLYLINE
  5
C7
330
90
100
AcDbEntity
  8
AM_4
100
AcDbPolyline
 90
        4
 70
     0
 43
0.0
 10
1.062620433217798
 20
-0.2187499999999999
 10
1.035690304623936
 20
-0.1643083897258503
 10
1.023219944823956
 20
-0.1368799989092348
 10
1.011556515213752
 20
-0.1093749999999999
  0
LWPOLYLINE
  5
C8
330
90
100
AcDbEntity
  8
AM_4
100
AcDbPolyline
 90
        4
 70
     0
 43
0.0
 10
1.03120327532836
 20
0.0000000000000001
 10
1.058133403922223
 20
-0.0544416102741495
 10
1.070603763722202
 20
-0.081870001090765
 10
1.082267193332406
 20
-0.1093749999999999
  0
LINE
  5
C9
330
90
100
AcDbEntity
  8
AM_4
100
AcDbLine
 10
1.03120327532836
 20
0.0000000000000001
 30
0.0
 11
0.9733161196788278
 21
0.0000000000000001
 31
0.0
  0
LWPOLYLINE
  5
CA
330
90
100
AcDbEntity
  8
AM_4
100
AcDbPolyline
 90
        4
 70
     0
 43
0.0
 10
1.082267193332406
 20
0.109375
 10
1.07067464757882
 20
0.08203125
 10
1.058248739164604
 20
0.0546875
 10
1.03120327532836
 20
0.0000000000000001
  0
LWPOLYLINE
  5
CB
330
90
100
AcDbEntity
  8
AM_4
100
AcDbPolyline
 90
        4
 70
     0
 43
0.0
 10
1.12050758886733
 20
0.2187500000000001
 10
1.10298632881215
 20
0.1643083897258504
 10
1.093061501290014
 20
0.1368799989092349
 10
1.082267193332406
 20
0.109375
  0
LINE
  5
CC
330
90
100
AcDbEntity
  8
AM_4
100
AcDbLine
 10
1.29911621594527
 20
0.2187500000000001
 30
0.0
 11
1.062620433217798
 21
0.2187500000000001
 31
0.0
  0
LWPOLYLINE
  5
CD
330
90
100
AcDbEntity
  8
AM_4
100
AcDbPolyline
 90
        4
 70
     0
 43
0.0
 10
1.011556515213752
 20
0.109375
 10
1.023149060967338
 20
0.13671875
 10
1.035574969381554
 20
0.1640625
 10
1.062620433217798
 20
0.2187500000000001
  0
LWPOLYLINE
  5
CE
330
90
100
AcDbEntity
  8
AM_4
100
AcDbPolyline
 90
        4
 70
     0
 43
0.0
 10
0.9733161196788278
 20
0.0000000000000001
 10
0.9908373797340085
 20
0.0544416102741497
 10
1.000762207256145
 20
0.0818700010907651
 10
1.011556515213752
 20
0.109375
  0
LINE
  5
CF
330
90
100
AcDbEntity
  8
AM_4
100
AcDbLine
 10
1.274559973088752
 20
-0.090932667397366
 30
0.0
 11
1.306379778242146
 21
-0.1169134295108991
 31
0.0
  0
LINE
  5
D0
330
90
100
AcDbEntity
  8
AM_4
100
AcDbLine
 10
1.306379778242146
 20
0.1169134295108993
 30
0.0
 11
1.274559973088752
 21
0.0909326673973661
 31
0.0
  0
ELLIPSE
  5
D1
330
90
100
AcDbEntity
  8
AM_4
100
AcDbEllipse
 10
1.354109485972238
 20
0.0000000000000001
 30
0.0
 11
-2.479909768273392E-17
 21
-0.1350000000000001
 31
0.0
210
0.0
220
0.0
230
1.0
 40
0.7071067811865458
 41
2.725678601487247
 42
6.699099359282133
  0
ELLIPSE
  5
D2
330
90
100
AcDbEntity
  8
AM_4
100
AcDbEllipse
 10
1.311683079101045
 20
0.0000000000000001
 30
0.0
 11
-1.928818708657081E-17
 21
-0.105
 31
0.0
210
0.0
220
0.0
230
1.0
 40
0.7071067811865476
 41
3.665191429188091
 42
5.75958653158129
  0
LINE
  5
D3
330
90
100
AcDbEntity
  8
AM_4
100
AcDbLine
 10
1.440012045830937
 20
0.0939243440009288
 30
0.0
 11
1.392677593321047
 21
0.1234908992236335
 31
0.0
  0
LINE
  5
D4
330
90
100
AcDbEntity
  8
AM_4
100
AcDbLine
 10
1.392677593321047
 20
-0.1234908992236334
 30
0.0
 11
1.440012045830937
 21
-0.0939243440009286
 31
0.0
  0
ELLIPSE
  5
D5
330
90
100
AcDbEntity
  8
AM_4
100
AcDbEllipse
 10
1.410678028467161
 20
0.0000000000000002
 30
0.0
 11
-1.886162459184656E-17
 21
-0.1026779019331873
 31
0.0
210
0.0
220
0.0
230
1.0
 40
0.7071067811865539
 41
0.0
 42
6.283185307179586
  0
ENDBLK
  5
93
330
90
100
AcDbEntity
  8
0
100
AcDbBlockEnd
  0
BLOCK
  5
D8
330
D6
100
AcDbEntity
  8
0
100
AcDbBlockBegin
  2
3_131909_0_in_131895_4
 70
     2
 10
0.0
 20
0.0
 30
0.0
  3
3_131909_0_in_131895_4
  1

  0
ATTDEF
  5
DA
330
D6
100
AcDbEntity
  8
AM_6
100
AcDbText
 10
6.298003749999999
 20
0.58
 30
0.0
 40
0.5
  1
Eccentric Collar Insert Inch Bore
100
AcDbAttributeDefinition
  3

  2
NN
 70
     8
280
     0
  0
ATTDEF
  5
DB
330
D6
100
AcDbEntity
  8
AM_6
100
AcDbText
 10
6.298003749999999
 20
0.08
 30
0.0
 40
0.5
  1
SXR Normal Duty Bearing Inserts
100
AcDbAttributeDefinition
  3

  2
NT
 70
     8
280
     0
  0
ATTDEF
  5
DC
330
D6
100
AcDbEntity
  8
AM_6
100
AcDbText
 10
6.298003749999999
 20
-0.42
 30
0.0
 40
0.5
  1
131909
100
AcDbAttributeDefinition
  3

  2
NB
 70
     8
280
     0
  0
ATTDEF
  5
DD
330
D6
100
AcDbEntity
  8
AM_6
100
AcDbText
 10
6.298003749999999
 20
-0.92
 30
0.0
 40
0.5
  1
$PN.
100
AcDbAttributeDefinition
  3

  2
NBSYN
 70
     8
280
     0
  0
ATTDEF
  5
DE
330
D6
100
AcDbEntity
  8
AM_6
100
AcDbText
 10
6.298003749999999
 20
-1.42
 30
0.0
 40
0.5
  1
131909
100
AcDbAttributeDefinition
  3

  2
LINA
 70
     8
280
     0
  0
ATTDEF
  5
DF
330
D6
100
AcDbEntity
  8
AM_6
100
AcDbText
 10
6.298003749999999
 20
-1.92
 30
0.0
 40
0.5
  1
206
100
AcDbAttributeDefinition
  3

  2
SERIES
 70
     8
280
     0
  0
ATTDEF
  5
E0
330
D6
100
AcDbEntity
  8
AM_6
100
AcDbText
 10
6.298003749999999
 20
-2.42
 30
0.0
 40
0.5
  1
1-1/16
100
AcDbAttributeDefinition
  3

  2
SS
 70
     8
280
     0
  0
ATTDEF
  5
E1
330
D6
100
AcDbEntity
  8
AM_6
100
AcDbText
 10
6.298003749999999
 20
-2.92
 30
0.0
 40
0.5
  1
131909
100
AcDbAttributeDefinition
  3

  2
PN
 70
     8
280
     0
  0
ATTDEF
  5
E2
330
D6
100
AcDbEntity
  8
AM_6
100
AcDbText
 10
6.298003749999999
 20
-3.42
 30
0.0
 40
0.5
  1
INS-SXR-101
100
AcDbAttributeDefinition
  3

  2
DESCRIPTION
 70
     8
280
     0
  0
ATTDEF
  5
E3
330
D6
100
AcDbEntity
  8
AM_6
100
AcDbText
 10
6.298003749999999
 20
-3.92
 30
0.0
 40
0.5
  1
0.9
100
AcDbAttributeDefinition
  3

  2
WEIGHT
 70
     8
280
     0
  0
ATTDEF
  5
E4
330
D6
100
AcDbEntity
  8
AM_6
100
AcDbText
 10
6.298003749999999
 20
-4.42
 30
0.0
 40
0.5
  1
1.77
100
AcDbAttributeDefinition
  3

  2
A
 70
     8
280
     0
  0
ATTDEF
  5
E5
330
D6
100
AcDbEntity
  8
AM_6
100
AcDbText
 10
6.298003749999999
 20
-4.92
 30
0.0
 40
0.5
  1
0.69
100
AcDbAttributeDefinition
  3

  2
C
 70
     8
280
     0
  0
ATTDEF
  5
E6
330
D6
100
AcDbEntity
  8
AM_6
100
AcDbText
 10
6.298003749999999
 20
-5.42
 30
0.0
 40
0.5
  1
2.4409
100
AcDbAttributeDefinition
  3

  2
D
 70
     8
280
     0
  0
ATTDEF
  5
E7
330
D6
100
AcDbEntity
  8
AM_6
100
AcDbText
 10
6.298003749999999
 20
-5.92
 30
0.0
 40
0.5
  1
0.16
100
AcDbAttributeDefinition
  3

  2
J
 70
     8
280
     0
  0
ATTDEF
  5
E8
330
D6
100
AcDbEntity
  8
AM_6
100
AcDbText
 10
6.298003749999999
 20
-6.42
 30
0.0
 40
0.5
  1
1.75
100
AcDbAttributeDefinition
  3

  2
L
 70
     8
280
     0
  0
ATTDEF
  5
E9
330
D6
100
AcDbEntity
  8
AM_6
100
AcDbText
 10
6.298003749999999
 20
-6.92
 30
0.0
 40
0.5
  1
5/16 - 24
100
AcDbAttributeDefinition
  3

  2
N
 70
     8
280
     0
  0
ATTDEF
  5
EA
330
D6
100
AcDbEntity
  8
AM_6
100
AcDbText
 10
6.298003749999999
 20
-7.42
 30
0.0
 40
0.5
  1
0.58
100
AcDbAttributeDefinition
  3

  2
W
 70
     8
280
     0
  0
ATTDEF
  5
EB
330
D6
100
AcDbEntity
  8
AM_6
100
AcDbText
 10
6.298003749999999
 20
-7.92
 30
0.0
 40
0.5
  1
1.19
100
AcDbAttributeDefinition
  3

  2
Y
 70
     8
280
     0
  0
ATTDEF
  5
EC
330
D6
100
AcDbEntity
  8
AM_6
100
AcDbText
 10
6.298003749999999
 20
-8.42
 30
0.0
 40
0.5
  1
1.57
100
AcDbAttributeDefinition
  3

  2
Z
 70
     8
280
     0
  0
ATTDEF
  5
ED
330
D6
100
AcDbEntity
  8
AM_6
100
AcDbText
 10
6.298003749999999
 20
-8.92
 30
0.0
 40
0.5
  1
baldor
100
AcDbAttributeDefinition
  3

  2
COMPANY
 70
     8
280
     0
  0
ARC
  5
EE
330
D6
100
AcDbEntity
  8
AM_9
100
AcDbCircle
 10
1.169408333333334
 20
0.1600000000000002
 30
0.0
 40
0.1041666666666667
100
AcDbArc
 50
298.1459208306514
 51
77.43589807515974
  0
LINE
  5
EF
330
D6
100
AcDbEntity
  8
AM_9
100
AcDbLine
 10
0.53125
 20
-1.1762
 30
0.0
 11
0.53125
 21
-0.7310080735803741
 31
0.0
  0
LINE
  5
F0
330
D6
100
AcDbEntity
  8
AM_9
100
AcDbLine
 10
-0.53125
 20
-0.7310080735803741
 30
0.0
 11
-0.53125
 21
-1.1762
 31
0.0
  0
LINE
  5
F1
330
D6
100
AcDbEntity
  8
AM_9
100
AcDbLine
 10
0.53125
 20
-0.7114919264196256
 30
0.0
 11
0.53125
 21
0.5661999999999999
 31
0.0
  0
LINE
  5
F2
330
D6
100
AcDbEntity
  8
AM_9
100
AcDbLine
 10
-0.53125
 20
0.5661999999999999
 30
0.0
 11
-0.53125
 21
-0.7114919264196256
 31
0.0
  0
LINE
  5
F3
330
D6
100
AcDbEntity
  8
AM_9
100
AcDbLine
 10
-0.53125
 20
-0.7114919264196256
 30
0.0
 11
0.53125
 21
-0.7114919264196256
 31
0.0
  0
LINE
  5
F4
330
D6
100
AcDbEntity
  8
AM_9
100
AcDbLine
 10
-0.53125
 20
-0.7114919264196256
 30
0.0
 11
-0.5410080735803744
 21
-0.72125
 31
0.0
  0
LINE
  5
F5
330
D6
100
AcDbEntity
  8
AM_9
100
AcDbLine
 10
0.5410080735803744
 20
-0.72125
 30
0.0
 11
0.53125
 21
-0.7114919264196256
 31
0.0
  0
LINE
  5
F6
330
D6
100
AcDbEntity
  8
AM_9
100
AcDbLine
 10
-0.5410080735803744
 20
-0.72125
 30
0.0
 11
0.5410080735803744
 21
-0.72125
 31
0.0
  0
LINE
  5
F7
330
D6
100
AcDbEntity
  8
AM_9
100
AcDbLine
 10
-0.53125
 20
-0.7310080735803741
 30
0.0
 11
0.53125
 21
-0.7310080735803741
 31
0.0
  0
LINE
  5
F8
330
D6
100
AcDbEntity
  8
AM_9
100
AcDbLine
 10
0.53125
 20
-0.7310080735803741
 30
0.0
 11
0.5410080735803744
 21
-0.72125
 31
0.0
  0
LINE
  5
F9
330
D6
100
AcDbEntity
  8
AM_9
100
AcDbLine
 10
-0.5410080735803744
 20
-0.72125
 30
0.0
 11
-0.53125
 21
-0.7310080735803741
 31
0.0
  0
LINE
  5
FA
330
D6
100
AcDbEntity
  8
AM_9
100
AcDbLine
 10
0.53125
 20
0.5661999999999999
 30
0.0
 11
0.54505
 21
0.58
 31
0.0
  0
LINE
  5
FB
330
D6
100
AcDbEntity
  8
AM_9
100
AcDbLine
 10
-0.54505
 20
0.58
 30
0.0
 11
-0.53125
 21
0.5661999999999999
 31
0.0
  0
LINE
  5
FC
330
D6
100
AcDbEntity
  8
AM_9
100
AcDbLine
 10
-0.53125
 20
-1.1762
 30
0.0
 11
0.53125
 21
-1.1762
 31
0.0
  0
LINE
  5
FD
330
D6
100
AcDbEntity
  8
AM_9
100
AcDbLine
 10
-0.53125
 20
-1.1762
 30
0.0
 11
-0.54505
 21
-1.19
 31
0.0
  0
LINE
  5
FE
330
D6
100
AcDbEntity
  8
AM_9
100
AcDbLine
 10
0.54505
 20
-1.19
 30
0.0
 11
0.53125
 21
-1.1762
 31
0.0
  0
LINE
  5
FF
330
D6
100
AcDbEntity
  8
AM_9
100
AcDbLine
 10
0.7849999999999999
 20
0.345
 30
0.0
 11
0.7849999999999999
 21
0.5546524377106004
 31
0.0
  0
LINE
  5
100
330
D6
100
AcDbEntity
  8
AM_9
100
AcDbLine
 10
-0.7849999999999999
 20
0.5546524377106004
 30
0.0
 11
-0.7849999999999999
 21
0.345
 31
0.0
  0
LINE
  5
101
330
D6
100
AcDbEntity
  8
AM_9
100
AcDbLine
 10
0.7850000000000001
 20
-0.5546524377106007
 30
0.0
 11
0.7850000000000001
 21
-0.3449999999999999
 31
0.0
  0
LINE
  5
102
330
D6
100
AcDbEntity
  8
AM_9
100
AcDbLine
 10
-0.7850000000000001
 20
-0.3449999999999999
 30
0.0
 11
-0.7850000000000001
 21
-0.5546524377106007
 31
0.0
  0
LINE
  5
103
330
D6
100
AcDbEntity
  8
AM_9
100
AcDbLine
 10
1.162333333333333
 20
-0.192
 30
0.0
 11
1.162333333333333
 21
-0.128
 31
0.0
  0
LINE
  5
104
330
D6
100
AcDbEntity
  8
AM_9
100
AcDbLine
 10
-1.162333333333333
 20
-0.128
 30
0.0
 11
-1.162333333333333
 21
-0.192
 31
0.0
  0
LINE
  5
105
330
D6
100
AcDbEntity
  8
AM_9
100
AcDbLine
 10
-1.149847104377708
 20
-0.3449999999999999
 30
0.0
 11
1.149847104377023
 21
-0.3449999999999999
 31
0.0
  0
ARC
  5
106
330
D6
100
AcDbEntity
  8
AM_9
100
AcDbCircle
 10
1.149847103966436
 20
-0.3173999999999997
 30
0.0
 40
0.0276000000000001
100
AcDbArc
 50
270.0
 51
344.5685410600328
  0
ARC
  5
107
330
D6
100
AcDbEntity
  8
AM_9
100
AcDbCircle
 10
-1.149847103966436
 20
-0.3173999999999995
 30
0.0
 40
0.0276000000000003
100
AcDbArc
 50
195.4314589399679
 51
270.0
  0
LINE
  5
108
330
D6
100
AcDbEntity
  8
AM_9
100
AcDbLine
 10
-1.149847103966436
 20
0.3449999999999999
 30
0.0
 11
1.14984710396575
 21
0.3449999999999999
 31
0.0
  0
ARC
  5
109
330
D6
100
AcDbEntity
  8
AM_9
100
AcDbCircle
 10
1.149847103966437
 20
0.3174000000000008
 30
0.0
 40
0.0275999999999992
100
AcDbArc
 50
15.43145893996498
 51
90.0
  0
ARC
  5
10A
330
D6
100
AcDbEntity
  8
AM_9
100
AcDbCircle
 10
-1.149847103966437
 20
0.3174000000000008
 30
0.0
 40
0.0275999999999991
100
AcDbArc
 50
90.0
 51
164.568541060035
  0
LINE
  5
10B
330
D6
100
AcDbEntity
  8
AM_9
100
AcDbLine
 10
-1.205252754612077
 20
-0.192
 30
0.0
 11
1.205252754611962
 21
-0.192
 31
0.0
  0
LINE
  5
10C
330
D6
100
AcDbEntity
  8
AM_9
100
AcDbLine
 10
-1.176452108845066
 20
-0.3247439577482502
 30
0.0
 11
1.176452108844951
 21
-0.3247439577482502
 31
0.0
  0
ARC
  5
10D
330
D6
100
AcDbEntity
  8
AM_9
100
AcDbCircle
 10
-0.0000000000707285
 20
0.0000000000153229
 30
0.0
 40
1.220450000072145
100
AcDbArc
 50
344.5685410602223
 51
350.9486832418347
  0
ARC
  5
10E
330
D6
100
AcDbEntity
  8
AM_9
100
AcDbCircle
 10
0.0000000000707101
 20
0.0000000000153188
 30
0.0
 40
1.220450000072126
100
AcDbArc
 50
189.0513167581653
 51
195.4314589397777
  0
LINE
  5
10F
330
D6
100
AcDbEntity
  8
AM_9
100
AcDbLine
 10
-1.213719161297209
 20
-0.1279999999999996
 30
0.0
 11
1.213719161297212
 21
-0.1279999999999996
 31
0.0
  0
LINE
  5
110
330
D6
100
AcDbEntity
  8
AM_9
100
AcDbLine
 10
1.192067890428762
 20
0.261672213100156
 30
0.0
 11
1.218545700813706
 21
0.0681511373965723
 31
0.0
  0
LINE
  5
111
330
D6
100
AcDbEntity
  8
AM_9
100
AcDbLine
 10
-1.176452108845066
 20
0.32474395774825
 30
0.0
 11
1.176452108845069
 21
0.3247439577482499
 31
0.0
  0
ARC
  5
112
330
D6
100
AcDbEntity
  8
AM_9
100
AcDbCircle
 10
0.000000000000546
 20
0.0000000000000037
 30
0.0
 40
1.22044999999946
100
AcDbArc
 50
353.979784683446
 51
3.201118206852955
  0
ARC
  5
113
330
D6
100
AcDbEntity
  8
AM_9
100
AcDbCircle
 10
0.0000000000039464
 20
0.0000000000009213
 30
0.0
 40
1.220449999995953
100
AcDbArc
 50
12.38070069895715
 51
15.43145893997394
  0
ARC
  5
114
330
D6
100
AcDbEntity
  8
AM_9
100
AcDbCircle
 10
-0.0000000000001681
 20
0.0000000000000134
 30
0.0
 40
1.220449999999837
100
AcDbArc
 50
164.5685410600322
 51
186.0202153165526
  0
LINE
  5
117
330
D6
100
AcDbEntity
  8
AM_7
100
AcDbLine
 10
0.7605712499999999
 20
0.16
 30
0.0
 11
1.29800375
 21
0.16
 31
0.0
  0
LINE
  5
118
330
D6
100
AcDbEntity
  8
AM_4
100
AcDbLine
 10
0.7476190476190476
 20
-0.6587500000000001
 30
0.0
 11
0.7476190476190476
 21
-0.6275000000000001
 31
0.0
  0
LINE
  5
119
330
D6
100
AcDbEntity
  8
AM_4
100
AcDbLine
 10
-0.7476190476190476
 20
-0.6275000000000001
 30
0.0
 11
-0.7476190476190476
 21
-0.6587500000000001
 31
0.0
  0
LINE
  5
11A
330
D6
100
AcDbEntity
  8
AM_4
100
AcDbLine
 10
-0.7712
 20
-0.6275000000000001
 30
0.0
 11
0.7712
 21
-0.6275000000000001
 31
0.0
  0
LINE
  5
11B
330
D6
100
AcDbEntity
  8
AM_4
100
AcDbLine
 10
0.7712
 20
-0.6275000000000001
 30
0.0
 11
0.7849999999999999
 21
-0.6136999999999999
 31
0.0
  0
LINE
  5
11C
330
D6
100
AcDbEntity
  8
AM_4
100
AcDbLine
 10
-0.7849999999999999
 20
-0.6136999999999999
 30
0.0
 11
-0.7712
 21
-0.6275000000000001
 31
0.0
  0
LINE
  5
11D
330
D6
100
AcDbEntity
  8
AM_4
100
AcDbLine
 10
-0.7712
 20
0.58
 30
0.0
 11
0.7712
 21
0.58
 31
0.0
  0
LINE
  5
11E
330
D6
100
AcDbEntity
  8
AM_4
100
AcDbLine
 10
-0.7712
 20
0.58
 30
0.0
 11
-0.7849999999999999
 21
0.5661999999999999
 31
0.0
  0
LINE
  5
11F
330
D6
100
AcDbEntity
  8
AM_4
100
AcDbLine
 10
0.7849999999999999
 20
0.5661999999999999
 30
0.0
 11
0.7712
 21
0.58
 31
0.0
  0
LINE
  5
120
330
D6
100
AcDbEntity
  8
AM_4
100
AcDbLine
 10
-0.7849999999999999
 20
0.5661999999999999
 30
0.0
 11
0.7849999999999999
 21
0.5661999999999999
 31
0.0
  0
LINE
  5
121
330
D6
100
AcDbEntity
  8
AM_4
100
AcDbLine
 10
0.7849999999999999
 20
0.5546524377106004
 30
0.0
 11
0.7849999999999999
 21
0.5661999999999999
 31
0.0
  0
LINE
  5
122
330
D6
100
AcDbEntity
  8
AM_4
100
AcDbLine
 10
-0.7849999999999999
 20
0.5661999999999999
 30
0.0
 11
-0.7849999999999999
 21
0.5546524377106004
 31
0.0
  0
LINE
  5
123
330
D6
100
AcDbEntity
  8
AM_4
100
AcDbLine
 10
-0.7849999999999999
 20
-0.6136999999999999
 30
0.0
 11
0.7850000000000001
 21
-0.6136999999999999
 31
0.0
  0
LINE
  5
124
330
D6
100
AcDbEntity
  8
AM_4
100
AcDbLine
 10
0.7850000000000001
 20
-0.6136999999999999
 30
0.0
 11
0.7850000000000001
 21
-0.5546524377106007
 31
0.0
  0
LINE
  5
125
330
D6
100
AcDbEntity
  8
AM_4
100
AcDbLine
 10
-0.7850000000000001
 20
-0.5546524377106007
 30
0.0
 11
-0.7850000000000001
 21
-0.6136999999999999
 31
0.0
  0
LINE
  5
126
330
D6
100
AcDbEntity
  8
AM_4
100
AcDbLine
 10
-0.8359375000000001
 20
-0.6587500000000001
 30
0.0
 11
0.8359374999920183
 21
-0.6587500000000001
 31
0.0
  0
ARC
  5
127
330
D6
100
AcDbEntity
  8
AM_4
100
AcDbCircle
 10
0.8359375000000002
 20
-0.6978124999999998
 30
0.0
 40
0.0390624999999998
100
AcDbArc
 50
0.0
 51
90.0
  0
ARC
  5
128
330
D6
100
AcDbEntity
  8
AM_4
100
AcDbCircle
 10
-0.8359375000000002
 20
-0.6978124999999998
 30
0.0
 40
0.0390624999999999
100
AcDbArc
 50
90.0
 51
180.0
  0
ARC
  5
129
330
D6
100
AcDbEntity
  8
AM_4
100
AcDbCircle
 10
0.0
 20
-0.9556250000000001
 30
0.0
 40
0.1393499999999999
100
AcDbArc
 50
210.8679120398981
 51
329.132087960102
  0
ARC
  5
12A
330
D6
100
AcDbEntity
  8
AM_4
100
AcDbCircle
 10
0.0
 20
-0.9556249999999998
 30
0.0
 40
0.1393499999999999
100
AcDbArc
 50
30.867912039898
 51
149.132087960102
  0
LINE
  5
12B
330
D6
100
AcDbEntity
  8
AM_4
100
AcDbLine
 10
-0.8359375
 20
-1.19
 30
0.0
 11
0.8359361856601215
 21
-1.19
 31
0.0
  0
ARC
  5
12C
330
D6
100
AcDbEntity
  8
AM_4
100
AcDbCircle
 10
0.8359374999999998
 20
-1.1509375
 30
0.0
 40
0.0390625000000002
100
AcDbArc
 50
270.0
 51
0.0
  0
ARC
  5
12D
330
D6
100
AcDbEntity
  8
AM_4
100
AcDbCircle
 10
-0.8359374999999998
 20
-1.1509375
 30
0.0
 40
0.0390625000000002
100
AcDbArc
 50
180.0
 51
270.0
  0
LINE
  5
12E
330
D6
100
AcDbEntity
  8
AM_4
100
AcDbLine
 10
-0.875
 20
-1.1509375
 30
0.0
 11
0.875
 21
-1.1509375
 31
0.0
  0
LWPOLYLINE
  5
12F
330
D6
100
AcDbEntity
  8
AM_4
100
AcDbPolyline
 90
        8
 70
     0
 43
0.0
 10
-0.1196114034662647
 20
-1.027119997453181
 10
-0.1298314143998839
 20
-1.006205656284562
 10
-0.1364580339227481
 20
-0.9838672994449486
 10
-0.1392429548040496
 20
-0.9607062877266508
 10
-0.1381531485863606
 20
-0.937400564873638
 10
-0.1332076147938108
 20
-0.9147549347382867
 10
-0.1246111254288674
 20
-0.893251208073013
 10
-0.1196114034662648
 20
-0.8841300025468185
  0
LWPOLYLINE
  5
130
330
D6
100
AcDbEntity
  8
AM_4
100
AcDbPolyline
 90
       15
 70
     0
 43
0.0
 10
-0.1196114034662647
 20
-0.8841300025468185
 10
-0.1103512699409539
 20
-0.8685351973791043
 10
-0.0990752927004443
 20
-0.8539877937899369
 10
-0.081119336461671
 20
-0.8368949306435907
 10
-0.0596532036351504
 20
-0.8228849211810005
 10
-0.0383835646768858
 20
-0.8140130723543582
 10
-0.0150767632130476
 20
-0.8089638915667555
 10
0.0062686939971924
 20
-0.8082167688445521
 10
0.0280732809231466
 20
-0.8112149615443763
 10
0.0479263561701207
 20
-0.8174503167018575
 10
0.067004789697993
 20
-0.8270411648369878
 10
0.0845046350403331
 20
-0.83967807810174
 10
0.1001955667032146
 20
-0.8552733635566746
 10
0.1106831644786779
 20
-0.869025957308755
 10
0.1196114034662647
 20
-0.8841300025468185
  0
LWPOLYLINE
  5
131
330
D6
100
AcDbEntity
  8
AM_4
100
AcDbPolyline
 90
        8
 70
     0
 43
0.0
 10
0.1196114034662647
 20
-0.8841300025468185
 10
0.1298314143998839
 20
-0.9050443437154378
 10
0.1364580339227481
 20
-0.9273827005550515
 10
0.1392429548040496
 20
-0.9505437122733492
 10
0.1381531485863606
 20
-0.973849435126362
 10
0.1332076147938108
 20
-0.9964950652617133
 10
0.1246111254288674
 20
-1.017998791926987
 10
0.1196114034662648
 20
-1.027119997453181
  0
LWPOLYLINE
  5
132
330
D6
100
AcDbEntity
  8
AM_4
100
AcDbPolyline
 90
       15
 70
     0
 43
0.0
 10
0.1196114034662647
 20
-1.027119997453181
 10
0.1103512699409538
 20
-1.042714802620896
 10
0.0990752927004444
 20
-1.057262206210063
 10
0.0811193364616709
 20
-1.074355069356409
 10
0.0596532036351503
 20
-1.088365078819
 10
0.0383835646768857
 20
-1.097236927645642
 10
0.0150767632130475
 20
-1.102286108433244
 10
-0.0062686939971925
 20
-1.103033231155448
 10
-0.0280732809231466
 20
-1.100035038455623
 10
-0.0479263561701208
 20
-1.093799683298142
 10
-0.0670047896979931
 20
-1.084208835163012
 10
-0.0845046350403332
 20
-1.07157192189826
 10
-0.1001955667032146
 20
-1.055976636443325
 10
-0.1106831644786779
 20
-1.042224042691245
 10
-0.1196114034662647
 20
-1.027119997453181
  0
LINE
  5
133
330
D6
100
AcDbEntity
  8
AM_4
100
AcDbLine
 10
-0.875
 20
-0.6978124999999997
 30
0.0
 11
0.875
 21
-0.6978124999999997
 31
0.0
  0
LINE
  5
134
330
D6
100
AcDbEntity
  8
AM_4
100
AcDbLine
 10
0.875
 20
-1.1509375
 30
0.0
 11
0.875
 21
-0.6978124999999997
 31
0.0
  0
LINE
  5
135
330
D6
100
AcDbEntity
  8
AM_4
100
AcDbLine
 10
-0.875
 20
-0.6978124999999997
 30
0.0
 11
-0.875
 21
-1.1509375
 31
0.0
  0
ARC
  5
137
330
D6
100
AcDbEntity
  8
AM_5
100
AcDbCircle
 10
0.0
 20
-0.955625
 30
0.0
 40
0.15625
100
AcDbArc
 50
75.00000000000001
 51
15.0
  0
ENDBLK
  5
D9
330
D6
100
AcDbEntity
  8
0
100
AcDbBlockEnd
  0
BLOCK
  5
13A
330
138
100
AcDbEntity
  8
0
100
AcDbBlockBegin
  2
4_131895H_0_in_131895_4
 70
     2
 10
0.0
 20
0.0
 30
0.0
  3
4_131895H_0_in_131895_4
  1

  0
ATTDEF
  5
13C
330
138
100
AcDbEntity
  8
AM_6
100
AcDbText
 10
8.125
 20
0.9625
 30
0.0
 40
0.5
  1
P2B-SXRU -I-Housing
100
AcDbAttributeDefinition
  3

  2
NN
 70
     8
280
     0
  0
ATTDEF
  5
13D
330
138
100
AcDbEntity
  8
AM_6
100
AcDbText
 10
8.125
 20
0.4625
 30
0.0
 40
0.5
  1
Eccentric Collar Pillow Block Bearings -(Normal Duty) -Higher Backing
100
AcDbAttributeDefinition
  3

  2
NT
 70
     8
280
     0
  0
ATTDEF
  5
13E
330
138
100
AcDbEntity
  8
AM_6
100
AcDbText
 10
8.125
 20
-0.0375
 30
0.0
 40
0.5
  1
131895H
100
AcDbAttributeDefinition
  3

  2
NB
 70
     8
280
     0
  0
ATTDEF
  5
13F
330
138
100
AcDbEntity
  8
AM_6
100
AcDbText
 10
8.125
 20
-0.5375
 30
0.0
 40
0.5
  1
$PN.H
100
AcDbAttributeDefinition
  3

  2
NBSYN
 70
     8
280
     0
  0
ATTDEF
  5
140
330
138
100
AcDbEntity
  8
AM_6
100
AcDbText
 10
8.125
 20
-1.0375
 30
0.0
 40
0.5
  1
131895
100
AcDbAttributeDefinition
  3

  2
LINA
 70
     8
280
     0
  0
ATTDEF
  5
141
330
138
100
AcDbEntity
  8
AM_6
100
AcDbText
 10
8.125
 20
-1.5375
 30
0.0
 40
0.5
  1
206
100
AcDbAttributeDefinition
  3

  2
SERIES
 70
     8
280
     0
  0
ATTDEF
  5
142
330
138
100
AcDbEntity
  8
AM_6
100
AcDbText
 10
8.125
 20
-2.0375
 30
0.0
 40
0.5
  1
1-1/16
100
AcDbAttributeDefinition
  3

  2
SS
 70
     8
280
     0
  0
ATTDEF
  5
143
330
138
100
AcDbEntity
  8
AM_6
100
AcDbText
 10
8.125
 20
-2.5375
 30
0.0
 40
0.5
  1
131895
100
AcDbAttributeDefinition
  3

  2
PN
 70
     8
280
     0
  0
ATTDEF
  5
144
330
138
100
AcDbEntity
  8
AM_6
100
AcDbText
 10
8.125
 20
-3.0375
 30
0.0
 40
0.5
  1
P2B-SXRU-101
100
AcDbAttributeDefinition
  3

  2
DESCRIPTION
 70
     8
280
     0
  0
ATTDEF
  5
145
330
138
100
AcDbEntity
  8
AM_6
100
AcDbText
 10
8.125
 20
-3.5375
 30
0.0
 40
0.5
  1
2.9
100
AcDbAttributeDefinition
  3

  2
WEIGHT
 70
     8
280
     0
  0
ATTDEF
  5
146
330
138
100
AcDbEntity
  8
AM_6
100
AcDbText
 10
8.125
 20
-4.0375
 30
0.0
 40
0.5
  1
RE-LUBE
100
AcDbAttributeDefinition
  3

  2
LF
 70
     8
280
     0
  0
ATTDEF
  5
147
330
138
100
AcDbEntity
  8
AM_6
100
AcDbText
 10
8.125
 20
-4.5375
 30
0.0
 40
0.5
  1
1.77
100
AcDbAttributeDefinition
  3

  2
A
 70
     8
280
     0
  0
ATTDEF
  5
148
330
138
100
AcDbEntity
  8
AM_6
100
AcDbText
 10
8.125
 20
-5.0375
 30
0.0
 40
0.5
  1
6.25
100
AcDbAttributeDefinition
  3

  2
B
 70
     8
280
     0
  0
ATTDEF
  5
149
330
138
100
AcDbEntity
  8
AM_6
100
AcDbText
 10
8.125
 20
-5.5375
 30
0.0
 40
0.5
  1
1.75
100
AcDbAttributeDefinition
  3

  2
C
 70
     8
280
     0
  0
ATTDEF
  5
14A
330
138
100
AcDbEntity
  8
AM_6
100
AcDbText
 10
8.125
 20
-6.0375
 30
0.0
 40
0.5
  1
4.25
100
AcDbAttributeDefinition
  3

  2
DMIN
 70
     8
280
     0
  0
ATTDEF
  5
14B
330
138
100
AcDbEntity
  8
AM_6
100
AcDbText
 10
8.125
 20
-6.5375
 30
0.0
 40
0.5
  1
5.00
100
AcDbAttributeDefinition
  3

  2
DMAX
 70
     8
280
     0
  0
ATTDEF
  5
14C
330
138
100
AcDbEntity
  8
AM_6
100
AcDbText
 10
8.125
 20
-7.0375
 30
0.0
 40
0.5
  1
1/2
100
AcDbAttributeDefinition
  3

  2
F
 70
     8
280
     0
  0
ATTDEF
  5
14D
330
138
100
AcDbEntity
  8
AM_6
100
AcDbText
 10
8.125
 20
-7.5375
 30
0.0
 40
0.5
  1
0.94
100
AcDbAttributeDefinition
  3

  2
G
 70
     8
280
     0
  0
ATTDEF
  5
14E
330
138
100
AcDbEntity
  8
AM_6
100
AcDbText
 10
8.125
 20
-8.0375
 30
0.0
 40
0.5
  1
0.75
100
AcDbAttributeDefinition
  3

  2
H
 70
     8
280
     0
  0
ATTDEF
  5
14F
330
138
100
AcDbEntity
  8
AM_6
100
AcDbText
 10
8.125
 20
-8.5375
 30
0.0
 40
0.5
  1
3.31
100
AcDbAttributeDefinition
  3

  2
J
 70
     8
280
     0
  0
ATTDEF
  5
150
330
138
100
AcDbEntity
  8
AM_6
100
AcDbText
 10
8.125
 20
-9.0375
 30
0.0
 40
0.5
  1
1.75
100
AcDbAttributeDefinition
  3

  2
L
 70
     8
280
     0
  0
ATTDEF
  5
151
330
138
100
AcDbEntity
  8
AM_6
100
AcDbText
 10
8.125
 20
-9.5375
 30
0.0
 40
0.5
  1
1.69
100
AcDbAttributeDefinition
  3

  2
M
 70
     8
280
     0
  0
ATTDEF
  5
152
330
138
100
AcDbEntity
  8
AM_6
100
AcDbText
 10
8.125
 20
-10.0375
 30
0.0
 40
0.5
  1
0.58
100
AcDbAttributeDefinition
  3

  2
R
 70
     8
280
     0
  0
ATTDEF
  5
153
330
138
100
AcDbEntity
  8
AM_6
100
AcDbText
 10
8.125
 20
-10.5375
 30
0.0
 40
0.5
  1
1.19
100
AcDbAttributeDefinition
  3

  2
S
 70
     8
280
     0
  0
ATTDEF
  5
154
330
138
100
AcDbEntity
  8
AM_6
100
AcDbText
 10
8.125
 20
-11.0375
 30
0.0
 40
0.5
  1
2.88
100
AcDbAttributeDefinition
  3

  2
U
 70
     8
280
     0
  0
ATTDEF
  5
155
330
138
100
AcDbEntity
  8
AM_6
100
AcDbText
 10
8.125
 20
-11.5375
 30
0.0
 40
0.5
  1
5.76
100
AcDbAttributeDefinition
  3

  2
V
 70
     8
280
     0
  0
ATTDEF
  5
156
330
138
100
AcDbEntity
  8
AM_6
100
AcDbText
 10
8.125
 20
-12.0375
 30
0.0
 40
0.5
  1
0.56
100
AcDbAttributeDefinition
  3

  2
W
 70
     8
280
     0
  0
ATTDEF
  5
157
330
138
100
AcDbEntity
  8
AM_6
100
AcDbText
 10
8.125
 20
-12.5375
 30
0.0
 40
0.5
  1
0.12
100
AcDbAttributeDefinition
  3

  2
X
 70
     8
280
     0
  0
ATTDEF
  5
158
330
138
100
AcDbEntity
  8
AM_6
100
AcDbText
 10
8.125
 20
-13.0375
 30
0.0
 40
0.5
  1
2250
100
AcDbAttributeDefinition
  3

  2
CAPS
 70
     8
280
     0
  0
ATTDEF
  5
159
330
138
100
AcDbEntity
  8
AM_6
100
AcDbText
 10
8.125
 20
-13.5375
 30
0.0
 40
0.5
  1
4368
100
AcDbAttributeDefinition
  3

  2
CAPD
 70
     8
280
     0
  0
ATTDEF
  5
15A
330
138
100
AcDbEntity
  8
AM_6
100
AcDbText
 10
8.125
 20
-14.0375
 30
0.0
 40
0.5
  1
baldor
100
AcDbAttributeDefinition
  3

  2
COMPANY
 70
     8
280
     0
  0
LINE
  5
15B
330
138
100
AcDbEntity
  8
AM_9
100
AcDbLine
 10
1.198574999999999
 20
0.4374999999999998
 30
0.0
 11
1.198574999999999
 21
0.6999999999999997
 31
0.0
  0
LINE
  5
15C
330
138
100
AcDbEntity
  8
AM_9
100
AcDbLine
 10
-1.198575
 20
0.4374999999999998
 30
0.0
 11
-1.198575
 21
0.6999999999999997
 31
0.0
  0
LINE
  5
15D
330
138
100
AcDbEntity
  8
AM_9
100
AcDbLine
 10
1.273575
 20
-0.7000000000000001
 30
0.0
 11
1.273575
 21
-0.4375000000000001
 31
0.0
  0
LINE
  5
15E
330
138
100
AcDbEntity
  8
AM_9
100
AcDbLine
 10
1.198574999999999
 20
-0.7000000000000001
 30
0.0
 11
1.198574999999999
 21
-0.4375000000000001
 31
0.0
  0
LINE
  5
15F
330
138
100
AcDbEntity
  8
AM_9
100
AcDbLine
 10
-1.273575
 20
-0.7000000000000006
 30
0.0
 11
-1.273575
 21
-0.4375000000000001
 31
0.0
  0
LINE
  5
160
330
138
100
AcDbEntity
  8
AM_9
100
AcDbLine
 10
-1.198575
 20
-0.7000000000000001
 30
0.0
 11
-1.198575
 21
-0.4375000000000001
 31
0.0
  0
LINE
  5
161
330
138
100
AcDbEntity
  8
AM_9
100
AcDbLine
 10
-2.6325
 20
-0.4375000000000001
 30
0.0
 11
-2.6325
 21
-0.2494994989974929
 31
0.0
  0
LINE
  5
162
330
138
100
AcDbEntity
  8
AM_9
100
AcDbLine
 10
-2.7825
 20
-0.4375000000000001
 30
0.0
 11
-2.7825
 21
0.4374999999999999
 31
0.0
  0
LINE
  5
163
330
138
100
AcDbEntity
  8
AM_9
100
AcDbLine
 10
-1.753239373190544
 20
-0.4375000000000001
 30
0.0
 11
-1.753239373190544
 21
0.4374999999999999
 31
0.0
  0
LINE
  5
164
330
138
100
AcDbEntity
  8
AM_9
100
AcDbLine
 10
-2.6325
 20
0.2494994989974933
 30
0.0
 11
-2.6325
 21
0.4374999999999999
 31
0.0
  0
LINE
  5
165
330
138
100
AcDbEntity
  8
AM_9
100
AcDbLine
 10
2.632499999999999
 20
-0.4375000000000001
 30
0.0
 11
2.632499999999999
 21
-0.2494994989974934
 31
0.0
  0
LINE
  5
166
330
138
100
AcDbEntity
  8
AM_9
100
AcDbLine
 10
2.7825
 20
-0.4375000000000001
 30
0.0
 11
2.7825
 21
0.4374999999999999
 31
0.0
  0
LINE
  5
167
330
138
100
AcDbEntity
  8
AM_9
100
AcDbLine
 10
2.632499999999999
 20
0.2494994989974933
 30
0.0
 11
2.632499999999999
 21
0.4374999999999999
 31
0.0
  0
LINE
  5
168
330
138
100
AcDbEntity
  8
AM_9
100
AcDbLine
 10
1.753239373190547
 20
-0.4375000000000001
 30
0.0
 11
1.753239373190547
 21
0.4374999999999999
 31
0.0
  0
LINE
  5
169
330
138
100
AcDbEntity
  8
AM_9
100
AcDbLine
 10
-1.559125089363656
 20
-0.4375000000000001
 30
0.0
 11
-1.559125089363656
 21
0.4374999999999999
 31
0.0
  0
LINE
  5
16A
330
138
100
AcDbEntity
  8
AM_9
100
AcDbLine
 10
1.559125089363656
 20
-0.4375000000000001
 30
0.0
 11
1.559125089363656
 21
0.4374999999999999
 31
0.0
  0
LINE
  5
16B
330
138
100
AcDbEntity
  8
AM_9
100
AcDbLine
 10
0.8509595149324669
 20
-0.4375000000000001
 30
0.0
 11
0.8509595149324669
 21
0.4374999999999999
 31
0.0
  0
LINE
  5
16C
330
138
100
AcDbEntity
  8
AM_9
100
AcDbLine
 10
-0.8509595149324679
 20
-0.4375000000000001
 30
0.0
 11
-0.8509595149324679
 21
0.4374999999999999
 31
0.0
  0
LINE
  5
16D
330
138
100
AcDbEntity
  8
AM_9
100
AcDbLine
 10
-1.148054154479308
 20
-0.4375000000000001
 30
0.0
 11
-1.148054154479308
 21
0.4374999999999999
 31
0.0
  0
LINE
  5
16E
330
138
100
AcDbEntity
  8
AM_9
100
AcDbLine
 10
1.148054154479309
 20
-0.4375000000000001
 30
0.0
 11
1.148054154479309
 21
0.4374999999999999
 31
0.0
  0
LINE
  5
16F
330
138
100
AcDbEntity
  8
AM_9
100
AcDbLine
 10
2.7825
 20
-0.4375000000000001
 30
0.0
 11
-2.7825
 21
-0.4375000000000001
 31
0.0
  0
LINE
  5
170
330
138
100
AcDbEntity
  8
AM_9
100
AcDbLine
 10
2.7825
 20
0.4374999999999999
 30
0.0
 11
-2.7825
 21
0.4374999999999999
 31
0.0
  0
LINE
  5
171
330
138
100
AcDbEntity
  8
AM_9
100
AcDbLine
 10
1.157482923470149
 20
-0.2625
 30
0.0
 11
1.157482923470149
 21
0.623565673828125
 31
0.0
  0
LINE
  5
172
330
138
100
AcDbEntity
  8
AM_9
100
AcDbLine
 10
1.272735064089557
 20
0.7059883636910598
 30
0.0
 11
1.273573737614513
 21
0.7098411097355287
 31
0.0
  0
LINE
  5
173
330
138
100
AcDbEntity
  8
AM_9
100
AcDbLine
 10
1.273575
 20
-0.2625
 30
0.0
 11
1.273575
 21
0.7099999999999999
 31
0.0
  0
LINE
  5
174
330
138
100
AcDbEntity
  8
AM_9
100
AcDbLine
 10
1.273575
 20
-0.2625
 30
0.0
 11
1.098759136480785
 21
-0.2625
 31
0.0
  0
LINE
  5
175
330
138
100
AcDbEntity
  8
AM_9
100
AcDbLine
 10
-1.098759136480785
 20
-0.2625
 30
0.0
 11
-1.273575
 21
-0.2625
 31
0.0
  0
LINE
  5
176
330
138
100
AcDbEntity
  8
AM_9
100
AcDbLine
 10
-1.157482923470148
 20
-0.2625
 30
0.0
 11
-1.157482923470148
 21
0.6235656738281249
 31
0.0
  0
LINE
  5
177
330
138
100
AcDbEntity
  8
AM_9
100
AcDbLine
 10
-1.273570134735736
 20
0.7096880999884191
 30
0.0
 11
-1.272736784465955
 21
0.7059922942474031
 31
0.0
  0
LINE
  5
178
330
138
100
AcDbEntity
  8
AM_9
100
AcDbLine
 10
-1.273575
 20
0.7099999999999995
 30
0.0
 11
-1.273575
 21
-0.2625
 31
0.0
  0
LINE
  5
179
330
138
100
AcDbEntity
  8
AM_9
100
AcDbLine
 10
-1.098759136480785
 20
-0.2625
 30
0.0
 11
-1.098759136480785
 21
0.6235656738281249
 31
0.0
  0
LINE
  5
17A
330
138
100
AcDbEntity
  8
AM_9
100
AcDbLine
 10
1.098759136480785
 20
0.6235656738281249
 30
0.0
 11
1.098759136480785
 21
-0.2625
 31
0.0
  0
LINE
  5
17B
330
138
100
AcDbEntity
  8
AM_9
100
AcDbLine
 10
1.22045
 20
-0.7
 30
0.0
 11
1.22045
 21
-0.2625
 31
0.0
  0
LINE
  5
17C
330
138
100
AcDbEntity
  8
AM_9
100
AcDbLine
 10
-1.22045
 20
-0.2625
 30
0.0
 11
-1.22045
 21
-0.7
 31
0.0
  0
LINE
  5
17D
330
138
100
AcDbEntity
  8
AM_9
100
AcDbLine
 10
0.875
 20
-0.7
 30
0.0
 11
-0.875
 21
-0.7
 31
0.0
  0
LWPOLYLINE
  5
17E
330
138
100
AcDbEntity
  8
AM_9
100
AcDbPolyline
 90
        4
 70
     0
 43
0.0
 10
1.445874256254697
 20
-0.0344706278213343
 10
1.4463286166679
 20
-0.0424870974072701
 10
1.44839574980258
 20
-0.0678593175706041
 10
1.45039052032678
 20
-0.0854520329484725
  0
LWPOLYLINE
  5
17F
330
138
100
AcDbEntity
  8
AM_9
100
AcDbPolyline
 90
        6
 70
     0
 43
0.0
 10
1.450399204087959
 20
0.085520559837119
 10
1.449053911680946
 20
0.0741409851982985
 10
1.446550082177698
 20
0.0458547398741367
 10
1.445216964379586
 20
0.0171762767413458
 10
1.44512164210835
 20
-0.0127148215230247
 10
1.445874256254697
 20
-0.0344706278213343
  0
LINE
  5
180
330
138
100
AcDbEntity
  8
AM_7
100
AcDbLine
 10
-2.943
 20
-0.56
 30
0.0
 11
-2.817
 21
-0.56
 31
0.0
  0
LINE
  5
181
330
138
100
AcDbEntity
  8
AM_7
100
AcDbLine
 10
-2.88
 20
-0.623
 30
0.0
 11
-2.88
 21
-0.4970000000000001
 31
0.0
  0
LINE
  5
182
330
138
100
AcDbEntity
  8
AM_7
100
AcDbLine
 10
2.817
 20
-0.56
 30
0.0
 11
2.943
 21
-0.56
 31
0.0
  0
LINE
  5
183
330
138
100
AcDbEntity
  8
AM_7
100
AcDbLine
 10
2.88
 20
-0.623
 30
0.0
 11
2.88
 21
-0.4970000000000001
 31
0.0
  0
LINE
  5
184
330
138
100
AcDbEntity
  8
AM_7
100
AcDbLine
 10
0.0
 20
0.9625
 30
0.0
 11
0.0
 21
-1.2785
 31
0.0
  0
LINE
  5
185
330
138
100
AcDbEntity
  8
AM_7
100
AcDbLine
 10
-2.796625
 20
0.0000000000000003
 30
0.0
 11
-1.828375
 21
0.0000000000000002
 31
0.0
  0
LINE
  5
186
330
138
100
AcDbEntity
  8
AM_7
100
AcDbLine
 10
-2.5
 20
-0.2966249999999995
 30
0.0
 11
-2.5
 21
0.296625
 31
0.0
  0
LINE
  5
187
330
138
100
AcDbEntity
  8
AM_7
100
AcDbLine
 10
1.828375
 20
0.0
 30
0.0
 11
2.796625
 21
-0.0000000000000001
 31
0.0
  0
LINE
  5
188
330
138
100
AcDbEntity
  8
AM_7
100
AcDbLine
 10
2.125
 20
-0.2966249999999997
 30
0.0
 11
2.125
 21
0.2966249999999997
 31
0.0
  0
LINE
  5
189
330
138
100
AcDbEntity
  8
AM_7
100
AcDbLine
 10
-2.125
 20
-0.2966249999999999
 30
0.0
 11
-2.125
 21
0.2966250000000005
 31
0.0
  0
LINE
  5
18A
330
138
100
AcDbEntity
  8
AM_7
100
AcDbLine
 10
2.5
 20
-0.2966249999999998
 30
0.0
 11
2.5
 21
0.2966249999999997
 31
0.0
  0
LINE
  5
18B
330
138
100
AcDbEntity
  8
AM_4
100
AcDbLine
 10
-3.125
 20
-0.8750000000000001
 30
0.0
 11
-3.125
 21
0.8749999999999998
 31
0.0
  0
LINE
  5
18C
330
138
100
AcDbEntity
  8
AM_4
100
AcDbLine
 10
-2.975
 20
0.6479919353527446
 30
0.0
 11
-2.975
 21
0.8749999999999998
 31
0.0
  0
LINE
  5
18D
330
138
100
AcDbEntity
  8
AM_4
100
AcDbLine
 10
-2.975
 20
-0.8750000000000001
 30
0.0
 11
-2.975
 21
-0.6479919353527449
 31
0.0
  0
LINE
  5
18E
330
138
100
AcDbEntity
  8
AM_4
100
AcDbLine
 10
3.125
 20
-0.8750000000000001
 30
0.0
 11
3.125
 21
0.8749999999999998
 31
0.0
  0
LINE
  5
18F
330
138
100
AcDbEntity
  8
AM_4
100
AcDbLine
 10
2.974999999999999
 20
0.6479919353527449
 30
0.0
 11
2.974999999999999
 21
0.8749999999999998
 31
0.0
  0
LINE
  5
190
330
138
100
AcDbEntity
  8
AM_4
100
AcDbLine
 10
2.974999999999999
 20
-0.8750000000000001
 30
0.0
 11
2.974999999999999
 21
-0.6479919353527451
 31
0.0
  0
LINE
  5
191
330
138
100
AcDbEntity
  8
AM_4
100
AcDbLine
 10
-2.316911637375311
 20
-0.8750000000000001
 30
0.0
 11
-2.316911637375311
 21
-0.6800000000000002
 31
0.0
  0
LINE
  5
192
330
138
100
AcDbEntity
  8
AM_4
100
AcDbLine
 10
-2.316911637375311
 20
0.6799999999999998
 30
0.0
 11
-2.316911637375311
 21
0.8749999999999998
 31
0.0
  0
LINE
  5
193
330
138
100
AcDbEntity
  8
AM_4
100
AcDbLine
 10
2.31691163737531
 20
-0.8750000000000001
 30
0.0
 11
2.31691163737531
 21
-0.6800000000000002
 31
0.0
  0
LINE
  5
194
330
138
100
AcDbEntity
  8
AM_4
100
AcDbLine
 10
2.31691163737531
 20
0.6799999999999998
 30
0.0
 11
2.31691163737531
 21
0.8749999999999998
 31
0.0
  0
CIRCLE
  5
195
330
138
100
AcDbEntity
  8
AM_4
100
AcDbCircle
 10
-2.88
 20
-0.56
 30
0.0
 40
0.06
  0
ARC
  5
196
330
138
100
AcDbEntity
  8
AM_4
100
AcDbCircle
 10
-2.5
 20
0.0000000000000002
 30
0.0
 40
0.2825000000000001
100
AcDbArc
 50
90.0
 51
270.0
  0
LINE
  5
197
330
138
100
AcDbEntity
  8
AM_4
100
AcDbLine
 10
-2.5
 20
0.2825000000000003
 30
0.0
 11
-2.125
 21
0.2825000000000003
 31
0.0
  0
ARC
  5
198
330
138
100
AcDbEntity
  8
AM_4
100
AcDbCircle
 10
-2.125
 20
0.0000000000000002
 30
0.0
 40
0.2824999999999999
100
AcDbArc
 50
270.0
 51
90.0
  0
LINE
  5
199
330
138
100
AcDbEntity
  8
AM_4
100
AcDbLine
 10
-2.125
 20
-0.2824999999999998
 30
0.0
 11
-2.5
 21
-0.2824999999999998
 31
0.0
  0
ARC
  5
19A
330
138
100
AcDbEntity
  8
AM_4
100
AcDbCircle
 10
-2.844999999999999
 20
-0.399999999999999
 30
0.0
 40
0.2800000000000007
100
AcDbArc
 50
180.0
 51
270.0
  0
LINE
  5
19B
330
138
100
AcDbEntity
  8
AM_4
100
AcDbLine
 10
-2.844999999999999
 20
-0.6799999999999999
 30
0.0
 11
-2.125
 21
-0.6799999999999999
 31
0.0
  0
LINE
  5
19C
330
138
100
AcDbEntity
  8
AM_4
100
AcDbLine
 10
-2.125
 20
0.6799999999999999
 30
0.0
 11
-2.845
 21
0.6799999999999999
 31
0.0
  0
ARC
  5
19D
330
138
100
AcDbEntity
  8
AM_4
100
AcDbCircle
 10
-2.844999999999999
 20
0.3999999999999987
 30
0.0
 40
0.2800000000000012
100
AcDbArc
 50
90.0
 51
180.0
  0
CIRCLE
  5
19E
330
138
100
AcDbEntity
  8
AM_4
100
AcDbCircle
 10
2.88
 20
-0.56
 30
0.0
 40
0.06
  0
ARC
  5
19F
330
138
100
AcDbEntity
  8
AM_4
100
AcDbCircle
 10
2.125
 20
0.0
 30
0.0
 40
0.2824999999999999
100
AcDbArc
 50
90.0
 51
270.0
  0
LINE
  5
1A0
330
138
100
AcDbEntity
  8
AM_4
100
AcDbLine
 10
2.125
 20
0.2824999999999999
 30
0.0
 11
2.5
 21
0.2825
 31
0.0
  0
ARC
  5
1A1
330
138
100
AcDbEntity
  8
AM_4
100
AcDbCircle
 10
2.5
 20
0.0
 30
0.0
 40
0.2825
100
AcDbArc
 50
270.0
 51
90.0
  0
LINE
  5
1A2
330
138
100
AcDbEntity
  8
AM_4
100
AcDbLine
 10
2.5
 20
-0.2825
 30
0.0
 11
2.125
 21
-0.2825
 31
0.0
  0
ARC
  5
1A3
330
138
100
AcDbEntity
  8
AM_4
100
AcDbCircle
 10
2.845
 20
0.3999999999999998
 30
0.0
 40
0.2799999999999998
100
AcDbArc
 50
0.0
 51
90.0
  0
LINE
  5
1A4
330
138
100
AcDbEntity
  8
AM_4
100
AcDbLine
 10
2.844999999999999
 20
0.6799999999999999
 30
0.0
 11
2.125
 21
0.6800000000000002
 31
0.0
  0
LINE
  5
1A5
330
138
100
AcDbEntity
  8
AM_4
100
AcDbLine
 10
2.125
 20
-0.6800000000000002
 30
0.0
 11
2.845
 21
-0.6799999999999999
 31
0.0
  0
ARC
  5
1A6
330
138
100
AcDbEntity
  8
AM_4
100
AcDbCircle
 10
2.844999999999999
 20
-0.399999999999999
 30
0.0
 40
0.2800000000000009
100
AcDbArc
 50
270.0
 51
0.0
  0
LINE
  5
1A7
330
138
100
AcDbEntity
  8
AM_4
100
AcDbLine
 10
1.157482923470148
 20
0.6235656738281249
 30
0.0
 11
1.157482923470148
 21
0.7
 31
0.0
  0
LWPOLYLINE
  5
1A8
330
138
100
AcDbEntity
  8
AM_4
100
AcDbPolyline
 90
        5
 70
     0
 43
0.0
 10
1.263575000000001
 20
0.7
 10
1.265920558672664
 20
0.7002789735874705
 10
1.269672317819697
 20
0.7020739218140389
 10
1.272173983035577
 20
0.7048953461663605
 10
1.272735064089557
 20
0.7059883636910598
  0
LINE
  5
1A9
330
138
100
AcDbEntity
  8
AM_4
100
AcDbLine
 10
-1.157482923470148
 20
0.623565673828125
 30
0.0
 11
-1.157482923470148
 21
0.7
 31
0.0
  0
LINE
  5
1AA
330
138
100
AcDbEntity
  8
AM_4
100
AcDbLine
 10
1.263575000000001
 20
0.7
 30
0.0
 11
-1.263575
 21
0.7
 31
0.0
  0
LWPOLYLINE
  5
1AB
330
138
100
AcDbEntity
  8
AM_4
100
AcDbPolyline
 90
        5
 70
     0
 43
0.0
 10
-1.272736784465955
 20
0.7059922942474031
 10
-1.272173983035577
 20
0.7048953461663595
 10
-1.269677486058291
 20
0.7020779002841184
 10
-1.265920558672663
 20
0.7002789735874705
 10
-1.263575
 20
0.7
  0
LWPOLYLINE
  5
1AC
330
138
100
AcDbEntity
  8
AM_4
100
AcDbPolyline
 90
       15
 70
     0
 43
0.0
 10
2.125
 20
0.6799999999999999
 10
2.065734094931592
 20
0.677412394702387
 10
2.006919239186487
 20
0.6696692720483014
 10
1.949003049330286
 20
0.6568295618765665
 10
1.892426302538545
 20
0.6389909821344176
 10
1.837619582016324
 20
0.616289295184922
 10
1.785
 20
0.5888972745734183
 10
1.734968023281289
 20
0.5570233901165146
 10
1.687904425413153
 20
0.5209102213209053
 10
1.644167388793148
 20
0.4808326112068526
 10
1.604089778679095
 20
0.4370955745868471
 10
1.567976609883486
 20
0.3900319767187118
 10
1.536102725426582
 20
0.3400000000000005
 10
1.508710704815078
 20
0.2873804179836762
 10
1.502715796123828
 20
0.2741575634670675
  0
LINE
  5
1AD
330
138
100
AcDbEntity
  8
AM_4
100
AcDbLine
 10
2.177771285882363
 20
0.6799999999999999
 30
0.0
 11
2.177771285882363
 21
0.875
 31
0.0
  0
LWPOLYLINE
  5
1AE
330
138
100
AcDbEntity
  8
AM_4
100
AcDbPolyline
 90
       15
 70
     0
 43
0.0
 10
1.502715796123828
 20
-0.2741575634670674
 10
1.528978181466175
 20
-0.3273499531566066
 10
1.559776652735378
 20
-0.3780510120433183
 10
1.594876814968453
 20
-0.4258748744549378
 10
1.63401153473675
 20
-0.4704575719216754
 10
1.67688297319264
 20
-0.5114598031960405
 10
1.723164852802994
 20
-0.5485695165402108
 10
1.772504940518212
 20
-0.5815042846281797
 10
1.824527728478423
 20
-0.6100134539882411
 10
1.878837291855031
 20
-0.6338800526272579
 10
1.935020302077729
 20
-0.6529224413185407
 10
1.992649172514494
 20
-0.6669956959860402
 10
2.051285312664038
 20
-0.6759927106640735
 10
2.110482466094354
 20
-0.6798450126383946
 10
2.125
 20
-0.6800000000000003
  0
LINE
  5
1AF
330
138
100
AcDbEntity
  8
AM_4
100
AcDbLine
 10
2.177771285882363
 20
-0.875
 30
0.0
 11
2.177771285882363
 21
-0.6799999999999999
 31
0.0
  0
LWPOLYLINE
  5
1B0
330
138
100
AcDbEntity
  8
AM_4
100
AcDbPolyline
 90
       15
 70
     0
 43
0.0
 10
-1.502715796123828
 20
0.2741575634670682
 10
-1.528978181466175
 20
0.3273499531566073
 10
-1.559776652735378
 20
0.3780510120433189
 10
-1.594876814968454
 20
0.4258748744549384
 10
-1.63401153473675
 20
0.4704575719216759
 10
-1.676882973192641
 20
0.5114598031960409
 10
-1.723164852802994
 20
0.5485695165402114
 10
-1.772504940518213
 20
0.5815042846281802
 10
-1.824527728478423
 20
0.6100134539882415
 10
-1.878837291855032
 20
0.6338800526272582
 10
-1.93502030207773
 20
0.6529224413185408
 10
-1.992649172514495
 20
0.6669956959860405
 10
-2.051285312664039
 20
0.6759927106640736
 10
-2.110482466094355
 20
0.6798450126383946
 10
-2.125
 20
0.6800000000000003
  0
LINE
  5
1B1
330
138
100
AcDbEntity
  8
AM_4
100
AcDbLine
 10
-2.177771285882363
 20
0.6799999999999999
 30
0.0
 11
-2.177771285882363
 21
0.875
 31
0.0
  0
LWPOLYLINE
  5
1B2
330
138
100
AcDbEntity
  8
AM_4
100
AcDbPolyline
 90
       15
 70
     0
 43
0.0
 10
-2.125
 20
-0.6799999999999999
 10
-2.065734094931592
 20
-0.677412394702387
 10
-2.006919239186487
 20
-0.6696692720483015
 10
-1.949003049330286
 20
-0.6568295618765665
 10
-1.892426302538545
 20
-0.6389909821344179
 10
-1.837619582016325
 20
-0.616289295184922
 10
-1.785
 20
-0.5888972745734186
 10
-1.734968023281289
 20
-0.5570233901165147
 10
-1.687904425413153
 20
-0.5209102213209054
 10
-1.644167388793148
 20
-0.4808326112068527
 10
-1.604089778679095
 20
-0.4370955745868472
 10
-1.567976609883486
 20
-0.3900319767187119
 10
-1.536102725426582
 20
-0.3400000000000007
 10
-1.508710704815078
 20
-0.2873804179836764
 10
-1.502715796123828
 20
-0.274157563467068
  0
LINE
  5
1B3
330
138
100
AcDbEntity
  8
AM_4
100
AcDbLine
 10
-2.177771285882363
 20
-0.875
 30
0.0
 11
-2.177771285882363
 21
-0.6799999999999999
 31
0.0
  0
LINE
  5
1B4
330
138
100
AcDbEntity
  8
AM_4
100
AcDbLine
 10
1.098759136480785
 20
0.6235656738281249
 30
0.0
 11
1.098759136480785
 21
0.7000000000000001
 31
0.0
  0
LINE
  5
1B5
330
138
100
AcDbEntity
  8
AM_4
100
AcDbLine
 10
-1.098759136480785
 20
0.7000000000000001
 30
0.0
 11
-1.098759136480785
 21
0.6235656738281249
 31
0.0
  0
LINE
  5
1B6
330
138
100
AcDbEntity
  8
AM_4
100
AcDbLine
 10
-0.875
 20
-0.7
 30
0.0
 11
-1.273575000000002
 21
-0.700000000000001
 31
0.0
  0
LINE
  5
1B7
330
138
100
AcDbEntity
  8
AM_4
100
AcDbLine
 10
1.273575000000002
 20
-0.7
 30
0.0
 11
0.875
 21
-0.7
 31
0.0
  0
LINE
  5
1B8
330
138
100
AcDbEntity
  8
AM_4
100
AcDbLine
 10
-1.502715796123828
 20
-0.6109308129534279
 30
0.0
 11
-1.502715796123828
 21
-0.274157563467068
 31
0.0
  0
LINE
  5
1B9
330
138
100
AcDbEntity
  8
AM_4
100
AcDbLine
 10
1.502715796123828
 20
-0.6109308129534279
 30
0.0
 11
1.502715796123828
 21
-0.2741575634670683
 31
0.0
  0
LWPOLYLINE
  5
1BA
330
138
100
AcDbEntity
  8
AM_4
100
AcDbPolyline
 90
       10
 70
     0
 43
0.0
 10
1.45039052032678
 20
-0.0854520329484725
 10
1.45135875108679
 20
-0.0927764396959235
 10
1.455268725842504
 20
-0.1177223868880107
 10
1.459970647022703
 20
-0.141901232125015
 10
1.46552105263709
 20
-0.1657906856712031
 10
1.471697952610675
 20
-0.1886701748473173
 10
1.478536516866993
 20
-0.2109134785661937
 10
1.485800995828692
 20
-0.2320013643632479
 10
1.494132341293217
 20
-0.2537831575844307
 10
1.502715796123828
 20
-0.2741575634670683
  0
LWPOLYLINE
  5
1BB
330
138
100
AcDbEntity
  8
AM_4
100
AcDbPolyline
 90
        9
 70
     0
 43
0.0
 10
1.502715796123828
 20
0.274157563467068
 10
1.494259389888829
 20
0.2540987724120117
 10
1.486045722531701
 20
0.2326745179536512
 10
1.478055939395324
 20
0.209434159106628
 10
1.470591755869916
 20
0.1847967803144381
 10
1.463912559006296
 20
0.1592539632589588
 10
1.458035090211101
 20
0.1325058833044269
 10
1.452970848500998
 20
0.1037968589910049
 10
1.450399204087959
 20
0.085520559837119
  0
LINE
  5
1BC
330
138
100
AcDbEntity
  8
AM_4
100
AcDbLine
 10
1.502715796123828
 20
0.274157563467068
 30
0.0
 11
1.502715796123828
 21
0.6109308129534278
 31
0.0
  0
LINE
  5
1BD
330
138
100
AcDbEntity
  8
AM_4
100
AcDbLine
 10
-1.502715796123828
 20
0.2741575634670682
 30
0.0
 11
-1.502715796123828
 21
0.6109308129534281
 31
0.0
  0
LWPOLYLINE
  5
1BE
330
138
100
AcDbEntity
  8
AM_4
100
AcDbPolyline
 90
       23
 70
     0
 43
0.0
 10
-1.502715796123828
 20
-0.274157563467068
 10
-1.494259389888829
 20
-0.2540987724120115
 10
-1.486045722531701
 20
-0.2326745179536509
 10
-1.478055939395324
 20
-0.2094341591066277
 10
-1.470591755869916
 20
-0.1847967803144378
 10
-1.463912559006296
 20
-0.1592539632589586
 10
-1.458035090211101
 20
-0.1325058833044268
 10
-1.452970848500998
 20
-0.1037968589910047
 10
-1.449053911680946
 20
-0.0741409851982981
 10
-1.446550082177698
 20
-0.0458547398741364
 10
-1.445216964379586
 20
-0.0171762767413455
 10
-1.44512164210835
 20
0.012714821523025
 10
-1.4463286166679
 20
0.0424870974072705
 10
-1.44839574980258
 20
0.0678593175706045
 10
-1.45135875108679
 20
0.0927764396959238
 10
-1.455268725842504
 20
0.117722386888011
 10
-1.459970647022703
 20
0.1419012321250154
 10
-1.46552105263709
 20
0.1657906856712035
 10
-1.471697952610676
 20
0.1886701748473178
 10
-1.478536516866993
 20
0.2109134785661942
 10
-1.485800995828692
 20
0.2320013643632484
 10
-1.494132341293217
 20
0.253783157584431
 10
-1.502715796123828
 20
0.2741575634670686
  0
LINE
  5
1BF
330
138
100
AcDbEntity
  8
AM_4
100
AcDbLine
 10
-1.157482923470148
 20
0.6235656738281249
 30
0.0
 11
-1.098759136480785
 21
0.6235656738281249
 31
0.0
  0
LWPOLYLINE
  5
1C0
330
138
100
AcDbEntity
  8
AM_4
100
AcDbPolyline
 90
        6
 70
     0
 43
0.0
 10
-1.272534153149526
 20
0.7055577511502212
 10
-1.263205067190637
 20
0.686637112543995
 10
-1.244262227926353
 20
0.6679274273652974
 10
-1.215849801801475
 20
0.6495710876155555
 10
-1.178184024534705
 20
0.6317077961241254
 10
-1.157482923470148
 20
0.6235656738281249
  0
LWPOLYLINE
  5
1C1
330
138
100
AcDbEntity
  8
AM_4
100
AcDbPolyline
 90
        7
 70
     0
 43
0.0
 10
-1.273575
 20
0.7099999999999995
 10
-1.273536946980918
 20
0.709128442572523
 10
-1.273423077530122
 20
0.7082635182233303
 10
-1.273234258262891
 20
0.7074118095489744
 10
-1.272971926207859
 20
0.7065797985667429
 10
-1.272638077870367
 20
0.7057738173825927
 10
-1.272534153149525
 20
0.7055577511502212
  0
LINE
  5
1C2
330
138
100
AcDbEntity
  8
AM_4
100
AcDbLine
 10
-1.273575
 20
0.7099999999999995
 30
0.0
 11
-1.273575
 21
0.875
 31
0.0
  0
LINE
  5
1C3
330
138
100
AcDbEntity
  8
AM_4
100
AcDbLine
 10
-3.125
 20
0.8749999999999998
 30
0.0
 11
-1.273575
 21
0.875
 31
0.0
  0
LINE
  5
1C4
330
138
100
AcDbEntity
  8
AM_4
100
AcDbLine
 10
-1.502715796123828
 20
0.6109308129534281
 30
0.0
 11
-2.125
 21
0.875
 31
0.0
  0
LWPOLYLINE
  5
1C5
330
138
100
AcDbEntity
  8
AM_4
100
AcDbPolyline
 90
       29
 70
     0
 43
0.0
 10
1.502715796123828
 20
0.6109308129534277
 10
1.444252423357068
 20
0.5889417534249198
 10
1.374797417585105
 20
0.5679071679969075
 10
1.294879373339942
 20
0.5479871425655279
 10
1.205106515194118
 20
0.5293332805523542
 10
1.106162068804459
 20
0.5120875491108162
 10
0.9987990611522793
 20
0.4963811986704416
 10
0.8838345895533684
 20
0.4823337640418351
 10
0.76214360305404
 20
0.4700521546845935
 10
0.6346522435405808
 20
0.459629841061764
 10
0.5023307972402756
 20
0.451146143273181
 10
0.3661863102573437
 20
0.4446656273816127
 10
0.2272549243440139
 20
0.4402376140260364
 10
0.0865939912361511
 20
0.4378958030617955
 10
-0.0547259744319003
 20
0.437658017084352
 10
-0.1956294423900781
 20
0.4395260657885733
 10
-0.3350440521673805
 20
0.4434857321958618
 10
-0.4719087744025592
 20
0.449506880853946
 10
-0.6051819859182257
 20
0.457543687185869
 10
-0.7338493971021806
 20
0.4675349862426882
 10
-0.8569317712638067
 20
0.4794047382056703
 10
-0.9734923772165649
 20
0.4930626070952245
 10
-1.082644118367936
 20
0.5084046482822547
 10
-1.183556284060136
 20
0.5253140995695501
 10
-1.275460871779814
 20
0.543662269822608
 10
-1.357658432120917
 20
0.563309518386875
 10
-1.429523392017005
 20
0.5841063178374438
 10
-1.49050881573002
 20
0.6058943919730447
 10
-1.502715796123828
 20
0.6109308129534275
  0
LINE
  5
1C6
330
138
100
AcDbEntity
  8
AM_4
100
AcDbLine
 10
2.125
 20
0.875
 30
0.0
 11
1.502715796123828
 21
0.6109308129534278
 31
0.0
  0
LINE
  5
1C7
330
138
100
AcDbEntity
  8
AM_4
100
AcDbLine
 10
1.273575
 20
0.875
 30
0.0
 11
3.125
 21
0.8749999999999998
 31
0.0
  0
LINE
  5
1C8
330
138
100
AcDbEntity
  8
AM_4
100
AcDbLine
 10
1.273575
 20
0.875
 30
0.0
 11
1.273575
 21
0.7099999999999971
 31
0.0
  0
LWPOLYLINE
  5
1C9
330
138
100
AcDbEntity
  8
AM_4
100
AcDbPolyline
 90
        7
 70
     0
 43
0.0
 10
1.272534153149524
 20
0.7055577511502205
 10
1.272887228364921
 20
0.7063554968953821
 10
1.273169431899583
 20
0.7071809795097812
 10
1.273378616014213
 20
0.708027916572282
 10
1.273513188691389
 20
0.7088898623804442
 10
1.273572125751782
 20
0.7097602570062107
 10
1.273575
 20
0.7099999999999941
  0
LWPOLYLINE
  5
1CA
330
138
100
AcDbEntity
  8
AM_4
100
AcDbPolyline
 90
        6
 70
     0
 43
0.0
 10
1.157482923470149
 20
0.623565673828125
 10
1.199379839827389
 20
0.6411516102016778
 10
1.232148751398195
 20
0.6592946721404815
 10
1.255540266979103
 20
0.6778567799881017
 10
1.26937636301236
 20
0.6966966648957108
 10
1.272534153149526
 20
0.7055577511502203
  0
LINE
  5
1CB
330
138
100
AcDbEntity
  8
AM_4
100
AcDbLine
 10
1.098759136480785
 20
0.6235656738281249
 30
0.0
 11
1.157482923470149
 21
0.623565673828125
 31
0.0
  0
LWPOLYLINE
  5
1CC
330
138
100
AcDbEntity
  8
AM_4
100
AcDbPolyline
 90
       27
 70
     0
 43
0.0
 10
-1.098759136480785
 20
0.6235656738281248
 10
-1.048276537907329
 20
0.6075453805172364
 10
-0.9898159219137193
 20
0.592337976471494
 10
-0.9238222090871516
 20
0.5780591992181672
 10
-0.8507976514303293
 20
0.5648177188739153
 10
-0.7712980099204546
 20
0.5527143110995825
 10
-0.6859283248326137
 20
0.5418410901365689
 10
-0.59533831101795
 20
0.5322808077618334
 10
-0.5002174131813392
 20
0.524106223496904
 10
-0.4012895587908861
 20
0.5173795508639856
 10
-0.2993076485527741
 20
0.5121519839034908
 10
-0.195047826382276
 20
0.5084633075564805
 10
-0.0893035724799112
 20
0.5063415948772387
 10
0.0171203355319972
 20
0.5058029933803798
 10
0.1234139474529658
 20
0.5068516021485113
 10
0.2287683047144384
 20
0.5094794406357405
 10
0.332381597042955
 20
0.5136665094044472
 10
0.4334652647204792
 20
0.5193809423330803
 10
0.5312499999999977
 20
0.526579249136584
 10
0.6249916020019958
 20
0.5352066463537274
 10
0.7139766405325116
 20
0.5451974742823228
 10
0.7975278857176923
 20
0.5564756966892069
 10
0.8750094621320577
 20
0.5689554794918864
 10
0.9458316881944399
 20
0.5825418440077342
 10
1.009455564000874
 20
0.5971313897991133
 10
1.065396873439327
 20
0.6126130816131428
 10
1.098759136480785
 20
0.6235656738281248
  0
LINE
  5
1CD
330
138
100
AcDbEntity
  8
AM_4
100
AcDbLine
 10
1.273575000000002
 20
-0.7
 30
0.0
 11
1.273575000000002
 21
-0.875
 31
0.0
  0
LINE
  5
1CE
330
138
100
AcDbEntity
  8
AM_4
100
AcDbLine
 10
1.273575000000002
 20
-0.875
 30
0.0
 11
3.125
 21
-0.8750000000000001
 31
0.0
  0
LINE
  5
1CF
330
138
100
AcDbEntity
  8
AM_4
100
AcDbLine
 10
1.502715796123828
 20
-0.6109308129534279
 30
0.0
 11
2.125
 21
-0.875
 31
0.0
  0
LWPOLYLINE
  5
1D0
330
138
100
AcDbEntity
  8
AM_4
100
AcDbPolyline
 90
       29
 70
     0
 43
0.0
 10
-1.502715796123828
 20
-0.6109308129534279
 10
-1.444252423357068
 20
-0.5889417534249201
 10
-1.374797417585105
 20
-0.5679071679969078
 10
-1.294879373339942
 20
-0.5479871425655282
 10
-1.205106515194118
 20
-0.5293332805523544
 10
-1.106162068804459
 20
-0.5120875491108164
 10
-0.9987990611522795
 20
-0.4963811986704417
 10
-0.8838345895533685
 20
-0.4823337640418353
 10
-0.7621436030540403
 20
-0.4700521546845937
 10
-0.6346522435405809
 20
-0.4596298410617641
 10
-0.5023307972402759
 20
-0.4511461432731811
 10
-0.3661863102573438
 20
-0.4446656273816129
 10
-0.2272549243440141
 20
-0.4402376140260366
 10
-0.0865939912361513
 20
-0.4378958030617957
 10
0.0547259744319001
 20
-0.4376580170843521
 10
0.195629442390078
 20
-0.4395260657885735
 10
0.3350440521673803
 20
-0.443485732195862
 10
0.471908774402559
 20
-0.4495068808539461
 10
0.6051819859182256
 20
-0.457543687185869
 10
0.7338493971021803
 20
-0.4675349862426884
 10
0.8569317712638066
 20
-0.4794047382056704
 10
0.9734923772165648
 20
-0.4930626070952246
 10
1.082644118367936
 20
-0.508404648282255
 10
1.183556284060136
 20
-0.5253140995695502
 10
1.275460871779814
 20
-0.5436622698226082
 10
1.357658432120917
 20
-0.5633095183868753
 10
1.429523392017005
 20
-0.584106317837444
 10
1.49050881573002
 20
-0.605894391973045
 10
1.502715796123828
 20
-0.6109308129534278
  0
LINE
  5
1D1
330
138
100
AcDbEntity
  8
AM_4
100
AcDbLine
 10
-2.124999999999999
 20
-0.875
 30
0.0
 11
-1.502715796123828
 21
-0.6109308129534279
 31
0.0
  0
LINE
  5
1D2
330
138
100
AcDbEntity
  8
AM_4
100
AcDbLine
 10
-3.125
 20
-0.8750000000000001
 30
0.0
 11
-1.273575000000002
 21
-0.875
 31
0.0
  0
LINE
  5
1D3
330
138
100
AcDbEntity
  8
AM_4
100
AcDbLine
 10
-1.273575000000002
 20
-0.875
 30
0.0
 11
-1.273575000000002
 21
-0.700000000000001
 31
0.0
  0
LWPOLYLINE
  5
1D4
330
138
100
AcDbEntity
  8
AM_4
100
AcDbPolyline
 90
       36
 70
     0
 43
0.0
 10
1.21755583136873
 20
-0.6999999999999997
 10
1.205601581449413
 20
-0.6819194003365298
 10
1.184471975533128
 20
-0.6640856587391198
 10
1.154327822679302
 20
-0.6466345007496338
 10
1.115398538092691
 20
-0.629698740217669
 10
1.067980397135143
 20
-0.6134072685069656
 10
1.012434280491202
 20
-0.5978840735543015
 10
0.9491829276481901
 20
-0.583247296246428
 10
0.8787077195934537
 20
-0.5696083312965856
 10
0.8015450152143834
 20
-0.5570709794634748
 10
0.718282069283419
 20
-0.5457306575648059
 10
0.6295525630946361
 20
-0.5356736722977011
 10
0.5360317817664724
 20
-0.5269765633926167
 10
0.4384314749142265
 20
-0.5197055210997786
 10
0.3374944398057209
 20
-0.5139158824414105
 10
0.2339888682255792
 20
-0.509651710063582
 10
0.1287025000718994
 20
-0.506945456892866
 10
0.0224366281799782
 20
-0.5058177191499722
 10
-0.0839999999999992
 20
-0.5062770796000705
 10
-0.1897973374593898
 20
-0.5083200422327663
 10
-0.2941502025779488
 20
-0.5119310588688502
 10
-0.3962644070421412
 20
-0.51708264749133
 10
-0.495362800097752
 20
-0.5237356014001747
 10
-0.5906911831363822
 20
-0.5318392875989744
 10
-0.6815240496022568
 20
-0.5413320321426166
 10
-0.7671701065351856
 20
-0.5521415895132485
 10
-0.8469775357274062
 20
-0.5641856924522903
 10
-0.9203389544537224
 20
-0.5773726780639479
 10
-0.9866960380207914
 20
-0.5916021854251967
 10
-1.045543768955165
 20
-0.6067659193930063
 10
-1.096434280491202
 20
-0.6227484747957686
 10
-1.13898026510758
 20
-0.6394282147363378
 10
-1.172857922171403
 20
-0.6566781963222642
 10
-1.197809422256525
 20
-0.6743671367778549
 10
-1.213644869381172
 20
-0.6923604125853684
 10
-1.21755583136873
 20
-0.6999999999999997
  0
ENDBLK
  5
13B
330
138
100
AcDbEntity
  8
0
100
AcDbBlockEnd
  0
ENDSEC
  0
SECTION
  2
ENTITIES
  0
INSERT
  5
6F
330
1F
100
AcDbEntity
  8
0
100
AcDbBlockReference
  2
1_131895_4
 10
0.0
 20
0.0
 30
0.0
  0
POINT
  5
1D6
330
1F
100
AcDbEntity
  8
ConnectionPoints
100
AcDbPoint
 10
0.0
 20
0.0
 30
0.0
  0
POINT
  5
1D7
330
1F
100
AcDbEntity
  8
ConnectionPoints
100
AcDbPoint
 10
0.0
 20
-1.19
 30
0.0000000000000001
  0
POINT
  5
1D8
330
1F
100
AcDbEntity
  8
ConnectionPoints
100
AcDbPoint
 10
1.145512985522207
 20
0.0000000000000001
 30
1.145512985522207
  0
POINT
  5
1D9
330
1F
100
AcDbEntity
  8
ConnectionPoints
100
AcDbPoint
 10
1.145512985522207
 20
0.0000000000000001
 30
1.145512985522207
  0
POINT
  5
1DA
330
1F
100
AcDbEntity
  8
ConnectionPoints
100
AcDbPoint
 10
0.0
 20
-1.19
 30
0.0000000000000001
  0
ENDSEC
  0
SECTION
  2
OBJECTS
  0
DICTIONARY
  5
C
330
0
100
AcDbDictionary
281
     1
  3
ACAD_DETAILVIEWSTYLE
350
1E2
  3
ACAD_GROUP
350
D
  3
ACAD_LAYOUT
350
1A
  3
ACAD_MATERIAL
350
43
  3
ACAD_MLEADERSTYLE
350
6B
  3
ACAD_MLINESTYLE
350
17
  3
ACAD_PLOTSETTINGS
350
19
  3
ACAD_PLOTSTYLENAME
350
E
  3
ACAD_SCALELIST
350
47
  3
ACAD_SECTIONVIEWSTYLE
350
1E3
  3
ACAD_TABLESTYLE
350
69
  3
ACAD_VISUALSTYLE
350
2A
  3
ACDB_RECOMPOSE_DATA
350
1DF
  3
AcDbVariableDictionary
350
1DB
  0
SUN
  5
6D
330
29
100
AcDbSun
 90
        1
290
     0
 63
     7
421
 16777215
 40
1.0
291
     1
 91
  2455826
 92
 54000000
292
     0
 70
     2
 71
   256
280
     1
  0
DICTIONARY
  5
1E2
102
{ACAD_REACTORS
330
C
102
}
330
C
100
AcDbDictionary
281
     1
  0
DICTIONARY
  5
D
102
{ACAD_REACTORS
330
C
102
}
330
C
100
AcDbDictionary
281
     1
  0
DICTIONARY
  5
1A
102
{ACAD_REACTORS
330
C
102
}
330
C
100
AcDbDictionary
281
     1
  3
Layout1
350
1E
  3
Layout2
350
26
  3
Model
350
22
  0
DICTIONARY
  5
43
102
{ACAD_REACTORS
330
C
102
}
330
C
100
AcDbDictionary
281
     1
  3
ByBlock
350
45
  3
ByLayer
350
44
  3
Global
350
46
  0
DICTIONARY
  5
6B
102
{ACAD_REACTORS
330
C
102
}
330
C
100
AcDbDictionary
281
     1
  3
Standard
350
6C
  0
DICTIONARY
  5
17
102
{ACAD_REACTORS
330
C
102
}
330
C
100
AcDbDictionary
281
     1
  3
Standard
350
18
  0
DICTIONARY
  5
19
102
{ACAD_REACTORS
330
C
102
}
330
C
100
AcDbDictionary
281
     1
  0
ACDBDICTIONARYWDFLT
  5
E
102
{ACAD_REACTORS
330
C
102
}
330
C
100
AcDbDictionary
281
     1
  3
Normal
350
F
100
AcDbDictionaryWithDefault
340
F
  0
DICTIONARY
  5
47
102
{ACAD_REACTORS
330
C
102
}
330
C
100
AcDbDictionary
281
     1
  3
A0
350
48
  3
A1
350
49
  3
A2
350
4A
  3
A3
350
4B
  3
A4
350
4C
  3
A5
350
4D
  3
A6
350
4E
  3
A7
350
4F
  3
A8
350
50
  3
A9
350
51
  3
B0
350
52
  3
B1
350
53
  3
B2
350
54
  3
B3
350
55
  3
B4
350
56
  3
B5
350
57
  3
B6
350
58
  3
B7
350
59
  3
B8
350
5A
  3
B9
350
5B
  3
C0
350
5C
  3
C1
350
5D
  3
C2
350
5E
  3
C3
350
5F
  3
C4
350
60
  3
C5
350
61
  3
C6
350
62
  3
C7
350
63
  3
C8
350
64
  3
C9
350
65
  3
D0
350
66
  3
D1
350
67
  3
D2
350
68
  0
DICTIONARY
  5
1E3
102
{ACAD_REACTORS
330
C
102
}
330
C
100
AcDbDictionary
281
     1
  0
DICTIONARY
  5
69
102
{ACAD_REACTORS
330
C
102
}
330
C
100
AcDbDictionary
281
     1
  3
Standard
350
6A
  0
DICTIONARY
  5
2A
102
{ACAD_REACTORS
330
C
102
}
330
C
100
AcDbDictionary
281
     1
  3
2dWireframe
350
2F
  3
Basic
350
32
  3
Brighten
350
36
  3
ColorChange
350
3A
  3
Conceptual
350
34
  3
Dim
350
35
  3
EdgeColorOff
350
3D
  3
Facepattern
350
39
  3
Flat
350
2B
  3
FlatWithEdges
350
2C
  3
Gouraud
350
2D
  3
GouraudWithEdges
350
2E
  3
Hidden
350
31
  3
JitterOff
350
3B
  3
Linepattern
350
38
  3
OverhangOff
350
3C
  3
Realistic
350
33
  3
Shaded
350
42
  3
Shaded with edges
350
41
  3
Shades of Gray
350
3E
  3
Sketchy
350
3F
  3
Thicken
350
37
  3
Wireframe
350
30
  3
X-Ray
350
40
  0
XRECORD
  5
1DF
102
{ACAD_REACTORS
330
C
102
}
330
C
100
AcDbXrecord
280
     1
 90
        1
330
6A
  0
DICTIONARY
  5
1DB
102
{ACAD_REACTORS
330
C
102
}
330
C
100
AcDbDictionary
281
     1
  3
CANNOSCALE
350
1DC
  3
CMLEADERSTYLE
350
1E1
  3
CTABLESTYLE
350
1E0
  0
LAYOUT
  5
1E
102
{ACAD_REACTORS
330
1A
102
}
330
1A
100
AcDbPlotSettings
  1

  2
none_device
  4

  6

 40
0.0
 41
0.0
 42
0.0
 43
0.0
 44
0.0
 45
0.0
 46
0.0
 47
0.0
 48
0.0
 49
0.0
140
0.0
141
0.0
142
1.0
143
1.0
 70
   688
 72
     0
 73
     0
 74
     5
  7

 75
    16
 76
     0
 77
     2
 78
   300
147
1.0
148
0.0
149
0.0
100
AcDbLayout
  1
Layout1
 70
     1
 71
     1
 10
0.0
 20
0.0
 11
12.0
 21
9.0
 12
0.0
 22
0.0
 32
0.0
 14
1.000000000000000E+20
 24
1.000000000000000E+20
 34
1.000000000000000E+20
 15
-1.000000000000000E+20
 25
-1.000000000000000E+20
 35
-1.000000000000000E+20
146
0.0
 13
0.0
 23
0.0
 33
0.0
 16
1.0
 26
0.0
 36
0.0
 17
0.0
 27
1.0
 37
0.0
 76
     0
330
1B
  0
LAYOUT
  5
26
102
{ACAD_REACTORS
330
1A
102
}
330
1A
100
AcDbPlotSettings
  1

  2
none_device
  4

  6

 40
0.0
 41
0.0
 42
0.0
 43
0.0
 44
0.0
 45
0.0
 46
0.0
 47
0.0
 48
0.0
 49
0.0
140
0.0
141
0.0
142
1.0
143
1.0
 70
   688
 72
     0
 73
     0
 74
     5
  7

 75
    16
 76
     0
 77
     2
 78
   300
147
1.0
148
0.0
149
0.0
100
AcDbLayout
  1
Layout2
 70
     1
 71
     2
 10
0.0
 20
0.0
 11
0.0
 21
0.0
 12
0.0
 22
0.0
 32
0.0
 14
0.0
 24
0.0
 34
0.0
 15
0.0
 25
0.0
 35
0.0
146
0.0
 13
0.0
 23
0.0
 33
0.0
 16
1.0
 26
0.0
 36
0.0
 17
0.0
 27
1.0
 37
0.0
 76
     0
330
23
  0
LAYOUT
  5
22
102
{ACAD_REACTORS
330
1A
102
}
330
1A
100
AcDbPlotSettings
  1

  2
none_device
  4
Letter_(8.50_x_11.00_Inches)
  6

 40
6.35
 41
6.35
 42
6.35000508
 43
6.35000508
 44
215.9
 45
279.4
 46
0.0
 47
0.0
 48
0.0
 49
0.0
140
0.0
141
0.0
142
1.0
143
1.0
 70
  1712
 72
     0
 73
     0
 74
     0
  7

 75
     0
 76
     0
 77
     2
 78
   300
147
1.0
148
0.0
149
0.0
100
AcDbLayout
  1
Model
 70
     1
 71
     0
 10
0.0
 20
0.0
 11
12.0
 21
9.0
 12
0.0
 22
0.0
 32
0.0
 14
1.000000000000000E+20
 24
1.000000000000000E+20
 34
1.000000000000000E+20
 15
-1.000000000000000E+20
 25
-1.000000000000000E+20
 35
-1.000000000000000E+20
146
0.0
 13
0.0
 23
0.0
 33
0.0
 16
1.0
 26
0.0
 36
0.0
 17
0.0
 27
1.0
 37
0.0
 76
     0
330
1F
331
29
  0
MATERIAL
  5
45
102
{ACAD_REACTORS
330
43
102
}
330
43
100
AcDbMaterial
  1
ByBlock
 72
     1
 94
      127
  0
MATERIAL
  5
44
102
{ACAD_REACTORS
330
43
102
}
330
43
100
AcDbMaterial
  1
ByLayer
 72
     1
 94
      127
  0
MATERIAL
  5
46
102
{ACAD_REACTORS
330
43
102
}
330
43
100
AcDbMaterial
  1
Global
 72
     1
 94
      127
  0
MLEADERSTYLE
  5
6C
102
{ACAD_REACTORS
330
6B
102
}
330
6B
100
AcDbMLeaderStyle
179
     2
170
     2
171
     1
172
     0
 90
        2
 40
0.0
 41
0.0
173
     1
 91
-1056964608
340
14
 92
       -2
290
     1
 42
0.09
291
     1
 43
0.36
  3
Standard
341
0
 44
0.18
300

342
11
174
     1
178
     6
175
     1
176
     0
 93
-1056964608
 45
0.18
292
     0
297
     0
 46
0.18
343
0
 94
-1056964608
 47
1.0
 49
1.0
140
1.0
293
     1
141
0.0
294
     1
177
     0
142
1.0
295
     0
296
     0
143
0.125
271
     0
272
     9
273
     9
298
     0
  0
MLINESTYLE
  5
18
102
{ACAD_REACTORS
330
17
102
}
330
17
100
AcDbMlineStyle
  2
Standard
 70
     0
  3

 62
   256
 51
90.0
 52
90.0
 71
     2
 49
0.5
 62
   256
  6
BYLAYER
 49
-0.5
 62
   256
  6
BYLAYER
  0
ACDBPLACEHOLDER
  5
F
102
{ACAD_REACTORS
330
E
102
}
330
E
  0
SCALE
  5
48
102
{ACAD_REACTORS
330
47
102
}
330
47
100
AcDbScale
 70
     0
300
1:1
140
1.0
141
1.0
290
     1
  0
SCALE
  5
49
102
{ACAD_REACTORS
330
47
102
}
330
47
100
AcDbScale
 70
     0
300
1:2
140
1.0
141
2.0
290
     0
  0
SCALE
  5
4A
102
{ACAD_REACTORS
330
47
102
}
330
47
100
AcDbScale
 70
     0
300
1:4
140
1.0
141
4.0
290
     0
  0
SCALE
  5
4B
102
{ACAD_REACTORS
330
47
102
}
330
47
100
AcDbScale
 70
     0
300
1:5
140
1.0
141
5.0
290
     0
  0
SCALE
  5
4C
102
{ACAD_REACTORS
330
47
102
}
330
47
100
AcDbScale
 70
     0
300
1:8
140
1.0
141
8.0
290
     0
  0
SCALE
  5
4D
102
{ACAD_REACTORS
330
47
102
}
330
47
100
AcDbScale
 70
     0
300
1:10
140
1.0
141
10.0
290
     0
  0
SCALE
  5
4E
102
{ACAD_REACTORS
330
47
102
}
330
47
100
AcDbScale
 70
     0
300
1:16
140
1.0
141
16.0
290
     0
  0
SCALE
  5
4F
102
{ACAD_REACTORS
330
47
102
}
330
47
100
AcDbScale
 70
     0
300
1:20
140
1.0
141
20.0
290
     0
  0
SCALE
  5
50
102
{ACAD_REACTORS
330
47
102
}
330
47
100
AcDbScale
 70
     0
300
1:30
140
1.0
141
30.0
290
     0
  0
SCALE
  5
51
102
{ACAD_REACTORS
330
47
102
}
330
47
100
AcDbScale
 70
     0
300
1:40
140
1.0
141
40.0
290
     0
  0
SCALE
  5
52
102
{ACAD_REACTORS
330
47
102
}
330
47
100
AcDbScale
 70
     0
300
1:50
140
1.0
141
50.0
290
     0
  0
SCALE
  5
53
102
{ACAD_REACTORS
330
47
102
}
330
47
100
AcDbScale
 70
     0
300
1:100
140
1.0
141
100.0
290
     0
  0
SCALE
  5
54
102
{ACAD_REACTORS
330
47
102
}
330
47
100
AcDbScale
 70
     0
300
2:1
140
2.0
141
1.0
290
     0
  0
SCALE
  5
55
102
{ACAD_REACTORS
330
47
102
}
330
47
100
AcDbScale
 70
     0
300
4:1
140
4.0
141
1.0
290
     0
  0
SCALE
  5
56
102
{ACAD_REACTORS
330
47
102
}
330
47
100
AcDbScale
 70
     0
300
8:1
140
8.0
141
1.0
290
     0
  0
SCALE
  5
57
102
{ACAD_REACTORS
330
47
102
}
330
47
100
AcDbScale
 70
     0
300
10:1
140
10.0
141
1.0
290
     0
  0
SCALE
  5
58
102
{ACAD_REACTORS
330
47
102
}
330
47
100
AcDbScale
 70
     0
300
100:1
140
100.0
141
1.0
290
     0
  0
SCALE
  5
59
102
{ACAD_REACTORS
330
47
102
}
330
47
100
AcDbScale
 70
     0
300
1/128" = 1'-0"
140
0.0078125
141
12.0
290
     0
  0
SCALE
  5
5A
102
{ACAD_REACTORS
330
47
102
}
330
47
100
AcDbScale
 70
     0
300
1/64" = 1'-0"
140
0.015625
141
12.0
290
     0
  0
SCALE
  5
5B
102
{ACAD_REACTORS
330
47
102
}
330
47
100
AcDbScale
 70
     0
300
1/32" = 1'-0"
140
0.03125
141
12.0
290
     0
  0
SCALE
  5
5C
102
{ACAD_REACTORS
330
47
102
}
330
47
100
AcDbScale
 70
     0
300
1/16" = 1'-0"
140
0.0625
141
12.0
290
     0
  0
SCALE
  5
5D
102
{ACAD_REACTORS
330
47
102
}
330
47
100
AcDbScale
 70
     0
300
3/32" = 1'-0"
140
0.09375
141
12.0
290
     0
  0
SCALE
  5
5E
102
{ACAD_REACTORS
330
47
102
}
330
47
100
AcDbScale
 70
     0
300
1/8" = 1'-0"
140
0.125
141
12.0
290
     0
  0
SCALE
  5
5F
102
{ACAD_REACTORS
330
47
102
}
330
47
100
AcDbScale
 70
     0
300
3/16" = 1'-0"
140
0.1875
141
12.0
290
     0
  0
SCALE
  5
60
102
{ACAD_REACTORS
330
47
102
}
330
47
100
AcDbScale
 70
     0
300
1/4" = 1'-0"
140
0.25
141
12.0
290
     0
  0
SCALE
  5
61
102
{ACAD_REACTORS
330
47
102
}
330
47
100
AcDbScale
 70
     0
300
3/8" = 1'-0"
140
0.375
141
12.0
290
     0
  0
SCALE
  5
62
102
{ACAD_REACTORS
330
47
102
}
330
47
100
AcDbScale
 70
     0
300
1/2" = 1'-0"
140
0.5
141
12.0
290
     0
  0
SCALE
  5
63
102
{ACAD_REACTORS
330
47
102
}
330
47
100
AcDbScale
 70
     0
300
3/4" = 1'-0"
140
0.75
141
12.0
290
     0
  0
SCALE
  5
64
102
{ACAD_REACTORS
330
47
102
}
330
47
100
AcDbScale
 70
     0
300
1" = 1'-0"
140
1.0
141
12.0
290
     0
  0
SCALE
  5
65
102
{ACAD_REACTORS
330
47
102
}
330
47
100
AcDbScale
 70
     0
300
1-1/2" = 1'-0"
140
1.5
141
12.0
290
     0
  0
SCALE
  5
66
102
{ACAD_REACTORS
330
47
102
}
330
47
100
AcDbScale
 70
     0
300
3" = 1'-0"
140
3.0
141
12.0
290
     0
  0
SCALE
  5
67
102
{ACAD_REACTORS
330
47
102
}
330
47
100
AcDbScale
 70
     0
300
6" = 1'-0"
140
6.0
141
12.0
290
     0
  0
SCALE
  5
68
102
{ACAD_REACTORS
330
47
102
}
330
47
100
AcDbScale
 70
     0
300
1'-0" = 1'-0"
140
12.0
141
12.0
290
     0
  0
TABLESTYLE
  5
6A
102
{ACAD_REACTORS
330
69
102
}
102
{ACAD_XDICTIONARY
360
1DD
102
}
330
69
100
AcDbTableStyle
  3
Standard
 70
     0
 71
     0
 40
0.06
 41
0.06
280
     0
281
     0
  7
Standard
140
0.18
170
     2
 62
     0
 63
   257
283
     0
 90
        4
 91
        0
  1

274
    -2
284
     1
 64
     0
275
    -2
285
     1
 65
     0
276
    -2
286
     1
 66
     0
277
    -2
287
     1
 67
     0
278
    -2
288
     1
 68
     0
279
    -2
289
     1
 69
     0
  7
Standard
140
0.25
170
     5
 62
     0
 63
   257
283
     0
 90
        4
 91
        0
  1

274
    -2
284
     1
 64
     0
275
    -2
285
     1
 65
     0
276
    -2
286
     1
 66
     0
277
    -2
287
     1
 67
     0
278
    -2
288
     1
 68
     0
279
    -2
289
     1
 69
     0
  7
Standard
140
0.18
170
     5
 62
     0
 63
   257
283
     0
 90
        4
 91
        0
  1

274
    -2
284
     1
 64
     0
275
    -2
285
     1
 65
     0
276
    -2
286
     1
 66
     0
277
    -2
287
     1
 67
     0
278
    -2
288
     1
 68
     0
279
    -2
289
     1
 69
     0
  0
VISUALSTYLE
  5
2F
102
{ACAD_REACTORS
330
2A
102
}
330
2A
100
AcDbVisualStyle
  2
2dWireframe
 70
     4
177
     3
291
     0
 70
    58
 90
        0
176
     1
 90
        2
176
     1
 90
        0
176
     1
 90
        0
176
     1
 40
0.6
176
     1
 40
30.0
176
     1
 62
     7
420
 16777215
176
     1
 90
        1
176
     1
 90
        4
176
     1
 62
     7
176
     1
 62
   257
176
     1
 90
        1
176
     1
 90
        1
176
     1
 40
1.0
176
     1
 90
        0
176
     1
 62
   257
176
     1
 40
1.0
176
     1
 90
        1
176
     1
 90
        6
176
     1
 90
        2
176
     1
 62
     7
176
     1
 90
        5
176
     1
 90
        0
176
     1
 90
        0
176
     1
290
     0
176
     1
 90
        1
176
     1
 40
0.0
176
     1
 90
        0
176
     1
290
     1
176
     1
290
     1
176
     1
290
     0
176
     1
290
     0
176
     1
290
     0
176
     1
290
     0
176
     1
290
     0
176
     1
290
     0
176
     1
290
     0
176
     1
 90
       50
176
     1
 40
0.0
176
     1
 40
1.0
176
     1
 90
        0
176
     1
 62
    18
420
        0
176
     1
 90
       50
176
     1
 90
        3
176
     1
 62
     5
420
      255
176
     1
290
     0
176
     1
 90
       50
176
     1
 90
       50
176
     1
 90
       50
176
     1
290
     0
176
     1
 90
       50
176
     1
 62
   256
176
     0
 40
1.0
176
     0
 90
        2
176
     1
  1
strokes_ogs.tif
176
     1
290
     0
176
     1
 40
1.0
176
     1
 40
1.0
176
     1
  0
VISUALSTYLE
  5
32
102
{ACAD_REACTORS
330
2A
102
}
330
2A
100
AcDbVisualStyle
  2
Basic
 70
     7
177
     3
291
     1
 70
    58
 90
        1
176
     1
 90
        0
176
     1
 90
        1
176
     1
 90
        0
176
     1
 40
0.6
176
     1
 40
30.0
176
     1
 62
     7
420
 16777215
176
     1
 90
        0
176
     1
 90
        4
176
     1
 62
     7
176
     1
 62
   257
176
     1
 90
        1
176
     1
 90
        1
176
     1
 40
1.0
176
     1
 90
        8
176
     1
 62
     7
176
     1
 40
1.0
176
     1
 90
        1
176
     1
 90
        6
176
     1
 90
        2
176
     1
 62
     7
176
     1
 90
        5
176
     1
 90
        0
176
     1
 90
        0
176
     1
290
     0
176
     1
 90
        1
176
     1
 40
0.0
176
     1
 90
        0
176
     1
290
     0
176
     1
290
     1
176
     1
290
     1
176
     1
290
     0
176
     1
290
     0
176
     1
290
     0
176
     1
290
     0
176
     1
290
     0
176
     1
290
     0
176
     1
 90
       50
176
     1
 40
0.0
176
     1
 40
1.0
176
     1
 90
        0
176
     1
 62
    18
420
        0
176
     1
 90
       50
176
     1
 90
        3
176
     1
 62
     5
420
      255
176
     1
290
     0
176
     1
 90
       50
176
     1
 90
       50
176
     1
 90
       50
176
     1
290
     0
176
     1
 90
       50
176
     1
 62
   256
176
     0
 40
1.0
176
     0
 90
        2
176
     1
  1
strokes_ogs.tif
176
     1
290
     0
176
     1
 40
1.0
176
     1
 40
1.0
176
     1
  0
VISUALSTYLE
  5
36
102
{ACAD_REACTORS
330
2A
102
}
330
2A
100
AcDbVisualStyle
  2
Brighten
 70
    12
177
     3
291
     1
 70
    58
 90
        2
176
     1
 90
        2
176
     1
 90
        0
176
     1
 90
        0
176
     1
 40
0.6
176
     1
 40
30.0
176
     1
 62
     7
420
 16777215
176
     1
 90
        1
176
     1
 90
        4
176
     1
 62
     7
176
     1
 62
   257
176
     1
 90
        1
176
     1
 90
        1
176
     1
 40
1.0
176
     1
 90
        8
176
     1
 62
     7
176
     1
 40
1.0
176
     1
 90
        1
176
     1
 90
        6
176
     1
 90
        2
176
     1
 62
     7
176
     1
 90
        5
176
     1
 90
        0
176
     1
 90
        0
176
     1
290
     0
176
     1
 90
        1
176
     1
 40
50.0
176
     1
 90
        0
176
     1
290
     0
176
     1
290
     1
176
     1
290
     1
176
     1
290
     0
176
     1
290
     0
176
     1
290
     0
176
     1
290
     0
176
     1
290
     0
176
     1
290
     0
176
     1
 90
       50
176
     1
 40
0.0
176
     1
 40
1.0
176
     1
 90
        0
176
     1
 62
    18
420
        0
176
     1
 90
       50
176
     1
 90
        3
176
     1
 62
     5
420
      255
176
     1
290
     0
176
     1
 90
       50
176
     1
 90
       50
176
     1
 90
       50
176
     1
290
     0
176
     1
 90
       50
176
     1
 62
   256
176
     0
 40
1.0
176
     0
 90
        2
176
     1
  1
strokes_ogs.tif
176
     1
290
     0
176
     1
 40
1.0
176
     1
 40
1.0
176
     1
  0
VISUALSTYLE
  5
3A
102
{ACAD_REACTORS
330
2A
102
}
330
2A
100
AcDbVisualStyle
  2
ColorChange
 70
    16
177
     3
291
     1
 70
    58
 90
        2
176
     1
 90
        2
176
     1
 90
        3
176
     1
 90
        0
176
     1
 40
0.6
176
     1
 40
30.0
176
     1
 62
     8
420
  8421504
176
     1
 90
        1
176
     1
 90
        4
176
     1
 62
     7
176
     1
 62
   257
176
     1
 90
        1
176
     1
 90
        1
176
     1
 40
1.0
176
     1
 90
        8
176
     1
 62
     8
420
  8421504
176
     1
 40
1.0
176
     1
 90
        1
176
     1
 90
        6
176
     1
 90
        2
176
     1
 62
     7
176
     1
 90
        5
176
     1
 90
        0
176
     1
 90
        0
176
     1
290
     0
176
     1
 90
        1
176
     1
 40
0.0
176
     1
 90
        0
176
     1
290
     0
176
     1
290
     1
176
     1
290
     1
176
     1
290
     0
176
     1
290
     0
176
     1
290
     0
176
     1
290
     0
176
     1
290
     0
176
     1
290
     0
176
     1
 90
       50
176
     1
 40
0.0
176
     1
 40
1.0
176
     1
 90
        0
176
     1
 62
    18
420
        0
176
     1
 90
       50
176
     1
 90
        3
176
     1
 62
     5
420
      255
176
     1
290
     0
176
     1
 90
       50
176
     1
 90
       50
176
     1
 90
       50
176
     1
290
     0
176
     1
 90
       50
176
     1
 62
   256
176
     0
 40
1.0
176
     0
 90
        2
176
     1
  1
strokes_ogs.tif
176
     1
290
     0
176
     1
 40
1.0
176
     1
 40
1.0
176
     1
  0
VISUALSTYLE
  5
34
102
{ACAD_REACTORS
330
2A
102
}
330
2A
100
AcDbVisualStyle
  2
Conceptual
 70
     9
177
     3
291
     0
 70
    58
 90
        3
176
     1
 90
        2
176
     1
 90
        0
176
     1
 90
        0
176
     1
 40
0.6
176
     1
 40
30.0
176
     1
 62
     7
420
 16777215
176
     1
 90
        2
176
     1
 90
        2
176
     1
 62
     7
176
     1
 62
   257
176
     1
 90
        1
176
     1
 90
        1
176
     1
 40
179.0
176
     1
 90
        8
176
     1
 62
     7
176
     1
 40
1.0
176
     1
 90
        1
176
     1
 90
        6
176
     1
 90
        2
176
     1
 62
     7
176
     1
 90
        3
176
     1
 90
        0
176
     1
 90
        0
176
     1
290
     0
176
     1
 90
        1
176
     1
 40
0.0
176
     1
 90
        0
176
     1
290
     0
176
     1
290
     1
176
     1
290
     1
176
     1
290
     0
176
     1
290
     0
176
     1
290
     0
176
     1
290
     0
176
     1
290
     0
176
     1
290
     0
176
     1
 90
       50
176
     1
 40
0.0
176
     1
 40
1.0
176
     1
 90
        0
176
     1
 62
    18
420
        0
176
     1
 90
       50
176
     1
 90
        3
176
     1
 62
     5
420
      255
176
     1
290
     0
176
     1
 90
       50
176
     1
 90
       50
176
     1
 90
       50
176
     1
290
     0
176
     1
 90
       50
176
     1
 62
   256
176
     0
 40
1.0
176
     0
 90
        2
176
     1
  1
strokes_ogs.tif
176
     1
290
     0
176
     1
 40
1.0
176
     1
 40
1.0
176
     1
  0
VISUALSTYLE
  5
35
102
{ACAD_REACTORS
330
2A
102
}
330
2A
100
AcDbVisualStyle
  2
Dim
 70
    11
177
     3
291
     1
 70
    58
 90
        2
176
     1
 90
        2
176
     1
 90
        0
176
     1
 90
        0
176
     1
 40
0.6
176
     1
 40
30.0
176
     1
 62
     7
420
 16777215
176
     1
 90
        1
176
     1
 90
        4
176
     1
 62
     7
176
     1
 62
   257
176
     1
 90
        1
176
     1
 90
        1
176
     1
 40
1.0
176
     1
 90
        8
176
     1
 62
     7
176
     1
 40
1.0
176
     1
 90
        1
176
     1
 90
        6
176
     1
 90
        2
176
     1
 62
     7
176
     1
 90
        5
176
     1
 90
        0
176
     1
 90
        0
176
     1
290
     0
176
     1
 90
        1
176
     1
 40
-50.0
176
     1
 90
        0
176
     1
290
     0
176
     1
290
     1
176
     1
290
     1
176
     1
290
     0
176
     1
290
     0
176
     1
290
     0
176
     1
290
     0
176
     1
290
     0
176
     1
290
     0
176
     1
 90
       50
176
     1
 40
0.0
176
     1
 40
1.0
176
     1
 90
        0
176
     1
 62
    18
420
        0
176
     1
 90
       50
176
     1
 90
        3
176
     1
 62
     5
420
      255
176
     1
290
     0
176
     1
 90
       50
176
     1
 90
       50
176
     1
 90
       50
176
     1
290
     0
176
     1
 90
       50
176
     1
 62
   256
176
     0
 40
1.0
176
     0
 90
        2
176
     1
  1
strokes_ogs.tif
176
     1
290
     0
176
     1
 40
1.0
176
     1
 40
1.0
176
     1
  0
VISUALSTYLE
  5
3D
102
{ACAD_REACTORS
330
2A
102
}
330
2A
100
AcDbVisualStyle
  2
EdgeColorOff
 70
    22
177
     3
291
     1
 70
    58
 90
        2
176
     0
 90
        2
176
     0
 90
        0
176
     0
 90
        0
176
     0
 40
0.6
176
     0
 40
30.0
176
     0
 62
     7
420
 16777215
176
     0
 90
        1
176
     0
 90
        4
176
     0
 62
     7
176
     0
 62
   257
176
     0
 90
        1
176
     0
 90
        1
176
     0
 40
1.0
176
     0
 90
        8
176
     2
 62
     7
176
     0
 40
1.0
176
     0
 90
        1
176
     0
 90
        6
176
     0
 90
        2
176
     0
 62
     7
176
     0
 90
        5
176
     0
 90
        0
176
     0
 90
        0
176
     0
290
     0
176
     0
 90
        1
176
     0
 40
0.0
176
     0
 90
        0
176
     0
290
     0
176
     0
290
     1
176
     0
290
     1
176
     0
290
     0
176
     0
290
     0
176
     0
290
     0
176
     0
290
     0
176
     0
290
     0
176
     0
290
     0
176
     0
 90
       50
176
     0
 40
0.0
176
     0
 40
1.0
176
     0
 90
        0
176
     0
 62
    18
420
        0
176
     0
 90
       50
176
     0
 90
        3
176
     0
 62
     5
420
      255
176
     0
290
     0
176
     0
 90
       50
176
     0
 90
       50
176
     0
 90
       50
176
     0
290
     0
176
     0
 90
       50
176
     0
 62
   256
176
     0
 40
1.0
176
     0
 90
        2
176
     0
  1
strokes_ogs.tif
176
     0
290
     0
176
     0
 40
1.0
176
     0
 40
1.0
176
     0
  0
VISUALSTYLE
  5
39
102
{ACAD_REACTORS
330
2A
102
}
330
2A
100
AcDbVisualStyle
  2
Facepattern
 70
    15
177
     3
291
     1
 70
    58
 90
        2
176
     1
 90
        2
176
     1
 90
        0
176
     1
 90
        0
176
     1
 40
0.6
176
     1
 40
30.0
176
     1
 62
     7
420
 16777215
176
     1
 90
        1
176
     1
 90
        4
176
     1
 62
     7
176
     1
 62
   257
176
     1
 90
        1
176
     1
 90
        1
176
     1
 40
1.0
176
     1
 90
        8
176
     1
 62
     7
176
     1
 40
1.0
176
     1
 90
        1
176
     1
 90
        6
176
     1
 90
        2
176
     1
 62
     7
176
     1
 90
        5
176
     1
 90
        0
176
     1
 90
        0
176
     1
290
     0
176
     1
 90
        1
176
     1
 40
0.0
176
     1
 90
        0
176
     1
290
     0
176
     1
290
     1
176
     1
290
     1
176
     1
290
     0
176
     1
290
     0
176
     1
290
     0
176
     1
290
     0
176
     1
290
     0
176
     1
290
     0
176
     1
 90
       50
176
     1
 40
0.0
176
     1
 40
1.0
176
     1
 90
        0
176
     1
 62
    18
420
        0
176
     1
 90
       50
176
     1
 90
        3
176
     1
 62
     5
420
      255
176
     1
290
     0
176
     1
 90
       50
176
     1
 90
       50
176
     1
 90
       50
176
     1
290
     0
176
     1
 90
       50
176
     1
 62
   256
176
     0
 40
1.0
176
     0
 90
        2
176
     1
  1
strokes_ogs.tif
176
     1
290
     0
176
     1
 40
1.0
176
     1
 40
1.0
176
     1
  0
VISUALSTYLE
  5
2B
102
{ACAD_REACTORS
330
2A
102
}
330
2A
100
AcDbVisualStyle
  2
Flat
 70
     0
177
     3
291
     1
 70
    58
 90
        2
176
     1
 90
        1
176
     1
 90
        1
176
     1
 90
        2
176
     1
 40
0.6
176
     1
 40
30.0
176
     1
 62
     7
420
 16777215
176
     1
 90
        0
176
     1
 90
        0
176
     1
 62
     7
176
     1
 62
   257
176
     1
 90
        1
176
     1
 90
        1
176
     1
 40
1.0
176
     1
 90
        8
176
     1
 62
     7
176
     1
 40
1.0
176
     1
 90
        1
176
     1
 90
        6
176
     1
 90
        2
176
     1
 62
     7
176
     1
 90
        5
176
     1
 90
        0
176
     1
 90
        0
176
     1
290
     0
176
     1
 90
       13
176
     1
 40
0.0
176
     1
 90
        0
176
     1
290
     0
176
     1
290
     1
176
     1
290
     1
176
     1
290
     0
176
     1
290
     0
176
     1
290
     0
176
     1
290
     0
176
     1
290
     0
176
     1
290
     0
176
     1
 90
       50
176
     1
 40
0.0
176
     1
 40
1.0
176
     1
 90
        0
176
     1
 62
    18
420
        0
176
     1
 90
       50
176
     1
 90
        3
176
     1
 62
     5
420
      255
176
     1
290
     0
176
     1
 90
       50
176
     1
 90
       50
176
     1
 90
       50
176
     1
290
     0
176
     1
 90
       50
176
     1
 62
   256
176
     0
 40
1.0
176
     0
 90
        2
176
     1
  1
strokes_ogs.tif
176
     1
290
     0
176
     1
 40
1.0
176
     1
 40
1.0
176
     1
  0
VISUALSTYLE
  5
2C
102
{ACAD_REACTORS
330
2A
102
}
330
2A
100
AcDbVisualStyle
  2
FlatWithEdges
 70
     1
177
     3
291
     1
 70
    58
 90
        2
176
     1
 90
        1
176
     1
 90
        1
176
     1
 90
        2
176
     1
 40
0.6
176
     1
 40
30.0
176
     1
 62
     7
420
 16777215
176
     1
 90
        1
176
     1
 90
        0
176
     1
 62
     7
176
     1
 62
   257
176
     1
 90
        1
176
     1
 90
        1
176
     1
 40
1.0
176
     1
 90
        0
176
     1
 62
   257
176
     1
 40
1.0
176
     1
 90
        1
176
     1
 90
        6
176
     1
 90
        2
176
     1
 62
     7
176
     1
 90
        5
176
     1
 90
        0
176
     1
 90
        0
176
     1
290
     0
176
     1
 90
       13
176
     1
 40
0.0
176
     1
 90
        0
176
     1
290
     0
176
     1
290
     1
176
     1
290
     1
176
     1
290
     0
176
     1
290
     0
176
     1
290
     0
176
     1
290
     0
176
     1
290
     0
176
     1
290
     0
176
     1
 90
       50
176
     1
 40
0.0
176
     1
 40
1.0
176
     1
 90
        0
176
     1
 62
    18
420
        0
176
     1
 90
       50
176
     1
 90
        3
176
     1
 62
     5
420
      255
176
     1
290
     0
176
     1
 90
       50
176
     1
 90
       50
176
     1
 90
       50
176
     1
290
     0
176
     1
 90
       50
176
     1
 62
   256
176
     0
 40
1.0
176
     0
 90
        2
176
     1
  1
strokes_ogs.tif
176
     1
290
     0
176
     1
 40
1.0
176
     1
 40
1.0
176
     1
  0
VISUALSTYLE
  5
2D
102
{ACAD_REACTORS
330
2A
102
}
330
2A
100
AcDbVisualStyle
  2
Gouraud
 70
     2
177
     3
291
     1
 70
    58
 90
        2
176
     1
 90
        2
176
     1
 90
        1
176
     1
 90
        2
176
     1
 40
0.6
176
     1
 40
30.0
176
     1
 62
     7
420
 16777215
176
     1
 90
        0
176
     1
 90
        0
176
     1
 62
     7
176
     1
 62
   257
176
     1
 90
        1
176
     1
 90
        1
176
     1
 40
1.0
176
     1
 90
        0
176
     1
 62
     7
176
     1
 40
1.0
176
     1
 90
        1
176
     1
 90
        6
176
     1
 90
        2
176
     1
 62
     7
176
     1
 90
        5
176
     1
 90
        0
176
     1
 90
        0
176
     1
290
     0
176
     1
 90
       13
176
     1
 40
0.0
176
     1
 90
        0
176
     1
290
     0
176
     1
290
     1
176
     1
290
     1
176
     1
290
     0
176
     1
290
     0
176
     1
290
     0
176
     1
290
     0
176
     1
290
     0
176
     1
290
     0
176
     1
 90
       50
176
     1
 40
0.0
176
     1
 40
1.0
176
     1
 90
        0
176
     1
 62
    18
420
        0
176
     1
 90
       50
176
     1
 90
        3
176
     1
 62
     5
420
      255
176
     1
290
     0
176
     1
 90
       50
176
     1
 90
       50
176
     1
 90
       50
176
     1
290
     0
176
     1
 90
       50
176
     1
 62
   256
176
     0
 40
1.0
176
     0
 90
        2
176
     1
  1
strokes_ogs.tif
176
     1
290
     0
176
     1
 40
1.0
176
     1
 40
1.0
176
     1
  0
VISUALSTYLE
  5
2E
102
{ACAD_REACTORS
330
2A
102
}
330
2A
100
AcDbVisualStyle
  2
GouraudWithEdges
 70
     3
177
     3
291
     1
 70
    58
 90
        2
176
     1
 90
        2
176
     1
 90
        1
176
     1
 90
        2
176
     1
 40
0.6
176
     1
 40
30.0
176
     1
 62
     7
420
 16777215
176
     1
 90
        1
176
     1
 90
        0
176
     1
 62
     7
176
     1
 62
   257
176
     1
 90
        1
176
     1
 90
        1
176
     1
 40
1.0
176
     1
 90
        0
176
     1
 62
   257
176
     1
 40
1.0
176
     1
 90
        1
176
     1
 90
        6
176
     1
 90
        2
176
     1
 62
     7
176
     1
 90
        5
176
     1
 90
        0
176
     1
 90
        0
176
     1
290
     0
176
     1
 90
       13
176
     1
 40
0.0
176
     1
 90
        0
176
     1
290
     0
176
     1
290
     1
176
     1
290
     1
176
     1
290
     0
176
     1
290
     0
176
     1
290
     0
176
     1
290
     0
176
     1
290
     0
176
     1
290
     0
176
     1
 90
       50
176
     1
 40
0.0
176
     1
 40
1.0
176
     1
 90
        0
176
     1
 62
    18
420
        0
176
     1
 90
       50
176
     1
 90
        3
176
     1
 62
     5
420
      255
176
     1
290
     0
176
     1
 90
       50
176
     1
 90
       50
176
     1
 90
       50
176
     1
290
     0
176
     1
 90
       50
176
     1
 62
   256
176
     0
 40
1.0
176
     0
 90
        2
176
     1
  1
strokes_ogs.tif
176
     1
290
     0
176
     1
 40
1.0
176
     1
 40
1.0
176
     1
  0
VISUALSTYLE
  5
31
102
{ACAD_REACTORS
330
2A
102
}
330
2A
100
AcDbVisualStyle
  2
Hidden
 70
     6
177
     3
291
     0
 70
    58
 90
        1
176
     1
 90
        2
176
     1
 90
        2
176
     1
 90
        0
176
     1
 40
0.6
176
     1
 40
30.0
176
     1
 62
     7
420
 16777215
176
     1
 90
        2
176
     1
 90
        2
176
     1
 62
     7
176
     1
 62
   257
176
     1
 90
        2
176
     1
 90
        1
176
     1
 40
40.0
176
     1
 90
        0
176
     1
 62
   257
176
     1
 40
1.0
176
     1
 90
        1
176
     1
 90
        6
176
     1
 90
        2
176
     1
 62
     7
176
     1
 90
        3
176
     1
 90
        0
176
     1
 90
        0
176
     1
290
     0
176
     1
 90
        1
176
     1
 40
0.0
176
     1
 90
        0
176
     1
290
     0
176
     1
290
     1
176
     1
290
     1
176
     1
290
     0
176
     1
290
     0
176
     1
290
     0
176
     1
290
     0
176
     1
290
     0
176
     1
290
     0
176
     1
 90
       50
176
     1
 40
0.0
176
     1
 40
1.0
176
     1
 90
        0
176
     1
 62
    18
420
        0
176
     1
 90
       50
176
     1
 90
        3
176
     1
 62
     5
420
      255
176
     1
290
     0
176
     1
 90
       50
176
     1
 90
       50
176
     1
 90
       50
176
     1
290
     0
176
     1
 90
       50
176
     1
 62
   256
176
     0
 40
1.0
176
     0
 90
        2
176
     1
  1
strokes_ogs.tif
176
     1
290
     0
176
     1
 40
1.0
176
     1
 40
1.0
176
     1
  0
VISUALSTYLE
  5
3B
102
{ACAD_REACTORS
330
2A
102
}
330
2A
100
AcDbVisualStyle
  2
JitterOff
 70
    20
177
     3
291
     1
 70
    58
 90
        2
176
     0
 90
        2
176
     0
 90
        0
176
     0
 90
        0
176
     0
 40
0.6
176
     0
 40
30.0
176
     0
 62
     7
420
 16777215
176
     0
 90
        1
176
     0
 90
        4
176
     0
 62
     7
176
     0
 62
   257
176
     0
 90
        1
176
     0
 90
        1
176
     0
 40
1.0
176
     0
 90
       10
176
     2
 62
     7
176
     0
 40
1.0
176
     0
 90
        1
176
     0
 90
        6
176
     0
 90
        2
176
     0
 62
     7
176
     0
 90
        5
176
     0
 90
        0
176
     0
 90
        0
176
     0
290
     0
176
     0
 90
        1
176
     0
 40
0.0
176
     0
 90
        0
176
     0
290
     0
176
     0
290
     1
176
     0
290
     1
176
     0
290
     0
176
     0
290
     0
176
     0
290
     0
176
     0
290
     0
176
     0
290
     0
176
     0
290
     0
176
     0
 90
       50
176
     0
 40
0.0
176
     0
 40
1.0
176
     0
 90
        0
176
     0
 62
    18
420
        0
176
     0
 90
       50
176
     0
 90
        3
176
     0
 62
     5
420
      255
176
     0
290
     0
176
     0
 90
       50
176
     0
 90
       50
176
     0
 90
       50
176
     0
290
     0
176
     0
 90
       50
176
     0
 62
   256
176
     0
 40
1.0
176
     0
 90
        2
176
     0
  1
strokes_ogs.tif
176
     0
290
     0
176
     0
 40
1.0
176
     0
 40
1.0
176
     0
  0
VISUALSTYLE
  5
38
102
{ACAD_REACTORS
330
2A
102
}
330
2A
100
AcDbVisualStyle
  2
Linepattern
 70
    14
177
     3
291
     1
 70
    58
 90
        2
176
     1
 90
        2
176
     1
 90
        0
176
     1
 90
        0
176
     1
 40
0.6
176
     1
 40
30.0
176
     1
 62
     7
420
 16777215
176
     1
 90
        1
176
     1
 90
        4
176
     1
 62
     7
176
     1
 62
   257
176
     1
 90
        7
176
     1
 90
        7
176
     1
 40
1.0
176
     1
 90
        8
176
     1
 62
     7
176
     1
 40
1.0
176
     1
 90
        1
176
     1
 90
        6
176
     1
 90
        2
176
     1
 62
     7
176
     1
 90
        5
176
     1
 90
        0
176
     1
 90
        0
176
     1
290
     0
176
     1
 90
        1
176
     1
 40
0.0
176
     1
 90
        0
176
     1
290
     0
176
     1
290
     1
176
     1
290
     1
176
     1
290
     0
176
     1
290
     0
176
     1
290
     0
176
     1
290
     0
176
     1
290
     0
176
     1
290
     0
176
     1
 90
       50
176
     1
 40
0.0
176
     1
 40
1.0
176
     1
 90
        0
176
     1
 62
    18
420
        0
176
     1
 90
       50
176
     1
 90
        3
176
     1
 62
     5
420
      255
176
     1
290
     0
176
     1
 90
       50
176
     1
 90
       50
176
     1
 90
       50
176
     1
290
     0
176
     1
 90
       50
176
     1
 62
   256
176
     0
 40
1.0
176
     0
 90
        2
176
     1
  1
strokes_ogs.tif
176
     1
290
     0
176
     1
 40
1.0
176
     1
 40
1.0
176
     1
  0
VISUALSTYLE
  5
3C
102
{ACAD_REACTORS
330
2A
102
}
330
2A
100
AcDbVisualStyle
  2
OverhangOff
 70
    21
177
     3
291
     1
 70
    58
 90
        2
176
     0
 90
        2
176
     0
 90
        0
176
     0
 90
        0
176
     0
 40
0.6
176
     0
 40
30.0
176
     0
 62
     7
420
 16777215
176
     0
 90
        1
176
     0
 90
        4
176
     0
 62
     7
176
     0
 62
   257
176
     0
 90
        1
176
     0
 90
        1
176
     0
 40
1.0
176
     0
 90
        9
176
     2
 62
     7
176
     0
 40
1.0
176
     0
 90
        1
176
     0
 90
        6
176
     0
 90
        2
176
     0
 62
     7
176
     0
 90
        5
176
     0
 90
        0
176
     0
 90
        0
176
     0
290
     0
176
     0
 90
        1
176
     0
 40
0.0
176
     0
 90
        0
176
     0
290
     0
176
     0
290
     1
176
     0
290
     1
176
     0
290
     0
176
     0
290
     0
176
     0
290
     0
176
     0
290
     0
176
     0
290
     0
176
     0
290
     0
176
     0
 90
       50
176
     0
 40
0.0
176
     0
 40
1.0
176
     0
 90
        0
176
     0
 62
    18
420
        0
176
     0
 90
       50
176
     0
 90
        3
176
     0
 62
     5
420
      255
176
     0
290
     0
176
     0
 90
       50
176
     0
 90
       50
176
     0
 90
       50
176
     0
290
     0
176
     0
 90
       50
176
     0
 62
   256
176
     0
 40
1.0
176
     0
 90
        2
176
     0
  1
strokes_ogs.tif
176
     0
290
     0
176
     0
 40
1.0
176
     0
 40
1.0
176
     0
  0
VISUALSTYLE
  5
33
102
{ACAD_REACTORS
330
2A
102
}
330
2A
100
AcDbVisualStyle
  2
Realistic
 70
     8
177
     3
291
     0
 70
    58
 90
        2
176
     1
 90
        3
176
     1
 90
        0
176
     1
 90
        2
176
     1
 40
0.6
176
     1
 40
30.0
176
     1
 62
     7
420
 16777215
176
     1
 90
        0
176
     1
 90
        0
176
     1
 62
     7
176
     1
 62
   257
176
     1
 90
        1
176
     1
 90
        1
176
     1
 40
1.0
176
     1
 90
        8
176
     1
 62
   257
176
     1
 40
1.0
176
     1
 90
        1
176
     1
 90
        6
176
     1
 90
        2
176
     1
 62
     7
176
     1
 90
        3
176
     1
 90
        0
176
     1
 90
        0
176
     1
290
     0
176
     1
 90
       13
176
     1
 40
0.0
176
     1
 90
        0
176
     1
290
     0
176
     1
290
     1
176
     1
290
     1
176
     1
290
     0
176
     1
290
     0
176
     1
290
     0
176
     1
290
     0
176
     1
290
     0
176
     1
290
     0
176
     1
 90
       50
176
     1
 40
0.0
176
     1
 40
1.0
176
     1
 90
        0
176
     1
 62
    18
420
        0
176
     1
 90
       50
176
     1
 90
        3
176
     1
 62
     5
420
      255
176
     1
290
     0
176
     1
 90
       50
176
     1
 90
       50
176
     1
 90
       50
176
     1
290
     0
176
     1
 90
       50
176
     1
 62
   256
176
     0
 40
1.0
176
     0
 90
        2
176
     1
  1
strokes_ogs.tif
176
     1
290
     0
176
     1
 40
1.0
176
     1
 40
1.0
176
     1
  0
VISUALSTYLE
  5
42
102
{ACAD_REACTORS
330
2A
102
}
330
2A
100
AcDbVisualStyle
  2
Shaded
 70
    27
177
     3
291
     0
 70
    58
 90
        2
176
     1
 90
        2
176
     1
 90
        1
176
     1
 90
        2
176
     1
 40
0.6
176
     1
 40
30.0
176
     1
 62
     7
420
 16777215
176
     1
 90
        0
176
     1
 90
        4
176
     1
 62
     7
176
     1
 62
   257
176
     1
 90
        1
176
     1
 90
        1
176
     1
 40
1.0
176
     1
 90
        8
176
     1
 62
   257
176
     1
 40
1.0
176
     1
 90
        1
176
     1
 90
        6
176
     1
 90
        2
176
     1
 62
     8
420
  7895160
176
     1
 90
        3
176
     1
 90
        0
176
     1
 90
        0
176
     1
290
     0
176
     1
 90
        5
176
     1
 40
0.0
176
     1
 90
        0
176
     1
290
     0
176
     1
290
     1
176
     1
290
     1
176
     1
290
     0
176
     1
290
     0
176
     1
290
     0
176
     1
290
     0
176
     1
290
     0
176
     1
290
     0
176
     1
 90
       50
176
     1
 40
0.0
176
     1
 40
1.0
176
     1
 90
        0
176
     1
 62
    18
420
        0
176
     1
 90
       50
176
     1
 90
        3
176
     1
 62
     5
420
      255
176
     1
290
     0
176
     1
 90
       50
176
     1
 90
       50
176
     1
 90
       50
176
     1
290
     0
176
     1
 90
       50
176
     1
 62
   256
176
     0
 40
1.0
176
     0
 90
        2
176
     1
  1
strokes_ogs.tif
176
     1
290
     0
176
     1
 40
1.0
176
     1
 40
1.0
176
     1
  0
VISUALSTYLE
  5
41
102
{ACAD_REACTORS
330
2A
102
}
330
2A
100
AcDbVisualStyle
  2
Shaded with edges
 70
    26
177
     3
291
     0
 70
    58
 90
        2
176
     1
 90
        2
176
     1
 90
        1
176
     1
 90
        2
176
     1
 40
0.6
176
     1
 40
30.0
176
     1
 62
     7
420
 16777215
176
     1
 90
        1
176
     1
 90
       10
176
     1
 62
     7
176
     1
 62
   257
176
     1
 90
        2
176
     1
 90
        1
176
     1
 40
1.0
176
     1
 90
        8
176
     1
 62
   257
176
     1
 40
1.0
176
     1
 90
        1
176
     1
 90
        6
176
     1
 90
        2
176
     1
 62
     7
176
     1
 90
        3
176
     1
 90
        0
176
     1
 90
        0
176
     1
290
     0
176
     1
 90
        5
176
     1
 40
0.0
176
     1
 90
        0
176
     1
290
     0
176
     1
290
     1
176
     1
290
     1
176
     1
290
     0
176
     1
290
     0
176
     1
290
     0
176
     1
290
     0
176
     1
290
     0
176
     1
290
     0
176
     1
 90
       50
176
     1
 40
0.0
176
     1
 40
1.0
176
     1
 90
        0
176
     1
 62
    18
420
        0
176
     1
 90
       50
176
     1
 90
        3
176
     1
 62
     5
420
      255
176
     1
290
     0
176
     1
 90
       50
176
     1
 90
       50
176
     1
 90
       50
176
     1
290
     0
176
     1
 90
       50
176
     1
 62
   256
176
     0
 40
1.0
176
     0
 90
        2
176
     1
  1
strokes_ogs.tif
176
     1
290
     0
176
     1
 40
1.0
176
     1
 40
1.0
176
     1
  0
VISUALSTYLE
  5
3E
102
{ACAD_REACTORS
330
2A
102
}
330
2A
100
AcDbVisualStyle
  2
Shades of Gray
 70
    23
177
     3
291
     0
 70
    58
 90
        2
176
     1
 90
        2
176
     1
 90
        3
176
     1
 90
        0
176
     1
 40
0.6
176
     1
 40
30.0
176
     1
 62
     7
420
 16777215
176
     1
 90
        2
176
     1
 90
        2
176
     1
 62
     7
176
     1
 62
     7
176
     1
 90
        1
176
     1
 90
        1
176
     1
 40
40.0
176
     1
 90
        8
176
     1
 62
     7
176
     1
 40
1.0
176
     1
 90
        1
176
     1
 90
        6
176
     1
 90
        2
176
     1
 62
     7
176
     1
 90
        3
176
     1
 90
        0
176
     1
 90
        0
176
     1
290
     0
176
     1
 90
        1
176
     1
 40
0.0
176
     1
 90
        0
176
     1
290
     0
176
     1
290
     1
176
     1
290
     1
176
     1
290
     0
176
     1
290
     0
176
     1
290
     0
176
     1
290
     0
176
     1
290
     0
176
     1
290
     0
176
     1
 90
       50
176
     1
 40
0.0
176
     1
 40
1.0
176
     1
 90
        0
176
     1
 62
    18
420
        0
176
     1
 90
       50
176
     1
 90
        3
176
     1
 62
     5
420
      255
176
     1
290
     0
176
     1
 90
       50
176
     1
 90
       50
176
     1
 90
       50
176
     1
290
     0
176
     1
 90
       50
176
     1
 62
   256
176
     0
 40
1.0
176
     0
 90
        2
176
     1
  1
strokes_ogs.tif
176
     1
290
     0
176
     1
 40
1.0
176
     1
 40
1.0
176
     1
  0
VISUALSTYLE
  5
3F
102
{ACAD_REACTORS
330
2A
102
}
330
2A
100
AcDbVisualStyle
  2
Sketchy
 70
    24
177
     3
291
     0
 70
    58
 90
        1
176
     1
 90
        2
176
     1
 90
        2
176
     1
 90
        0
176
     1
 40
0.6
176
     1
 40
30.0
176
     1
 62
     7
420
 16777215
176
     1
 90
        2
176
     1
 90
        2
176
     1
 62
     7
176
     1
 62
     7
176
     1
 90
        1
176
     1
 90
        1
176
     1
 40
40.0
176
     1
 90
       11
176
     1
 62
     7
176
     1
 40
1.0
176
     1
 90
        1
176
     1
 90
        6
176
     1
 90
        2
176
     1
 62
     7
176
     1
 90
        6
176
     1
 90
        0
176
     1
 90
        0
176
     1
290
     0
176
     1
 90
        1
176
     1
 40
0.0
176
     1
 90
        0
176
     1
290
     0
176
     1
290
     1
176
     1
290
     1
176
     1
290
     0
176
     1
290
     0
176
     1
290
     0
176
     1
290
     0
176
     1
290
     0
176
     1
290
     0
176
     1
 90
       50
176
     1
 40
0.0
176
     1
 40
1.0
176
     1
 90
        0
176
     1
 62
    18
420
        0
176
     1
 90
       50
176
     1
 90
        3
176
     1
 62
     5
420
      255
176
     1
290
     0
176
     1
 90
       50
176
     1
 90
       50
176
     1
 90
       50
176
     1
290
     0
176
     1
 90
       50
176
     1
 62
   256
176
     0
 40
1.0
176
     0
 90
        2
176
     1
  1
strokes_ogs.tif
176
     1
290
     0
176
     1
 40
1.0
176
     1
 40
1.0
176
     1
  0
VISUALSTYLE
  5
37
102
{ACAD_REACTORS
330
2A
102
}
330
2A
100
AcDbVisualStyle
  2
Thicken
 70
    13
177
     3
291
     1
 70
    58
 90
        2
176
     1
 90
        2
176
     1
 90
        0
176
     1
 90
        0
176
     1
 40
0.6
176
     1
 40
30.0
176
     1
 62
     7
420
 16777215
176
     1
 90
        1
176
     1
 90
        4
176
     1
 62
     7
176
     1
 62
   257
176
     1
 90
        1
176
     1
 90
        1
176
     1
 40
1.0
176
     1
 90
       12
176
     1
 62
     7
176
     1
 40
1.0
176
     1
 90
        1
176
     1
 90
        6
176
     1
 90
        2
176
     1
 62
     7
176
     1
 90
        5
176
     1
 90
        0
176
     1
 90
        0
176
     1
290
     0
176
     1
 90
        1
176
     1
 40
0.0
176
     1
 90
        0
176
     1
290
     0
176
     1
290
     1
176
     1
290
     1
176
     1
290
     0
176
     1
290
     0
176
     1
290
     0
176
     1
290
     0
176
     1
290
     0
176
     1
290
     0
176
     1
 90
       50
176
     1
 40
0.0
176
     1
 40
1.0
176
     1
 90
        0
176
     1
 62
    18
420
        0
176
     1
 90
       50
176
     1
 90
        3
176
     1
 62
     5
420
      255
176
     1
290
     0
176
     1
 90
       50
176
     1
 90
       50
176
     1
 90
       50
176
     1
290
     0
176
     1
 90
       50
176
     1
 62
   256
176
     0
 40
1.0
176
     0
 90
        2
176
     1
  1
strokes_ogs.tif
176
     1
290
     0
176
     1
 40
1.0
176
     1
 40
1.0
176
     1
  0
VISUALSTYLE
  5
30
102
{ACAD_REACTORS
330
2A
102
}
330
2A
100
AcDbVisualStyle
  2
Wireframe
 70
     5
177
     3
291
     0
 70
    58
 90
        0
176
     1
 90
        2
176
     1
 90
        0
176
     1
 90
        0
176
     1
 40
0.6
176
     1
 40
30.0
176
     1
 62
     7
420
 16777215
176
     1
 90
        1
176
     1
 90
        4
176
     1
 62
     7
176
     1
 62
   257
176
     1
 90
        1
176
     1
 90
        1
176
     1
 40
1.0
176
     1
 90
        0
176
     1
 62
   257
176
     1
 40
1.0
176
     1
 90
        1
176
     1
 90
        6
176
     1
 90
        2
176
     1
 62
     7
176
     1
 90
        3
176
     1
 90
        0
176
     1
 90
        0
176
     1
290
     0
176
     1
 90
        1
176
     1
 40
0.0
176
     1
 90
        0
176
     1
290
     0
176
     1
290
     1
176
     1
290
     1
176
     1
290
     0
176
     1
290
     0
176
     1
290
     0
176
     1
290
     0
176
     1
290
     0
176
     1
290
     0
176
     1
 90
       50
176
     1
 40
0.0
176
     1
 40
1.0
176
     1
 90
        0
176
     1
 62
    18
420
        0
176
     1
 90
       50
176
     1
 90
        3
176
     1
 62
     5
420
      255
176
     1
290
     0
176
     1
 90
       50
176
     1
 90
       50
176
     1
 90
       50
176
     1
290
     0
176
     1
 90
       50
176
     1
 62
   256
176
     0
 40
1.0
176
     0
 90
        2
176
     1
  1
strokes_ogs.tif
176
     1
290
     0
176
     1
 40
1.0
176
     1
 40
1.0
176
     1
  0
VISUALSTYLE
  5
40
102
{ACAD_REACTORS
330
2A
102
}
330
2A
100
AcDbVisualStyle
  2
X-Ray
 70
    25
177
     3
291
     0
 70
    58
 90
        2
176
     1
 90
        2
176
     1
 90
        1
176
     1
 90
        1
176
     1
 40
0.5
176
     1
 40
30.0
176
     1
 62
     7
420
 16777215
176
     1
 90
        1
176
     1
 90
        0
176
     1
 62
     7
176
     1
 62
   257
176
     1
 90
        1
176
     1
 90
        1
176
     1
 40
1.0
176
     1
 90
        8
176
     1
 62
     7
176
     1
 40
1.0
176
     1
 90
        1
176
     1
 90
        6
176
     1
 90
        2
176
     1
 62
     7
176
     1
 90
        3
176
     1
 90
        0
176
     1
 90
        0
176
     1
290
     0
176
     1
 90
       13
176
     1
 40
0.0
176
     1
 90
        0
176
     1
290
     0
176
     1
290
     1
176
     1
290
     1
176
     1
290
     0
176
     1
290
     0
176
     1
290
     0
176
     1
290
     0
176
     1
290
     0
176
     1
290
     0
176
     1
 90
       50
176
     1
 40
0.0
176
     1
 40
1.0
176
     1
 90
        0
176
     1
 62
    18
420
        0
176
     1
 90
       50
176
     1
 90
        3
176
     1
 62
     5
420
      255
176
     1
290
     0
176
     1
 90
       50
176
     1
 90
       50
176
     1
 90
       50
176
     1
290
     0
176
     1
 90
       50
176
     1
 62
   256
176
     0
 40
1.0
176
     0
 90
        2
176
     1
  1
strokes_ogs.tif
176
     1
290
     0
176
     1
 40
1.0
176
     1
 40
1.0
176
     1
  0
DICTIONARYVAR
  5
1DC
102
{ACAD_REACTORS
330
1DB
102
}
330
1DB
100
DictionaryVariables
280
     0
  1
1:1
  0
DICTIONARYVAR
  5
1E1
102
{ACAD_REACTORS
330
1DB
102
}
330
1DB
100
DictionaryVariables
280
     0
  1
Standard
  0
DICTIONARYVAR
  5
1E0
102
{ACAD_REACTORS
330
1DB
102
}
330
1DB
100
DictionaryVariables
280
     0
  1
Standard
  0
DICTIONARY
  5
1DD
330
6A
100
AcDbDictionary
280
     1
281
     1
  3
ACAD_ROUNDTRIP_2008_TABLESTYLE_CELLSTYLEMAP
360
1DE
  0
CELLSTYLEMAP
  5
1DE
102
{ACAD_REACTORS
330
1DD
102
}
330
1DD
100
AcDbCellStyleMap
 90
        3
300
CELLSTYLE
  1
TABLEFORMAT_BEGIN
 90
        5
170
     1
 91
        0
 92
    32768
 62
   257
 93
        1
300
CONTENTFORMAT
  1
CONTENTFORMAT_BEGIN
 90
        0
 91
        0
 92
        4
 93
        0
300

 40
0.0
140
1.0
 94
        5
 62
     0
340
11
144
0.25
309
CONTENTFORMAT_END
171
     1
301
MARGIN
  1
CELLMARGIN_BEGIN
 40
0.06
 40
0.06
 40
0.06
 40
0.06
 40
0.06
 40
0.06
309
CELLMARGIN_END
 94
        6
 95
        1
302
GRIDFORMAT
  1
GRIDFORMAT_BEGIN
 90
        0
 91
        1
 62
     0
 92
       -2
340
14
 93
        0
 40
0.045
309
GRIDFORMAT_END
 95
        2
302
GRIDFORMAT
  1
GRIDFORMAT_BEGIN
 90
        0
 91
        1
 62
     0
 92
       -2
340
14
 93
        0
 40
0.045
309
GRIDFORMAT_END
 95
        4
302
GRIDFORMAT
  1
GRIDFORMAT_BEGIN
 90
        0
 91
        1
 62
     0
 92
       -2
340
14
 93
        0
 40
0.045
309
GRIDFORMAT_END
 95
        8
302
GRIDFORMAT
  1
GRIDFORMAT_BEGIN
 90
        0
 91
        1
 62
     0
 92
       -2
340
14
 93
        0
 40
0.045
309
GRIDFORMAT_END
 95
       16
302
GRIDFORMAT
  1
GRIDFORMAT_BEGIN
 90
        0
 91
        1
 62
     0
 92
       -2
340
14
 93
        0
 40
0.045
309
GRIDFORMAT_END
 95
       32
302
GRIDFORMAT
  1
GRIDFORMAT_BEGIN
 90
        0
 91
        1
 62
     0
 92
       -2
340
14
 93
        0
 40
0.045
309
GRIDFORMAT_END
309
TABLEFORMAT_END
  1
CELLSTYLE_BEGIN
 90
        1
 91
        1
300
_TITLE
309
CELLSTYLE_END
300
CELLSTYLE
  1
TABLEFORMAT_BEGIN
 90
        5
170
     1
 91
        0
 92
        0
 62
   257
 93
        1
300
CONTENTFORMAT
  1
CONTENTFORMAT_BEGIN
 90
        0
 91
        0
 92
        4
 93
        0
300

 40
0.0
140
1.0
 94
        5
 62
     0
340
11
144
0.18
309
CONTENTFORMAT_END
171
     1
301
MARGIN
  1
CELLMARGIN_BEGIN
 40
0.06
 40
0.06
 40
0.06
 40
0.06
 40
0.06
 40
0.06
309
CELLMARGIN_END
 94
        6
 95
        1
302
GRIDFORMAT
  1
GRIDFORMAT_BEGIN
 90
        0
 91
        1
 62
     0
 92
       -2
340
14
 93
        0
 40
0.045
309
GRIDFORMAT_END
 95
        2
302
GRIDFORMAT
  1
GRIDFORMAT_BEGIN
 90
        0
 91
        1
 62
     0
 92
       -2
340
14
 93
        0
 40
0.045
309
GRIDFORMAT_END
 95
        4
302
GRIDFORMAT
  1
GRIDFORMAT_BEGIN
 90
        0
 91
        1
 62
     0
 92
       -2
340
14
 93
        0
 40
0.045
309
GRIDFORMAT_END
 95
        8
302
GRIDFORMAT
  1
GRIDFORMAT_BEGIN
 90
        0
 91
        1
 62
     0
 92
       -2
340
14
 93
        0
 40
0.045
309
GRIDFORMAT_END
 95
       16
302
GRIDFORMAT
  1
GRIDFORMAT_BEGIN
 90
        0
 91
        1
 62
     0
 92
       -2
340
14
 93
        0
 40
0.045
309
GRIDFORMAT_END
 95
       32
302
GRIDFORMAT
  1
GRIDFORMAT_BEGIN
 90
        0
 91
        1
 62
     0
 92
       -2
340
14
 93
        0
 40
0.045
309
GRIDFORMAT_END
309
TABLEFORMAT_END
  1
CELLSTYLE_BEGIN
 90
        2
 91
        1
300
_HEADER
309
CELLSTYLE_END
300
CELLSTYLE
  1
TABLEFORMAT_BEGIN
 90
        5
170
     1
 91
        0
 92
        0
 62
   257
 93
        1
300
CONTENTFORMAT
  1
CONTENTFORMAT_BEGIN
 90
        0
 91
        0
 92
        4
 93
        0
300

 40
0.0
140
1.0
 94
        2
 62
     0
340
11
144
0.18
309
CONTENTFORMAT_END
171
     1
301
MARGIN
  1
CELLMARGIN_BEGIN
 40
0.06
 40
0.06
 40
0.06
 40
0.06
 40
0.06
 40
0.06
309
CELLMARGIN_END
 94
        6
 95
        1
302
GRIDFORMAT
  1
GRIDFORMAT_BEGIN
 90
        0
 91
        1
 62
     0
 92
       -2
340
14
 93
        0
 40
0.045
309
GRIDFORMAT_END
 95
        2
302
GRIDFORMAT
  1
GRIDFORMAT_BEGIN
 90
        0
 91
        1
 62
     0
 92
       -2
340
14
 93
        0
 40
0.045
309
GRIDFORMAT_END
 95
        4
302
GRIDFORMAT
  1
GRIDFORMAT_BEGIN
 90
        0
 91
        1
 62
     0
 92
       -2
340
14
 93
        0
 40
0.045
309
GRIDFORMAT_END
 95
        8
302
GRIDFORMAT
  1
GRIDFORMAT_BEGIN
 90
        0
 91
        1
 62
     0
 92
       -2
340
14
 93
        0
 40
0.045
309
GRIDFORMAT_END
 95
       16
302
GRIDFORMAT
  1
GRIDFORMAT_BEGIN
 90
        0
 91
        1
 62
     0
 92
       -2
340
14
 93
        0
 40
0.045
309
GRIDFORMAT_END
 95
       32
302
GRIDFORMAT
  1
GRIDFORMAT_BEGIN
 90
        0
 91
        1
 62
     0
 92
       -2
340
14
 93
        0
 40
0.045
309
GRIDFORMAT_END
309
TABLEFORMAT_END
  1
CELLSTYLE_BEGIN
 90
        3
 91
        2
300
_DATA
309
CELLSTYLE_END
  0
ENDSEC
  0
EOF