0
SECTION
  2
HEADER
  9
$ACADVER
  1
AC1027
  9
$ACADMAINTVER
 70
     8
  9
$DWGCODEPAGE
  3
ANSI_1252
  9
$REQUIREDVERSIONS
160
                 0
  9
$COMMENTS
  1
File was created by Cadenas
  9
$CUSTOMPROPERTYTAG
  1
NN
  9
$CUSTOMPROPERTY
  1
Eccentric Collar Low Backing Height Two-Bolt Pillow Block Inch Bore
  9
$CUSTOMPROPERTYTAG
  1
NT
  9
$CUSTOMPROPERTY
  1
Eccentric Collar Pillow Block Bearings -(Normal Duty) -Low Backing Height
  9
$CUSTOMPROPERTYTAG
  1
NB
  9
$CUSTOMPROPERTY
  1
131845
  9
$CUSTOMPROPERTYTAG
  1
NBSYN
  9
$CUSTOMPROPERTY
  1
$PN.
  9
$CUSTOMPROPERTYTAG
  1
LINA
  9
$CUSTOMPROPERTY
  1
131845
  9
$CUSTOMPROPERTYTAG
  1
SERIES
  9
$CUSTOMPROPERTY
  1
210
  9
$CUSTOMPROPERTYTAG
  1
SS
  9
$CUSTOMPROPERTY
  1
1-15/16
  9
$CUSTOMPROPERTYTAG
  1
PN
  9
$CUSTOMPROPERTY
  1
131845
  9
$CUSTOMPROPERTYTAG
  1
DESCRIPTION
  9
$CUSTOMPROPERTY
  1
P2B-SXRB-115
  9
$CUSTOMPROPERTYTAG
  1
WEIGHT
  9
$CUSTOMPROPERTY
  1
7.2
  9
$CUSTOMPROPERTYTAG
  1
A
  9
$CUSTOMPROPERTY
  1
2.25
  9
$CUSTOMPROPERTYTAG
  1
B
  9
$CUSTOMPROPERTY
  1
8.12
  9
$CUSTOMPROPERTYTAG
  1
C
  9
$CUSTOMPROPERTY
  1
2.25
  9
$CUSTOMPROPERTYTAG
  1
DMIN
  9
$CUSTOMPROPERTY
  1
6.00
  9
$CUSTOMPROPERTYTAG
  1
DMAX
  9
$CUSTOMPROPERTY
  1
6.68
  9
$CUSTOMPROPERTYTAG
  1
F
  9
$CUSTOMPROPERTY
  1
5/8
  9
$CUSTOMPROPERTYTAG
  1
G
  9
$CUSTOMPROPERTY
  1
1.02
  9
$CUSTOMPROPERTYTAG
  1
H
  9
$CUSTOMPROPERTY
  1
0.68
  9
$CUSTOMPROPERTYTAG
  1
J
  9
$CUSTOMPROPERTY
  1
4.47
  9
$CUSTOMPROPERTYTAG
  1
L
  9
$CUSTOMPROPERTY
  1
2.75
  9
$CUSTOMPROPERTYTAG
  1
M
  9
$CUSTOMPROPERTY
  1
2.19
  9
$CUSTOMPROPERTYTAG
  1
R
  9
$CUSTOMPROPERTY
  1
0.75
  9
$CUSTOMPROPERTYTAG
  1
S
  9
$CUSTOMPROPERTY
  1
1.50
  9
$CUSTOMPROPERTYTAG
  1
U
  9
$CUSTOMPROPERTY
  1
3.69
  9
$CUSTOMPROPERTYTAG
  1
V
  9
$CUSTOMPROPERTY
  1
7.38
  9
$CUSTOMPROPERTYTAG
  1
W
  9
$CUSTOMPROPERTY
  1
0.81
  9
$CUSTOMPROPERTYTAG
  1
X
  9
$CUSTOMPROPERTY
  1
0.12
  9
$CUSTOMPROPERTYTAG
  1
COMPANY
  9
$CUSTOMPROPERTY
  1
baldor
  9
$INSBASE
 10
0.0
 20
0.0
 30
0.0
  9
$EXTMIN
 10
1.000000000000000E+20
 20
1.000000000000000E+20
 30
1.000000000000000E+20
  9
$EXTMAX
 10
-1.000000000000000E+20
 20
-1.000000000000000E+20
 30
-1.000000000000000E+20
  9
$LIMMIN
 10
0.0
 20
0.0
  9
$LIMMAX
 10
12.0
 20
9.0
  9
$ORTHOMODE
 70
     0
  9
$REGENMODE
 70
     1
  9
$FILLMODE
 70
     1
  9
$QTEXTMODE
 70
     0
  9
$MIRRTEXT
 70
     1
  9
$LTSCALE
 40
1.0
  9
$ATTMODE
 70
     1
  9
$TEXTSIZE
 40
0.2
  9
$TRACEWID
 40
0.05
  9
$TEXTSTYLE
  7
Standard
  9
$CLAYER
  8
0
  9
$CELTYPE
  6
ByLayer
  9
$CECOLOR
 62
   256
  9
$CELTSCALE
 40
1.0
  9
$DISPSILH
 70
     0
  9
$DIMSCALE
 40
1.0
  9
$DIMASZ
 40
0.18
  9
$DIMEXO
 40
0.0625
  9
$DIMDLI
 40
0.38
  9
$DIMRND
 40
0.0
  9
$DIMDLE
 40
0.0
  9
$DIMEXE
 40
0.18
  9
$DIMTP
 40
0.0
  9
$DIMTM
 40
0.0
  9
$DIMTXT
 40
0.18
  9
$DIMCEN
 40
0.09
  9
$DIMTSZ
 40
0.0
  9
$DIMTOL
 70
     0
  9
$DIMLIM
 70
     0
  9
$DIMTIH
 70
     1
  9
$DIMTOH
 70
     1
  9
$DIMSE1
 70
     0
  9
$DIMSE2
 70
     0
  9
$DIMTAD
 70
     0
  9
$DIMZIN
 70
     0
  9
$DIMBLK
  1

  9
$DIMASO
 70
     1
  9
$DIMSHO
 70
     1
  9
$DIMPOST
  1

  9
$DIMAPOST
  1

  9
$DIMALT
 70
     0
  9
$DIMALTD
 70
     2
  9
$DIMALTF
 40
25.4
  9
$DIMLFAC
 40
1.0
  9
$DIMTOFL
 70
     0
  9
$DIMTVP
 40
0.0
  9
$DIMTIX
 70
     0
  9
$DIMSOXD
 70
     0
  9
$DIMSAH
 70
     0
  9
$DIMBLK1
  1

  9
$DIMBLK2
  1

  9
$DIMSTYLE
  2
Standard
  9
$DIMCLRD
 70
     0
  9
$DIMCLRE
 70
     0
  9
$DIMCLRT
 70
     0
  9
$DIMTFAC
 40
1.0
  9
$DIMGAP
 40
0.09
  9
$DIMJUST
 70
     0
  9
$DIMSD1
 70
     0
  9
$DIMSD2
 70
     0
  9
$DIMTOLJ
 70
     1
  9
$DIMTZIN
 70
     0
  9
$DIMALTZ
 70
     0
  9
$DIMALTTZ
 70
     0
  9
$DIMUPT
 70
     0
  9
$DIMDEC
 70
     4
  9
$DIMTDEC
 70
     4
  9
$DIMALTU
 70
     2
  9
$DIMALTTD
 70
     2
  9
$DIMTXSTY
  7
Standard
  9
$DIMAUNIT
 70
     0
  9
$DIMADEC
 70
     0
  9
$DIMALTRND
 40
0.0
  9
$DIMAZIN
 70
     0
  9
$DIMDSEP
 70
    46
  9
$DIMATFIT
 70
     3
  9
$DIMFRAC
 70
     0
  9
$DIMLDRBLK
  1

  9
$DIMLUNIT
 70
     2
  9
$DIMLWD
 70
    -2
  9
$DIMLWE
 70
    -2
  9
$DIMTMOVE
 70
     0
  9
$DIMFXL
 40
1.0
  9
$DIMFXLON
 70
     0
  9
$DIMJOGANG
 40
0.7853981633974483
  9
$DIMTFILL
 70
     0
  9
$DIMTFILLCLR
 70
     0
  9
$DIMARCSYM
 70
     0
  9
$DIMLTYPE
  6

  9
$DIMLTEX1
  6

  9
$DIMLTEX2
  6

  9
$DIMTXTDIRECTION
 70
     0
  9
$LUNITS
 70
     2
  9
$LUPREC
 70
     4
  9
$SKETCHINC
 40
0.1
  9
$FILLETRAD
 40
0.5
  9
$AUNITS
 70
     0
  9
$AUPREC
 70
     0
  9
$MENU
  1
.
  9
$ELEVATION
 40
0.0
  9
$PELEVATION
 40
0.0
  9
$THICKNESS
 40
0.0
  9
$LIMCHECK
 70
     0
  9
$CHAMFERA
 40
0.0
  9
$CHAMFERB
 40
0.0
  9
$CHAMFERC
 40
0.0
  9
$CHAMFERD
 40
0.0
  9
$SKPOLY
 70
     0
  9
$TDCREATE
 40
2458168.980747546
  9
$TDUCREATE
 40
2458168.93908088
  9
$TDUPDATE
 40
2458168.980747546
  9
$TDUUPDATE
 40
2458168.93908088
  9
$TDINDWG
 40
0.0000000116
  9
$TDUSRTIMER
 40
0.0000000116
  9
$USRTIMER
 70
     1
  9
$ANGBASE
 50
0.0
  9
$ANGDIR
 70
     0
  9
$PDMODE
 70
     0
  9
$PDSIZE
 40
0.0
  9
$PLINEWID
 40
0.0
  9
$SPLFRAME
 70
     0
  9
$SPLINETYPE
 70
     6
  9
$SPLINESEGS
 70
     8
  9
$HANDSEED
  5
1EF
  9
$SURFTAB1
 70
     6
  9
$SURFTAB2
 70
     6
  9
$SURFTYPE
 70
     6
  9
$SURFU
 70
     6
  9
$SURFV
 70
     6
  9
$UCSBASE
  2

  9
$UCSNAME
  2

  9
$UCSORG
 10
0.0
 20
0.0
 30
0.0
  9
$UCSXDIR
 10
1.0
 20
0.0
 30
0.0
  9
$UCSYDIR
 10
0.0
 20
1.0
 30
0.0
  9
$UCSORTHOREF
  2

  9
$UCSORTHOVIEW
 70
     0
  9
$UCSORGTOP
 10
0.0
 20
0.0
 30
0.0
  9
$UCSORGBOTTOM
 10
0.0
 20
0.0
 30
0.0
  9
$UCSORGLEFT
 10
0.0
 20
0.0
 30
0.0
  9
$UCSORGRIGHT
 10
0.0
 20
0.0
 30
0.0
  9
$UCSORGFRONT
 10
0.0
 20
0.0
 30
0.0
  9
$UCSORGBACK
 10
0.0
 20
0.0
 30
0.0
  9
$PUCSBASE
  2

  9
$PUCSNAME
  2

  9
$PUCSORG
 10
0.0
 20
0.0
 30
0.0
  9
$PUCSXDIR
 10
1.0
 20
0.0
 30
0.0
  9
$PUCSYDIR
 10
0.0
 20
1.0
 30
0.0
  9
$PUCSORTHOREF
  2

  9
$PUCSORTHOVIEW
 70
     0
  9
$PUCSORGTOP
 10
0.0
 20
0.0
 30
0.0
  9
$PUCSORGBOTTOM
 10
0.0
 20
0.0
 30
0.0
  9
$PUCSORGLEFT
 10
0.0
 20
0.0
 30
0.0
  9
$PUCSORGRIGHT
 10
0.0
 20
0.0
 30
0.0
  9
$PUCSORGFRONT
 10
0.0
 20
0.0
 30
0.0
  9
$PUCSORGBACK
 10
0.0
 20
0.0
 30
0.0
  9
$USERI1
 70
     0
  9
$USERI2
 70
     0
  9
$USERI3
 70
     0
  9
$USERI4
 70
     0
  9
$USERI5
 70
     0
  9
$USERR1
 40
0.0
  9
$USERR2
 40
0.0
  9
$USERR3
 40
0.0
  9
$USERR4
 40
0.0
  9
$USERR5
 40
0.0
  9
$WORLDVIEW
 70
     1
  9
$SHADEDGE
 70
     3
  9
$SHADEDIF
 70
    70
  9
$TILEMODE
 70
     1
  9
$MAXACTVP
 70
    64
  9
$PINSBASE
 10
0.0
 20
0.0
 30
0.0
  9
$PLIMCHECK
 70
     0
  9
$PEXTMIN
 10
1.000000000000000E+20
 20
1.000000000000000E+20
 30
1.000000000000000E+20
  9
$PEXTMAX
 10
-1.000000000000000E+20
 20
-1.000000000000000E+20
 30
-1.000000000000000E+20
  9
$PLIMMIN
 10
0.0
 20
0.0
  9
$PLIMMAX
 10
12.0
 20
9.0
  9
$UNITMODE
 70
     0
  9
$VISRETAIN
 70
     1
  9
$PLINEGEN
 70
     0
  9
$PSLTSCALE
 70
     1
  9
$TREEDEPTH
 70
  3020
  9
$CMLSTYLE
  2
Standard
  9
$CMLJUST
 70
     0
  9
$CMLSCALE
 40
1.0
  9
$PROXYGRAPHICS
 70
     1
  9
$MEASUREMENT
 70
     0
  9
$CELWEIGHT
370
    -1
  9
$ENDCAPS
280
     0
  9
$JOINSTYLE
280
     0
  9
$LWDISPLAY
290
     0
  9
$INSUNITS
 70
     1
  9
$HYPERLINKBASE
  1

  9
$STYLESHEET
  1

  9
$XEDIT
290
     1
  9
$CEPSNTYPE
380
     0
  9
$PSTYLEMODE
290
     1
  9
$FINGERPRINTGUID
  2
{3220A9D0-FE55-4346-A6F8-8D70EF03384E}
  9
$VERSIONGUID
  2
{FAEB1C32-E019-11D5-929B-00C0DF256EC4}
  9
$EXTNAMES
290
     1
  9
$PSVPSCALE
 40
0.0
  9
$OLESTARTUP
290
     0
  9
$SORTENTS
280
   127
  9
$INDEXCTL
280
     0
  9
$HIDETEXT
280
     1
  9
$XCLIPFRAME
280
     2
  9
$HALOGAP
280
     0
  9
$OBSCOLOR
 70
   257
  9
$OBSLTYPE
280
     0
  9
$INTERSECTIONDISPLAY
280
     0
  9
$INTERSECTIONCOLOR
 70
   257
  9
$DIMASSOC
280
     2
  9
$PROJECTNAME
  1

  9
$CAMERADISPLAY
290
     0
  9
$LENSLENGTH
 40
50.0
  9
$CAMERAHEIGHT
 40
0.0
  9
$STEPSPERSEC
 40
2.0
  9
$STEPSIZE
 40
6.0
  9
$3DDWFPREC
 40
2.0
  9
$PSOLWIDTH
 40
0.25
  9
$PSOLHEIGHT
 40
4.0
  9
$LOFTANG1
 40
1.570796326794897
  9
$LOFTANG2
 40
1.570796326794897
  9
$LOFTMAG1
 40
0.0
  9
$LOFTMAG2
 40
0.0
  9
$LOFTPARAM
 70
     7
  9
$LOFTNORMALS
280
     1
  9
$LATITUDE
 40
37.795
  9
$LONGITUDE
 40
-122.394
  9
$NORTHDIRECTION
 40
0.0
  9
$TIMEZONE
 70
 -8000
  9
$LIGHTGLYPHDISPLAY
280
     1
  9
$TILEMODELIGHTSYNCH
280
     1
  9
$CMATERIAL
347
44
  9
$SOLIDHIST
280
     0
  9
$SHOWHIST
280
     1
  9
$DWFFRAME
280
     2
  9
$DGNFRAME
280
     2
  9
$REALWORLDSCALE
290
     1
  9
$INTERFERECOLOR
 62
   256
  9
$CSHADOW
280
     0
  9
$SHADOWPLANELOCATION
 40
0.0
  0
ENDSEC
  0
SECTION
  2
CLASSES
  0
CLASS
  1
ACDBDICTIONARYWDFLT
  2
AcDbDictionaryWithDefault
  3
ObjectDBX Classes
 90
        0
 91
        4
280
     0
281
     0
  0
CLASS
  1
VISUALSTYLE
  2
AcDbVisualStyle
  3
ObjectDBX Classes
 90
     4095
 91
        4
280
     0
281
     0
  0
CLASS
  1
MATERIAL
  2
AcDbMaterial
  3
ObjectDBX Classes
 90
     1153
 91
        4
280
     0
281
     0
  0
CLASS
  1
SCALE
  2
AcDbScale
  3
ObjectDBX Classes
 90
     1153
 91
        4
280
     0
281
     0
  0
CLASS
  1
TABLESTYLE
  2
AcDbTableStyle
  3
ObjectDBX Classes
 90
     4095
 91
        4
280
     0
281
     0
  0
CLASS
  1
MLEADERSTYLE
  2
AcDbMLeaderStyle
  3
ACDB_MLEADERSTYLE_CLASS
 90
     4095
 91
        4
280
     0
281
     0
  0
CLASS
  1
SUN
  2
AcDbSun
  3
SCENEOE
 90
     1153
 91
        4
280
     0
281
     0
  0
CLASS
  1
DICTIONARYVAR
  2
AcDbDictionaryVar
  3
ObjectDBX Classes
 90
        0
 91
        4
280
     0
281
     0
  0
CLASS
  1
CELLSTYLEMAP
  2
AcDbCellStyleMap
  3
ObjectDBX Classes
 90
     1152
 91
        4
280
     0
281
     0
  0
ENDSEC
  0
SECTION
  2
TABLES
  0
TABLE
  2
VPORT
  5
8
330
0
100
AcDbSymbolTable
 70
     1
  0
VPORT
  5
29
330
8
100
AcDbSymbolTableRecord
100
AcDbViewportTableRecord
  2
*Active
 70
     0
 10
0.0
 20
0.0
 11
1.0
 21
1.0
 12
0.0
 22
-0.1875
 13
0.0
 23
0.0
 14
0.5
 24
0.5
 15
0.5
 25
0.5
 16
0.0
 26
0.0
 36
1.0
 17
0.0
 27
0.0
 37
0.0
 40
2.907
 41
2.849122807017543
 42
50.0
 43
0.0
 44
0.0
 50
0.0
 51
0.0
 71
     0
 72
   100
 73
     1
 74
     3
 75
     0
 76
     0
 77
     0
 78
     0
281
     0
 65
     1
110
0.0
120
0.0
130
0.0
111
1.0
121
0.0
131
0.0
112
0.0
122
1.0
132
0.0
 79
     0
146
0.0
348
2F
 60
     3
 61
     5
292
     1
282
     1
141
0.0
142
0.0
 63
   250
361
6D
  0
ENDTAB
  0
TABLE
  2
LTYPE
  5
5
330
0
100
AcDbSymbolTable
 70
     3
  0
LTYPE
  5
14
330
5
100
AcDbSymbolTableRecord
100
AcDbLinetypeTableRecord
  2
ByBlock
 70
     0
  3

 72
    65
 73
     0
 40
0.0
  0
LTYPE
  5
15
330
5
100
AcDbSymbolTableRecord
100
AcDbLinetypeTableRecord
  2
ByLayer
 70
     0
  3

 72
    65
 73
     0
 40
0.0
  0
LTYPE
  5
16
330
5
100
AcDbSymbolTableRecord
100
AcDbLinetypeTableRecord
  2
Continuous
 70
     0
  3
Solid line
 72
    65
 73
     0
 40
0.0
  0
LTYPE
  5
9B
330
5
100
AcDbSymbolTableRecord
100
AcDbLinetypeTableRecord
  2
Dashed
 70
     0
  3

 72
    65
 73
     2
 40
2.0
 49
1.0
 74
     0
 49
-1.0
 74
     0
  0
LTYPE
  5
119
330
5
100
AcDbSymbolTableRecord
100
AcDbLinetypeTableRecord
  2
Center
 70
     0
  3

 72
    65
 73
     4
 40
1.5
 49
0.45
 74
     0
 49
-0.5
 74
     0
 49
0.05
 74
     0
 49
-0.5
 74
     0
  0
ENDTAB
  0
TABLE
  2
LAYER
  5
2
330
0
100
AcDbSymbolTable
 70
     7
  0
LAYER
  5
10
330
2
100
AcDbSymbolTableRecord
100
AcDbLayerTableRecord
  2
0
 70
     0
 62
     7
  6
Continuous
370
    -3
390
F
347
46
348
0
  0
LAYER
  5
72
330
2
100
AcDbSymbolTableRecord
100
AcDbLayerTableRecord
  2
AM_6
 70
     0
 62
    -2
  6
Continuous
370
    35
390
F
347
46
348
0
  0
LAYER
  5
9C
330
2
100
AcDbSymbolTableRecord
100
AcDbLayerTableRecord
  2
AM_9
 70
     0
 62
     6
  6
Dashed
370
    25
390
F
347
46
348
0
  0
LAYER
  5
BA
330
2
100
AcDbSymbolTableRecord
100
AcDbLayerTableRecord
  2
AM_4
 70
     0
 62
     7
  6
Continuous
370
    50
390
F
347
46
348
0
  0
LAYER
  5
11A
330
2
100
AcDbSymbolTableRecord
100
AcDbLayerTableRecord
  2
AM_7
 70
     0
 62
     7
  6
Center
370
    25
390
F
347
46
348
0
  0
LAYER
  5
13A
330
2
100
AcDbSymbolTableRecord
100
AcDbLayerTableRecord
  2
AM_5
 70
     0
 62
     3
  6
Continuous
370
    25
390
F
347
46
348
0
  0
LAYER
  5
1E0
330
2
100
AcDbSymbolTableRecord
100
AcDbLayerTableRecord
  2
ConnectionPoints
 70
     0
 62
     7
  6
Continuous
370
    50
390
F
347
46
348
0
  0
ENDTAB
  0
TABLE
  2
STYLE
  5
3
330
0
100
AcDbSymbolTable
 70
     1
  0
STYLE
  5
11
330
3
100
AcDbSymbolTableRecord
100
AcDbTextStyleTableRecord
  2
Standard
 70
     0
 40
0.0
 41
1.0
 50
0.0
 71
     0
 42
0.2
  3
txt
  4

  0
ENDTAB
  0
TABLE
  2
VIEW
  5
6
330
0
100
AcDbSymbolTable
 70
     0
  0
ENDTAB
  0
TABLE
  2
UCS
  5
7
330
0
100
AcDbSymbolTable
 70
     0
  0
ENDTAB
  0
TABLE
  2
APPID
  5
9
330
0
100
AcDbSymbolTable
 70
     1
  0
APPID
  5
12
330
9
100
AcDbSymbolTableRecord
100
AcDbRegAppTableRecord
  2
ACAD
 70
     0
  0
ENDTAB
  0
TABLE
  2
DIMSTYLE
  5
A
330
0
100
AcDbSymbolTable
 70
     1
100
AcDbDimStyleTable
  0
DIMSTYLE
105
27
330
A
100
AcDbSymbolTableRecord
100
AcDbDimStyleTableRecord
  2
Standard
 70
     0
178
     0
340
11
  0
ENDTAB
  0
TABLE
  2
BLOCK_RECORD
  5
1
330
0
100
AcDbSymbolTable
 70
     5
  0
BLOCK_RECORD
  5
1F
330
1
100
AcDbSymbolTableRecord
100
AcDbBlockTableRecord
  2
*Model_Space
340
22
 70
     0
280
     1
281
     0
  0
BLOCK_RECORD
  5
1B
330
1
100
AcDbSymbolTableRecord
100
AcDbBlockTableRecord
  2
*Paper_Space
340
1E
 70
     0
280
     1
281
     0
  0
BLOCK_RECORD
  5
23
330
1
100
AcDbSymbolTableRecord
100
AcDbBlockTableRecord
  2
*Paper_Space0
340
26
 70
     0
280
     1
281
     0
  0
BLOCK_RECORD
  5
6E
330
1
100
AcDbSymbolTableRecord
100
AcDbBlockTableRecord
  2
1_131845_4
340
0
102
{BLKREFS
331
6F
102
}
 70
     0
280
     1
281
     0
  0
BLOCK_RECORD
  5
8F
330
1
100
AcDbSymbolTableRecord
100
AcDbBlockTableRecord
  2
2_405015E_Inch_0_in_131845_4
340
0
102
{BLKREFS
331
90
102
}
 70
     0
280
     1
281
     0
  0
BLOCK_RECORD
  5
D6
330
1
100
AcDbSymbolTableRecord
100
AcDbBlockTableRecord
  2
3_131923_0_in_131845_4
340
0
102
{BLKREFS
331
D7
102
}
 70
     0
280
     1
281
     0
  0
BLOCK_RECORD
  5
13C
330
1
100
AcDbSymbolTableRecord
100
AcDbBlockTableRecord
  2
4_131845H_0_in_131845_4
340
0
102
{BLKREFS
331
13D
102
}
 70
     0
280
     1
281
     0
  0
ENDTAB
  0
ENDSEC
  0
SECTION
  2
BLOCKS
  0
BLOCK
  5
20
330
1F
100
AcDbEntity
  8
0
100
AcDbBlockBegin
  2
*Model_Space
 70
     0
 10
0.0
 20
0.0
 30
0.0
  3
*Model_Space
  1

  0
ENDBLK
  5
21
330
1F
100
AcDbEntity
  8
0
100
AcDbBlockEnd
  0
BLOCK
  5
1C
330
1B
100
AcDbEntity
 67
     1
  8
0
100
AcDbBlockBegin
  2
*Paper_Space
 70
     0
 10
0.0
 20
0.0
 30
0.0
  3
*Paper_Space
  1

  0
ENDBLK
  5
1D
330
1B
100
AcDbEntity
 67
     1
  8
0
100
AcDbBlockEnd
  0
BLOCK
  5
24
330
23
100
AcDbEntity
  8
0
100
AcDbBlockBegin
  2
*Paper_Space0
 70
     0
 10
0.0
 20
0.0
 30
0.0
  3
*Paper_Space0
  1

  0
ENDBLK
  5
25
330
23
100
AcDbEntity
  8
0
100
AcDbBlockEnd
  0
BLOCK
  5
70
330
6E
100
AcDbEntity
  8
0
100
AcDbBlockBegin
  2
1_131845_4
 70
     2
 10
0.0
 20
0.0
 30
0.0
  3
1_131845_4
  1

  0
ATTDEF
  5
73
330
6E
100
AcDbEntity
  8
AM_6
100
AcDbText
 10
9.059999999999999
 20
1.2375
 30
0.0
 40
0.5
  1
Eccentric Collar Low Backing Height Two-Bolt Pillow Block Inch Bore
100
AcDbAttributeDefinition
  3

  2
NN
 70
     8
280
     0
  0
ATTDEF
  5
74
330
6E
100
AcDbEntity
  8
AM_6
100
AcDbText
 10
9.059999999999999
 20
0.7375
 30
0.0
 40
0.5
  1
Eccentric Collar Pillow Block Bearings -(Normal Duty) -Low Backing Height
100
AcDbAttributeDefinition
  3

  2
NT
 70
     8
280
     0
  0
ATTDEF
  5
75
330
6E
100
AcDbEntity
  8
AM_6
100
AcDbText
 10
9.059999999999999
 20
0.2375
 30
0.0
 40
0.5
  1
131845
100
AcDbAttributeDefinition
  3

  2
NB
 70
     8
280
     0
  0
ATTDEF
  5
76
330
6E
100
AcDbEntity
  8
AM_6
100
AcDbText
 10
9.059999999999999
 20
-0.2625
 30
0.0
 40
0.5
  1
$PN.
100
AcDbAttributeDefinition
  3

  2
NBSYN
 70
     8
280
     0
  0
ATTDEF
  5
77
330
6E
100
AcDbEntity
  8
AM_6
100
AcDbText
 10
9.059999999999999
 20
-0.7625
 30
0.0
 40
0.5
  1
131845
100
AcDbAttributeDefinition
  3

  2
LINA
 70
     8
280
     0
  0
ATTDEF
  5
78
330
6E
100
AcDbEntity
  8
AM_6
100
AcDbText
 10
9.059999999999999
 20
-1.2625
 30
0.0
 40
0.5
  1
210
100
AcDbAttributeDefinition
  3

  2
SERIES
 70
     8
280
     0
  0
ATTDEF
  5
79
330
6E
100
AcDbEntity
  8
AM_6
100
AcDbText
 10
9.059999999999999
 20
-1.7625
 30
0.0
 40
0.5
  1
1-15/16
100
AcDbAttributeDefinition
  3

  2
SS
 70
     8
280
     0
  0
ATTDEF
  5
7A
330
6E
100
AcDbEntity
  8
AM_6
100
AcDbText
 10
9.059999999999999
 20
-2.2625
 30
0.0
 40
0.5
  1
131845
100
AcDbAttributeDefinition
  3

  2
PN
 70
     8
280
     0
  0
ATTDEF
  5
7B
330
6E
100
AcDbEntity
  8
AM_6
100
AcDbText
 10
9.059999999999999
 20
-2.7625
 30
0.0
 40
0.5
  1
P2B-SXRB-115
100
AcDbAttributeDefinition
  3

  2
DESCRIPTION
 70
     8
280
     0
  0
ATTDEF
  5
7C
330
6E
100
AcDbEntity
  8
AM_6
100
AcDbText
 10
9.059999999999999
 20
-3.2625
 30
0.0
 40
0.5
  1
7.2
100
AcDbAttributeDefinition
  3

  2
WEIGHT
 70
     8
280
     0
  0
ATTDEF
  5
7D
330
6E
100
AcDbEntity
  8
AM_6
100
AcDbText
 10
9.059999999999999
 20
-3.7625
 30
0.0
 40
0.5
  1
2.25
100
AcDbAttributeDefinition
  3

  2
A
 70
     8
280
     0
  0
ATTDEF
  5
7E
330
6E
100
AcDbEntity
  8
AM_6
100
AcDbText
 10
9.059999999999999
 20
-4.2625
 30
0.0
 40
0.5
  1
8.12
100
AcDbAttributeDefinition
  3

  2
B
 70
     8
280
     0
  0
ATTDEF
  5
7F
330
6E
100
AcDbEntity
  8
AM_6
100
AcDbText
 10
9.059999999999999
 20
-4.7625
 30
0.0
 40
0.5
  1
2.25
100
AcDbAttributeDefinition
  3

  2
C
 70
     8
280
     0
  0
ATTDEF
  5
80
330
6E
100
AcDbEntity
  8
AM_6
100
AcDbText
 10
9.059999999999999
 20
-5.2625
 30
0.0
 40
0.5
  1
6.00
100
AcDbAttributeDefinition
  3

  2
DMIN
 70
     8
280
     0
  0
ATTDEF
  5
81
330
6E
100
AcDbEntity
  8
AM_6
100
AcDbText
 10
9.059999999999999
 20
-5.7625
 30
0.0
 40
0.5
  1
6.68
100
AcDbAttributeDefinition
  3

  2
DMAX
 70
     8
280
     0
  0
ATTDEF
  5
82
330
6E
100
AcDbEntity
  8
AM_6
100
AcDbText
 10
9.059999999999999
 20
-6.2625
 30
0.0
 40
0.5
  1
5/8
100
AcDbAttributeDefinition
  3

  2
F
 70
     8
280
     0
  0
ATTDEF
  5
83
330
6E
100
AcDbEntity
  8
AM_6
100
AcDbText
 10
9.059999999999999
 20
-6.7625
 30
0.0
 40
0.5
  1
1.02
100
AcDbAttributeDefinition
  3

  2
G
 70
     8
280
     0
  0
ATTDEF
  5
84
330
6E
100
AcDbEntity
  8
AM_6
100
AcDbText
 10
9.059999999999999
 20
-7.2625
 30
0.0
 40
0.5
  1
0.68
100
AcDbAttributeDefinition
  3

  2
H
 70
     8
280
     0
  0
ATTDEF
  5
85
330
6E
100
AcDbEntity
  8
AM_6
100
AcDbText
 10
9.059999999999999
 20
-7.7625
 30
0.0
 40
0.5
  1
4.47
100
AcDbAttributeDefinition
  3

  2
J
 70
     8
280
     0
  0
ATTDEF
  5
86
330
6E
100
AcDbEntity
  8
AM_6
100
AcDbText
 10
9.059999999999999
 20
-8.2625
 30
0.0
 40
0.5
  1
2.75
100
AcDbAttributeDefinition
  3

  2
L
 70
     8
280
     0
  0
ATTDEF
  5
87
330
6E
100
AcDbEntity
  8
AM_6
100
AcDbText
 10
9.059999999999999
 20
-8.7625
 30
0.0
 40
0.5
  1
2.19
100
AcDbAttributeDefinition
  3

  2
M
 70
     8
280
     0
  0
ATTDEF
  5
88
330
6E
100
AcDbEntity
  8
AM_6
100
AcDbText
 10
9.059999999999999
 20
-9.2625
 30
0.0
 40
0.5
  1
0.75
100
AcDbAttributeDefinition
  3

  2
R
 70
     8
280
     0
  0
ATTDEF
  5
89
330
6E
100
AcDbEntity
  8
AM_6
100
AcDbText
 10
9.059999999999999
 20
-9.7625
 30
0.0
 40
0.5
  1
1.50
100
AcDbAttributeDefinition
  3

  2
S
 70
     8
280
     0
  0
ATTDEF
  5
8A
330
6E
100
AcDbEntity
  8
AM_6
100
AcDbText
 10
9.059999999999999
 20
-10.2625
 30
0.0
 40
0.5
  1
3.69
100
AcDbAttributeDefinition
  3

  2
U
 70
     8
280
     0
  0
ATTDEF
  5
8B
330
6E
100
AcDbEntity
  8
AM_6
100
AcDbText
 10
9.059999999999999
 20
-10.7625
 30
0.0
 40
0.5
  1
7.38
100
AcDbAttributeDefinition
  3

  2
V
 70
     8
280
     0
  0
ATTDEF
  5
8C
330
6E
100
AcDbEntity
  8
AM_6
100
AcDbText
 10
9.059999999999999
 20
-11.2625
 30
0.0
 40
0.5
  1
0.81
100
AcDbAttributeDefinition
  3

  2
W
 70
     8
280
     0
  0
ATTDEF
  5
8D
330
6E
100
AcDbEntity
  8
AM_6
100
AcDbText
 10
9.059999999999999
 20
-11.7625
 30
0.0
 40
0.5
  1
0.12
100
AcDbAttributeDefinition
  3

  2
X
 70
     8
280
     0
  0
ATTDEF
  5
8E
330
6E
100
AcDbEntity
  8
AM_6
100
AcDbText
 10
9.059999999999999
 20
-12.2625
 30
0.0
 40
0.5
  1
baldor
100
AcDbAttributeDefinition
  3

  2
COMPANY
 70
     8
280
     0
  0
INSERT
  5
90
330
6E
100
AcDbEntity
  8
0
100
AcDbBlockReference
  2
2_405015E_Inch_0_in_131845_4
 10
0.0
 20
0.0
 30
0.0
  0
INSERT
  5
D7
330
6E
100
AcDbEntity
  8
0
100
AcDbBlockReference
  2
3_131923_0_in_131845_4
 10
0.0
 20
0.0
 30
0.0
  0
INSERT
  5
13D
330
6E
100
AcDbEntity
  8
0
100
AcDbBlockReference
  2
4_131845H_0_in_131845_4
 10
0.0
 20
0.0
 30
0.0
  0
ENDBLK
  5
71
330
6E
100
AcDbEntity
  8
0
100
AcDbBlockEnd
  0
BLOCK
  5
91
330
8F
100
AcDbEntity
  8
0
100
AcDbBlockBegin
  2
2_405015E_Inch_0_in_131845_4
 70
     2
 10
0.0
 20
0.0
 30
0.0
  3
2_405015E_Inch_0_in_131845_4
  1

  0
ATTDEF
  5
93
330
8F
100
AcDbEntity
  8
AM_6
100
AcDbText
 10
6.949972744785248
 20
0.2187500000000001
 30
0.0
 40
0.5
  1
405015E -Inch
100
AcDbAttributeDefinition
  3

  2
NN
 70
     8
280
     0
  0
ATTDEF
  5
94
330
8F
100
AcDbEntity
  8
AM_6
100
AcDbText
 10
6.949972744785248
 20
-0.2812499999999999
 30
0.0
 40
0.5
  1
Grease Fitting
100
AcDbAttributeDefinition
  3

  2
NT
 70
     8
280
     0
  0
ATTDEF
  5
95
330
8F
100
AcDbEntity
  8
AM_6
100
AcDbText
 10
6.949972744785248
 20
-0.7812499999999999
 30
0.0
 40
0.5
  1
405015E-Inch
100
AcDbAttributeDefinition
  3

  2
NB
 70
     8
280
     0
  0
ATTDEF
  5
96
330
8F
100
AcDbEntity
  8
AM_6
100
AcDbText
 10
6.949972744785248
 20
-1.28125
 30
0.0
 40
0.5
  1
$MN.-Inch
100
AcDbAttributeDefinition
  3

  2
NBSYN
 70
     8
280
     0
  0
ATTDEF
  5
97
330
8F
100
AcDbEntity
  8
AM_6
100
AcDbText
 10
6.949972744785248
 20
-1.78125
 30
0.0
 40
0.5
  1
405015E
100
AcDbAttributeDefinition
  3

  2
LINA
 70
     8
280
     0
  0
ATTDEF
  5
98
330
8F
100
AcDbEntity
  8
AM_6
100
AcDbText
 10
6.949972744785248
 20
-2.28125
 30
0.0
 40
0.5
  1
405015E
100
AcDbAttributeDefinition
  3

  2
MN
 70
     8
280
     0
  0
ATTDEF
  5
99
330
8F
100
AcDbEntity
  8
AM_6
100
AcDbText
 10
6.949972744785248
 20
-2.78125
 30
0.0
 40
0.5
  1
1/8 x 27PTF
100
AcDbAttributeDefinition
  3

  2
T
 70
     8
280
     0
  0
ATTDEF
  5
9A
330
8F
100
AcDbEntity
  8
AM_6
100
AcDbText
 10
6.949972744785248
 20
-3.28125
 30
0.0
 40
0.5
  1
baldor
100
AcDbAttributeDefinition
  3

  2
COMPANY
 70
     8
280
     0
  0
LWPOLYLINE
  5
9D
330
8F
100
AcDbEntity
  8
AM_9
100
AcDbPolyline
 90
        3
 70
     0
 43
0.0
 10
1.746159931413783
 20
0.1093750000000001
 10
1.770178385581585
 20
0.0546875000000001
 10
1.797223849417829
 20
0.0000000000000001
  0
LWPOLYLINE
  5
9E
330
8F
100
AcDbEntity
  8
AM_9
100
AcDbPolyline
 90
        3
 70
     0
 43
0.0
 10
1.797223849417829
 20
0.0000000000000001
 10
1.770293720823967
 20
-0.0544416102741495
 10
1.746159931413783
 20
-0.1093749999999999
  0
ELLIPSE
  5
9F
330
8F
100
AcDbEntity
  8
AM_9
100
AcDbEllipse
 10
1.424820164090892
 20
0.0000000000000001
 30
0.0
 11
9.913691727296317E-18
 21
0.161902872472269
 31
0.0
210
0.0
220
0.0
230
1.0
 40
0.7071067811865478
 41
0.0
 42
6.283185307179586
  0
LWPOLYLINE
  5
A0
330
8F
100
AcDbEntity
  8
AM_9
100
AcDbPolyline
 90
        3
 70
     0
 43
0.0
 10
1.855111005067361
 20
0.0000000000000001
 10
1.837589745012181
 20
0.0544416102741497
 10
1.816870609532438
 20
0.109375
  0
LINE
  5
A1
330
8F
100
AcDbEntity
  8
AM_9
100
AcDbLine
 10
1.852133759298698
 20
-0.0098378560020075
 30
0.0
 11
1.855111005067361
 21
0.0000000000000001
 31
0.0
  0
LWPOLYLINE
  5
A2
330
8F
100
AcDbEntity
  8
AM_9
100
AcDbPolyline
 90
        3
 70
     0
 43
0.0
 10
1.816870609532438
 20
-0.1093749999999999
 10
1.83750431213412
 20
-0.0546874999999999
 10
1.852133759298698
 20
-0.0098378560020075
  0
LWPOLYLINE
  5
A3
330
8F
100
AcDbEntity
  8
AM_9
100
AcDbPolyline
 90
        3
 70
     0
 43
0.0
 10
1.746159931413783
 20
-0.1093749999999999
 10
1.7255262288121
 20
-0.1640624999999999
 10
1.707919535878859
 20
-0.2187499999999999
  0
LINE
  5
A4
330
8F
100
AcDbEntity
  8
AM_9
100
AcDbLine
 10
1.855111005067361
 20
0.0000000000000001
 30
0.0
 11
1.797223849417829
 21
0.0000000000000001
 31
0.0
  0
LWPOLYLINE
  5
A5
330
8F
100
AcDbEntity
  8
AM_9
100
AcDbPolyline
 90
        3
 70
     0
 43
0.0
 10
1.707919535878859
 20
0.2187500000000001
 10
1.725440795934039
 20
0.1643083897258505
 10
1.746159931413783
 20
0.1093750000000001
  0
LINE
  5
A6
330
8F
100
AcDbEntity
  8
AM_9
100
AcDbLine
 10
1.807049149297427
 20
-0.1326680373646731
 30
0.0
 11
1.816870609532438
 21
-0.1093749999999999
 31
0.0
  0
LINE
  5
A7
330
8F
100
AcDbEntity
  8
AM_9
100
AcDbLine
 10
1.816870609532438
 20
0.109375
 30
0.0
 11
1.806862355685558
 21
0.1330972608703164
 31
0.0
  0
LINE
  5
A8
330
8F
100
AcDbEntity
  8
AM_9
100
AcDbLine
 10
1.44639232553932
 20
-0.1985206121313387
 30
0.0
 11
1.60765031122975
 21
-0.2056511146224223
 31
0.0
  0
LINE
  5
A9
330
8F
100
AcDbEntity
  8
AM_9
100
AcDbLine
 10
1.60765031122975
 20
0.2056511146224226
 30
0.0
 11
1.44639232553932
 21
0.1985206121313389
 31
0.0
  0
ELLIPSE
  5
AA
330
8F
100
AcDbEntity
  8
AM_9
100
AcDbEllipse
 10
1.682914139223984
 20
-0.0000000000000225
 30
0.0
 11
-4.018372309703000E-17
 21
-0.2187500000000407
 31
0.0
210
0.0
220
0.0
230
1.0
 40
0.7071067811864521
 41
0.9156936017148016
 42
2.225899051875156
  0
LINE
  5
AB
330
8F
100
AcDbEntity
  8
AM_9
100
AcDbLine
 10
1.788980156401965
 20
0.0948683298050515
 30
0.0
 11
1.770366289972899
 21
0.1073548910028991
 31
0.0
  0
LINE
  5
AC
330
8F
100
AcDbEntity
  8
AM_9
100
AcDbLine
 10
1.770366289972899
 20
-0.1073548910028989
 30
0.0
 11
1.788980156401965
 21
-0.0948683298050513
 31
0.0
  0
ELLIPSE
  5
AD
330
8F
100
AcDbEntity
  8
AM_9
100
AcDbEllipse
 10
1.75716035124857
 20
0.0000000000000002
 30
0.0
 11
-1.928818708657080E-17
 21
-0.105
 31
0.0
210
0.0
220
0.0
230
1.0
 40
0.7071067811865456
 41
0.0
 42
3.141592653589793
  0
ELLIPSE
  5
AE
330
8F
100
AcDbEntity
  8
AM_9
100
AcDbEllipse
 10
1.682914139223983
 20
-0.0000000000000006
 30
0.0
 11
-3.926523799766182E-17
 21
-0.2137499999999989
 31
0.0
210
0.0
220
0.0
230
1.0
 40
0.7071067811865478
 41
0.903655218840413
 42
2.237937434749384
  0
LINE
  5
AF
330
8F
100
AcDbEntity
  8
AM_9
100
AcDbLine
 10
1.758479342131108
 20
-0.1049999999999999
 30
0.0
 11
1.778373554684166
 21
-0.1049999999999999
 31
0.0
  0
LINE
  5
B0
330
8F
100
AcDbEntity
  8
AM_9
100
AcDbLine
 10
1.778373554684166
 20
0.1050000000000001
 30
0.0
 11
1.758479342131108
 21
0.1050000000000001
 31
0.0
  0
ELLIPSE
  5
B1
330
8F
100
AcDbEntity
  8
AM_9
100
AcDbEllipse
 10
1.778373554684166
 20
0.0000000000000001
 30
0.0
 11
-1.928818708657081E-17
 21
-0.105
 31
0.0
210
0.0
220
0.0
230
1.0
 40
0.7071067811865516
 41
5.759586531581293
 42
9.948376736367672
  0
ELLIPSE
  5
B2
330
8F
100
AcDbEntity
  8
AM_9
100
AcDbEllipse
 10
1.734358364873014
 20
0.0000000000000013
 30
0.0
 11
-2.182689656892945E-17
 21
-0.1188200907348752
 31
0.0
210
0.0
220
0.0
230
1.0
 40
0.7071067811862662
 41
0.3762206261005048
 42
2.765372027489283
  0
LINE
  5
B3
330
8F
100
AcDbEntity
  8
AM_9
100
AcDbLine
 10
1.817264078192643
 20
0.0192743186691521
 30
0.0
 11
1.816251238001651
 21
0.0279874918769155
 31
0.0
  0
LINE
  5
B4
330
8F
100
AcDbEntity
  8
AM_9
100
AcDbLine
 10
1.816251238001651
 20
-0.0279874918769153
 30
0.0
 11
1.817264078192643
 21
-0.0192743186691519
 31
0.0
  0
ELLIPSE
  5
B5
330
8F
100
AcDbEntity
  8
AM_9
100
AcDbEllipse
 10
1.695867061631365
 20
-0.0000000000000015
 30
0.0
 11
-3.169399141454397E-17
 21
-0.1725340532830122
 31
0.0
210
0.0
220
0.0
230
1.0
 40
0.7071067811865411
 41
0.777291343142072
 42
2.364301310447734
  0
ELLIPSE
  5
B6
330
8F
100
AcDbEntity
  8
AM_9
100
AcDbEllipse
 10
1.820799961555359
 20
-0.0000000000000002
 30
0.0
 11
-2.479909768273398E-17
 21
-0.1350000000000005
 31
0.0
210
0.0
220
0.0
230
1.0
 40
0.707106781186549
 41
0.4159140521025524
 42
2.725678601487243
  0
ELLIPSE
  5
B7
330
8F
100
AcDbEntity
  8
AM_9
100
AcDbEllipse
 10
1.612203461105328
 20
0.0
 30
0.0
 11
-3.779601035290912E-17
 21
-0.2057518972230697
 31
0.0
210
0.0
220
0.0
230
1.0
 40
0.7071067811865481
 41
0.0
 42
6.283185307179586
  0
ELLIPSE
  5
B8
330
8F
100
AcDbEntity
  8
AM_9
100
AcDbEllipse
 10
1.450781415832347
 20
0.0000000000000004
 30
0.0
 11
-3.648546613377881E-17
 21
-0.1986176267812151
 31
0.0
210
0.0
220
0.0
230
1.0
 40
0.7071067811865476
 41
0.0
 42
6.283185307179586
  0
ELLIPSE
  5
B9
330
8F
100
AcDbEntity
  8
AM_9
100
AcDbEllipse
 10
1.612203461105326
 20
0.0000000000000001
 30
0.0
 11
-4.018372309702221E-17
 21
-0.2187499999999983
 31
0.0
210
0.0
220
0.0
230
1.0
 40
0.7071067811865476
 41
0.0
 42
6.283185307179586
  0
LWPOLYLINE
  5
BB
330
8F
100
AcDbEntity
  8
AM_4
100
AcDbPolyline
 90
        3
 70
     0
 43
0.0
 10
1.765806691528391
 20
-0.2187499999999999
 10
1.792736820122254
 20
-0.1643083897258503
 10
1.807049149297427
 20
-0.1326680373646731
  0
LWPOLYLINE
  5
BC
330
8F
100
AcDbEntity
  8
AM_4
100
AcDbPolyline
 90
        3
 70
     0
 43
0.0
 10
1.806862355685558
 20
0.1330972608703164
 10
1.792852155364635
 20
0.1640625000000001
 10
1.765806691528391
 20
0.2187500000000001
  0
ELLIPSE
  5
BD
330
8F
100
AcDbEntity
  8
AM_4
100
AcDbEllipse
 10
1.682914139223983
 20
-0.0000000000000012
 30
0.0
 11
-4.018372309702277E-17
 21
-0.2187500000000013
 31
0.0
210
0.0
220
0.0
230
1.0
 40
0.7071067811865449
 41
2.225899051875138
 42
7.198878908894251
  0
ELLIPSE
  5
BE
330
8F
100
AcDbEntity
  8
AM_4
100
AcDbEllipse
 10
1.734358364872965
 20
0.0000000000000001
 30
0.0
 11
-2.182689656893357E-17
 21
-0.1188200907348977
 31
0.0
210
0.0
220
0.0
230
1.0
 40
0.7071067811865475
 41
2.765372027488877
 42
6.659405933280503
  0
ELLIPSE
  5
BF
330
8F
100
AcDbEntity
  8
AM_4
100
AcDbEllipse
 10
1.682914139223983
 20
0.0000000000000001
 30
0.0
 11
-3.926523799766201E-17
 21
-0.21375
 31
0.0
210
0.0
220
0.0
230
1.0
 40
0.7071067811865485
 41
2.237937434749381
 42
7.186840526019999
  0
LINE
  5
C0
330
8F
100
AcDbEntity
  8
AM_4
100
AcDbLine
 10
1.75716035124857
 20
-0.1049999999999999
 30
0.0
 11
1.758479342131108
 21
-0.1049999999999999
 31
0.0
  0
LINE
  5
C1
330
8F
100
AcDbEntity
  8
AM_4
100
AcDbLine
 10
1.758479342131108
 20
0.1050000000000001
 30
0.0
 11
1.75716035124857
 21
0.1050000000000001
 31
0.0
  0
ELLIPSE
  5
C2
330
8F
100
AcDbEntity
  8
AM_4
100
AcDbEllipse
 10
1.75716035124857
 20
0.0000000000000001
 30
0.0
 11
-1.928818708657087E-17
 21
-0.1050000000000003
 31
0.0
210
0.0
220
0.0
230
1.0
 40
0.7071067811865476
 41
3.141592653589793
 42
6.283185307179586
  0
ELLIPSE
  5
C3
330
8F
100
AcDbEntity
  8
AM_4
100
AcDbEllipse
 10
1.695867061631362
 20
0.0
 30
0.0
 11
-3.169399141454455E-17
 21
-0.1725340532830154
 31
0.0
210
0.0
220
0.0
230
1.0
 40
0.7071067811865475
 41
2.364301310447715
 42
7.060476650321666
  0
LWPOLYLINE
  5
C4
330
8F
100
AcDbEntity
  8
AM_4
100
AcDbPolyline
 90
        3
 70
     0
 43
0.0
 10
1.548957668915527
 20
0.109375
 10
1.524939214747725
 20
0.0546875000000001
 10
1.497893750911481
 20
0.0000000000000001
  0
LWPOLYLINE
  5
C5
330
8F
100
AcDbEntity
  8
AM_4
100
AcDbPolyline
 90
        3
 70
     0
 43
0.0
 10
1.587198064450451
 20
0.2187500000000001
 10
1.56967680439527
 20
0.1643083897258505
 10
1.548957668915527
 20
0.109375
  0
LINE
  5
C6
330
8F
100
AcDbEntity
  8
AM_4
100
AcDbLine
 10
1.765806691528391
 20
0.2187500000000001
 30
0.0
 11
1.529310908800919
 21
0.2187500000000001
 31
0.0
  0
LWPOLYLINE
  5
C7
330
8F
100
AcDbEntity
  8
AM_4
100
AcDbPolyline
 90
        3
 70
     0
 43
0.0
 10
1.478246990796873
 20
0.1093750000000001
 10
1.502265444964675
 20
0.1640625000000001
 10
1.529310908800919
 20
0.2187500000000001
  0
LWPOLYLINE
  5
C8
330
8F
100
AcDbEntity
  8
AM_4
100
AcDbPolyline
 90
        3
 70
     0
 43
0.0
 10
1.440006595261949
 20
0.0000000000000001
 10
1.457527855317129
 20
0.0544416102741497
 10
1.478246990796873
 20
0.1093750000000001
  0
LINE
  5
C9
330
8F
100
AcDbEntity
  8
AM_4
100
AcDbLine
 10
1.765806691528391
 20
-0.2187499999999999
 30
0.0
 11
1.529310908800919
 21
-0.2187499999999999
 31
0.0
  0
LWPOLYLINE
  5
CA
330
8F
100
AcDbEntity
  8
AM_4
100
AcDbPolyline
 90
        3
 70
     0
 43
0.0
 10
1.548957668915527
 20
-0.1093749999999999
 10
1.56959137151721
 20
-0.1640624999999999
 10
1.587198064450451
 20
-0.2187499999999999
  0
LWPOLYLINE
  5
CB
330
8F
100
AcDbEntity
  8
AM_4
100
AcDbPolyline
 90
        3
 70
     0
 43
0.0
 10
1.497893750911481
 20
0.0000000000000001
 10
1.524823879505343
 20
-0.0544416102741495
 10
1.548957668915527
 20
-0.1093749999999999
  0
LINE
  5
CC
330
8F
100
AcDbEntity
  8
AM_4
100
AcDbLine
 10
1.497893750911481
 20
0.0000000000000001
 30
0.0
 11
1.440006595261949
 21
0.0000000000000001
 31
0.0
  0
LWPOLYLINE
  5
CD
330
8F
100
AcDbEntity
  8
AM_4
100
AcDbPolyline
 90
        3
 70
     0
 43
0.0
 10
1.478246990796873
 20
-0.1093749999999999
 10
1.45761328819519
 20
-0.0546874999999999
 10
1.440006595261949
 20
0.0000000000000001
  0
LWPOLYLINE
  5
CE
330
8F
100
AcDbEntity
  8
AM_4
100
AcDbPolyline
 90
        3
 70
     0
 43
0.0
 10
1.529310908800919
 20
-0.2187499999999999
 10
1.502380780207057
 20
-0.1643083897258503
 10
1.478246990796873
 20
-0.1093749999999999
  0
LINE
  5
CF
330
8F
100
AcDbEntity
  8
AM_4
100
AcDbLine
 10
1.741250448671873
 20
-0.0909326673973659
 30
0.0
 11
1.773070253825267
 21
-0.1169134295108991
 31
0.0
  0
LINE
  5
D0
330
8F
100
AcDbEntity
  8
AM_4
100
AcDbLine
 10
1.773070253825267
 20
0.1169134295108993
 30
0.0
 11
1.741250448671873
 21
0.0909326673973662
 31
0.0
  0
ELLIPSE
  5
D1
330
8F
100
AcDbEntity
  8
AM_4
100
AcDbEllipse
 10
1.820799961555359
 20
0.0000000000000001
 30
0.0
 11
-2.479909768273389E-17
 21
-0.135
 31
0.0
210
0.0
220
0.0
230
1.0
 40
0.70710678118655
 41
2.725678601487244
 42
6.699099359282136
  0
ELLIPSE
  5
D2
330
8F
100
AcDbEntity
  8
AM_4
100
AcDbEllipse
 10
1.778373554684166
 20
0.0000000000000001
 30
0.0
 11
-1.928818708657078E-17
 21
-0.1049999999999998
 31
0.0
210
0.0
220
0.0
230
1.0
 40
0.7071067811865486
 41
3.665191429188086
 42
5.759586531581293
  0
LINE
  5
D3
330
8F
100
AcDbEntity
  8
AM_4
100
AcDbLine
 10
1.906702521414058
 20
0.0939243440009288
 30
0.0
 11
1.859368068904168
 21
0.1234908992236336
 31
0.0
  0
LINE
  5
D4
330
8F
100
AcDbEntity
  8
AM_4
100
AcDbLine
 10
1.859368068904168
 20
-0.1234908992236333
 30
0.0
 11
1.906702521414058
 21
-0.0939243440009286
 31
0.0
  0
ELLIPSE
  5
D5
330
8F
100
AcDbEntity
  8
AM_4
100
AcDbEllipse
 10
1.877368504050282
 20
0.0000000000000001
 30
0.0
 11
-1.886162459184658E-17
 21
-0.1026779019331875
 31
0.0
210
0.0
220
0.0
230
1.0
 40
0.7071067811865528
 41
0.0
 42
6.283185307179586
  0
ENDBLK
  5
92
330
8F
100
AcDbEntity
  8
0
100
AcDbBlockEnd
  0
BLOCK
  5
D8
330
D6
100
AcDbEntity
  8
0
100
AcDbBlockBegin
  2
3_131923_0_in_131845_4
 70
     2
 10
0.0
 20
0.0
 30
0.0
  3
3_131923_0_in_131845_4
  1

  0
ATTDEF
  5
DA
330
D6
100
AcDbEntity
  8
AM_6
100
AcDbText
 10
6.90120125
 20
0.7499999999999999
 30
0.0
 40
0.5
  1
Eccentric Collar Insert Inch Bore
100
AcDbAttributeDefinition
  3

  2
NN
 70
     8
280
     0
  0
ATTDEF
  5
DB
330
D6
100
AcDbEntity
  8
AM_6
100
AcDbText
 10
6.90120125
 20
0.2499999999999999
 30
0.0
 40
0.5
  1
SXR Normal Duty Bearing Inserts
100
AcDbAttributeDefinition
  3

  2
NT
 70
     8
280
     0
  0
ATTDEF
  5
DC
330
D6
100
AcDbEntity
  8
AM_6
100
AcDbText
 10
6.90120125
 20
-0.2500000000000001
 30
0.0
 40
0.5
  1
131923
100
AcDbAttributeDefinition
  3

  2
NB
 70
     8
280
     0
  0
ATTDEF
  5
DD
330
D6
100
AcDbEntity
  8
AM_6
100
AcDbText
 10
6.90120125
 20
-0.7500000000000001
 30
0.0
 40
0.5
  1
$PN.
100
AcDbAttributeDefinition
  3

  2
NBSYN
 70
     8
280
     0
  0
ATTDEF
  5
DE
330
D6
100
AcDbEntity
  8
AM_6
100
AcDbText
 10
6.90120125
 20
-1.25
 30
0.0
 40
0.5
  1
131923
100
AcDbAttributeDefinition
  3

  2
LINA
 70
     8
280
     0
  0
ATTDEF
  5
DF
330
D6
100
AcDbEntity
  8
AM_6
100
AcDbText
 10
6.90120125
 20
-1.75
 30
0.0
 40
0.5
  1
210
100
AcDbAttributeDefinition
  3

  2
SERIES
 70
     8
280
     0
  0
ATTDEF
  5
E0
330
D6
100
AcDbEntity
  8
AM_6
100
AcDbText
 10
6.90120125
 20
-2.25
 30
0.0
 40
0.5
  1
1-15/16
100
AcDbAttributeDefinition
  3

  2
SS
 70
     8
280
     0
  0
ATTDEF
  5
E1
330
D6
100
AcDbEntity
  8
AM_6
100
AcDbText
 10
6.90120125
 20
-2.75
 30
0.0
 40
0.5
  1
131923
100
AcDbAttributeDefinition
  3

  2
PN
 70
     8
280
     0
  0
ATTDEF
  5
E2
330
D6
100
AcDbEntity
  8
AM_6
100
AcDbText
 10
6.90120125
 20
-3.25
 30
0.0
 40
0.5
  1
INS-SXR-115
100
AcDbAttributeDefinition
  3

  2
DESCRIPTION
 70
     8
280
     0
  0
ATTDEF
  5
E3
330
D6
100
AcDbEntity
  8
AM_6
100
AcDbText
 10
6.90120125
 20
-3.75
 30
0.0
 40
0.5
  1
2.2
100
AcDbAttributeDefinition
  3

  2
WEIGHT
 70
     8
280
     0
  0
ATTDEF
  5
E4
330
D6
100
AcDbEntity
  8
AM_6
100
AcDbText
 10
6.90120125
 20
-4.25
 30
0.0
 40
0.5
  1
2.25
100
AcDbAttributeDefinition
  3

  2
A
 70
     8
280
     0
  0
ATTDEF
  5
E5
330
D6
100
AcDbEntity
  8
AM_6
100
AcDbText
 10
6.90120125
 20
-4.75
 30
0.0
 40
0.5
  1
0.87
100
AcDbAttributeDefinition
  3

  2
C
 70
     8
280
     0
  0
ATTDEF
  5
E6
330
D6
100
AcDbEntity
  8
AM_6
100
AcDbText
 10
6.90120125
 20
-5.25
 30
0.0
 40
0.5
  1
3.5433
100
AcDbAttributeDefinition
  3

  2
D
 70
     8
280
     0
  0
ATTDEF
  5
E7
330
D6
100
AcDbEntity
  8
AM_6
100
AcDbText
 10
6.90120125
 20
-5.75
 30
0.0
 40
0.5
  1
0.25
100
AcDbAttributeDefinition
  3

  2
J
 70
     8
280
     0
  0
ATTDEF
  5
E8
330
D6
100
AcDbEntity
  8
AM_6
100
AcDbText
 10
6.90120125
 20
-6.25
 30
0.0
 40
0.5
  1
2.75
100
AcDbAttributeDefinition
  3

  2
L
 70
     8
280
     0
  0
ATTDEF
  5
E9
330
D6
100
AcDbEntity
  8
AM_6
100
AcDbText
 10
6.90120125
 20
-6.75
 30
0.0
 40
0.5
  1
3/8 - 24
100
AcDbAttributeDefinition
  3

  2
N
 70
     8
280
     0
  0
ATTDEF
  5
EA
330
D6
100
AcDbEntity
  8
AM_6
100
AcDbText
 10
6.90120125
 20
-7.25
 30
0.0
 40
0.5
  1
0.75
100
AcDbAttributeDefinition
  3

  2
W
 70
     8
280
     0
  0
ATTDEF
  5
EB
330
D6
100
AcDbEntity
  8
AM_6
100
AcDbText
 10
6.90120125
 20
-7.75
 30
0.0
 40
0.5
  1
1.50
100
AcDbAttributeDefinition
  3

  2
Y
 70
     8
280
     0
  0
ATTDEF
  5
EC
330
D6
100
AcDbEntity
  8
AM_6
100
AcDbText
 10
6.90120125
 20
-8.25
 30
0.0
 40
0.5
  1
2.43
100
AcDbAttributeDefinition
  3

  2
Z
 70
     8
280
     0
  0
ATTDEF
  5
ED
330
D6
100
AcDbEntity
  8
AM_6
100
AcDbText
 10
6.90120125
 20
-8.75
 30
0.0
 40
0.5
  1
baldor
100
AcDbAttributeDefinition
  3

  2
COMPANY
 70
     8
280
     0
  0
LINE
  5
EE
330
D6
100
AcDbEntity
  8
AM_9
100
AcDbLine
 10
1.743525
 20
0.3749999999999999
 30
0.0
 11
1.731562834549507
 21
0.3749999999999999
 31
0.0
  0
ARC
  5
EF
330
D6
100
AcDbEntity
  8
AM_9
100
AcDbCircle
 10
1.743524999999948
 20
0.2499999999999959
 30
0.0
 40
0.125000000000004
100
AcDbArc
 50
280.8594303409469
 51
90.0
  0
LINE
  5
F0
330
D6
100
AcDbEntity
  8
AM_9
100
AcDbLine
 10
1.743525
 20
0.3749999999999999
 30
0.0
 11
1.743525
 21
0.2914785937500312
 31
0.0
  0
LINE
  5
F1
330
D6
100
AcDbEntity
  8
AM_9
100
AcDbLine
 10
0.96875
 20
-0.9251963420073541
 30
0.0
 11
0.96875
 21
0.7326000000000001
 31
0.0
  0
LINE
  5
F2
330
D6
100
AcDbEntity
  8
AM_9
100
AcDbLine
 10
-0.96875
 20
0.7326000000000001
 30
0.0
 11
-0.96875
 21
-0.9251963420073541
 31
0.0
  0
LINE
  5
F3
330
D6
100
AcDbEntity
  8
AM_9
100
AcDbLine
 10
0.96875
 20
-1.4826
 30
0.0
 11
0.96875
 21
-0.9498036579926458
 31
0.0
  0
LINE
  5
F4
330
D6
100
AcDbEntity
  8
AM_9
100
AcDbLine
 10
-0.96875
 20
-0.9498036579926458
 30
0.0
 11
-0.96875
 21
-1.4826
 31
0.0
  0
LINE
  5
F5
330
D6
100
AcDbEntity
  8
AM_9
100
AcDbLine
 10
-0.96875
 20
-0.9251963420073541
 30
0.0
 11
0.96875
 21
-0.9251963420073541
 31
0.0
  0
LINE
  5
F6
330
D6
100
AcDbEntity
  8
AM_9
100
AcDbLine
 10
-0.96875
 20
-0.9251963420073541
 30
0.0
 11
-0.9810536579926461
 21
-0.9375
 31
0.0
  0
LINE
  5
F7
330
D6
100
AcDbEntity
  8
AM_9
100
AcDbLine
 10
0.9810536579926461
 20
-0.9375
 30
0.0
 11
0.96875
 21
-0.9251963420073541
 31
0.0
  0
LINE
  5
F8
330
D6
100
AcDbEntity
  8
AM_9
100
AcDbLine
 10
-0.9810536579926461
 20
-0.9375
 30
0.0
 11
0.9810536579926461
 21
-0.9375
 31
0.0
  0
LINE
  5
F9
330
D6
100
AcDbEntity
  8
AM_9
100
AcDbLine
 10
-0.96875
 20
-0.9498036579926458
 30
0.0
 11
0.96875
 21
-0.9498036579926458
 31
0.0
  0
LINE
  5
FA
330
D6
100
AcDbEntity
  8
AM_9
100
AcDbLine
 10
0.96875
 20
-0.9498036579926458
 30
0.0
 11
0.9810536579926461
 21
-0.9375
 31
0.0
  0
LINE
  5
FB
330
D6
100
AcDbEntity
  8
AM_9
100
AcDbLine
 10
-0.9810536579926461
 20
-0.9375
 30
0.0
 11
-0.96875
 21
-0.9498036579926458
 31
0.0
  0
LINE
  5
FC
330
D6
100
AcDbEntity
  8
AM_9
100
AcDbLine
 10
0.96875
 20
0.7326000000000001
 30
0.0
 11
0.98615
 21
0.7499999999999999
 31
0.0
  0
LINE
  5
FD
330
D6
100
AcDbEntity
  8
AM_9
100
AcDbLine
 10
-0.98615
 20
0.7499999999999999
 30
0.0
 11
-0.96875
 21
0.7326000000000001
 31
0.0
  0
LINE
  5
FE
330
D6
100
AcDbEntity
  8
AM_9
100
AcDbLine
 10
-0.96875
 20
-1.4826
 30
0.0
 11
0.96875
 21
-1.4826
 31
0.0
  0
LINE
  5
FF
330
D6
100
AcDbEntity
  8
AM_9
100
AcDbLine
 10
-0.96875
 20
-1.4826
 30
0.0
 11
-0.98615
 21
-1.5
 31
0.0
  0
LINE
  5
100
330
D6
100
AcDbEntity
  8
AM_9
100
AcDbLine
 10
0.98615
 20
-1.5
 30
0.0
 11
0.96875
 21
-1.4826
 31
0.0
  0
LINE
  5
101
330
D6
100
AcDbEntity
  8
AM_9
100
AcDbLine
 10
1.215
 20
-0.7095237037485532
 30
0.0
 11
1.215
 21
-0.435
 31
0.0
  0
LINE
  5
102
330
D6
100
AcDbEntity
  8
AM_9
100
AcDbLine
 10
-1.215
 20
-0.435
 30
0.0
 11
-1.215
 21
-0.7095237037485532
 31
0.0
  0
LINE
  5
103
330
D6
100
AcDbEntity
  8
AM_9
100
AcDbLine
 10
1.215
 20
0.435
 30
0.0
 11
1.215
 21
0.7095237037485532
 31
0.0
  0
LINE
  5
104
330
D6
100
AcDbEntity
  8
AM_9
100
AcDbLine
 10
-1.215
 20
0.7095237037485532
 30
0.0
 11
-1.215
 21
0.435
 31
0.0
  0
LINE
  5
105
330
D6
100
AcDbEntity
  8
AM_9
100
AcDbLine
 10
1.687285714285714
 20
-0.2999999999999999
 30
0.0
 11
1.687285714285714
 21
-0.2
 31
0.0
  0
LINE
  5
106
330
D6
100
AcDbEntity
  8
AM_9
100
AcDbLine
 10
-1.687285714285714
 20
-0.2
 30
0.0
 11
-1.687285714285714
 21
-0.2999999999999999
 31
0.0
  0
LINE
  5
107
330
D6
100
AcDbEntity
  8
AM_9
100
AcDbLine
 10
-1.690114754240078
 20
0.435
 30
0.0
 11
1.690114754239447
 21
0.435
 31
0.0
  0
ARC
  5
108
330
D6
100
AcDbEntity
  8
AM_9
100
AcDbCircle
 10
1.690114754240078
 20
0.4002000000000004
 30
0.0
 40
0.0347999999999996
100
AcDbArc
 50
13.32163143280519
 51
90.0
  0
ARC
  5
109
330
D6
100
AcDbEntity
  8
AM_9
100
AcDbCircle
 10
-1.690114754240078
 20
0.4002
 30
0.0
 40
0.0348
100
AcDbArc
 50
90.0
 51
166.6783685671942
  0
LINE
  5
10A
330
D6
100
AcDbEntity
  8
AM_9
100
AcDbLine
 10
-1.690114754240078
 20
-0.4350000000000002
 30
0.0
 11
1.690114754239447
 21
-0.4350000000000002
 31
0.0
  0
ARC
  5
10B
330
D6
100
AcDbEntity
  8
AM_9
100
AcDbCircle
 10
1.690114754240078
 20
-0.4002000000000004
 30
0.0
 40
0.0347999999999997
100
AcDbArc
 50
270.0
 51
346.6783685671954
  0
ARC
  5
10C
330
D6
100
AcDbEntity
  8
AM_9
100
AcDbCircle
 10
-1.690114754240078
 20
-0.4002000000000004
 30
0.0
 40
0.0347999999999997
100
AcDbArc
 50
193.3216314328045
 51
270.0
  0
LINE
  5
10D
330
D6
100
AcDbEntity
  8
AM_9
100
AcDbLine
 10
-1.746065211411074
 20
-0.2999999999999999
 30
0.0
 11
1.746065211410612
 21
-0.2999999999999999
 31
0.0
  0
LINE
  5
10E
330
D6
100
AcDbEntity
  8
AM_9
100
AcDbLine
 10
-1.723978354117762
 20
-0.408218516279471
 30
0.0
 11
1.7239783541173
 21
-0.408218516279471
 31
0.0
  0
ARC
  5
10F
330
D6
100
AcDbEntity
  8
AM_9
100
AcDbCircle
 10
-0.000000000911752
 20
0.0000000001859874
 30
0.0
 40
1.771650000929624
100
AcDbArc
 50
346.6783685681318
 51
350.2509203899747
  0
ARC
  5
110
330
D6
100
AcDbEntity
  8
AM_9
100
AcDbCircle
 10
0.0000000009112202
 20
0.0000000001858789
 30
0.0
 40
1.771650000929081
100
AcDbArc
 50
189.7490796100247
 51
193.3216314318687
  0
LINE
  5
111
330
D6
100
AcDbEntity
  8
AM_9
100
AcDbLine
 10
-1.760324891177762
 20
-0.2000000000000005
 30
0.0
 11
1.760324891177764
 21
-0.2000000000000005
 31
0.0
  0
LINE
  5
112
330
D6
100
AcDbEntity
  8
AM_9
100
AcDbLine
 10
-1.723978354117761
 20
0.4082185162794714
 30
0.0
 11
1.723978354117764
 21
0.4082185162794714
 31
0.0
  0
LINE
  5
113
330
D6
100
AcDbEntity
  8
AM_9
100
AcDbLine
 10
1.731507644366741
 20
0.3749999999991108
 30
0.0
 11
1.767075012010769
 21
0.1272384549857282
 31
0.0
  0
ARC
  5
114
330
D6
100
AcDbEntity
  8
AM_9
100
AcDbCircle
 10
0.0000000000149958
 20
0.0000000000010278
 30
0.0
 40
1.771649999984974
100
AcDbArc
 50
3.651040123659218
 51
4.118481761388884
  0
ARC
  5
115
330
D6
100
AcDbEntity
  8
AM_9
100
AcDbCircle
 10
-0.0000000000000351
 20
0.0000000000000001
 30
0.0
 40
1.771650000000039
100
AcDbArc
 50
356.6022722437153
 51
3.397727756284686
  0
ARC
  5
116
330
D6
100
AcDbEntity
  8
AM_9
100
AcDbCircle
 10
0.0000000000040201
 20
-0.0000000000003103
 30
0.0
 40
1.771649999995973
100
AcDbArc
 50
353.5181126598168
 51
356.3489598763403
  0
ARC
  5
117
330
D6
100
AcDbEntity
  8
AM_9
100
AcDbCircle
 10
0.0000000000196023
 20
0.0000000000043089
 30
0.0
 40
1.771649999979934
100
AcDbArc
 50
12.20767519651628
 51
13.32163143281631
  0
ARC
  5
118
330
D6
100
AcDbEntity
  8
AM_9
100
AcDbCircle
 10
-0.0000000000001656
 20
0.0000000000000098
 30
0.0
 40
1.771649999999839
100
AcDbArc
 50
166.6783685671932
 51
186.4818873401794
  0
LINE
  5
11B
330
D6
100
AcDbEntity
  8
AM_7
100
AcDbLine
 10
1.18232375
 20
0.25
 30
0.0
 11
1.90120125
 21
0.25
 31
0.0
  0
LINE
  5
11C
330
D6
100
AcDbEntity
  8
AM_4
100
AcDbLine
 10
1.157142857142857
 20
-0.8624999999999999
 30
0.0
 11
1.157142857142857
 21
-0.8250000000000001
 31
0.0
  0
LINE
  5
11D
330
D6
100
AcDbEntity
  8
AM_4
100
AcDbLine
 10
-1.157142857142857
 20
-0.8250000000000001
 30
0.0
 11
-1.157142857142857
 21
-0.8624999999999999
 31
0.0
  0
LINE
  5
11E
330
D6
100
AcDbEntity
  8
AM_4
100
AcDbLine
 10
1.215
 20
-0.8076000000000001
 30
0.0
 11
1.215
 21
-0.7095237037485532
 31
0.0
  0
LINE
  5
11F
330
D6
100
AcDbEntity
  8
AM_4
100
AcDbLine
 10
-1.215
 20
-0.7095237037485532
 30
0.0
 11
-1.215
 21
-0.8076000000000001
 31
0.0
  0
LINE
  5
120
330
D6
100
AcDbEntity
  8
AM_4
100
AcDbLine
 10
1.215
 20
0.7095237037485532
 30
0.0
 11
1.215
 21
0.7326
 31
0.0
  0
LINE
  5
121
330
D6
100
AcDbEntity
  8
AM_4
100
AcDbLine
 10
-1.215
 20
0.7326
 30
0.0
 11
-1.215
 21
0.7095237037485532
 31
0.0
  0
LINE
  5
122
330
D6
100
AcDbEntity
  8
AM_4
100
AcDbLine
 10
-1.215
 20
0.7326
 30
0.0
 11
1.215
 21
0.7326
 31
0.0
  0
LINE
  5
123
330
D6
100
AcDbEntity
  8
AM_4
100
AcDbLine
 10
-1.1976
 20
0.7499999999999999
 30
0.0
 11
1.1976
 21
0.7499999999999999
 31
0.0
  0
LINE
  5
124
330
D6
100
AcDbEntity
  8
AM_4
100
AcDbLine
 10
-1.1976
 20
0.7499999999999999
 30
0.0
 11
-1.215
 21
0.7326
 31
0.0
  0
LINE
  5
125
330
D6
100
AcDbEntity
  8
AM_4
100
AcDbLine
 10
1.215
 20
0.7326
 30
0.0
 11
1.1976
 21
0.7499999999999999
 31
0.0
  0
LINE
  5
126
330
D6
100
AcDbEntity
  8
AM_4
100
AcDbLine
 10
-1.1976
 20
-0.8250000000000001
 30
0.0
 11
1.1976
 21
-0.8250000000000001
 31
0.0
  0
LINE
  5
127
330
D6
100
AcDbEntity
  8
AM_4
100
AcDbLine
 10
-1.215
 20
-0.8076000000000001
 30
0.0
 11
1.215
 21
-0.8076000000000001
 31
0.0
  0
LINE
  5
128
330
D6
100
AcDbEntity
  8
AM_4
100
AcDbLine
 10
1.1976
 20
-0.8250000000000001
 30
0.0
 11
1.215
 21
-0.8076000000000001
 31
0.0
  0
LINE
  5
129
330
D6
100
AcDbEntity
  8
AM_4
100
AcDbLine
 10
-1.215
 20
-0.8076000000000001
 30
0.0
 11
-1.1976
 21
-0.8250000000000001
 31
0.0
  0
LINE
  5
12A
330
D6
100
AcDbEntity
  8
AM_4
100
AcDbLine
 10
-1.328125
 20
-0.8624999999999999
 30
0.0
 11
1.328125
 21
-0.8624999999999999
 31
0.0
  0
ARC
  5
12B
330
D6
100
AcDbEntity
  8
AM_4
100
AcDbCircle
 10
1.328125
 20
-0.9093750000000002
 30
0.0
 40
0.0468750000000002
100
AcDbArc
 50
0.0
 51
90.0
  0
ARC
  5
12C
330
D6
100
AcDbEntity
  8
AM_4
100
AcDbCircle
 10
-1.328125
 20
-0.9093750000000002
 30
0.0
 40
0.0468750000000002
100
AcDbArc
 50
90.0
 51
180.0
  0
ARC
  5
12D
330
D6
100
AcDbEntity
  8
AM_4
100
AcDbCircle
 10
0.0000000000000001
 20
-1.21875
 30
0.0
 40
0.1706000000000002
100
AcDbArc
 50
34.28559723097734
 51
145.7144027690227
  0
ARC
  5
12E
330
D6
100
AcDbEntity
  8
AM_4
100
AcDbCircle
 10
0.0
 20
-1.21875
 30
0.0
 40
0.1706000000000001
100
AcDbArc
 50
214.2855972309773
 51
325.7144027690227
  0
LWPOLYLINE
  5
12F
330
D6
100
AcDbEntity
  8
AM_4
100
AcDbPolyline
 90
        8
 70
     0
 43
0.0
 10
-0.140956531234315
 20
-1.314852113932991
 10
-0.1550236006542176
 20
-1.289927765606241
 10
-0.1647619462312251
 20
-1.262997723942581
 10
-0.1698268758705891
 20
-1.234788397120287
 10
-0.1701320875021886
 20
-1.206123329728402
 10
-0.1656304246224445
 20
-1.17794405096715
 10
-0.1565320574342682
 20
-1.150911404824429
 10
-0.1409565312343151
 20
-1.122647886067009
  0
LWPOLYLINE
  5
130
330
D6
100
AcDbEntity
  8
AM_4
100
AcDbPolyline
 90
        8
 70
     0
 43
0.0
 10
0.140956531234315
 20
-1.122647886067009
 10
0.1550236006542176
 20
-1.147572234393759
 10
0.1647619462312251
 20
-1.174502276057418
 10
0.1698268758705891
 20
-1.202711602879713
 10
0.1701320875021886
 20
-1.231376670271598
 10
0.1656304246224445
 20
-1.25955594903285
 10
0.1565320574342682
 20
-1.286588595175571
 10
0.1409565312343151
 20
-1.314852113932991
  0
LWPOLYLINE
  5
131
330
D6
100
AcDbEntity
  8
AM_4
100
AcDbPolyline
 90
       13
 70
     0
 43
0.0
 10
-0.140956531234315
 20
-1.122647886067009
 10
-0.1193111365062967
 20
-1.093947768281435
 10
-0.0973863583270529
 20
-1.074084485959454
 10
-0.0714611814467686
 20
-1.057926132651027
 10
-0.0454125331894831
 20
-1.047577664112939
 10
-0.0170336505890691
 20
-1.041829527577837
 10
0.0094628410523291
 20
-1.041190459268964
 10
0.0364690196704343
 20
-1.045179527831962
 10
0.0612342776133331
 20
-1.053234085213603
 10
0.0849844789291986
 20
-1.065524598996359
 10
0.1065103674510338
 20
-1.081521670346972
 10
0.1257076656172618
 20
-1.101229503549819
 10
0.1409565312343151
 20
-1.122647886067009
  0
LWPOLYLINE
  5
132
330
D6
100
AcDbEntity
  8
AM_4
100
AcDbPolyline
 90
       13
 70
     0
 43
0.0
 10
0.140956531234315
 20
-1.314852113932991
 10
0.1193111365062983
 20
-1.343552231718564
 10
0.0973863583270547
 20
-1.363415514040545
 10
0.0714611814467705
 20
-1.379573867348971
 10
0.0454125331894851
 20
-1.38992233588706
 10
0.0170336505890711
 20
-1.395670472422162
 10
-0.0094628410523271
 20
-1.396309540731036
 10
-0.0364690196704324
 20
-1.392320472168038
 10
-0.0612342776133313
 20
-1.384265914786397
 10
-0.0849844789291969
 20
-1.371975401003641
 10
-0.1065103674510324
 20
-1.355978329653029
 10
-0.1257076656172605
 20
-1.336270496450183
 10
-0.140956531234315
 20
-1.314852113932991
  0
LINE
  5
133
330
D6
100
AcDbEntity
  8
AM_4
100
AcDbLine
 10
-1.375
 20
-0.9093749999999999
 30
0.0
 11
1.375
 21
-0.9093749999999999
 31
0.0
  0
LINE
  5
134
330
D6
100
AcDbEntity
  8
AM_4
100
AcDbLine
 10
1.375
 20
-1.453125
 30
0.0
 11
1.375
 21
-0.9093749999999999
 31
0.0
  0
LINE
  5
135
330
D6
100
AcDbEntity
  8
AM_4
100
AcDbLine
 10
-1.375
 20
-0.9093749999999999
 30
0.0
 11
-1.375
 21
-1.453125
 31
0.0
  0
LINE
  5
136
330
D6
100
AcDbEntity
  8
AM_4
100
AcDbLine
 10
-1.328125
 20
-1.5
 30
0.0
 11
1.328125
 21
-1.5
 31
0.0
  0
LINE
  5
137
330
D6
100
AcDbEntity
  8
AM_4
100
AcDbLine
 10
-1.375
 20
-1.453125
 30
0.0
 11
1.375
 21
-1.453125
 31
0.0
  0
ARC
  5
138
330
D6
100
AcDbEntity
  8
AM_4
100
AcDbCircle
 10
1.328125000000001
 20
-1.453125000000001
 30
0.0
 40
0.0468749999999991
100
AcDbArc
 50
270.0
 51
0.0
  0
ARC
  5
139
330
D6
100
AcDbEntity
  8
AM_4
100
AcDbCircle
 10
-1.328125000000001
 20
-1.453125000000001
 30
0.0
 40
0.0468749999999991
100
AcDbArc
 50
180.0
 51
270.0
  0
ARC
  5
13B
330
D6
100
AcDbEntity
  8
AM_5
100
AcDbCircle
 10
0.0000000000000002
 20
-1.21875
 30
0.0
 40
0.1875
100
AcDbArc
 50
75.00000000000004
 51
15.00000000000002
  0
ENDBLK
  5
D9
330
D6
100
AcDbEntity
  8
0
100
AcDbBlockEnd
  0
BLOCK
  5
13E
330
13C
100
AcDbEntity
  8
0
100
AcDbBlockBegin
  2
4_131845H_0_in_131845_4
 70
     2
 10
0.0
 20
0.0
 30
0.0
  3
4_131845H_0_in_131845_4
  1

  0
ATTDEF
  5
140
330
13C
100
AcDbEntity
  8
AM_6
100
AcDbText
 10
9.059999999999999
 20
1.2375
 30
0.0
 40
0.5
  1
P2B-SXRB -I-Housing
100
AcDbAttributeDefinition
  3

  2
NN
 70
     8
280
     0
  0
ATTDEF
  5
141
330
13C
100
AcDbEntity
  8
AM_6
100
AcDbText
 10
9.059999999999999
 20
0.7375
 30
0.0
 40
0.5
  1
Eccentric Collar Pillow Block Bearings -(Normal Duty) -Low Backing Height
100
AcDbAttributeDefinition
  3

  2
NT
 70
     8
280
     0
  0
ATTDEF
  5
142
330
13C
100
AcDbEntity
  8
AM_6
100
AcDbText
 10
9.059999999999999
 20
0.2375
 30
0.0
 40
0.5
  1
131845H
100
AcDbAttributeDefinition
  3

  2
NB
 70
     8
280
     0
  0
ATTDEF
  5
143
330
13C
100
AcDbEntity
  8
AM_6
100
AcDbText
 10
9.059999999999999
 20
-0.2625
 30
0.0
 40
0.5
  1
$PN.H
100
AcDbAttributeDefinition
  3

  2
NBSYN
 70
     8
280
     0
  0
ATTDEF
  5
144
330
13C
100
AcDbEntity
  8
AM_6
100
AcDbText
 10
9.059999999999999
 20
-0.7625
 30
0.0
 40
0.5
  1
131845
100
AcDbAttributeDefinition
  3

  2
LINA
 70
     8
280
     0
  0
ATTDEF
  5
145
330
13C
100
AcDbEntity
  8
AM_6
100
AcDbText
 10
9.059999999999999
 20
-1.2625
 30
0.0
 40
0.5
  1
210
100
AcDbAttributeDefinition
  3

  2
SERIES
 70
     8
280
     0
  0
ATTDEF
  5
146
330
13C
100
AcDbEntity
  8
AM_6
100
AcDbText
 10
9.059999999999999
 20
-1.7625
 30
0.0
 40
0.5
  1
1-15/16
100
AcDbAttributeDefinition
  3

  2
SS
 70
     8
280
     0
  0
ATTDEF
  5
147
330
13C
100
AcDbEntity
  8
AM_6
100
AcDbText
 10
9.059999999999999
 20
-2.2625
 30
0.0
 40
0.5
  1
131845
100
AcDbAttributeDefinition
  3

  2
PN
 70
     8
280
     0
  0
ATTDEF
  5
148
330
13C
100
AcDbEntity
  8
AM_6
100
AcDbText
 10
9.059999999999999
 20
-2.7625
 30
0.0
 40
0.5
  1
P2B-SXRB-115
100
AcDbAttributeDefinition
  3

  2
DESCRIPTION
 70
     8
280
     0
  0
ATTDEF
  5
149
330
13C
100
AcDbEntity
  8
AM_6
100
AcDbText
 10
9.059999999999999
 20
-3.2625
 30
0.0
 40
0.5
  1
7.2
100
AcDbAttributeDefinition
  3

  2
WEIGHT
 70
     8
280
     0
  0
ATTDEF
  5
14A
330
13C
100
AcDbEntity
  8
AM_6
100
AcDbText
 10
9.059999999999999
 20
-3.7625
 30
0.0
 40
0.5
  1
2.25
100
AcDbAttributeDefinition
  3

  2
A
 70
     8
280
     0
  0
ATTDEF
  5
14B
330
13C
100
AcDbEntity
  8
AM_6
100
AcDbText
 10
9.059999999999999
 20
-4.2625
 30
0.0
 40
0.5
  1
8.12
100
AcDbAttributeDefinition
  3

  2
B
 70
     8
280
     0
  0
ATTDEF
  5
14C
330
13C
100
AcDbEntity
  8
AM_6
100
AcDbText
 10
9.059999999999999
 20
-4.7625
 30
0.0
 40
0.5
  1
2.25
100
AcDbAttributeDefinition
  3

  2
C
 70
     8
280
     0
  0
ATTDEF
  5
14D
330
13C
100
AcDbEntity
  8
AM_6
100
AcDbText
 10
9.059999999999999
 20
-5.2625
 30
0.0
 40
0.5
  1
6.00
100
AcDbAttributeDefinition
  3

  2
DMIN
 70
     8
280
     0
  0
ATTDEF
  5
14E
330
13C
100
AcDbEntity
  8
AM_6
100
AcDbText
 10
9.059999999999999
 20
-5.7625
 30
0.0
 40
0.5
  1
6.68
100
AcDbAttributeDefinition
  3

  2
DMAX
 70
     8
280
     0
  0
ATTDEF
  5
14F
330
13C
100
AcDbEntity
  8
AM_6
100
AcDbText
 10
9.059999999999999
 20
-6.2625
 30
0.0
 40
0.5
  1
5/8
100
AcDbAttributeDefinition
  3

  2
F
 70
     8
280
     0
  0
ATTDEF
  5
150
330
13C
100
AcDbEntity
  8
AM_6
100
AcDbText
 10
9.059999999999999
 20
-6.7625
 30
0.0
 40
0.5
  1
1.02
100
AcDbAttributeDefinition
  3

  2
G
 70
     8
280
     0
  0
ATTDEF
  5
151
330
13C
100
AcDbEntity
  8
AM_6
100
AcDbText
 10
9.059999999999999
 20
-7.2625
 30
0.0
 40
0.5
  1
0.68
100
AcDbAttributeDefinition
  3

  2
H
 70
     8
280
     0
  0
ATTDEF
  5
152
330
13C
100
AcDbEntity
  8
AM_6
100
AcDbText
 10
9.059999999999999
 20
-7.7625
 30
0.0
 40
0.5
  1
4.47
100
AcDbAttributeDefinition
  3

  2
J
 70
     8
280
     0
  0
ATTDEF
  5
153
330
13C
100
AcDbEntity
  8
AM_6
100
AcDbText
 10
9.059999999999999
 20
-8.2625
 30
0.0
 40
0.5
  1
2.75
100
AcDbAttributeDefinition
  3

  2
L
 70
     8
280
     0
  0
ATTDEF
  5
154
330
13C
100
AcDbEntity
  8
AM_6
100
AcDbText
 10
9.059999999999999
 20
-8.7625
 30
0.0
 40
0.5
  1
2.19
100
AcDbAttributeDefinition
  3

  2
M
 70
     8
280
     0
  0
ATTDEF
  5
155
330
13C
100
AcDbEntity
  8
AM_6
100
AcDbText
 10
9.059999999999999
 20
-9.2625
 30
0.0
 40
0.5
  1
0.75
100
AcDbAttributeDefinition
  3

  2
R
 70
     8
280
     0
  0
ATTDEF
  5
156
330
13C
100
AcDbEntity
  8
AM_6
100
AcDbText
 10
9.059999999999999
 20
-9.7625
 30
0.0
 40
0.5
  1
1.50
100
AcDbAttributeDefinition
  3

  2
S
 70
     8
280
     0
  0
ATTDEF
  5
157
330
13C
100
AcDbEntity
  8
AM_6
100
AcDbText
 10
9.059999999999999
 20
-10.2625
 30
0.0
 40
0.5
  1
3.69
100
AcDbAttributeDefinition
  3

  2
U
 70
     8
280
     0
  0
ATTDEF
  5
158
330
13C
100
AcDbEntity
  8
AM_6
100
AcDbText
 10
9.059999999999999
 20
-10.7625
 30
0.0
 40
0.5
  1
3.69
100
AcDbAttributeDefinition
  3

  2
U1
 70
     8
280
     0
  0
ATTDEF
  5
159
330
13C
100
AcDbEntity
  8
AM_6
100
AcDbText
 10
9.059999999999999
 20
-11.2625
 30
0.0
 40
0.5
  1
7.38
100
AcDbAttributeDefinition
  3

  2
V
 70
     8
280
     0
  0
ATTDEF
  5
15A
330
13C
100
AcDbEntity
  8
AM_6
100
AcDbText
 10
9.059999999999999
 20
-11.7625
 30
0.0
 40
0.5
  1
7.38
100
AcDbAttributeDefinition
  3

  2
V1
 70
     8
280
     0
  0
ATTDEF
  5
15B
330
13C
100
AcDbEntity
  8
AM_6
100
AcDbText
 10
9.059999999999999
 20
-12.2625
 30
0.0
 40
0.5
  1
0.81
100
AcDbAttributeDefinition
  3

  2
W
 70
     8
280
     0
  0
ATTDEF
  5
15C
330
13C
100
AcDbEntity
  8
AM_6
100
AcDbText
 10
9.059999999999999
 20
-12.7625
 30
0.0
 40
0.5
  1
0.81
100
AcDbAttributeDefinition
  3

  2
W1
 70
     8
280
     0
  0
ATTDEF
  5
15D
330
13C
100
AcDbEntity
  8
AM_6
100
AcDbText
 10
9.059999999999999
 20
-13.2625
 30
0.0
 40
0.5
  1
0.12
100
AcDbAttributeDefinition
  3

  2
X
 70
     8
280
     0
  0
ATTDEF
  5
15E
330
13C
100
AcDbEntity
  8
AM_6
100
AcDbText
 10
9.059999999999999
 20
-13.7625
 30
0.0
 40
0.5
  1
0.12
100
AcDbAttributeDefinition
  3

  2
X1
 70
     8
280
     0
  0
ATTDEF
  5
15F
330
13C
100
AcDbEntity
  8
AM_6
100
AcDbText
 10
9.059999999999999
 20
-14.2625
 30
0.0
 40
0.5
  1
4450
100
AcDbAttributeDefinition
  3

  2
CAPS
 70
     8
280
     0
  0
ATTDEF
  5
160
330
13C
100
AcDbEntity
  8
AM_6
100
AcDbText
 10
9.059999999999999
 20
-14.7625
 30
0.0
 40
0.5
  1
7891
100
AcDbAttributeDefinition
  3

  2
CAPD
 70
     8
280
     0
  0
ATTDEF
  5
161
330
13C
100
AcDbEntity
  8
AM_6
100
AcDbText
 10
9.059999999999999
 20
-15.2625
 30
0.0
 40
0.5
  1
baldor
100
AcDbAttributeDefinition
  3

  2
COMPANY
 70
     8
280
     0
  0
LINE
  5
162
330
13C
100
AcDbEntity
  8
AM_9
100
AcDbLine
 10
-1.868525
 20
-0.9000000000000001
 30
0.0
 11
-1.868525
 21
-0.5625000000000001
 31
0.0
  0
LINE
  5
163
330
13C
100
AcDbEntity
  8
AM_9
100
AcDbLine
 10
-1.800525
 20
-0.9000000000000001
 30
0.0
 11
-1.800525
 21
-0.5625000000000001
 31
0.0
  0
LINE
  5
164
330
13C
100
AcDbEntity
  8
AM_9
100
AcDbLine
 10
1.800524999999999
 20
0.5624999999999998
 30
0.0
 11
1.800524999999999
 21
0.8999999999999997
 31
0.0
  0
LINE
  5
165
330
13C
100
AcDbEntity
  8
AM_9
100
AcDbLine
 10
-1.868525
 20
-0.3375
 30
0.0
 11
-1.868525
 21
0.9099999999999993
 31
0.0
  0
LINE
  5
166
330
13C
100
AcDbEntity
  8
AM_9
100
AcDbLine
 10
-1.800525
 20
0.5624999999999998
 30
0.0
 11
-1.800525
 21
0.8999999999999998
 31
0.0
  0
LINE
  5
167
330
13C
100
AcDbEntity
  8
AM_9
100
AcDbLine
 10
1.868525
 20
-0.9000000000000001
 30
0.0
 11
1.868525
 21
-0.5625000000000001
 31
0.0
  0
LINE
  5
168
330
13C
100
AcDbEntity
  8
AM_9
100
AcDbLine
 10
1.800524999999999
 20
-0.9000000000000001
 30
0.0
 11
1.800524999999999
 21
-0.5625000000000001
 31
0.0
  0
LINE
  5
169
330
13C
100
AcDbEntity
  8
AM_9
100
AcDbLine
 10
-2.545523698359427
 20
-0.5625000000000001
 30
0.0
 11
-2.545523698359427
 21
0.5624999999999999
 31
0.0
  0
LINE
  5
16A
330
13C
100
AcDbEntity
  8
AM_9
100
AcDbLine
 10
-3.544
 20
-0.5625000000000001
 30
0.0
 11
-3.544
 21
-0.2719999999999995
 31
0.0
  0
LINE
  5
16B
330
13C
100
AcDbEntity
  8
AM_9
100
AcDbLine
 10
-3.68
 20
-0.5625000000000001
 30
0.0
 11
-3.68
 21
0.5624999999999999
 31
0.0
  0
LINE
  5
16C
330
13C
100
AcDbEntity
  8
AM_9
100
AcDbLine
 10
-3.544
 20
0.2720000000000001
 30
0.0
 11
-3.544
 21
0.5624999999999999
 31
0.0
  0
LINE
  5
16D
330
13C
100
AcDbEntity
  8
AM_9
100
AcDbLine
 10
3.543999999999999
 20
-0.5625000000000001
 30
0.0
 11
3.543999999999999
 21
-0.2720000000000008
 31
0.0
  0
LINE
  5
16E
330
13C
100
AcDbEntity
  8
AM_9
100
AcDbLine
 10
3.68
 20
-0.5625000000000001
 30
0.0
 11
3.68
 21
0.5624999999999999
 31
0.0
  0
LINE
  5
16F
330
13C
100
AcDbEntity
  8
AM_9
100
AcDbLine
 10
3.543999999999999
 20
0.2720000000000005
 30
0.0
 11
3.543999999999999
 21
0.5624999999999999
 31
0.0
  0
LINE
  5
170
330
13C
100
AcDbEntity
  8
AM_9
100
AcDbLine
 10
2.545523698359427
 20
-0.5625000000000001
 30
0.0
 11
2.545523698359427
 21
0.5624999999999999
 31
0.0
  0
LINE
  5
171
330
13C
100
AcDbEntity
  8
AM_9
100
AcDbLine
 10
-2.369526747689714
 20
-0.5625000000000001
 30
0.0
 11
-2.369526747689714
 21
0.5624999999999999
 31
0.0
  0
LINE
  5
172
330
13C
100
AcDbEntity
  8
AM_9
100
AcDbLine
 10
2.369526747689713
 20
-0.5625000000000001
 30
0.0
 11
2.369526747689713
 21
0.5624999999999999
 31
0.0
  0
LINE
  5
173
330
13C
100
AcDbEntity
  8
AM_9
100
AcDbLine
 10
1.179029533416463
 20
-0.5625000000000001
 30
0.0
 11
1.179029533416463
 21
0.5624999999999999
 31
0.0
  0
LINE
  5
174
330
13C
100
AcDbEntity
  8
AM_9
100
AcDbLine
 10
-1.179029516516867
 20
-0.5625000000000001
 30
0.0
 11
-1.179029516516867
 21
0.5624999999999999
 31
0.0
  0
LINE
  5
175
330
13C
100
AcDbEntity
  8
AM_9
100
AcDbLine
 10
-1.457555575319278
 20
-0.5625000000000001
 30
0.0
 11
-1.457555575319278
 21
0.5624999999999999
 31
0.0
  0
LINE
  5
176
330
13C
100
AcDbEntity
  8
AM_9
100
AcDbLine
 10
1.457555575319278
 20
-0.5625000000000001
 30
0.0
 11
1.457555575319278
 21
0.5624999999999999
 31
0.0
  0
LINE
  5
177
330
13C
100
AcDbEntity
  8
AM_9
100
AcDbLine
 10
3.68
 20
0.5624999999999999
 30
0.0
 11
-3.68
 21
0.5624999999999999
 31
0.0
  0
LINE
  5
178
330
13C
100
AcDbEntity
  8
AM_9
100
AcDbLine
 10
3.68
 20
-0.5625000000000001
 30
0.0
 11
-3.68
 21
-0.5625000000000001
 31
0.0
  0
LINE
  5
179
330
13C
100
AcDbEntity
  8
AM_9
100
AcDbLine
 10
-1.483329754302798
 20
-0.3375
 30
0.0
 11
-1.868525
 21
-0.3375
 31
0.0
  0
LINE
  5
17A
330
13C
100
AcDbEntity
  8
AM_9
100
AcDbLine
 10
-1.597782561278286
 20
-0.3375
 30
0.0
 11
-1.597782561278286
 21
0.7571116424802112
 31
0.0
  0
LINE
  5
17B
330
13C
100
AcDbEntity
  8
AM_9
100
AcDbLine
 10
1.597782561278285
 20
-0.3375
 30
0.0
 11
1.597782561278285
 21
0.7571116424802111
 31
0.0
  0
LINE
  5
17C
330
13C
100
AcDbEntity
  8
AM_9
100
AcDbLine
 10
1.868525
 20
-0.3375
 30
0.0
 11
1.868525
 21
0.9099999999999983
 31
0.0
  0
LINE
  5
17D
330
13C
100
AcDbEntity
  8
AM_9
100
AcDbLine
 10
1.868525
 20
-0.3375
 30
0.0
 11
1.483329754302798
 21
-0.3375
 31
0.0
  0
LINE
  5
17E
330
13C
100
AcDbEntity
  8
AM_9
100
AcDbLine
 10
1.387241896806367
 20
-0.1806863231297343
 30
0.0
 11
1.607949809687102
 21
-0.1904355724194412
 31
0.0
  0
LINE
  5
17F
330
13C
100
AcDbEntity
  8
AM_9
100
AcDbLine
 10
1.607936304483597
 20
0.1904349758590646
 30
0.0
 11
1.387241896806367
 21
0.1806863231297345
 31
0.0
  0
LWPOLYLINE
  5
180
330
13C
100
AcDbEntity
  8
AM_9
100
AcDbPolyline
 90
       20
 70
     0
 43
0.0
 10
1.607994115811796
 20
0.1904375295121912
 10
1.595888672246281
 20
0.1891388119889065
 10
1.573426019407429
 20
0.1826201813683132
 10
1.551781699896265
 20
0.1710072791141979
 10
1.531599915016981
 20
0.1545345079296636
 10
1.513526418992026
 20
0.1337477524993658
 10
1.498119816678394
 20
0.1090707335374122
 10
1.485927012722231
 20
0.0813229016637697
 10
1.477403093149709
 20
0.0512084342364886
 10
1.472806143470219
 20
0.0196438686373218
 10
1.472355238252653
 20
-0.0124202848284901
 10
1.475990904200023
 20
-0.0441337076338666
 10
1.483635594828842
 20
-0.0745517788645908
 10
1.494969377220909
 20
-0.1028744340891993
 10
1.509688689595085
 20
-0.1283145864341607
 10
1.527240338474368
 20
-0.1501439751920478
 10
1.547114771966029
 20
-0.1677093396071978
 10
1.568629969756972
 20
-0.180538775214115
 10
1.59107278890263
 20
-0.1881777214616878
 10
1.608007162682363
 20
-0.190438104636203
  0
LWPOLYLINE
  5
181
330
13C
100
AcDbEntity
  8
AM_9
100
AcDbPolyline
 90
       16
 70
     0
 43
0.0
 10
1.608007162682363
 20
-0.190438104636203
 10
1.613815175327493
 20
-0.1905168648634585
 10
1.636106390557019
 20
-0.1874336950081875
 10
1.657429173623109
 20
-0.1791122781625528
 10
1.677199275469453
 20
-0.1657210545863997
 10
1.6949498572936
 20
-0.1477100177962377
 10
1.71027962593972
 20
-0.1254358239707666
 10
1.722803442419598
 20
-0.0996407681843552
 10
1.732225856139829
 20
-0.0709289571625698
 10
1.738349313335393
 20
-0.0402105199705895
 10
1.740998287587724
 20
-0.008377725270174
 10
1.740171769367703
 20
0.0236920295255834
 10
1.735853699957973
 20
0.0550239753683063
 10
1.728180928582078
 20
0.0848077109385166
 10
1.721450532873835
 20
0.1029197022943925
 10
1.713426842618168
 20
0.1198056057578867
  0
LINE
  5
182
330
13C
100
AcDbEntity
  8
AM_9
100
AcDbLine
 10
-1.483329754302798
 20
-0.3375
 30
0.0
 11
-1.483329754302798
 21
0.7571116424802108
 31
0.0
  0
LINE
  5
183
330
13C
100
AcDbEntity
  8
AM_9
100
AcDbLine
 10
1.483329754302798
 20
0.7571116424802108
 30
0.0
 11
1.483329754302798
 21
-0.3375
 31
0.0
  0
LINE
  5
184
330
13C
100
AcDbEntity
  8
AM_9
100
AcDbLine
 10
1.77165
 20
-0.8999999999999999
 30
0.0
 11
1.77165
 21
-0.3375
 31
0.0
  0
LINE
  5
185
330
13C
100
AcDbEntity
  8
AM_9
100
AcDbLine
 10
-1.77165
 20
-0.3375
 30
0.0
 11
-1.77165
 21
-0.8999999999999999
 31
0.0
  0
LINE
  5
186
330
13C
100
AcDbEntity
  8
AM_9
100
AcDbLine
 10
1.374052932677185
 20
-0.9000000000000001
 30
0.0
 11
-1.374052932677185
 21
-0.9000000000000001
 31
0.0
  0
LWPOLYLINE
  5
187
330
13C
100
AcDbEntity
  8
AM_9
100
AcDbPolyline
 90
        7
 70
     0
 43
0.0
 10
1.713426842618168
 20
0.1198056057578867
 10
1.698678254783729
 20
0.1429552944957883
 10
1.681379536330539
 20
0.1620827091216104
 10
1.661903790141398
 20
0.1765846049728651
 10
1.640769730494364
 20
0.1861072638510479
 10
1.618574522037278
 20
0.1902963914832568
 10
1.607994115811796
 20
0.1904375295121912
  0
ELLIPSE
  5
188
330
13C
100
AcDbEntity
  8
AM_9
100
AcDbEllipse
 10
1.391232591984509
 20
0.0000000000000224
 30
0.0
 11
1.106924205118069E-17
 21
0.1807744413962871
 31
0.0
210
0.0
220
0.0
230
1.0
 40
0.7071067811867375
 41
0.0
 42
6.283185307179586
  0
LINE
  5
189
330
13C
100
AcDbEntity
  8
AM_7
100
AcDbLine
 10
3.626999999999999
 20
-0.8100000000000003
 30
0.0
 11
3.753
 21
-0.8100000000000003
 31
0.0
  0
LINE
  5
18A
330
13C
100
AcDbEntity
  8
AM_7
100
AcDbLine
 10
3.69
 20
-0.8730000000000002
 30
0.0
 11
3.69
 21
-0.7470000000000003
 31
0.0
  0
LINE
  5
18B
330
13C
100
AcDbEntity
  8
AM_7
100
AcDbLine
 10
-3.753
 20
-0.8100000000000003
 30
0.0
 11
-3.626999999999999
 21
-0.8100000000000003
 31
0.0
  0
LINE
  5
18C
330
13C
100
AcDbEntity
  8
AM_7
100
AcDbLine
 10
-3.69
 20
-0.8730000000000002
 30
0.0
 11
-3.69
 21
-0.7470000000000003
 31
0.0
  0
LINE
  5
18D
330
13C
100
AcDbEntity
  8
AM_7
100
AcDbLine
 10
0.0
 20
1.2375
 30
0.0
 11
0.0
 21
-1.6125
 31
0.0
  0
LINE
  5
18E
330
13C
100
AcDbEntity
  8
AM_7
100
AcDbLine
 10
2.643
 20
-0.0000000000000001
 30
0.0
 11
3.697
 21
-0.0000000000000001
 31
0.0
  0
LINE
  5
18F
330
13C
100
AcDbEntity
  8
AM_7
100
AcDbLine
 10
3.0
 20
-0.357
 30
0.0
 11
3.0
 21
0.3569999999999998
 31
0.0
  0
LINE
  5
190
330
13C
100
AcDbEntity
  8
AM_7
100
AcDbLine
 10
-3.697
 20
0.0000000000000004
 30
0.0
 11
-2.643
 21
0.0000000000000003
 31
0.0
  0
LINE
  5
191
330
13C
100
AcDbEntity
  8
AM_7
100
AcDbLine
 10
-3.34
 20
-0.3569999999999995
 30
0.0
 11
-3.34
 21
0.3570000000000002
 31
0.0
  0
LINE
  5
192
330
13C
100
AcDbEntity
  8
AM_7
100
AcDbLine
 10
3.34
 20
-0.357
 30
0.0
 11
3.34
 21
0.3569999999999998
 31
0.0
  0
LINE
  5
193
330
13C
100
AcDbEntity
  8
AM_7
100
AcDbLine
 10
-3.0
 20
-0.3569999999999995
 30
0.0
 11
-3.0
 21
0.3570000000000002
 31
0.0
  0
LINE
  5
194
330
13C
100
AcDbEntity
  8
AM_4
100
AcDbLine
 10
-4.06
 20
-1.125
 30
0.0
 11
-4.06
 21
1.125
 31
0.0
  0
LINE
  5
195
330
13C
100
AcDbEntity
  8
AM_4
100
AcDbLine
 10
3.923999999999999
 20
-1.125
 30
0.0
 11
3.923999999999999
 21
-0.8277606315226611
 31
0.0
  0
LINE
  5
196
330
13C
100
AcDbEntity
  8
AM_4
100
AcDbLine
 10
4.06
 20
-1.125
 30
0.0
 11
4.06
 21
1.125
 31
0.0
  0
LINE
  5
197
330
13C
100
AcDbEntity
  8
AM_4
100
AcDbLine
 10
3.923999999999999
 20
0.8277606315226607
 30
0.0
 11
3.923999999999999
 21
1.125
 31
0.0
  0
LINE
  5
198
330
13C
100
AcDbEntity
  8
AM_4
100
AcDbLine
 10
-3.923999999999999
 20
-1.125
 30
0.0
 11
-3.923999999999999
 21
-0.8277606315226607
 31
0.0
  0
LINE
  5
199
330
13C
100
AcDbEntity
  8
AM_4
100
AcDbLine
 10
-3.923999999999999
 20
0.8277606315226598
 30
0.0
 11
-3.923999999999999
 21
1.125
 31
0.0
  0
LINE
  5
19A
330
13C
100
AcDbEntity
  8
AM_4
100
AcDbLine
 10
-3.170683387528372
 20
-1.125
 30
0.0
 11
-3.170683387528372
 21
-0.9300000000000002
 31
0.0
  0
LINE
  5
19B
330
13C
100
AcDbEntity
  8
AM_4
100
AcDbLine
 10
-3.170683387528372
 20
0.9299999999999999
 30
0.0
 11
-3.170683387528372
 21
1.125
 31
0.0
  0
LINE
  5
19C
330
13C
100
AcDbEntity
  8
AM_4
100
AcDbLine
 10
3.17068338752837
 20
-1.125
 30
0.0
 11
3.17068338752837
 21
-0.9300000000000002
 31
0.0
  0
LINE
  5
19D
330
13C
100
AcDbEntity
  8
AM_4
100
AcDbLine
 10
3.17068338752837
 20
0.9299999999999999
 30
0.0
 11
3.17068338752837
 21
1.125
 31
0.0
  0
CIRCLE
  5
19E
330
13C
100
AcDbEntity
  8
AM_4
100
AcDbCircle
 10
3.69
 20
-0.8100000000000003
 30
0.0
 40
0.06
  0
ARC
  5
19F
330
13C
100
AcDbEntity
  8
AM_4
100
AcDbCircle
 10
3.0
 20
-0.0000000000000001
 30
0.0
 40
0.3400000000000001
100
AcDbArc
 50
90.0
 51
270.0
  0
LINE
  5
1A0
330
13C
100
AcDbEntity
  8
AM_4
100
AcDbLine
 10
3.0
 20
0.34
 30
0.0
 11
3.339999999999999
 21
0.34
 31
0.0
  0
ARC
  5
1A1
330
13C
100
AcDbEntity
  8
AM_4
100
AcDbCircle
 10
3.34
 20
0.0
 30
0.0
 40
0.3400000000000002
100
AcDbArc
 50
270.0
 51
90.0
  0
LINE
  5
1A2
330
13C
100
AcDbEntity
  8
AM_4
100
AcDbLine
 10
3.339999999999999
 20
-0.3400000000000001
 30
0.0
 11
3.0
 21
-0.3400000000000001
 31
0.0
  0
ARC
  5
1A3
330
13C
100
AcDbEntity
  8
AM_4
100
AcDbCircle
 10
3.655
 20
0.5250000000000002
 30
0.0
 40
0.4049999999999998
100
AcDbArc
 50
0.0
 51
90.0
  0
LINE
  5
1A4
330
13C
100
AcDbEntity
  8
AM_4
100
AcDbLine
 10
3.655000000000001
 20
0.9299999999999998
 30
0.0
 11
3.0
 21
0.93
 31
0.0
  0
LINE
  5
1A5
330
13C
100
AcDbEntity
  8
AM_4
100
AcDbLine
 10
3.0
 20
-0.9300000000000003
 30
0.0
 11
3.654999999999999
 21
-0.9300000000000002
 31
0.0
  0
ARC
  5
1A6
330
13C
100
AcDbEntity
  8
AM_4
100
AcDbCircle
 10
3.655000000000001
 20
-0.5250000000000017
 30
0.0
 40
0.4049999999999985
100
AcDbArc
 50
270.0
 51
0.0
  0
CIRCLE
  5
1A7
330
13C
100
AcDbEntity
  8
AM_4
100
AcDbCircle
 10
-3.69
 20
-0.8100000000000003
 30
0.0
 40
0.06
  0
ARC
  5
1A8
330
13C
100
AcDbEntity
  8
AM_4
100
AcDbCircle
 10
-3.34
 20
0.0000000000000002
 30
0.0
 40
0.3400000000000002
100
AcDbArc
 50
90.0
 51
270.0
  0
LINE
  5
1A9
330
13C
100
AcDbEntity
  8
AM_4
100
AcDbLine
 10
-3.339999999999999
 20
0.3400000000000004
 30
0.0
 11
-3.0
 21
0.3400000000000004
 31
0.0
  0
ARC
  5
1AA
330
13C
100
AcDbEntity
  8
AM_4
100
AcDbCircle
 10
-3.0
 20
0.0000000000000004
 30
0.0
 40
0.3400000000000002
100
AcDbArc
 50
270.0
 51
90.0
  0
LINE
  5
1AB
330
13C
100
AcDbEntity
  8
AM_4
100
AcDbLine
 10
-3.0
 20
-0.3399999999999998
 30
0.0
 11
-3.339999999999999
 21
-0.3399999999999997
 31
0.0
  0
ARC
  5
1AC
330
13C
100
AcDbEntity
  8
AM_4
100
AcDbCircle
 10
-3.655
 20
-0.5250000000000004
 30
0.0
 40
0.4049999999999998
100
AcDbArc
 50
180.0
 51
270.0
  0
LINE
  5
1AD
330
13C
100
AcDbEntity
  8
AM_4
100
AcDbLine
 10
-3.655
 20
-0.9300000000000003
 30
0.0
 11
-3.0
 21
-0.9299999999999999
 31
0.0
  0
LINE
  5
1AE
330
13C
100
AcDbEntity
  8
AM_4
100
AcDbLine
 10
-3.000000000000001
 20
0.9299999999999999
 30
0.0
 11
-3.654999999999999
 21
0.9299999999999999
 31
0.0
  0
ARC
  5
1AF
330
13C
100
AcDbEntity
  8
AM_4
100
AcDbCircle
 10
-3.654999999999998
 20
0.5249999999999989
 30
0.0
 40
0.405000000000001
100
AcDbArc
 50
90.0
 51
179.9999991462263
  0
LWPOLYLINE
  5
1B0
330
13C
100
AcDbEntity
  8
AM_4
100
AcDbPolyline
 90
       15
 70
     0
 43
0.0
 10
-2.135222607301975
 20
0.3421404113495032
 10
-2.168332848039779
 20
0.4162087797612834
 10
-2.207772577978357
 20
0.487109548045348
 10
-2.253241636958516
 20
0.5543031185440006
 10
-2.304393977986448
 20
0.6172781076131596
 10
-2.360840300860303
 20
0.6755552375606705
 10
-2.42215101497979
 20
0.7286909842389394
 10
-2.487859508790037
 20
0.7762809525315039
 10
-2.557465700977275
 20
0.817962954044049
 10
-2.630439846389592
 20
0.8534197635767835
 10
-2.706226567717405
 20
0.8823815333997564
 10
-2.784249082250138
 20
0.9046278469570201
 10
-2.863913591540913
 20
0.9199893963697126
 10
-2.944613800571282
 20
0.9283492709712458
 10
-3.0
 20
0.9300000000000007
  0
LINE
  5
1B1
330
13C
100
AcDbEntity
  8
AM_4
100
AcDbLine
 10
-3.043319232005095
 20
0.9299999999999999
 30
0.0
 11
-3.043319232005095
 21
1.125
 31
0.0
  0
LWPOLYLINE
  5
1B2
330
13C
100
AcDbEntity
  8
AM_4
100
AcDbPolyline
 90
       15
 70
     0
 43
0.0
 10
-3.000000000000001
 20
-0.9299999999999999
 10
-2.918945159244679
 20
-0.9264610692253233
 10
-2.838507194769756
 20
-0.9158712103013534
 10
-2.759298288054656
 20
-0.8983110184488335
 10
-2.681921266707129
 20
-0.873914137330895
 10
-2.60696501658115
 20
-0.8428662419440848
 10
-2.535000000000001
 20
-0.8054036255195283
 10
-2.466573914193528
 20
-0.761811401188763
 10
-2.402207522991519
 20
-0.7124213321006503
 10
-2.342390693496511
 20
-0.6576093065034901
 10
-2.287578667899351
 20
-0.5977924770084826
 10
-2.238188598811238
 20
-0.5334260858064741
 10
-2.194596374480472
 20
-0.4650000000000013
 10
-2.157133758055916
 20
-0.393034983418852
 10
-2.135222607301975
 20
-0.3421404113495021
  0
LINE
  5
1B3
330
13C
100
AcDbEntity
  8
AM_4
100
AcDbLine
 10
-3.043319232005095
 20
-1.125
 30
0.0
 11
-3.043319232005095
 21
-0.9300000000000002
 31
0.0
  0
LWPOLYLINE
  5
1B4
330
13C
100
AcDbEntity
  8
AM_4
100
AcDbPolyline
 90
       15
 70
     0
 43
0.0
 10
2.135222607301975
 20
-0.3421404113495017
 10
2.168332848039779
 20
-0.4162087797612821
 10
2.207772577978357
 20
-0.4871095480453466
 10
2.253241636958515
 20
-0.5543031185439994
 10
2.304393977986448
 20
-0.6172781076131584
 10
2.360840300860302
 20
-0.6755552375606694
 10
2.422151014979789
 20
-0.7286909842389383
 10
2.487859508790036
 20
-0.776280952531503
 10
2.557465700977274
 20
-0.8179629540440482
 10
2.630439846389591
 20
-0.8534197635767827
 10
2.706226567717405
 20
-0.8823815333997558
 10
2.784249082250137
 20
-0.9046278469570195
 10
2.863913591540912
 20
-0.9199893963697121
 10
2.944613800571281
 20
-0.9283492709712456
 10
3.0
 20
-0.9300000000000006
  0
LINE
  5
1B5
330
13C
100
AcDbEntity
  8
AM_4
100
AcDbLine
 10
3.043319232005094
 20
-1.125
 30
0.0
 11
3.043319232005094
 21
-0.9300000000000002
 31
0.0
  0
LWPOLYLINE
  5
1B6
330
13C
100
AcDbEntity
  8
AM_4
100
AcDbPolyline
 90
       15
 70
     0
 43
0.0
 10
3.0
 20
0.9300000000000003
 10
2.918945159244678
 20
0.9264610692253237
 10
2.838507194769755
 20
0.9158712103013539
 10
2.759298288054656
 20
0.898311018448834
 10
2.681921266707128
 20
0.8739141373308954
 10
2.60696501658115
 20
0.8428662419440852
 10
2.535000000000001
 20
0.8054036255195287
 10
2.466573914193528
 20
0.7618114011887632
 10
2.402207522991519
 20
0.7124213321006507
 10
2.342390693496511
 20
0.6576093065034905
 10
2.287578667899351
 20
0.5977924770084829
 10
2.238188598811238
 20
0.5334260858064743
 10
2.194596374480472
 20
0.4650000000000017
 10
2.157133758055916
 20
0.3930349834188522
 10
2.135222607301975
 20
0.342140411349502
  0
LINE
  5
1B7
330
13C
100
AcDbEntity
  8
AM_4
100
AcDbLine
 10
3.043319232005094
 20
0.9299999999999999
 30
0.0
 11
3.043319232005094
 21
1.125
 31
0.0
  0
LINE
  5
1B8
330
13C
100
AcDbEntity
  8
AM_4
100
AcDbLine
 10
1.858525
 20
0.9000000000000001
 30
0.0
 11
-1.858525
 21
0.8999999999999999
 31
0.0
  0
LWPOLYLINE
  5
1B9
330
13C
100
AcDbEntity
  8
AM_4
100
AcDbPolyline
 90
        4
 70
     0
 43
0.0
 10
-1.868069220475913
 20
0.907015396926362
 10
-1.866189893882498
 20
0.9035774302829753
 10
-1.860484930155534
 20
0.9001939470843039
 10
-1.858525
 20
0.8999999999999999
  0
LINE
  5
1BA
330
13C
100
AcDbEntity
  8
AM_4
100
AcDbLine
 10
-1.597782561278287
 20
0.7571116424802115
 30
0.0
 11
-1.597782561278287
 21
0.9000000000000001
 31
0.0
  0
LWPOLYLINE
  5
1BB
330
13C
100
AcDbEntity
  8
AM_4
100
AcDbPolyline
 90
        8
 70
     0
 43
0.0
 10
-1.868525000000001
 20
0.9008905013192613
 10
-1.86141469825188
 20
0.8767204129624324
 10
-1.840137906697137
 20
0.8527342735722973
 10
-1.804856554566782
 20
0.8291146321528419
 10
-1.75583915425399
 20
0.8060412484371977
 10
-1.693458757772657
 20
0.7836897248075306
 10
-1.61819011760632
 20
0.7622301698548817
 10
-1.597782561278286
 20
0.7571116424802112
  0
LINE
  5
1BC
330
13C
100
AcDbEntity
  8
AM_4
100
AcDbLine
 10
1.597782561278286
 20
0.7571116424802109
 30
0.0
 11
1.597782561278286
 21
0.9000000000000001
 31
0.0
  0
LWPOLYLINE
  5
1BD
330
13C
100
AcDbEntity
  8
AM_4
100
AcDbPolyline
 90
        3
 70
     0
 43
0.0
 10
1.866155406037751
 20
0.903536494472884
 10
1.866189893882499
 20
0.903577430282976
 10
1.868069220475914
 20
0.9070153969263655
  0
LWPOLYLINE
  5
1BE
330
13C
100
AcDbEntity
  8
AM_4
100
AcDbPolyline
 90
        3
 70
     0
 43
0.0
 10
1.858525
 20
0.9000000000000001
 10
1.860484930155534
 20
0.9001939470843041
 10
1.866155406037751
 20
0.903536494472884
  0
LINE
  5
1BF
330
13C
100
AcDbEntity
  8
AM_4
100
AcDbLine
 10
1.868525000000001
 20
0.9008905013192613
 30
0.0
 11
1.868069220475914
 21
0.9070153969263616
 31
0.0
  0
LINE
  5
1C0
330
13C
100
AcDbEntity
  8
AM_4
100
AcDbLine
 10
1.483329754302798
 20
0.7571116424802111
 30
0.0
 11
1.483329754302798
 21
0.8999999999999998
 31
0.0
  0
LINE
  5
1C1
330
13C
100
AcDbEntity
  8
AM_4
100
AcDbLine
 10
-1.483329754302798
 20
0.8999999999999998
 30
0.0
 11
-1.483329754302798
 21
0.7571116424802111
 31
0.0
  0
LINE
  5
1C2
330
13C
100
AcDbEntity
  8
AM_4
100
AcDbLine
 10
-1.374052932677185
 20
-0.9000000000000001
 30
0.0
 11
-1.868524999999996
 21
-0.8999999999999998
 31
0.0
  0
LINE
  5
1C3
330
13C
100
AcDbEntity
  8
AM_4
100
AcDbLine
 10
1.868524999999996
 20
-0.8999999999999999
 30
0.0
 11
1.374052932677185
 21
-0.9000000000000001
 31
0.0
  0
LINE
  5
1C4
330
13C
100
AcDbEntity
  8
AM_4
100
AcDbLine
 10
-1.597782561278286
 20
0.7571116424802112
 30
0.0
 11
-1.483329754302798
 21
0.7571116424802108
 31
0.0
  0
LINE
  5
1C5
330
13C
100
AcDbEntity
  8
AM_4
100
AcDbLine
 10
-1.868069220475914
 20
0.9070153969263622
 30
0.0
 11
-1.868525000000001
 21
0.9008905013192613
 31
0.0
  0
LWPOLYLINE
  5
1C6
330
13C
100
AcDbEntity
  8
AM_4
100
AcDbPolyline
 90
        5
 70
     0
 43
0.0
 10
-1.868525
 20
0.9099999999999996
 10
-1.868486946980918
 20
0.9091284425725231
 10
-1.868373077530122
 20
0.9082635182233304
 10
-1.86818425826289
 20
0.9074118095489745
 10
-1.868069220475913
 20
0.907015396926362
  0
LINE
  5
1C7
330
13C
100
AcDbEntity
  8
AM_4
100
AcDbLine
 10
-1.868525
 20
0.9099999999999996
 30
0.0
 11
-1.868525
 21
1.125
 31
0.0
  0
LINE
  5
1C8
330
13C
100
AcDbEntity
  8
AM_4
100
AcDbLine
 10
-4.06
 20
1.125
 30
0.0
 11
-1.868525
 21
1.125
 31
0.0
  0
LINE
  5
1C9
330
13C
100
AcDbEntity
  8
AM_4
100
AcDbLine
 10
-2.135222607301975
 20
0.7822289573778883
 30
0.0
 11
-3.000000000000002
 21
1.125
 31
0.0
  0
LINE
  5
1CA
330
13C
100
AcDbEntity
  8
AM_4
100
AcDbLine
 10
3.000000000000001
 20
1.125
 30
0.0
 11
2.135222607301975
 21
0.7822289573778882
 31
0.0
  0
LINE
  5
1CB
330
13C
100
AcDbEntity
  8
AM_4
100
AcDbLine
 10
1.868525
 20
1.125
 30
0.0
 11
4.06
 21
1.125
 31
0.0
  0
LINE
  5
1CC
330
13C
100
AcDbEntity
  8
AM_4
100
AcDbLine
 10
1.868525
 20
1.125
 30
0.0
 11
1.868525
 21
0.909999999999997
 31
0.0
  0
LWPOLYLINE
  5
1CD
330
13C
100
AcDbEntity
  8
AM_4
100
AcDbPolyline
 90
        5
 70
     0
 43
0.0
 10
1.868069220475912
 20
0.9070153969263615
 10
1.868293027133213
 20
0.9078585878666586
 10
1.868442493205933
 20
0.9087180762463104
 10
1.86851648116701
 20
0.9095873208397744
 10
1.868525
 20
0.9099999999999941
  0
LWPOLYLINE
  5
1CE
330
13C
100
AcDbEntity
  8
AM_4
100
AcDbPolyline
 90
        8
 70
     0
 43
0.0
 10
1.597782561278286
 20
0.7571116424802111
 10
1.676134642035672
 20
0.7783266953975886
 10
1.741730326089398
 20
0.8004745328840794
 10
1.794070390676059
 20
0.8233865965231815
 10
1.832756496300356
 20
0.8468885116759189
 10
1.857494218339177
 20
0.8708014145771351
 10
1.868095287790763
 20
0.8949433135967462
 10
1.868525000000001
 20
0.9008905013192613
  0
LINE
  5
1CF
330
13C
100
AcDbEntity
  8
AM_4
100
AcDbLine
 10
1.483329754302798
 20
0.7571116424802108
 30
0.0
 11
1.597782561278285
 21
0.7571116424802111
 31
0.0
  0
LWPOLYLINE
  5
1D0
330
13C
100
AcDbEntity
  8
AM_4
100
AcDbPolyline
 90
       24
 70
     0
 43
0.0
 10
-1.483329754302798
 20
0.7571116424802111
 10
-1.393253110971386
 20
0.738471324500807
 10
-1.292572970196251
 20
0.7210671145283718
 10
-1.182055568641025
 20
0.7050314691097448
 10
-1.062542010463774
 20
0.6904864291891494
 10
-0.9349418660064852
 20
0.6775426913029163
 10
-0.8002262494155543
 20
0.6662987651120026
 10
-0.6594204278767507
 20
0.6568402236839893
 10
-0.5135960187128643
 20
0.649239052230367
 10
-0.363862833728818
 20
0.6435531002556109
 10
-0.2113604328737094
 20
0.63982564128752
 10
-0.0572494515015132
 20
0.6380850435395432
 10
0.0972972327647735
 20
0.6383445540115439
 10
0.2511034263400448
 20
0.6406021976721338
 10
0.4029985712204741
 20
0.6448407924898532
 10
0.5518266536367253
 20
0.6510280801988056
 10
0.6964550020167574
 20
0.6591169718035396
 10
0.835782907300414
 20
0.6690459059547367
 10
0.9687499999999973
 20
0.680739317468252
 10
1.094344320252338
 20
0.6941082124217928
 10
1.211610019444391
 20
0.709050845452403
 10
1.319654634798339
 20
0.7254534941001114
 10
1.417655881552218
 20
0.7431913243045188
 10
1.483329754302798
 20
0.7571116424802109
  0
LINE
  5
1D1
330
13C
100
AcDbEntity
  8
AM_4
100
AcDbLine
 10
1.868524999999996
 20
-0.8999999999999999
 30
0.0
 11
1.868524999999996
 21
-1.125
 31
0.0
  0
LINE
  5
1D2
330
13C
100
AcDbEntity
  8
AM_4
100
AcDbLine
 10
1.868524999999996
 20
-1.125
 30
0.0
 11
4.06
 21
-1.125
 31
0.0
  0
LINE
  5
1D3
330
13C
100
AcDbEntity
  8
AM_4
100
AcDbLine
 10
2.135222607301975
 20
-0.7822289573778882
 30
0.0
 11
3.000000000000001
 21
-1.125
 31
0.0
  0
LINE
  5
1D4
330
13C
100
AcDbEntity
  8
AM_4
100
AcDbLine
 10
-3.000000000000001
 20
-1.125
 30
0.0
 11
-2.135222607301975
 21
-0.7822289573778884
 31
0.0
  0
LINE
  5
1D5
330
13C
100
AcDbEntity
  8
AM_4
100
AcDbLine
 10
-4.06
 20
-1.125
 30
0.0
 11
-1.868524999999996
 21
-1.125
 31
0.0
  0
LINE
  5
1D6
330
13C
100
AcDbEntity
  8
AM_4
100
AcDbLine
 10
-1.868524999999996
 20
-1.125
 30
0.0
 11
-1.868524999999996
 21
-0.8999999999999998
 31
0.0
  0
LWPOLYLINE
  5
1D7
330
13C
100
AcDbEntity
  8
AM_4
100
AcDbPolyline
 90
       37
 70
     0
 43
0.0
 10
1.771639839950547
 20
-0.9000000000000001
 10
1.764375281030358
 20
-0.8770865470170344
 10
1.743682760862605
 20
-0.8543542564995291
 10
1.70971976202025
 20
-0.8319761349044549
 10
1.662744763431904
 20
-0.8101224932494295
 10
1.603115273201102
 20
-0.7889596509430374
 10
1.531285107753772
 20
-0.7686486699937036
 10
1.447800938021208
 20
-0.7493441292305583
 10
1.353298128944195
 20
-0.7311929478652092
 10
1.248495903962164
 20
-0.7143332673478299
 10
1.134191871288544
 20
-0.6988934000273107
 10
1.011255953630641
 20
-0.6849908526168079
 10
0.8806237675525699
 20
-0.6727314318967029
 10
0.7432895028682545
 20
-0.6622084394611163
 10
0.600298356256639
 20
-0.6535019616364397
 10
0.4527385766838526
 20
-0.6466782599760337
 10
0.3017331831714753
 20
-0.6417892669697975
 10
0.1484314179436859
 20
-0.6388721908065638
 10
-0.0059999999999957
 20
-0.6379492321973131
 10
-0.1603857543207782
 20
-0.6390274154143596
 10
-0.3135508762076134
 20
-0.6420985348323968
 10
-0.4643296865993132
 20
-0.6471392173782607
 10
-0.6115746677060618
 20
-0.6541111004141301
 10
-0.7541651963126864
 20
-0.6629611237003639
 10
-0.8910160723979756
 20
-0.6736219332159634
 10
-1.021085778162102
 20
-0.6860123937633427
 10
-1.143384404605965
 20
-0.7000382064561712
 10
-1.256981185336397
 20
-0.7155926263908392
 10
-1.361011580260428
 20
-0.7325572750396286
 10
-1.454683855257416
 20
-0.7508030411827868
 10
-1.537285107753768
 20
-0.77019106352287
 10
-1.608186692341987
 20
-0.790573787503062
 10
-1.666849005151809
 20
-0.8117960882864481
 10
-1.712825590561478
 20
-0.8336964513496915
 10
-1.745766538994607
 20
-0.85610820170608
 10
-1.765421149943329
 20
-0.8788607724028165
 10
-1.771639839950547
 20
-0.8999999999999999
  0
LINE
  5
1D8
330
13C
100
AcDbEntity
  8
AM_4
100
AcDbLine
 10
-2.135222607301975
 20
-0.7822289573778884
 30
0.0
 11
-2.135222607301976
 21
-0.3421404113495035
 31
0.0
  0
LWPOLYLINE
  5
1D9
330
13C
100
AcDbEntity
  8
AM_4
100
AcDbPolyline
 90
       29
 70
     0
 43
0.0
 10
-2.135222607301976
 20
-0.7822289573778883
 10
-2.057415107054723
 20
-0.7550605760628583
 10
-1.963949435541578
 20
-0.729002048533546
 10
-1.855536922958869
 20
-0.7042516959190182
 10
-1.733002653988615
 20
-0.6809978833473436
 10
-1.597279188405896
 20
-0.6594175863732279
 10
-1.449399463735864
 20
-0.639675044087184
 10
-1.29048893397548
 20
-0.6219205091568819
 10
-1.121757004209018
 20
-0.6062891043136223
 10
-0.9444878263051275
 20
-0.5928997939867624
 10
-0.7600305257457128
 20
-0.5818544789125766
 10
-0.569788933966395
 20
-0.573237220608123
 10
-0.3752109043516276
 20
-0.5671136016123413
 10
-0.1777772931962062
 20
-0.5635302263633315
 10
0.021009310505303
 20
-0.5625143665104398
 10
0.2196360206680982
 20
-0.5640737533605398
 10
0.416591168093754
 20
-0.5681965190381183
 10
0.6103758051855916
 20
-0.5748512868069754
 10
0.799515113844979
 20
-0.5839874098661312
 10
0.9825696297275813
 20
-0.5955353568025638
 10
1.158146197436193
 20
-0.6094072407672456
 10
1.324908573274521
 20
-0.6254974883471331
 10
1.481587594868562
 20
-0.6436836430425863
 10
1.626990840258603
 20
-0.6638272972352722
 10
1.760011702950347
 20
-0.6857751455537134
 10
1.879637813858517
 20
-0.7093601516197336
 10
1.98495874604688
 20
-0.7344028192961544
 10
2.075172943626967
 20
-0.7607125587607818
 10
2.135222607301975
 20
-0.7822289573778882
  0
LINE
  5
1DA
330
13C
100
AcDbEntity
  8
AM_4
100
AcDbLine
 10
2.135222607301975
 20
-0.7822289573778882
 30
0.0
 11
2.135222607301975
 21
-0.3421404113495025
 31
0.0
  0
LWPOLYLINE
  5
1DB
330
13C
100
AcDbEntity
  8
AM_4
100
AcDbPolyline
 90
       22
 70
     0
 43
0.0
 10
2.135222607301975
 20
0.3421404113495026
 10
2.124111044527278
 20
0.3125991573287566
 10
2.113435786489267
 20
0.2808983718751237
 10
2.103171608406863
 20
0.2461634421651442
 10
2.093843698247561
 20
0.2092385165172613
 10
2.087233498027477
 20
0.1781996259137893
 10
2.081525966399261
 20
0.1459638640252763
 10
2.076740149926064
 20
0.1117469192464395
 10
2.073163715378499
 20
0.0766452967181592
 10
2.070943407127392
 20
0.0418260925879321
 10
2.070023934116535
 20
0.006672097414969
 10
2.070478382287503
 20
-0.0297389727956019
 10
2.07233737852403
 20
-0.0658943147497074
 10
2.075160571243762
 20
-0.0978226885175339
 10
2.079005320467375
 20
-0.1291077080293739
 10
2.083927007618942
 20
-0.1603376891262983
 10
2.089731999177742
 20
-0.1905575154095226
 10
2.096625756183666
 20
-0.2209380038684128
 10
2.104227767485711
 20
-0.2499842144143669
 10
2.112574089873708
 20
-0.2781630862623722
 10
2.121384303279329
 20
-0.3048515334979479
 10
2.135222607301975
 20
-0.3421404113495023
  0
LINE
  5
1DC
330
13C
100
AcDbEntity
  8
AM_4
100
AcDbLine
 10
2.135222607301975
 20
0.3421404113495018
 30
0.0
 11
2.135222607301975
 21
0.7822289573778882
 31
0.0
  0
LWPOLYLINE
  5
1DD
330
13C
100
AcDbEntity
  8
AM_4
100
AcDbPolyline
 90
       29
 70
     0
 43
0.0
 10
2.135222607301976
 20
0.782228957377888
 10
2.057415107054723
 20
0.7550605760628581
 10
1.963949435541577
 20
0.7290020485335457
 10
1.855536922958868
 20
0.704251695919018
 10
1.733002653988614
 20
0.6809978833473433
 10
1.597279188405896
 20
0.6594175863732278
 10
1.449399463735864
 20
0.639675044087184
 10
1.290488933975479
 20
0.6219205091568818
 10
1.121757004209017
 20
0.6062891043136223
 10
0.944487826305127
 20
0.5928997939867624
 10
0.7600305257457123
 20
0.5818544789125767
 10
0.5697889339663944
 20
0.5732372206081231
 10
0.3752109043516271
 20
0.5671136016123413
 10
0.1777772931962057
 20
0.5635302263633316
 10
-0.0210093105053035
 20
0.5625143665104398
 10
-0.2196360206680988
 20
0.5640737533605398
 10
-0.4165911680937546
 20
0.5681965190381184
 10
-0.6103758051855922
 20
0.5748512868069755
 10
-0.7995151138449795
 20
0.5839874098661313
 10
-0.9825696297275819
 20
0.5955353568025639
 10
-1.158146197436194
 20
0.6094072407672457
 10
-1.324908573274522
 20
0.6254974883471331
 10
-1.481587594868562
 20
0.6436836430425864
 10
-1.626990840258603
 20
0.663827297235272
 10
-1.760011702950347
 20
0.6857751455537133
 10
-1.879637813858517
 20
0.7093601516197336
 10
-1.984958746046881
 20
0.7344028192961543
 10
-2.075172943626967
 20
0.7607125587607817
 10
-2.135222607301976
 20
0.7822289573778879
  0
LINE
  5
1DE
330
13C
100
AcDbEntity
  8
AM_4
100
AcDbLine
 10
-2.135222607301976
 20
0.342140411349503
 30
0.0
 11
-2.135222607301975
 21
0.7822289573778883
 31
0.0
  0
LWPOLYLINE
  5
1DF
330
13C
100
AcDbEntity
  8
AM_4
100
AcDbPolyline
 90
       22
 70
     0
 43
0.0
 10
-2.135222607301976
 20
-0.3421404113495035
 10
-2.124111044527278
 20
-0.3125991573287574
 10
-2.113435786489267
 20
-0.2808983718751243
 10
-2.103171608406864
 20
-0.246163442165145
 10
-2.093843698247562
 20
-0.2092385165172624
 10
-2.087233498027477
 20
-0.1781996259137904
 10
-2.081525966399261
 20
-0.1459638640252774
 10
-2.076740149926064
 20
-0.1117469192464405
 10
-2.073163715378499
 20
-0.0766452967181601
 10
-2.070943407127392
 20
-0.0418260925879331
 10
-2.070023934116535
 20
-0.00667209741497
 10
-2.070478382287503
 20
0.029738972795601
 10
-2.07233737852403
 20
0.0658943147497065
 10
-2.075160571243762
 20
0.0978226885175329
 10
-2.079005320467374
 20
0.1291077080293729
 10
-2.083927007618942
 20
0.1603376891262976
 10
-2.089731999177741
 20
0.1905575154095221
 10
-2.096625756183665
 20
0.2209380038684124
 10
-2.104227767485711
 20
0.2499842144143665
 10
-2.112574089873707
 20
0.2781630862623717
 10
-2.121384303279328
 20
0.3048515334979471
 10
-2.135222607301975
 20
0.3421404113495043
  0
ENDBLK
  5
13F
330
13C
100
AcDbEntity
  8
0
100
AcDbBlockEnd
  0
ENDSEC
  0
SECTION
  2
ENTITIES
  0
INSERT
  5
6F
330
1F
100
AcDbEntity
  8
0
100
AcDbBlockReference
  2
1_131845_4
 10
0.0
 20
0.0
 30
0.0
  0
POINT
  5
1E1
330
1F
100
AcDbEntity
  8
ConnectionPoints
100
AcDbPoint
 10
0.0
 20
0.0
 30
0.0
  0
POINT
  5
1E2
330
1F
100
AcDbEntity
  8
ConnectionPoints
100
AcDbPoint
 10
0.0
 20
-1.5
 30
0.0000000000000001
  0
POINT
  5
1E3
330
1F
100
AcDbEntity
  8
ConnectionPoints
100
AcDbPoint
 10
1.612203461105328
 20
0.0000000000000001
 30
1.612203461105329
  0
POINT
  5
1E4
330
1F
100
AcDbEntity
  8
ConnectionPoints
100
AcDbPoint
 10
1.612203461105328
 20
0.0000000000000001
 30
1.612203461105329
  0
POINT
  5
1E5
330
1F
100
AcDbEntity
  8
ConnectionPoints
100
AcDbPoint
 10
0.0
 20
-1.5
 30
0.0000000000000001
  0
ENDSEC
  0
SECTION
  2
OBJECTS
  0
DICTIONARY
  5
C
330
0
100
AcDbDictionary
281
     1
  3
ACAD_DETAILVIEWSTYLE
350
1ED
  3
ACAD_GROUP
350
D
  3
ACAD_LAYOUT
350
1A
  3
ACAD_MATERIAL
350
43
  3
ACAD_MLEADERSTYLE
350
6B
  3
ACAD_MLINESTYLE
350
17
  3
ACAD_PLOTSETTINGS
350
19
  3
ACAD_PLOTSTYLENAME
350
E
  3
ACAD_SCALELIST
350
47
  3
ACAD_SECTIONVIEWSTYLE
350
1EE
  3
ACAD_TABLESTYLE
350
69
  3
ACAD_VISUALSTYLE
350
2A
  3
ACDB_RECOMPOSE_DATA
350
1EA
  3
AcDbVariableDictionary
350
1E6
  0
SUN
  5
6D
330
29
100
AcDbSun
 90
        1
290
     0
 63
     7
421
 16777215
 40
1.0
291
     1
 91
  2455826
 92
 54000000
292
     0
 70
     2
 71
   256
280
     1
  0
DICTIONARY
  5
1ED
102
{ACAD_REACTORS
330
C
102
}
330
C
100
AcDbDictionary
281
     1
  0
DICTIONARY
  5
D
102
{ACAD_REACTORS
330
C
102
}
330
C
100
AcDbDictionary
281
     1
  0
DICTIONARY
  5
1A
102
{ACAD_REACTORS
330
C
102
}
330
C
100
AcDbDictionary
281
     1
  3
Layout1
350
1E
  3
Layout2
350
26
  3
Model
350
22
  0
DICTIONARY
  5
43
102
{ACAD_REACTORS
330
C
102
}
330
C
100
AcDbDictionary
281
     1
  3
ByBlock
350
45
  3
ByLayer
350
44
  3
Global
350
46
  0
DICTIONARY
  5
6B
102
{ACAD_REACTORS
330
C
102
}
330
C
100
AcDbDictionary
281
     1
  3
Standard
350
6C
  0
DICTIONARY
  5
17
102
{ACAD_REACTORS
330
C
102
}
330
C
100
AcDbDictionary
281
     1
  3
Standard
350
18
  0
DICTIONARY
  5
19
102
{ACAD_REACTORS
330
C
102
}
330
C
100
AcDbDictionary
281
     1
  0
ACDBDICTIONARYWDFLT
  5
E
102
{ACAD_REACTORS
330
C
102
}
330
C
100
AcDbDictionary
281
     1
  3
Normal
350
F
100
AcDbDictionaryWithDefault
340
F
  0
DICTIONARY
  5
47
102
{ACAD_REACTORS
330
C
102
}
330
C
100
AcDbDictionary
281
     1
  3
A0
350
48
  3
A1
350
49
  3
A2
350
4A
  3
A3
350
4B
  3
A4
350
4C
  3
A5
350
4D
  3
A6
350
4E
  3
A7
350
4F
  3
A8
350
50
  3
A9
350
51
  3
B0
350
52
  3
B1
350
53
  3
B2
350
54
  3
B3
350
55
  3
B4
350
56
  3
B5
350
57
  3
B6
350
58
  3
B7
350
59
  3
B8
350
5A
  3
B9
350
5B
  3
C0
350
5C
  3
C1
350
5D
  3
C2
350
5E
  3
C3
350
5F
  3
C4
350
60
  3
C5
350
61
  3
C6
350
62
  3
C7
350
63
  3
C8
350
64
  3
C9
350
65
  3
D0
350
66
  3
D1
350
67
  3
D2
350
68
  0
DICTIONARY
  5
1EE
102
{ACAD_REACTORS
330
C
102
}
330
C
100
AcDbDictionary
281
     1
  0
DICTIONARY
  5
69
102
{ACAD_REACTORS
330
C
102
}
330
C
100
AcDbDictionary
281
     1
  3
Standard
350
6A
  0
DICTIONARY
  5
2A
102
{ACAD_REACTORS
330
C
102
}
330
C
100
AcDbDictionary
281
     1
  3
2dWireframe
350
2F
  3
Basic
350
32
  3
Brighten
350
36
  3
ColorChange
350
3A
  3
Conceptual
350
34
  3
Dim
350
35
  3
EdgeColorOff
350
3D
  3
Facepattern
350
39
  3
Flat
350
2B
  3
FlatWithEdges
350
2C
  3
Gouraud
350
2D
  3
GouraudWithEdges
350
2E
  3
Hidden
350
31
  3
JitterOff
350
3B
  3
Linepattern
350
38
  3
OverhangOff
350
3C
  3
Realistic
350
33
  3
Shaded
350
42
  3
Shaded with edges
350
41
  3
Shades of Gray
350
3E
  3
Sketchy
350
3F
  3
Thicken
350
37
  3
Wireframe
350
30
  3
X-Ray
350
40
  0
XRECORD
  5
1EA
102
{ACAD_REACTORS
330
C
102
}
330
C
100
AcDbXrecord
280
     1
 90
        1
330
6A
  0
DICTIONARY
  5
1E6
102
{ACAD_REACTORS
330
C
102
}
330
C
100
AcDbDictionary
281
     1
  3
CANNOSCALE
350
1E7
  3
CMLEADERSTYLE
350
1EC
  3
CTABLESTYLE
350
1EB
  0
LAYOUT
  5
1E
102
{ACAD_REACTORS
330
1A
102
}
330
1A
100
AcDbPlotSettings
  1

  2
none_device
  4

  6

 40
0.0
 41
0.0
 42
0.0
 43
0.0
 44
0.0
 45
0.0
 46
0.0
 47
0.0
 48
0.0
 49
0.0
140
0.0
141
0.0
142
1.0
143
1.0
 70
   688
 72
     0
 73
     0
 74
     5
  7

 75
    16
 76
     0
 77
     2
 78
   300
147
1.0
148
0.0
149
0.0
100
AcDbLayout
  1
Layout1
 70
     1
 71
     1
 10
0.0
 20
0.0
 11
12.0
 21
9.0
 12
0.0
 22
0.0
 32
0.0
 14
1.000000000000000E+20
 24
1.000000000000000E+20
 34
1.000000000000000E+20
 15
-1.000000000000000E+20
 25
-1.000000000000000E+20
 35
-1.000000000000000E+20
146
0.0
 13
0.0
 23
0.0
 33
0.0
 16
1.0
 26
0.0
 36
0.0
 17
0.0
 27
1.0
 37
0.0
 76
     0
330
1B
  0
LAYOUT
  5
26
102
{ACAD_REACTORS
330
1A
102
}
330
1A
100
AcDbPlotSettings
  1

  2
none_device
  4

  6

 40
0.0
 41
0.0
 42
0.0
 43
0.0
 44
0.0
 45
0.0
 46
0.0
 47
0.0
 48
0.0
 49
0.0
140
0.0
141
0.0
142
1.0
143
1.0
 70
   688
 72
     0
 73
     0
 74
     5
  7

 75
    16
 76
     0
 77
     2
 78
   300
147
1.0
148
0.0
149
0.0
100
AcDbLayout
  1
Layout2
 70
     1
 71
     2
 10
0.0
 20
0.0
 11
0.0
 21
0.0
 12
0.0
 22
0.0
 32
0.0
 14
0.0
 24
0.0
 34
0.0
 15
0.0
 25
0.0
 35
0.0
146
0.0
 13
0.0
 23
0.0
 33
0.0
 16
1.0
 26
0.0
 36
0.0
 17
0.0
 27
1.0
 37
0.0
 76
     0
330
23
  0
LAYOUT
  5
22
102
{ACAD_REACTORS
330
1A
102
}
330
1A
100
AcDbPlotSettings
  1

  2
none_device
  4
Letter_(8.50_x_11.00_Inches)
  6

 40
6.35
 41
6.35
 42
6.35000508
 43
6.35000508
 44
215.9
 45
279.4
 46
0.0
 47
0.0
 48
0.0
 49
0.0
140
0.0
141
0.0
142
1.0
143
1.0
 70
  1712
 72
     0
 73
     0
 74
     0
  7

 75
     0
 76
     0
 77
     2
 78
   300
147
1.0
148
0.0
149
0.0
100
AcDbLayout
  1
Model
 70
     1
 71
     0
 10
0.0
 20
0.0
 11
12.0
 21
9.0
 12
0.0
 22
0.0
 32
0.0
 14
1.000000000000000E+20
 24
1.000000000000000E+20
 34
1.000000000000000E+20
 15
-1.000000000000000E+20
 25
-1.000000000000000E+20
 35
-1.000000000000000E+20
146
0.0
 13
0.0
 23
0.0
 33
0.0
 16
1.0
 26
0.0
 36
0.0
 17
0.0
 27
1.0
 37
0.0
 76
     0
330
1F
331
29
  0
MATERIAL
  5
45
102
{ACAD_REACTORS
330
43
102
}
330
43
100
AcDbMaterial
  1
ByBlock
 72
     1
 94
      127
  0
MATERIAL
  5
44
102
{ACAD_REACTORS
330
43
102
}
330
43
100
AcDbMaterial
  1
ByLayer
 72
     1
 94
      127
  0
MATERIAL
  5
46
102
{ACAD_REACTORS
330
43
102
}
330
43
100
AcDbMaterial
  1
Global
 72
     1
 94
      127
  0
MLEADERSTYLE
  5
6C
102
{ACAD_REACTORS
330
6B
102
}
330
6B
100
AcDbMLeaderStyle
179
     2
170
     2
171
     1
172
     0
 90
        2
 40
0.0
 41
0.0
173
     1
 91
-1056964608
340
14
 92
       -2
290
     1
 42
0.09
291
     1
 43
0.36
  3
Standard
341
0
 44
0.18
300

342
11
174
     1
178
     6
175
     1
176
     0
 93
-1056964608
 45
0.18
292
     0
297
     0
 46
0.18
343
0
 94
-1056964608
 47
1.0
 49
1.0
140
1.0
293
     1
141
0.0
294
     1
177
     0
142
1.0
295
     0
296
     0
143
0.125
271
     0
272
     9
273
     9
298
     0
  0
MLINESTYLE
  5
18
102
{ACAD_REACTORS
330
17
102
}
330
17
100
AcDbMlineStyle
  2
Standard
 70
     0
  3

 62
   256
 51
90.0
 52
90.0
 71
     2
 49
0.5
 62
   256
  6
BYLAYER
 49
-0.5
 62
   256
  6
BYLAYER
  0
ACDBPLACEHOLDER
  5
F
102
{ACAD_REACTORS
330
E
102
}
330
E
  0
SCALE
  5
48
102
{ACAD_REACTORS
330
47
102
}
330
47
100
AcDbScale
 70
     0
300
1:1
140
1.0
141
1.0
290
     1
  0
SCALE
  5
49
102
{ACAD_REACTORS
330
47
102
}
330
47
100
AcDbScale
 70
     0
300
1:2
140
1.0
141
2.0
290
     0
  0
SCALE
  5
4A
102
{ACAD_REACTORS
330
47
102
}
330
47
100
AcDbScale
 70
     0
300
1:4
140
1.0
141
4.0
290
     0
  0
SCALE
  5
4B
102
{ACAD_REACTORS
330
47
102
}
330
47
100
AcDbScale
 70
     0
300
1:5
140
1.0
141
5.0
290
     0
  0
SCALE
  5
4C
102
{ACAD_REACTORS
330
47
102
}
330
47
100
AcDbScale
 70
     0
300
1:8
140
1.0
141
8.0
290
     0
  0
SCALE
  5
4D
102
{ACAD_REACTORS
330
47
102
}
330
47
100
AcDbScale
 70
     0
300
1:10
140
1.0
141
10.0
290
     0
  0
SCALE
  5
4E
102
{ACAD_REACTORS
330
47
102
}
330
47
100
AcDbScale
 70
     0
300
1:16
140
1.0
141
16.0
290
     0
  0
SCALE
  5
4F
102
{ACAD_REACTORS
330
47
102
}
330
47
100
AcDbScale
 70
     0
300
1:20
140
1.0
141
20.0
290
     0
  0
SCALE
  5
50
102
{ACAD_REACTORS
330
47
102
}
330
47
100
AcDbScale
 70
     0
300
1:30
140
1.0
141
30.0
290
     0
  0
SCALE
  5
51
102
{ACAD_REACTORS
330
47
102
}
330
47
100
AcDbScale
 70
     0
300
1:40
140
1.0
141
40.0
290
     0
  0
SCALE
  5
52
102
{ACAD_REACTORS
330
47
102
}
330
47
100
AcDbScale
 70
     0
300
1:50
140
1.0
141
50.0
290
     0
  0
SCALE
  5
53
102
{ACAD_REACTORS
330
47
102
}
330
47
100
AcDbScale
 70
     0
300
1:100
140
1.0
141
100.0
290
     0
  0
SCALE
  5
54
102
{ACAD_REACTORS
330
47
102
}
330
47
100
AcDbScale
 70
     0
300
2:1
140
2.0
141
1.0
290
     0
  0
SCALE
  5
55
102
{ACAD_REACTORS
330
47
102
}
330
47
100
AcDbScale
 70
     0
300
4:1
140
4.0
141
1.0
290
     0
  0
SCALE
  5
56
102
{ACAD_REACTORS
330
47
102
}
330
47
100
AcDbScale
 70
     0
300
8:1
140
8.0
141
1.0
290
     0
  0
SCALE
  5
57
102
{ACAD_REACTORS
330
47
102
}
330
47
100
AcDbScale
 70
     0
300
10:1
140
10.0
141
1.0
290
     0
  0
SCALE
  5
58
102
{ACAD_REACTORS
330
47
102
}
330
47
100
AcDbScale
 70
     0
300
100:1
140
100.0
141
1.0
290
     0
  0
SCALE
  5
59
102
{ACAD_REACTORS
330
47
102
}
330
47
100
AcDbScale
 70
     0
300
1/128" = 1'-0"
140
0.0078125
141
12.0
290
     0
  0
SCALE
  5
5A
102
{ACAD_REACTORS
330
47
102
}
330
47
100
AcDbScale
 70
     0
300
1/64" = 1'-0"
140
0.015625
141
12.0
290
     0
  0
SCALE
  5
5B
102
{ACAD_REACTORS
330
47
102
}
330
47
100
AcDbScale
 70
     0
300
1/32" = 1'-0"
140
0.03125
141
12.0
290
     0
  0
SCALE
  5
5C
102
{ACAD_REACTORS
330
47
102
}
330
47
100
AcDbScale
 70
     0
300
1/16" = 1'-0"
140
0.0625
141
12.0
290
     0
  0
SCALE
  5
5D
102
{ACAD_REACTORS
330
47
102
}
330
47
100
AcDbScale
 70
     0
300
3/32" = 1'-0"
140
0.09375
141
12.0
290
     0
  0
SCALE
  5
5E
102
{ACAD_REACTORS
330
47
102
}
330
47
100
AcDbScale
 70
     0
300
1/8" = 1'-0"
140
0.125
141
12.0
290
     0
  0
SCALE
  5
5F
102
{ACAD_REACTORS
330
47
102
}
330
47
100
AcDbScale
 70
     0
300
3/16" = 1'-0"
140
0.1875
141
12.0
290
     0
  0
SCALE
  5
60
102
{ACAD_REACTORS
330
47
102
}
330
47
100
AcDbScale
 70
     0
300
1/4" = 1'-0"
140
0.25
141
12.0
290
     0
  0
SCALE
  5
61
102
{ACAD_REACTORS
330
47
102
}
330
47
100
AcDbScale
 70
     0
300
3/8" = 1'-0"
140
0.375
141
12.0
290
     0
  0
SCALE
  5
62
102
{ACAD_REACTORS
330
47
102
}
330
47
100
AcDbScale
 70
     0
300
1/2" = 1'-0"
140
0.5
141
12.0
290
     0
  0
SCALE
  5
63
102
{ACAD_REACTORS
330
47
102
}
330
47
100
AcDbScale
 70
     0
300
3/4" = 1'-0"
140
0.75
141
12.0
290
     0
  0
SCALE
  5
64
102
{ACAD_REACTORS
330
47
102
}
330
47
100
AcDbScale
 70
     0
300
1" = 1'-0"
140
1.0
141
12.0
290
     0
  0
SCALE
  5
65
102
{ACAD_REACTORS
330
47
102
}
330
47
100
AcDbScale
 70
     0
300
1-1/2" = 1'-0"
140
1.5
141
12.0
290
     0
  0
SCALE
  5
66
102
{ACAD_REACTORS
330
47
102
}
330
47
100
AcDbScale
 70
     0
300
3" = 1'-0"
140
3.0
141
12.0
290
     0
  0
SCALE
  5
67
102
{ACAD_REACTORS
330
47
102
}
330
47
100
AcDbScale
 70
     0
300
6" = 1'-0"
140
6.0
141
12.0
290
     0
  0
SCALE
  5
68
102
{ACAD_REACTORS
330
47
102
}
330
47
100
AcDbScale
 70
     0
300
1'-0" = 1'-0"
140
12.0
141
12.0
290
     0
  0
TABLESTYLE
  5
6A
102
{ACAD_REACTORS
330
69
102
}
102
{ACAD_XDICTIONARY
360
1E8
102
}
330
69
100
AcDbTableStyle
  3
Standard
 70
     0
 71
     0
 40
0.06
 41
0.06
280
     0
281
     0
  7
Standard
140
0.18
170
     2
 62
     0
 63
   257
283
     0
 90
        4
 91
        0
  1

274
    -2
284
     1
 64
     0
275
    -2
285
     1
 65
     0
276
    -2
286
     1
 66
     0
277
    -2
287
     1
 67
     0
278
    -2
288
     1
 68
     0
279
    -2
289
     1
 69
     0
  7
Standard
140
0.25
170
     5
 62
     0
 63
   257
283
     0
 90
        4
 91
        0
  1

274
    -2
284
     1
 64
     0
275
    -2
285
     1
 65
     0
276
    -2
286
     1
 66
     0
277
    -2
287
     1
 67
     0
278
    -2
288
     1
 68
     0
279
    -2
289
     1
 69
     0
  7
Standard
140
0.18
170
     5
 62
     0
 63
   257
283
     0
 90
        4
 91
        0
  1

274
    -2
284
     1
 64
     0
275
    -2
285
     1
 65
     0
276
    -2
286
     1
 66
     0
277
    -2
287
     1
 67
     0
278
    -2
288
     1
 68
     0
279
    -2
289
     1
 69
     0
  0
VISUALSTYLE
  5
2F
102
{ACAD_REACTORS
330
2A
102
}
330
2A
100
AcDbVisualStyle
  2
2dWireframe
 70
     4
177
     3
291
     0
 70
    58
 90
        0
176
     1
 90
        2
176
     1
 90
        0
176
     1
 90
        0
176
     1
 40
0.6
176
     1
 40
30.0
176
     1
 62
     7
420
 16777215
176
     1
 90
        1
176
     1
 90
        4
176
     1
 62
     7
176
     1
 62
   257
176
     1
 90
        1
176
     1
 90
        1
176
     1
 40
1.0
176
     1
 90
        0
176
     1
 62
   257
176
     1
 40
1.0
176
     1
 90
        1
176
     1
 90
        6
176
     1
 90
        2
176
     1
 62
     7
176
     1
 90
        5
176
     1
 90
        0
176
     1
 90
        0
176
     1
290
     0
176
     1
 90
        1
176
     1
 40
0.0
176
     1
 90
        0
176
     1
290
     1
176
     1
290
     1
176
     1
290
     0
176
     1
290
     0
176
     1
290
     0
176
     1
290
     0
176
     1
290
     0
176
     1
290
     0
176
     1
290
     0
176
     1
 90
       50
176
     1
 40
0.0
176
     1
 40
1.0
176
     1
 90
        0
176
     1
 62
    18
420
        0
176
     1
 90
       50
176
     1
 90
        3
176
     1
 62
     5
420
      255
176
     1
290
     0
176
     1
 90
       50
176
     1
 90
       50
176
     1
 90
       50
176
     1
290
     0
176
     1
 90
       50
176
     1
 62
   256
176
     0
 40
1.0
176
     0
 90
        2
176
     1
  1
strokes_ogs.tif
176
     1
290
     0
176
     1
 40
1.0
176
     1
 40
1.0
176
     1
  0
VISUALSTYLE
  5
32
102
{ACAD_REACTORS
330
2A
102
}
330
2A
100
AcDbVisualStyle
  2
Basic
 70
     7
177
     3
291
     1
 70
    58
 90
        1
176
     1
 90
        0
176
     1
 90
        1
176
     1
 90
        0
176
     1
 40
0.6
176
     1
 40
30.0
176
     1
 62
     7
420
 16777215
176
     1
 90
        0
176
     1
 90
        4
176
     1
 62
     7
176
     1
 62
   257
176
     1
 90
        1
176
     1
 90
        1
176
     1
 40
1.0
176
     1
 90
        8
176
     1
 62
     7
176
     1
 40
1.0
176
     1
 90
        1
176
     1
 90
        6
176
     1
 90
        2
176
     1
 62
     7
176
     1
 90
        5
176
     1
 90
        0
176
     1
 90
        0
176
     1
290
     0
176
     1
 90
        1
176
     1
 40
0.0
176
     1
 90
        0
176
     1
290
     0
176
     1
290
     1
176
     1
290
     1
176
     1
290
     0
176
     1
290
     0
176
     1
290
     0
176
     1
290
     0
176
     1
290
     0
176
     1
290
     0
176
     1
 90
       50
176
     1
 40
0.0
176
     1
 40
1.0
176
     1
 90
        0
176
     1
 62
    18
420
        0
176
     1
 90
       50
176
     1
 90
        3
176
     1
 62
     5
420
      255
176
     1
290
     0
176
     1
 90
       50
176
     1
 90
       50
176
     1
 90
       50
176
     1
290
     0
176
     1
 90
       50
176
     1
 62
   256
176
     0
 40
1.0
176
     0
 90
        2
176
     1
  1
strokes_ogs.tif
176
     1
290
     0
176
     1
 40
1.0
176
     1
 40
1.0
176
     1
  0
VISUALSTYLE
  5
36
102
{ACAD_REACTORS
330
2A
102
}
330
2A
100
AcDbVisualStyle
  2
Brighten
 70
    12
177
     3
291
     1
 70
    58
 90
        2
176
     1
 90
        2
176
     1
 90
        0
176
     1
 90
        0
176
     1
 40
0.6
176
     1
 40
30.0
176
     1
 62
     7
420
 16777215
176
     1
 90
        1
176
     1
 90
        4
176
     1
 62
     7
176
     1
 62
   257
176
     1
 90
        1
176
     1
 90
        1
176
     1
 40
1.0
176
     1
 90
        8
176
     1
 62
     7
176
     1
 40
1.0
176
     1
 90
        1
176
     1
 90
        6
176
     1
 90
        2
176
     1
 62
     7
176
     1
 90
        5
176
     1
 90
        0
176
     1
 90
        0
176
     1
290
     0
176
     1
 90
        1
176
     1
 40
50.0
176
     1
 90
        0
176
     1
290
     0
176
     1
290
     1
176
     1
290
     1
176
     1
290
     0
176
     1
290
     0
176
     1
290
     0
176
     1
290
     0
176
     1
290
     0
176
     1
290
     0
176
     1
 90
       50
176
     1
 40
0.0
176
     1
 40
1.0
176
     1
 90
        0
176
     1
 62
    18
420
        0
176
     1
 90
       50
176
     1
 90
        3
176
     1
 62
     5
420
      255
176
     1
290
     0
176
     1
 90
       50
176
     1
 90
       50
176
     1
 90
       50
176
     1
290
     0
176
     1
 90
       50
176
     1
 62
   256
176
     0
 40
1.0
176
     0
 90
        2
176
     1
  1
strokes_ogs.tif
176
     1
290
     0
176
     1
 40
1.0
176
     1
 40
1.0
176
     1
  0
VISUALSTYLE
  5
3A
102
{ACAD_REACTORS
330
2A
102
}
330
2A
100
AcDbVisualStyle
  2
ColorChange
 70
    16
177
     3
291
     1
 70
    58
 90
        2
176
     1
 90
        2
176
     1
 90
        3
176
     1
 90
        0
176
     1
 40
0.6
176
     1
 40
30.0
176
     1
 62
     8
420
  8421504
176
     1
 90
        1
176
     1
 90
        4
176
     1
 62
     7
176
     1
 62
   257
176
     1
 90
        1
176
     1
 90
        1
176
     1
 40
1.0
176
     1
 90
        8
176
     1
 62
     8
420
  8421504
176
     1
 40
1.0
176
     1
 90
        1
176
     1
 90
        6
176
     1
 90
        2
176
     1
 62
     7
176
     1
 90
        5
176
     1
 90
        0
176
     1
 90
        0
176
     1
290
     0
176
     1
 90
        1
176
     1
 40
0.0
176
     1
 90
        0
176
     1
290
     0
176
     1
290
     1
176
     1
290
     1
176
     1
290
     0
176
     1
290
     0
176
     1
290
     0
176
     1
290
     0
176
     1
290
     0
176
     1
290
     0
176
     1
 90
       50
176
     1
 40
0.0
176
     1
 40
1.0
176
     1
 90
        0
176
     1
 62
    18
420
        0
176
     1
 90
       50
176
     1
 90
        3
176
     1
 62
     5
420
      255
176
     1
290
     0
176
     1
 90
       50
176
     1
 90
       50
176
     1
 90
       50
176
     1
290
     0
176
     1
 90
       50
176
     1
 62
   256
176
     0
 40
1.0
176
     0
 90
        2
176
     1
  1
strokes_ogs.tif
176
     1
290
     0
176
     1
 40
1.0
176
     1
 40
1.0
176
     1
  0
VISUALSTYLE
  5
34
102
{ACAD_REACTORS
330
2A
102
}
330
2A
100
AcDbVisualStyle
  2
Conceptual
 70
     9
177
     3
291
     0
 70
    58
 90
        3
176
     1
 90
        2
176
     1
 90
        0
176
     1
 90
        0
176
     1
 40
0.6
176
     1
 40
30.0
176
     1
 62
     7
420
 16777215
176
     1
 90
        2
176
     1
 90
        2
176
     1
 62
     7
176
     1
 62
   257
176
     1
 90
        1
176
     1
 90
        1
176
     1
 40
179.0
176
     1
 90
        8
176
     1
 62
     7
176
     1
 40
1.0
176
     1
 90
        1
176
     1
 90
        6
176
     1
 90
        2
176
     1
 62
     7
176
     1
 90
        3
176
     1
 90
        0
176
     1
 90
        0
176
     1
290
     0
176
     1
 90
        1
176
     1
 40
0.0
176
     1
 90
        0
176
     1
290
     0
176
     1
290
     1
176
     1
290
     1
176
     1
290
     0
176
     1
290
     0
176
     1
290
     0
176
     1
290
     0
176
     1
290
     0
176
     1
290
     0
176
     1
 90
       50
176
     1
 40
0.0
176
     1
 40
1.0
176
     1
 90
        0
176
     1
 62
    18
420
        0
176
     1
 90
       50
176
     1
 90
        3
176
     1
 62
     5
420
      255
176
     1
290
     0
176
     1
 90
       50
176
     1
 90
       50
176
     1
 90
       50
176
     1
290
     0
176
     1
 90
       50
176
     1
 62
   256
176
     0
 40
1.0
176
     0
 90
        2
176
     1
  1
strokes_ogs.tif
176
     1
290
     0
176
     1
 40
1.0
176
     1
 40
1.0
176
     1
  0
VISUALSTYLE
  5
35
102
{ACAD_REACTORS
330
2A
102
}
330
2A
100
AcDbVisualStyle
  2
Dim
 70
    11
177
     3
291
     1
 70
    58
 90
        2
176
     1
 90
        2
176
     1
 90
        0
176
     1
 90
        0
176
     1
 40
0.6
176
     1
 40
30.0
176
     1
 62
     7
420
 16777215
176
     1
 90
        1
176
     1
 90
        4
176
     1
 62
     7
176
     1
 62
   257
176
     1
 90
        1
176
     1
 90
        1
176
     1
 40
1.0
176
     1
 90
        8
176
     1
 62
     7
176
     1
 40
1.0
176
     1
 90
        1
176
     1
 90
        6
176
     1
 90
        2
176
     1
 62
     7
176
     1
 90
        5
176
     1
 90
        0
176
     1
 90
        0
176
     1
290
     0
176
     1
 90
        1
176
     1
 40
-50.0
176
     1
 90
        0
176
     1
290
     0
176
     1
290
     1
176
     1
290
     1
176
     1
290
     0
176
     1
290
     0
176
     1
290
     0
176
     1
290
     0
176
     1
290
     0
176
     1
290
     0
176
     1
 90
       50
176
     1
 40
0.0
176
     1
 40
1.0
176
     1
 90
        0
176
     1
 62
    18
420
        0
176
     1
 90
       50
176
     1
 90
        3
176
     1
 62
     5
420
      255
176
     1
290
     0
176
     1
 90
       50
176
     1
 90
       50
176
     1
 90
       50
176
     1
290
     0
176
     1
 90
       50
176
     1
 62
   256
176
     0
 40
1.0
176
     0
 90
        2
176
     1
  1
strokes_ogs.tif
176
     1
290
     0
176
     1
 40
1.0
176
     1
 40
1.0
176
     1
  0
VISUALSTYLE
  5
3D
102
{ACAD_REACTORS
330
2A
102
}
330
2A
100
AcDbVisualStyle
  2
EdgeColorOff
 70
    22
177
     3
291
     1
 70
    58
 90
        2
176
     0
 90
        2
176
     0
 90
        0
176
     0
 90
        0
176
     0
 40
0.6
176
     0
 40
30.0
176
     0
 62
     7
420
 16777215
176
     0
 90
        1
176
     0
 90
        4
176
     0
 62
     7
176
     0
 62
   257
176
     0
 90
        1
176
     0
 90
        1
176
     0
 40
1.0
176
     0
 90
        8
176
     2
 62
     7
176
     0
 40
1.0
176
     0
 90
        1
176
     0
 90
        6
176
     0
 90
        2
176
     0
 62
     7
176
     0
 90
        5
176
     0
 90
        0
176
     0
 90
        0
176
     0
290
     0
176
     0
 90
        1
176
     0
 40
0.0
176
     0
 90
        0
176
     0
290
     0
176
     0
290
     1
176
     0
290
     1
176
     0
290
     0
176
     0
290
     0
176
     0
290
     0
176
     0
290
     0
176
     0
290
     0
176
     0
290
     0
176
     0
 90
       50
176
     0
 40
0.0
176
     0
 40
1.0
176
     0
 90
        0
176
     0
 62
    18
420
        0
176
     0
 90
       50
176
     0
 90
        3
176
     0
 62
     5
420
      255
176
     0
290
     0
176
     0
 90
       50
176
     0
 90
       50
176
     0
 90
       50
176
     0
290
     0
176
     0
 90
       50
176
     0
 62
   256
176
     0
 40
1.0
176
     0
 90
        2
176
     0
  1
strokes_ogs.tif
176
     0
290
     0
176
     0
 40
1.0
176
     0
 40
1.0
176
     0
  0
VISUALSTYLE
  5
39
102
{ACAD_REACTORS
330
2A
102
}
330
2A
100
AcDbVisualStyle
  2
Facepattern
 70
    15
177
     3
291
     1
 70
    58
 90
        2
176
     1
 90
        2
176
     1
 90
        0
176
     1
 90
        0
176
     1
 40
0.6
176
     1
 40
30.0
176
     1
 62
     7
420
 16777215
176
     1
 90
        1
176
     1
 90
        4
176
     1
 62
     7
176
     1
 62
   257
176
     1
 90
        1
176
     1
 90
        1
176
     1
 40
1.0
176
     1
 90
        8
176
     1
 62
     7
176
     1
 40
1.0
176
     1
 90
        1
176
     1
 90
        6
176
     1
 90
        2
176
     1
 62
     7
176
     1
 90
        5
176
     1
 90
        0
176
     1
 90
        0
176
     1
290
     0
176
     1
 90
        1
176
     1
 40
0.0
176
     1
 90
        0
176
     1
290
     0
176
     1
290
     1
176
     1
290
     1
176
     1
290
     0
176
     1
290
     0
176
     1
290
     0
176
     1
290
     0
176
     1
290
     0
176
     1
290
     0
176
     1
 90
       50
176
     1
 40
0.0
176
     1
 40
1.0
176
     1
 90
        0
176
     1
 62
    18
420
        0
176
     1
 90
       50
176
     1
 90
        3
176
     1
 62
     5
420
      255
176
     1
290
     0
176
     1
 90
       50
176
     1
 90
       50
176
     1
 90
       50
176
     1
290
     0
176
     1
 90
       50
176
     1
 62
   256
176
     0
 40
1.0
176
     0
 90
        2
176
     1
  1
strokes_ogs.tif
176
     1
290
     0
176
     1
 40
1.0
176
     1
 40
1.0
176
     1
  0
VISUALSTYLE
  5
2B
102
{ACAD_REACTORS
330
2A
102
}
330
2A
100
AcDbVisualStyle
  2
Flat
 70
     0
177
     3
291
     1
 70
    58
 90
        2
176
     1
 90
        1
176
     1
 90
        1
176
     1
 90
        2
176
     1
 40
0.6
176
     1
 40
30.0
176
     1
 62
     7
420
 16777215
176
     1
 90
        0
176
     1
 90
        0
176
     1
 62
     7
176
     1
 62
   257
176
     1
 90
        1
176
     1
 90
        1
176
     1
 40
1.0
176
     1
 90
        8
176
     1
 62
     7
176
     1
 40
1.0
176
     1
 90
        1
176
     1
 90
        6
176
     1
 90
        2
176
     1
 62
     7
176
     1
 90
        5
176
     1
 90
        0
176
     1
 90
        0
176
     1
290
     0
176
     1
 90
       13
176
     1
 40
0.0
176
     1
 90
        0
176
     1
290
     0
176
     1
290
     1
176
     1
290
     1
176
     1
290
     0
176
     1
290
     0
176
     1
290
     0
176
     1
290
     0
176
     1
290
     0
176
     1
290
     0
176
     1
 90
       50
176
     1
 40
0.0
176
     1
 40
1.0
176
     1
 90
        0
176
     1
 62
    18
420
        0
176
     1
 90
       50
176
     1
 90
        3
176
     1
 62
     5
420
      255
176
     1
290
     0
176
     1
 90
       50
176
     1
 90
       50
176
     1
 90
       50
176
     1
290
     0
176
     1
 90
       50
176
     1
 62
   256
176
     0
 40
1.0
176
     0
 90
        2
176
     1
  1
strokes_ogs.tif
176
     1
290
     0
176
     1
 40
1.0
176
     1
 40
1.0
176
     1
  0
VISUALSTYLE
  5
2C
102
{ACAD_REACTORS
330
2A
102
}
330
2A
100
AcDbVisualStyle
  2
FlatWithEdges
 70
     1
177
     3
291
     1
 70
    58
 90
        2
176
     1
 90
        1
176
     1
 90
        1
176
     1
 90
        2
176
     1
 40
0.6
176
     1
 40
30.0
176
     1
 62
     7
420
 16777215
176
     1
 90
        1
176
     1
 90
        0
176
     1
 62
     7
176
     1
 62
   257
176
     1
 90
        1
176
     1
 90
        1
176
     1
 40
1.0
176
     1
 90
        0
176
     1
 62
   257
176
     1
 40
1.0
176
     1
 90
        1
176
     1
 90
        6
176
     1
 90
        2
176
     1
 62
     7
176
     1
 90
        5
176
     1
 90
        0
176
     1
 90
        0
176
     1
290
     0
176
     1
 90
       13
176
     1
 40
0.0
176
     1
 90
        0
176
     1
290
     0
176
     1
290
     1
176
     1
290
     1
176
     1
290
     0
176
     1
290
     0
176
     1
290
     0
176
     1
290
     0
176
     1
290
     0
176
     1
290
     0
176
     1
 90
       50
176
     1
 40
0.0
176
     1
 40
1.0
176
     1
 90
        0
176
     1
 62
    18
420
        0
176
     1
 90
       50
176
     1
 90
        3
176
     1
 62
     5
420
      255
176
     1
290
     0
176
     1
 90
       50
176
     1
 90
       50
176
     1
 90
       50
176
     1
290
     0
176
     1
 90
       50
176
     1
 62
   256
176
     0
 40
1.0
176
     0
 90
        2
176
     1
  1
strokes_ogs.tif
176
     1
290
     0
176
     1
 40
1.0
176
     1
 40
1.0
176
     1
  0
VISUALSTYLE
  5
2D
102
{ACAD_REACTORS
330
2A
102
}
330
2A
100
AcDbVisualStyle
  2
Gouraud
 70
     2
177
     3
291
     1
 70
    58
 90
        2
176
     1
 90
        2
176
     1
 90
        1
176
     1
 90
        2
176
     1
 40
0.6
176
     1
 40
30.0
176
     1
 62
     7
420
 16777215
176
     1
 90
        0
176
     1
 90
        0
176
     1
 62
     7
176
     1
 62
   257
176
     1
 90
        1
176
     1
 90
        1
176
     1
 40
1.0
176
     1
 90
        0
176
     1
 62
     7
176
     1
 40
1.0
176
     1
 90
        1
176
     1
 90
        6
176
     1
 90
        2
176
     1
 62
     7
176
     1
 90
        5
176
     1
 90
        0
176
     1
 90
        0
176
     1
290
     0
176
     1
 90
       13
176
     1
 40
0.0
176
     1
 90
        0
176
     1
290
     0
176
     1
290
     1
176
     1
290
     1
176
     1
290
     0
176
     1
290
     0
176
     1
290
     0
176
     1
290
     0
176
     1
290
     0
176
     1
290
     0
176
     1
 90
       50
176
     1
 40
0.0
176
     1
 40
1.0
176
     1
 90
        0
176
     1
 62
    18
420
        0
176
     1
 90
       50
176
     1
 90
        3
176
     1
 62
     5
420
      255
176
     1
290
     0
176
     1
 90
       50
176
     1
 90
       50
176
     1
 90
       50
176
     1
290
     0
176
     1
 90
       50
176
     1
 62
   256
176
     0
 40
1.0
176
     0
 90
        2
176
     1
  1
strokes_ogs.tif
176
     1
290
     0
176
     1
 40
1.0
176
     1
 40
1.0
176
     1
  0
VISUALSTYLE
  5
2E
102
{ACAD_REACTORS
330
2A
102
}
330
2A
100
AcDbVisualStyle
  2
GouraudWithEdges
 70
     3
177
     3
291
     1
 70
    58
 90
        2
176
     1
 90
        2
176
     1
 90
        1
176
     1
 90
        2
176
     1
 40
0.6
176
     1
 40
30.0
176
     1
 62
     7
420
 16777215
176
     1
 90
        1
176
     1
 90
        0
176
     1
 62
     7
176
     1
 62
   257
176
     1
 90
        1
176
     1
 90
        1
176
     1
 40
1.0
176
     1
 90
        0
176
     1
 62
   257
176
     1
 40
1.0
176
     1
 90
        1
176
     1
 90
        6
176
     1
 90
        2
176
     1
 62
     7
176
     1
 90
        5
176
     1
 90
        0
176
     1
 90
        0
176
     1
290
     0
176
     1
 90
       13
176
     1
 40
0.0
176
     1
 90
        0
176
     1
290
     0
176
     1
290
     1
176
     1
290
     1
176
     1
290
     0
176
     1
290
     0
176
     1
290
     0
176
     1
290
     0
176
     1
290
     0
176
     1
290
     0
176
     1
 90
       50
176
     1
 40
0.0
176
     1
 40
1.0
176
     1
 90
        0
176
     1
 62
    18
420
        0
176
     1
 90
       50
176
     1
 90
        3
176
     1
 62
     5
420
      255
176
     1
290
     0
176
     1
 90
       50
176
     1
 90
       50
176
     1
 90
       50
176
     1
290
     0
176
     1
 90
       50
176
     1
 62
   256
176
     0
 40
1.0
176
     0
 90
        2
176
     1
  1
strokes_ogs.tif
176
     1
290
     0
176
     1
 40
1.0
176
     1
 40
1.0
176
     1
  0
VISUALSTYLE
  5
31
102
{ACAD_REACTORS
330
2A
102
}
330
2A
100
AcDbVisualStyle
  2
Hidden
 70
     6
177
     3
291
     0
 70
    58
 90
        1
176
     1
 90
        2
176
     1
 90
        2
176
     1
 90
        0
176
     1
 40
0.6
176
     1
 40
30.0
176
     1
 62
     7
420
 16777215
176
     1
 90
        2
176
     1
 90
        2
176
     1
 62
     7
176
     1
 62
   257
176
     1
 90
        2
176
     1
 90
        1
176
     1
 40
40.0
176
     1
 90
        0
176
     1
 62
   257
176
     1
 40
1.0
176
     1
 90
        1
176
     1
 90
        6
176
     1
 90
        2
176
     1
 62
     7
176
     1
 90
        3
176
     1
 90
        0
176
     1
 90
        0
176
     1
290
     0
176
     1
 90
        1
176
     1
 40
0.0
176
     1
 90
        0
176
     1
290
     0
176
     1
290
     1
176
     1
290
     1
176
     1
290
     0
176
     1
290
     0
176
     1
290
     0
176
     1
290
     0
176
     1
290
     0
176
     1
290
     0
176
     1
 90
       50
176
     1
 40
0.0
176
     1
 40
1.0
176
     1
 90
        0
176
     1
 62
    18
420
        0
176
     1
 90
       50
176
     1
 90
        3
176
     1
 62
     5
420
      255
176
     1
290
     0
176
     1
 90
       50
176
     1
 90
       50
176
     1
 90
       50
176
     1
290
     0
176
     1
 90
       50
176
     1
 62
   256
176
     0
 40
1.0
176
     0
 90
        2
176
     1
  1
strokes_ogs.tif
176
     1
290
     0
176
     1
 40
1.0
176
     1
 40
1.0
176
     1
  0
VISUALSTYLE
  5
3B
102
{ACAD_REACTORS
330
2A
102
}
330
2A
100
AcDbVisualStyle
  2
JitterOff
 70
    20
177
     3
291
     1
 70
    58
 90
        2
176
     0
 90
        2
176
     0
 90
        0
176
     0
 90
        0
176
     0
 40
0.6
176
     0
 40
30.0
176
     0
 62
     7
420
 16777215
176
     0
 90
        1
176
     0
 90
        4
176
     0
 62
     7
176
     0
 62
   257
176
     0
 90
        1
176
     0
 90
        1
176
     0
 40
1.0
176
     0
 90
       10
176
     2
 62
     7
176
     0
 40
1.0
176
     0
 90
        1
176
     0
 90
        6
176
     0
 90
        2
176
     0
 62
     7
176
     0
 90
        5
176
     0
 90
        0
176
     0
 90
        0
176
     0
290
     0
176
     0
 90
        1
176
     0
 40
0.0
176
     0
 90
        0
176
     0
290
     0
176
     0
290
     1
176
     0
290
     1
176
     0
290
     0
176
     0
290
     0
176
     0
290
     0
176
     0
290
     0
176
     0
290
     0
176
     0
290
     0
176
     0
 90
       50
176
     0
 40
0.0
176
     0
 40
1.0
176
     0
 90
        0
176
     0
 62
    18
420
        0
176
     0
 90
       50
176
     0
 90
        3
176
     0
 62
     5
420
      255
176
     0
290
     0
176
     0
 90
       50
176
     0
 90
       50
176
     0
 90
       50
176
     0
290
     0
176
     0
 90
       50
176
     0
 62
   256
176
     0
 40
1.0
176
     0
 90
        2
176
     0
  1
strokes_ogs.tif
176
     0
290
     0
176
     0
 40
1.0
176
     0
 40
1.0
176
     0
  0
VISUALSTYLE
  5
38
102
{ACAD_REACTORS
330
2A
102
}
330
2A
100
AcDbVisualStyle
  2
Linepattern
 70
    14
177
     3
291
     1
 70
    58
 90
        2
176
     1
 90
        2
176
     1
 90
        0
176
     1
 90
        0
176
     1
 40
0.6
176
     1
 40
30.0
176
     1
 62
     7
420
 16777215
176
     1
 90
        1
176
     1
 90
        4
176
     1
 62
     7
176
     1
 62
   257
176
     1
 90
        7
176
     1
 90
        7
176
     1
 40
1.0
176
     1
 90
        8
176
     1
 62
     7
176
     1
 40
1.0
176
     1
 90
        1
176
     1
 90
        6
176
     1
 90
        2
176
     1
 62
     7
176
     1
 90
        5
176
     1
 90
        0
176
     1
 90
        0
176
     1
290
     0
176
     1
 90
        1
176
     1
 40
0.0
176
     1
 90
        0
176
     1
290
     0
176
     1
290
     1
176
     1
290
     1
176
     1
290
     0
176
     1
290
     0
176
     1
290
     0
176
     1
290
     0
176
     1
290
     0
176
     1
290
     0
176
     1
 90
       50
176
     1
 40
0.0
176
     1
 40
1.0
176
     1
 90
        0
176
     1
 62
    18
420
        0
176
     1
 90
       50
176
     1
 90
        3
176
     1
 62
     5
420
      255
176
     1
290
     0
176
     1
 90
       50
176
     1
 90
       50
176
     1
 90
       50
176
     1
290
     0
176
     1
 90
       50
176
     1
 62
   256
176
     0
 40
1.0
176
     0
 90
        2
176
     1
  1
strokes_ogs.tif
176
     1
290
     0
176
     1
 40
1.0
176
     1
 40
1.0
176
     1
  0
VISUALSTYLE
  5
3C
102
{ACAD_REACTORS
330
2A
102
}
330
2A
100
AcDbVisualStyle
  2
OverhangOff
 70
    21
177
     3
291
     1
 70
    58
 90
        2
176
     0
 90
        2
176
     0
 90
        0
176
     0
 90
        0
176
     0
 40
0.6
176
     0
 40
30.0
176
     0
 62
     7
420
 16777215
176
     0
 90
        1
176
     0
 90
        4
176
     0
 62
     7
176
     0
 62
   257
176
     0
 90
        1
176
     0
 90
        1
176
     0
 40
1.0
176
     0
 90
        9
176
     2
 62
     7
176
     0
 40
1.0
176
     0
 90
        1
176
     0
 90
        6
176
     0
 90
        2
176
     0
 62
     7
176
     0
 90
        5
176
     0
 90
        0
176
     0
 90
        0
176
     0
290
     0
176
     0
 90
        1
176
     0
 40
0.0
176
     0
 90
        0
176
     0
290
     0
176
     0
290
     1
176
     0
290
     1
176
     0
290
     0
176
     0
290
     0
176
     0
290
     0
176
     0
290
     0
176
     0
290
     0
176
     0
290
     0
176
     0
 90
       50
176
     0
 40
0.0
176
     0
 40
1.0
176
     0
 90
        0
176
     0
 62
    18
420
        0
176
     0
 90
       50
176
     0
 90
        3
176
     0
 62
     5
420
      255
176
     0
290
     0
176
     0
 90
       50
176
     0
 90
       50
176
     0
 90
       50
176
     0
290
     0
176
     0
 90
       50
176
     0
 62
   256
176
     0
 40
1.0
176
     0
 90
        2
176
     0
  1
strokes_ogs.tif
176
     0
290
     0
176
     0
 40
1.0
176
     0
 40
1.0
176
     0
  0
VISUALSTYLE
  5
33
102
{ACAD_REACTORS
330
2A
102
}
330
2A
100
AcDbVisualStyle
  2
Realistic
 70
     8
177
     3
291
     0
 70
    58
 90
        2
176
     1
 90
        3
176
     1
 90
        0
176
     1
 90
        2
176
     1
 40
0.6
176
     1
 40
30.0
176
     1
 62
     7
420
 16777215
176
     1
 90
        0
176
     1
 90
        0
176
     1
 62
     7
176
     1
 62
   257
176
     1
 90
        1
176
     1
 90
        1
176
     1
 40
1.0
176
     1
 90
        8
176
     1
 62
   257
176
     1
 40
1.0
176
     1
 90
        1
176
     1
 90
        6
176
     1
 90
        2
176
     1
 62
     7
176
     1
 90
        3
176
     1
 90
        0
176
     1
 90
        0
176
     1
290
     0
176
     1
 90
       13
176
     1
 40
0.0
176
     1
 90
        0
176
     1
290
     0
176
     1
290
     1
176
     1
290
     1
176
     1
290
     0
176
     1
290
     0
176
     1
290
     0
176
     1
290
     0
176
     1
290
     0
176
     1
290
     0
176
     1
 90
       50
176
     1
 40
0.0
176
     1
 40
1.0
176
     1
 90
        0
176
     1
 62
    18
420
        0
176
     1
 90
       50
176
     1
 90
        3
176
     1
 62
     5
420
      255
176
     1
290
     0
176
     1
 90
       50
176
     1
 90
       50
176
     1
 90
       50
176
     1
290
     0
176
     1
 90
       50
176
     1
 62
   256
176
     0
 40
1.0
176
     0
 90
        2
176
     1
  1
strokes_ogs.tif
176
     1
290
     0
176
     1
 40
1.0
176
     1
 40
1.0
176
     1
  0
VISUALSTYLE
  5
42
102
{ACAD_REACTORS
330
2A
102
}
330
2A
100
AcDbVisualStyle
  2
Shaded
 70
    27
177
     3
291
     0
 70
    58
 90
        2
176
     1
 90
        2
176
     1
 90
        1
176
     1
 90
        2
176
     1
 40
0.6
176
     1
 40
30.0
176
     1
 62
     7
420
 16777215
176
     1
 90
        0
176
     1
 90
        4
176
     1
 62
     7
176
     1
 62
   257
176
     1
 90
        1
176
     1
 90
        1
176
     1
 40
1.0
176
     1
 90
        8
176
     1
 62
   257
176
     1
 40
1.0
176
     1
 90
        1
176
     1
 90
        6
176
     1
 90
        2
176
     1
 62
     8
420
  7895160
176
     1
 90
        3
176
     1
 90
        0
176
     1
 90
        0
176
     1
290
     0
176
     1
 90
        5
176
     1
 40
0.0
176
     1
 90
        0
176
     1
290
     0
176
     1
290
     1
176
     1
290
     1
176
     1
290
     0
176
     1
290
     0
176
     1
290
     0
176
     1
290
     0
176
     1
290
     0
176
     1
290
     0
176
     1
 90
       50
176
     1
 40
0.0
176
     1
 40
1.0
176
     1
 90
        0
176
     1
 62
    18
420
        0
176
     1
 90
       50
176
     1
 90
        3
176
     1
 62
     5
420
      255
176
     1
290
     0
176
     1
 90
       50
176
     1
 90
       50
176
     1
 90
       50
176
     1
290
     0
176
     1
 90
       50
176
     1
 62
   256
176
     0
 40
1.0
176
     0
 90
        2
176
     1
  1
strokes_ogs.tif
176
     1
290
     0
176
     1
 40
1.0
176
     1
 40
1.0
176
     1
  0
VISUALSTYLE
  5
41
102
{ACAD_REACTORS
330
2A
102
}
330
2A
100
AcDbVisualStyle
  2
Shaded with edges
 70
    26
177
     3
291
     0
 70
    58
 90
        2
176
     1
 90
        2
176
     1
 90
        1
176
     1
 90
        2
176
     1
 40
0.6
176
     1
 40
30.0
176
     1
 62
     7
420
 16777215
176
     1
 90
        1
176
     1
 90
       10
176
     1
 62
     7
176
     1
 62
   257
176
     1
 90
        2
176
     1
 90
        1
176
     1
 40
1.0
176
     1
 90
        8
176
     1
 62
   257
176
     1
 40
1.0
176
     1
 90
        1
176
     1
 90
        6
176
     1
 90
        2
176
     1
 62
     7
176
     1
 90
        3
176
     1
 90
        0
176
     1
 90
        0
176
     1
290
     0
176
     1
 90
        5
176
     1
 40
0.0
176
     1
 90
        0
176
     1
290
     0
176
     1
290
     1
176
     1
290
     1
176
     1
290
     0
176
     1
290
     0
176
     1
290
     0
176
     1
290
     0
176
     1
290
     0
176
     1
290
     0
176
     1
 90
       50
176
     1
 40
0.0
176
     1
 40
1.0
176
     1
 90
        0
176
     1
 62
    18
420
        0
176
     1
 90
       50
176
     1
 90
        3
176
     1
 62
     5
420
      255
176
     1
290
     0
176
     1
 90
       50
176
     1
 90
       50
176
     1
 90
       50
176
     1
290
     0
176
     1
 90
       50
176
     1
 62
   256
176
     0
 40
1.0
176
     0
 90
        2
176
     1
  1
strokes_ogs.tif
176
     1
290
     0
176
     1
 40
1.0
176
     1
 40
1.0
176
     1
  0
VISUALSTYLE
  5
3E
102
{ACAD_REACTORS
330
2A
102
}
330
2A
100
AcDbVisualStyle
  2
Shades of Gray
 70
    23
177
     3
291
     0
 70
    58
 90
        2
176
     1
 90
        2
176
     1
 90
        3
176
     1
 90
        0
176
     1
 40
0.6
176
     1
 40
30.0
176
     1
 62
     7
420
 16777215
176
     1
 90
        2
176
     1
 90
        2
176
     1
 62
     7
176
     1
 62
     7
176
     1
 90
        1
176
     1
 90
        1
176
     1
 40
40.0
176
     1
 90
        8
176
     1
 62
     7
176
     1
 40
1.0
176
     1
 90
        1
176
     1
 90
        6
176
     1
 90
        2
176
     1
 62
     7
176
     1
 90
        3
176
     1
 90
        0
176
     1
 90
        0
176
     1
290
     0
176
     1
 90
        1
176
     1
 40
0.0
176
     1
 90
        0
176
     1
290
     0
176
     1
290
     1
176
     1
290
     1
176
     1
290
     0
176
     1
290
     0
176
     1
290
     0
176
     1
290
     0
176
     1
290
     0
176
     1
290
     0
176
     1
 90
       50
176
     1
 40
0.0
176
     1
 40
1.0
176
     1
 90
        0
176
     1
 62
    18
420
        0
176
     1
 90
       50
176
     1
 90
        3
176
     1
 62
     5
420
      255
176
     1
290
     0
176
     1
 90
       50
176
     1
 90
       50
176
     1
 90
       50
176
     1
290
     0
176
     1
 90
       50
176
     1
 62
   256
176
     0
 40
1.0
176
     0
 90
        2
176
     1
  1
strokes_ogs.tif
176
     1
290
     0
176
     1
 40
1.0
176
     1
 40
1.0
176
     1
  0
VISUALSTYLE
  5
3F
102
{ACAD_REACTORS
330
2A
102
}
330
2A
100
AcDbVisualStyle
  2
Sketchy
 70
    24
177
     3
291
     0
 70
    58
 90
        1
176
     1
 90
        2
176
     1
 90
        2
176
     1
 90
        0
176
     1
 40
0.6
176
     1
 40
30.0
176
     1
 62
     7
420
 16777215
176
     1
 90
        2
176
     1
 90
        2
176
     1
 62
     7
176
     1
 62
     7
176
     1
 90
        1
176
     1
 90
        1
176
     1
 40
40.0
176
     1
 90
       11
176
     1
 62
     7
176
     1
 40
1.0
176
     1
 90
        1
176
     1
 90
        6
176
     1
 90
        2
176
     1
 62
     7
176
     1
 90
        6
176
     1
 90
        0
176
     1
 90
        0
176
     1
290
     0
176
     1
 90
        1
176
     1
 40
0.0
176
     1
 90
        0
176
     1
290
     0
176
     1
290
     1
176
     1
290
     1
176
     1
290
     0
176
     1
290
     0
176
     1
290
     0
176
     1
290
     0
176
     1
290
     0
176
     1
290
     0
176
     1
 90
       50
176
     1
 40
0.0
176
     1
 40
1.0
176
     1
 90
        0
176
     1
 62
    18
420
        0
176
     1
 90
       50
176
     1
 90
        3
176
     1
 62
     5
420
      255
176
     1
290
     0
176
     1
 90
       50
176
     1
 90
       50
176
     1
 90
       50
176
     1
290
     0
176
     1
 90
       50
176
     1
 62
   256
176
     0
 40
1.0
176
     0
 90
        2
176
     1
  1
strokes_ogs.tif
176
     1
290
     0
176
     1
 40
1.0
176
     1
 40
1.0
176
     1
  0
VISUALSTYLE
  5
37
102
{ACAD_REACTORS
330
2A
102
}
330
2A
100
AcDbVisualStyle
  2
Thicken
 70
    13
177
     3
291
     1
 70
    58
 90
        2
176
     1
 90
        2
176
     1
 90
        0
176
     1
 90
        0
176
     1
 40
0.6
176
     1
 40
30.0
176
     1
 62
     7
420
 16777215
176
     1
 90
        1
176
     1
 90
        4
176
     1
 62
     7
176
     1
 62
   257
176
     1
 90
        1
176
     1
 90
        1
176
     1
 40
1.0
176
     1
 90
       12
176
     1
 62
     7
176
     1
 40
1.0
176
     1
 90
        1
176
     1
 90
        6
176
     1
 90
        2
176
     1
 62
     7
176
     1
 90
        5
176
     1
 90
        0
176
     1
 90
        0
176
     1
290
     0
176
     1
 90
        1
176
     1
 40
0.0
176
     1
 90
        0
176
     1
290
     0
176
     1
290
     1
176
     1
290
     1
176
     1
290
     0
176
     1
290
     0
176
     1
290
     0
176
     1
290
     0
176
     1
290
     0
176
     1
290
     0
176
     1
 90
       50
176
     1
 40
0.0
176
     1
 40
1.0
176
     1
 90
        0
176
     1
 62
    18
420
        0
176
     1
 90
       50
176
     1
 90
        3
176
     1
 62
     5
420
      255
176
     1
290
     0
176
     1
 90
       50
176
     1
 90
       50
176
     1
 90
       50
176
     1
290
     0
176
     1
 90
       50
176
     1
 62
   256
176
     0
 40
1.0
176
     0
 90
        2
176
     1
  1
strokes_ogs.tif
176
     1
290
     0
176
     1
 40
1.0
176
     1
 40
1.0
176
     1
  0
VISUALSTYLE
  5
30
102
{ACAD_REACTORS
330
2A
102
}
330
2A
100
AcDbVisualStyle
  2
Wireframe
 70
     5
177
     3
291
     0
 70
    58
 90
        0
176
     1
 90
        2
176
     1
 90
        0
176
     1
 90
        0
176
     1
 40
0.6
176
     1
 40
30.0
176
     1
 62
     7
420
 16777215
176
     1
 90
        1
176
     1
 90
        4
176
     1
 62
     7
176
     1
 62
   257
176
     1
 90
        1
176
     1
 90
        1
176
     1
 40
1.0
176
     1
 90
        0
176
     1
 62
   257
176
     1
 40
1.0
176
     1
 90
        1
176
     1
 90
        6
176
     1
 90
        2
176
     1
 62
     7
176
     1
 90
        3
176
     1
 90
        0
176
     1
 90
        0
176
     1
290
     0
176
     1
 90
        1
176
     1
 40
0.0
176
     1
 90
        0
176
     1
290
     0
176
     1
290
     1
176
     1
290
     1
176
     1
290
     0
176
     1
290
     0
176
     1
290
     0
176
     1
290
     0
176
     1
290
     0
176
     1
290
     0
176
     1
 90
       50
176
     1
 40
0.0
176
     1
 40
1.0
176
     1
 90
        0
176
     1
 62
    18
420
        0
176
     1
 90
       50
176
     1
 90
        3
176
     1
 62
     5
420
      255
176
     1
290
     0
176
     1
 90
       50
176
     1
 90
       50
176
     1
 90
       50
176
     1
290
     0
176
     1
 90
       50
176
     1
 62
   256
176
     0
 40
1.0
176
     0
 90
        2
176
     1
  1
strokes_ogs.tif
176
     1
290
     0
176
     1
 40
1.0
176
     1
 40
1.0
176
     1
  0
VISUALSTYLE
  5
40
102
{ACAD_REACTORS
330
2A
102
}
330
2A
100
AcDbVisualStyle
  2
X-Ray
 70
    25
177
     3
291
     0
 70
    58
 90
        2
176
     1
 90
        2
176
     1
 90
        1
176
     1
 90
        1
176
     1
 40
0.5
176
     1
 40
30.0
176
     1
 62
     7
420
 16777215
176
     1
 90
        1
176
     1
 90
        0
176
     1
 62
     7
176
     1
 62
   257
176
     1
 90
        1
176
     1
 90
        1
176
     1
 40
1.0
176
     1
 90
        8
176
     1
 62
     7
176
     1
 40
1.0
176
     1
 90
        1
176
     1
 90
        6
176
     1
 90
        2
176
     1
 62
     7
176
     1
 90
        3
176
     1
 90
        0
176
     1
 90
        0
176
     1
290
     0
176
     1
 90
       13
176
     1
 40
0.0
176
     1
 90
        0
176
     1
290
     0
176
     1
290
     1
176
     1
290
     1
176
     1
290
     0
176
     1
290
     0
176
     1
290
     0
176
     1
290
     0
176
     1
290
     0
176
     1
290
     0
176
     1
 90
       50
176
     1
 40
0.0
176
     1
 40
1.0
176
     1
 90
        0
176
     1
 62
    18
420
        0
176
     1
 90
       50
176
     1
 90
        3
176
     1
 62
     5
420
      255
176
     1
290
     0
176
     1
 90
       50
176
     1
 90
       50
176
     1
 90
       50
176
     1
290
     0
176
     1
 90
       50
176
     1
 62
   256
176
     0
 40
1.0
176
     0
 90
        2
176
     1
  1
strokes_ogs.tif
176
     1
290
     0
176
     1
 40
1.0
176
     1
 40
1.0
176
     1
  0
DICTIONARYVAR
  5
1E7
102
{ACAD_REACTORS
330
1E6
102
}
330
1E6
100
DictionaryVariables
280
     0
  1
1:1
  0
DICTIONARYVAR
  5
1EC
102
{ACAD_REACTORS
330
1E6
102
}
330
1E6
100
DictionaryVariables
280
     0
  1
Standard
  0
DICTIONARYVAR
  5
1EB
102
{ACAD_REACTORS
330
1E6
102
}
330
1E6
100
DictionaryVariables
280
     0
  1
Standard
  0
DICTIONARY
  5
1E8
330
6A
100
AcDbDictionary
280
     1
281
     1
  3
ACAD_ROUNDTRIP_2008_TABLESTYLE_CELLSTYLEMAP
360
1E9
  0
CELLSTYLEMAP
  5
1E9
102
{ACAD_REACTORS
330
1E8
102
}
330
1E8
100
AcDbCellStyleMap
 90
        3
300
CELLSTYLE
  1
TABLEFORMAT_BEGIN
 90
        5
170
     1
 91
        0
 92
    32768
 62
   257
 93
        1
300
CONTENTFORMAT
  1
CONTENTFORMAT_BEGIN
 90
        0
 91
        0
 92
        4
 93
        0
300

 40
0.0
140
1.0
 94
        5
 62
     0
340
11
144
0.25
309
CONTENTFORMAT_END
171
     1
301
MARGIN
  1
CELLMARGIN_BEGIN
 40
0.06
 40
0.06
 40
0.06
 40
0.06
 40
0.06
 40
0.06
309
CELLMARGIN_END
 94
        6
 95
        1
302
GRIDFORMAT
  1
GRIDFORMAT_BEGIN
 90
        0
 91
        1
 62
     0
 92
       -2
340
14
 93
        0
 40
0.045
309
GRIDFORMAT_END
 95
        2
302
GRIDFORMAT
  1
GRIDFORMAT_BEGIN
 90
        0
 91
        1
 62
     0
 92
       -2
340
14
 93
        0
 40
0.045
309
GRIDFORMAT_END
 95
        4
302
GRIDFORMAT
  1
GRIDFORMAT_BEGIN
 90
        0
 91
        1
 62
     0
 92
       -2
340
14
 93
        0
 40
0.045
309
GRIDFORMAT_END
 95
        8
302
GRIDFORMAT
  1
GRIDFORMAT_BEGIN
 90
        0
 91
        1
 62
     0
 92
       -2
340
14
 93
        0
 40
0.045
309
GRIDFORMAT_END
 95
       16
302
GRIDFORMAT
  1
GRIDFORMAT_BEGIN
 90
        0
 91
        1
 62
     0
 92
       -2
340
14
 93
        0
 40
0.045
309
GRIDFORMAT_END
 95
       32
302
GRIDFORMAT
  1
GRIDFORMAT_BEGIN
 90
        0
 91
        1
 62
     0
 92
       -2
340
14
 93
        0
 40
0.045
309
GRIDFORMAT_END
309
TABLEFORMAT_END
  1
CELLSTYLE_BEGIN
 90
        1
 91
        1
300
_TITLE
309
CELLSTYLE_END
300
CELLSTYLE
  1
TABLEFORMAT_BEGIN
 90
        5
170
     1
 91
        0
 92
        0
 62
   257
 93
        1
300
CONTENTFORMAT
  1
CONTENTFORMAT_BEGIN
 90
        0
 91
        0
 92
        4
 93
        0
300

 40
0.0
140
1.0
 94
        5
 62
     0
340
11
144
0.18
309
CONTENTFORMAT_END
171
     1
301
MARGIN
  1
CELLMARGIN_BEGIN
 40
0.06
 40
0.06
 40
0.06
 40
0.06
 40
0.06
 40
0.06
309
CELLMARGIN_END
 94
        6
 95
        1
302
GRIDFORMAT
  1
GRIDFORMAT_BEGIN
 90
        0
 91
        1
 62
     0
 92
       -2
340
14
 93
        0
 40
0.045
309
GRIDFORMAT_END
 95
        2
302
GRIDFORMAT
  1
GRIDFORMAT_BEGIN
 90
        0
 91
        1
 62
     0
 92
       -2
340
14
 93
        0
 40
0.045
309
GRIDFORMAT_END
 95
        4
302
GRIDFORMAT
  1
GRIDFORMAT_BEGIN
 90
        0
 91
        1
 62
     0
 92
       -2
340
14
 93
        0
 40
0.045
309
GRIDFORMAT_END
 95
        8
302
GRIDFORMAT
  1
GRIDFORMAT_BEGIN
 90
        0
 91
        1
 62
     0
 92
       -2
340
14
 93
        0
 40
0.045
309
GRIDFORMAT_END
 95
       16
302
GRIDFORMAT
  1
GRIDFORMAT_BEGIN
 90
        0
 91
        1
 62
     0
 92
       -2
340
14
 93
        0
 40
0.045
309
GRIDFORMAT_END
 95
       32
302
GRIDFORMAT
  1
GRIDFORMAT_BEGIN
 90
        0
 91
        1
 62
     0
 92
       -2
340
14
 93
        0
 40
0.045
309
GRIDFORMAT_END
309
TABLEFORMAT_END
  1
CELLSTYLE_BEGIN
 90
        2
 91
        1
300
_HEADER
309
CELLSTYLE_END
300
CELLSTYLE
  1
TABLEFORMAT_BEGIN
 90
        5
170
     1
 91
        0
 92
        0
 62
   257
 93
        1
300
CONTENTFORMAT
  1
CONTENTFORMAT_BEGIN
 90
        0
 91
        0
 92
        4
 93
        0
300

 40
0.0
140
1.0
 94
        2
 62
     0
340
11
144
0.18
309
CONTENTFORMAT_END
171
     1
301
MARGIN
  1
CELLMARGIN_BEGIN
 40
0.06
 40
0.06
 40
0.06
 40
0.06
 40
0.06
 40
0.06
309
CELLMARGIN_END
 94
        6
 95
        1
302
GRIDFORMAT
  1
GRIDFORMAT_BEGIN
 90
        0
 91
        1
 62
     0
 92
       -2
340
14
 93
        0
 40
0.045
309
GRIDFORMAT_END
 95
        2
302
GRIDFORMAT
  1
GRIDFORMAT_BEGIN
 90
        0
 91
        1
 62
     0
 92
       -2
340
14
 93
        0
 40
0.045
309
GRIDFORMAT_END
 95
        4
302
GRIDFORMAT
  1
GRIDFORMAT_BEGIN
 90
        0
 91
        1
 62
     0
 92
       -2
340
14
 93
        0
 40
0.045
309
GRIDFORMAT_END
 95
        8
302
GRIDFORMAT
  1
GRIDFORMAT_BEGIN
 90
        0
 91
        1
 62
     0
 92
       -2
340
14
 93
        0
 40
0.045
309
GRIDFORMAT_END
 95
       16
302
GRIDFORMAT
  1
GRIDFORMAT_BEGIN
 90
        0
 91
        1
 62
     0
 92
       -2
340
14
 93
        0
 40
0.045
309
GRIDFORMAT_END
 95
       32
302
GRIDFORMAT
  1
GRIDFORMAT_BEGIN
 90
        0
 91
        1
 62
     0
 92
       -2
340
14
 93
        0
 40
0.045
309
GRIDFORMAT_END
309
TABLEFORMAT_END
  1
CELLSTYLE_BEGIN
 90
        3
 91
        2
300
_DATA
309
CELLSTYLE_END
  0
ENDSEC
  0
EOF