0
SECTION
  2
HEADER
  9
$ACADVER
  1
AC1027
  9
$ACADMAINTVER
 70
     8
  9
$DWGCODEPAGE
  3
ANSI_1252
  9
$REQUIREDVERSIONS
160
                 0
  9
$COMMENTS
  1
File was created by Cadenas
  9
$CUSTOMPROPERTYTAG
  1
NN
  9
$CUSTOMPROPERTY
  1
Eccentric Collar Low Backing Height Two-Bolt Pillow Block Inch Bore
  9
$CUSTOMPROPERTYTAG
  1
NT
  9
$CUSTOMPROPERTY
  1
Eccentric Collar Pillow Block Bearings -(Normal Duty) -Low Backing Height
  9
$CUSTOMPROPERTYTAG
  1
NB
  9
$CUSTOMPROPERTY
  1
131844
  9
$CUSTOMPROPERTYTAG
  1
NBSYN
  9
$CUSTOMPROPERTY
  1
$PN.
  9
$CUSTOMPROPERTYTAG
  1
LINA
  9
$CUSTOMPROPERTY
  1
131844
  9
$CUSTOMPROPERTYTAG
  1
SERIES
  9
$CUSTOMPROPERTY
  1
209
  9
$CUSTOMPROPERTYTAG
  1
SS
  9
$CUSTOMPROPERTY
  1
1-3/4
  9
$CUSTOMPROPERTYTAG
  1
PN
  9
$CUSTOMPROPERTY
  1
131844
  9
$CUSTOMPROPERTYTAG
  1
DESCRIPTION
  9
$CUSTOMPROPERTY
  1
P2B-SXRB-112
  9
$CUSTOMPROPERTYTAG
  1
WEIGHT
  9
$CUSTOMPROPERTY
  1
6.2
  9
$CUSTOMPROPERTYTAG
  1
A
  9
$CUSTOMPROPERTY
  1
2.13
  9
$CUSTOMPROPERTYTAG
  1
B
  9
$CUSTOMPROPERTY
  1
7.44
  9
$CUSTOMPROPERTYTAG
  1
C
  9
$CUSTOMPROPERTY
  1
2.00
  9
$CUSTOMPROPERTYTAG
  1
DMIN
  9
$CUSTOMPROPERTY
  1
5.50
  9
$CUSTOMPROPERTYTAG
  1
DMAX
  9
$CUSTOMPROPERTY
  1
6.19
  9
$CUSTOMPROPERTYTAG
  1
F
  9
$CUSTOMPROPERTY
  1
1/2
  9
$CUSTOMPROPERTYTAG
  1
G
  9
$CUSTOMPROPERTY
  1
0.90
  9
$CUSTOMPROPERTYTAG
  1
H
  9
$CUSTOMPROPERTY
  1
0.69
  9
$CUSTOMPROPERTYTAG
  1
J
  9
$CUSTOMPROPERTY
  1
4.21
  9
$CUSTOMPROPERTYTAG
  1
L
  9
$CUSTOMPROPERTY
  1
2.50
  9
$CUSTOMPROPERTYTAG
  1
M
  9
$CUSTOMPROPERTY
  1
2.06
  9
$CUSTOMPROPERTYTAG
  1
R
  9
$CUSTOMPROPERTY
  1
0.75
  9
$CUSTOMPROPERTYTAG
  1
S
  9
$CUSTOMPROPERTY
  1
1.38
  9
$CUSTOMPROPERTYTAG
  1
U
  9
$CUSTOMPROPERTY
  1
3.38
  9
$CUSTOMPROPERTYTAG
  1
V
  9
$CUSTOMPROPERTY
  1
6.76
  9
$CUSTOMPROPERTYTAG
  1
W
  9
$CUSTOMPROPERTY
  1
0.69
  9
$CUSTOMPROPERTYTAG
  1
X
  9
$CUSTOMPROPERTY
  1
0.12
  9
$CUSTOMPROPERTYTAG
  1
COMPANY
  9
$CUSTOMPROPERTY
  1
baldor
  9
$INSBASE
 10
0.0
 20
0.0
 30
0.0
  9
$EXTMIN
 10
1.000000000000000E+20
 20
1.000000000000000E+20
 30
1.000000000000000E+20
  9
$EXTMAX
 10
-1.000000000000000E+20
 20
-1.000000000000000E+20
 30
-1.000000000000000E+20
  9
$LIMMIN
 10
0.0
 20
0.0
  9
$LIMMAX
 10
12.0
 20
9.0
  9
$ORTHOMODE
 70
     0
  9
$REGENMODE
 70
     1
  9
$FILLMODE
 70
     1
  9
$QTEXTMODE
 70
     0
  9
$MIRRTEXT
 70
     1
  9
$LTSCALE
 40
1.0
  9
$ATTMODE
 70
     1
  9
$TEXTSIZE
 40
0.2
  9
$TRACEWID
 40
0.05
  9
$TEXTSTYLE
  7
Standard
  9
$CLAYER
  8
0
  9
$CELTYPE
  6
ByLayer
  9
$CECOLOR
 62
   256
  9
$CELTSCALE
 40
1.0
  9
$DISPSILH
 70
     0
  9
$DIMSCALE
 40
1.0
  9
$DIMASZ
 40
0.18
  9
$DIMEXO
 40
0.0625
  9
$DIMDLI
 40
0.38
  9
$DIMRND
 40
0.0
  9
$DIMDLE
 40
0.0
  9
$DIMEXE
 40
0.18
  9
$DIMTP
 40
0.0
  9
$DIMTM
 40
0.0
  9
$DIMTXT
 40
0.18
  9
$DIMCEN
 40
0.09
  9
$DIMTSZ
 40
0.0
  9
$DIMTOL
 70
     0
  9
$DIMLIM
 70
     0
  9
$DIMTIH
 70
     1
  9
$DIMTOH
 70
     1
  9
$DIMSE1
 70
     0
  9
$DIMSE2
 70
     0
  9
$DIMTAD
 70
     0
  9
$DIMZIN
 70
     0
  9
$DIMBLK
  1

  9
$DIMASO
 70
     1
  9
$DIMSHO
 70
     1
  9
$DIMPOST
  1

  9
$DIMAPOST
  1

  9
$DIMALT
 70
     0
  9
$DIMALTD
 70
     2
  9
$DIMALTF
 40
25.4
  9
$DIMLFAC
 40
1.0
  9
$DIMTOFL
 70
     0
  9
$DIMTVP
 40
0.0
  9
$DIMTIX
 70
     0
  9
$DIMSOXD
 70
     0
  9
$DIMSAH
 70
     0
  9
$DIMBLK1
  1

  9
$DIMBLK2
  1

  9
$DIMSTYLE
  2
Standard
  9
$DIMCLRD
 70
     0
  9
$DIMCLRE
 70
     0
  9
$DIMCLRT
 70
     0
  9
$DIMTFAC
 40
1.0
  9
$DIMGAP
 40
0.09
  9
$DIMJUST
 70
     0
  9
$DIMSD1
 70
     0
  9
$DIMSD2
 70
     0
  9
$DIMTOLJ
 70
     1
  9
$DIMTZIN
 70
     0
  9
$DIMALTZ
 70
     0
  9
$DIMALTTZ
 70
     0
  9
$DIMUPT
 70
     0
  9
$DIMDEC
 70
     4
  9
$DIMTDEC
 70
     4
  9
$DIMALTU
 70
     2
  9
$DIMALTTD
 70
     2
  9
$DIMTXSTY
  7
Standard
  9
$DIMAUNIT
 70
     0
  9
$DIMADEC
 70
     0
  9
$DIMALTRND
 40
0.0
  9
$DIMAZIN
 70
     0
  9
$DIMDSEP
 70
    46
  9
$DIMATFIT
 70
     3
  9
$DIMFRAC
 70
     0
  9
$DIMLDRBLK
  1

  9
$DIMLUNIT
 70
     2
  9
$DIMLWD
 70
    -2
  9
$DIMLWE
 70
    -2
  9
$DIMTMOVE
 70
     0
  9
$DIMFXL
 40
1.0
  9
$DIMFXLON
 70
     0
  9
$DIMJOGANG
 40
0.7853981633974483
  9
$DIMTFILL
 70
     0
  9
$DIMTFILLCLR
 70
     0
  9
$DIMARCSYM
 70
     0
  9
$DIMLTYPE
  6

  9
$DIMLTEX1
  6

  9
$DIMLTEX2
  6

  9
$DIMTXTDIRECTION
 70
     0
  9
$LUNITS
 70
     2
  9
$LUPREC
 70
     4
  9
$SKETCHINC
 40
0.1
  9
$FILLETRAD
 40
0.5
  9
$AUNITS
 70
     0
  9
$AUPREC
 70
     0
  9
$MENU
  1
.
  9
$ELEVATION
 40
0.0
  9
$PELEVATION
 40
0.0
  9
$THICKNESS
 40
0.0
  9
$LIMCHECK
 70
     0
  9
$CHAMFERA
 40
0.0
  9
$CHAMFERB
 40
0.0
  9
$CHAMFERC
 40
0.0
  9
$CHAMFERD
 40
0.0
  9
$SKPOLY
 70
     0
  9
$TDCREATE
 40
2458168.98075713
  9
$TDUCREATE
 40
2458168.939090463
  9
$TDUPDATE
 40
2458168.980757315
  9
$TDUUPDATE
 40
2458168.939090648
  9
$TDINDWG
 40
0.0000000116
  9
$TDUSRTIMER
 40
0.0000000116
  9
$USRTIMER
 70
     1
  9
$ANGBASE
 50
0.0
  9
$ANGDIR
 70
     0
  9
$PDMODE
 70
     0
  9
$PDSIZE
 40
0.0
  9
$PLINEWID
 40
0.0
  9
$SPLFRAME
 70
     0
  9
$SPLINETYPE
 70
     6
  9
$SPLINESEGS
 70
     8
  9
$HANDSEED
  5
1ED
  9
$SURFTAB1
 70
     6
  9
$SURFTAB2
 70
     6
  9
$SURFTYPE
 70
     6
  9
$SURFU
 70
     6
  9
$SURFV
 70
     6
  9
$UCSBASE
  2

  9
$UCSNAME
  2

  9
$UCSORG
 10
0.0
 20
0.0
 30
0.0
  9
$UCSXDIR
 10
1.0
 20
0.0
 30
0.0
  9
$UCSYDIR
 10
0.0
 20
1.0
 30
0.0
  9
$UCSORTHOREF
  2

  9
$UCSORTHOVIEW
 70
     0
  9
$UCSORGTOP
 10
0.0
 20
0.0
 30
0.0
  9
$UCSORGBOTTOM
 10
0.0
 20
0.0
 30
0.0
  9
$UCSORGLEFT
 10
0.0
 20
0.0
 30
0.0
  9
$UCSORGRIGHT
 10
0.0
 20
0.0
 30
0.0
  9
$UCSORGFRONT
 10
0.0
 20
0.0
 30
0.0
  9
$UCSORGBACK
 10
0.0
 20
0.0
 30
0.0
  9
$PUCSBASE
  2

  9
$PUCSNAME
  2

  9
$PUCSORG
 10
0.0
 20
0.0
 30
0.0
  9
$PUCSXDIR
 10
1.0
 20
0.0
 30
0.0
  9
$PUCSYDIR
 10
0.0
 20
1.0
 30
0.0
  9
$PUCSORTHOREF
  2

  9
$PUCSORTHOVIEW
 70
     0
  9
$PUCSORGTOP
 10
0.0
 20
0.0
 30
0.0
  9
$PUCSORGBOTTOM
 10
0.0
 20
0.0
 30
0.0
  9
$PUCSORGLEFT
 10
0.0
 20
0.0
 30
0.0
  9
$PUCSORGRIGHT
 10
0.0
 20
0.0
 30
0.0
  9
$PUCSORGFRONT
 10
0.0
 20
0.0
 30
0.0
  9
$PUCSORGBACK
 10
0.0
 20
0.0
 30
0.0
  9
$USERI1
 70
     0
  9
$USERI2
 70
     0
  9
$USERI3
 70
     0
  9
$USERI4
 70
     0
  9
$USERI5
 70
     0
  9
$USERR1
 40
0.0
  9
$USERR2
 40
0.0
  9
$USERR3
 40
0.0
  9
$USERR4
 40
0.0
  9
$USERR5
 40
0.0
  9
$WORLDVIEW
 70
     1
  9
$SHADEDGE
 70
     3
  9
$SHADEDIF
 70
    70
  9
$TILEMODE
 70
     1
  9
$MAXACTVP
 70
    64
  9
$PINSBASE
 10
0.0
 20
0.0
 30
0.0
  9
$PLIMCHECK
 70
     0
  9
$PEXTMIN
 10
1.000000000000000E+20
 20
1.000000000000000E+20
 30
1.000000000000000E+20
  9
$PEXTMAX
 10
-1.000000000000000E+20
 20
-1.000000000000000E+20
 30
-1.000000000000000E+20
  9
$PLIMMIN
 10
0.0
 20
0.0
  9
$PLIMMAX
 10
12.0
 20
9.0
  9
$UNITMODE
 70
     0
  9
$VISRETAIN
 70
     1
  9
$PLINEGEN
 70
     0
  9
$PSLTSCALE
 70
     1
  9
$TREEDEPTH
 70
  3020
  9
$CMLSTYLE
  2
Standard
  9
$CMLJUST
 70
     0
  9
$CMLSCALE
 40
1.0
  9
$PROXYGRAPHICS
 70
     1
  9
$MEASUREMENT
 70
     0
  9
$CELWEIGHT
370
    -1
  9
$ENDCAPS
280
     0
  9
$JOINSTYLE
280
     0
  9
$LWDISPLAY
290
     0
  9
$INSUNITS
 70
     1
  9
$HYPERLINKBASE
  1

  9
$STYLESHEET
  1

  9
$XEDIT
290
     1
  9
$CEPSNTYPE
380
     0
  9
$PSTYLEMODE
290
     1
  9
$FINGERPRINTGUID
  2
{7CD5CBB8-5548-44C6-94CD-54342519B74E}
  9
$VERSIONGUID
  2
{FAEB1C32-E019-11D5-929B-00C0DF256EC4}
  9
$EXTNAMES
290
     1
  9
$PSVPSCALE
 40
0.0
  9
$OLESTARTUP
290
     0
  9
$SORTENTS
280
   127
  9
$INDEXCTL
280
     0
  9
$HIDETEXT
280
     1
  9
$XCLIPFRAME
280
     2
  9
$HALOGAP
280
     0
  9
$OBSCOLOR
 70
   257
  9
$OBSLTYPE
280
     0
  9
$INTERSECTIONDISPLAY
280
     0
  9
$INTERSECTIONCOLOR
 70
   257
  9
$DIMASSOC
280
     2
  9
$PROJECTNAME
  1

  9
$CAMERADISPLAY
290
     0
  9
$LENSLENGTH
 40
50.0
  9
$CAMERAHEIGHT
 40
0.0
  9
$STEPSPERSEC
 40
2.0
  9
$STEPSIZE
 40
6.0
  9
$3DDWFPREC
 40
2.0
  9
$PSOLWIDTH
 40
0.25
  9
$PSOLHEIGHT
 40
4.0
  9
$LOFTANG1
 40
1.570796326794897
  9
$LOFTANG2
 40
1.570796326794897
  9
$LOFTMAG1
 40
0.0
  9
$LOFTMAG2
 40
0.0
  9
$LOFTPARAM
 70
     7
  9
$LOFTNORMALS
280
     1
  9
$LATITUDE
 40
37.795
  9
$LONGITUDE
 40
-122.394
  9
$NORTHDIRECTION
 40
0.0
  9
$TIMEZONE
 70
 -8000
  9
$LIGHTGLYPHDISPLAY
280
     1
  9
$TILEMODELIGHTSYNCH
280
     1
  9
$CMATERIAL
347
44
  9
$SOLIDHIST
280
     0
  9
$SHOWHIST
280
     1
  9
$DWFFRAME
280
     2
  9
$DGNFRAME
280
     2
  9
$REALWORLDSCALE
290
     1
  9
$INTERFERECOLOR
 62
   256
  9
$CSHADOW
280
     0
  9
$SHADOWPLANELOCATION
 40
0.0
  0
ENDSEC
  0
SECTION
  2
CLASSES
  0
CLASS
  1
ACDBDICTIONARYWDFLT
  2
AcDbDictionaryWithDefault
  3
ObjectDBX Classes
 90
        0
 91
        4
280
     0
281
     0
  0
CLASS
  1
VISUALSTYLE
  2
AcDbVisualStyle
  3
ObjectDBX Classes
 90
     4095
 91
        4
280
     0
281
     0
  0
CLASS
  1
MATERIAL
  2
AcDbMaterial
  3
ObjectDBX Classes
 90
     1153
 91
        4
280
     0
281
     0
  0
CLASS
  1
SCALE
  2
AcDbScale
  3
ObjectDBX Classes
 90
     1153
 91
        4
280
     0
281
     0
  0
CLASS
  1
TABLESTYLE
  2
AcDbTableStyle
  3
ObjectDBX Classes
 90
     4095
 91
        4
280
     0
281
     0
  0
CLASS
  1
MLEADERSTYLE
  2
AcDbMLeaderStyle
  3
ACDB_MLEADERSTYLE_CLASS
 90
     4095
 91
        4
280
     0
281
     0
  0
CLASS
  1
SUN
  2
AcDbSun
  3
SCENEOE
 90
     1153
 91
        4
280
     0
281
     0
  0
CLASS
  1
DICTIONARYVAR
  2
AcDbDictionaryVar
  3
ObjectDBX Classes
 90
        0
 91
        4
280
     0
281
     0
  0
CLASS
  1
CELLSTYLEMAP
  2
AcDbCellStyleMap
  3
ObjectDBX Classes
 90
     1152
 91
        4
280
     0
281
     0
  0
ENDSEC
  0
SECTION
  2
TABLES
  0
TABLE
  2
VPORT
  5
8
330
0
100
AcDbSymbolTable
 70
     1
  0
VPORT
  5
29
330
8
100
AcDbSymbolTableRecord
100
AcDbViewportTableRecord
  2
*Active
 70
     0
 10
0.0
 20
0.0
 11
1.0
 21
1.0
 12
0.0
 22
-0.1932499999999999
 13
0.0
 23
0.0
 14
0.5
 24
0.5
 15
0.5
 25
0.5
 16
0.0
 26
0.0
 36
1.0
 17
0.0
 27
0.0
 37
0.0
 40
2.638230000000001
 41
2.876473999613377
 42
50.0
 43
0.0
 44
0.0
 50
0.0
 51
0.0
 71
     0
 72
   100
 73
     1
 74
     3
 75
     0
 76
     0
 77
     0
 78
     0
281
     0
 65
     1
110
0.0
120
0.0
130
0.0
111
1.0
121
0.0
131
0.0
112
0.0
122
1.0
132
0.0
 79
     0
146
0.0
348
2F
 60
     3
 61
     5
292
     1
282
     1
141
0.0
142
0.0
 63
   250
361
6D
  0
ENDTAB
  0
TABLE
  2
LTYPE
  5
5
330
0
100
AcDbSymbolTable
 70
     3
  0
LTYPE
  5
14
330
5
100
AcDbSymbolTableRecord
100
AcDbLinetypeTableRecord
  2
ByBlock
 70
     0
  3

 72
    65
 73
     0
 40
0.0
  0
LTYPE
  5
15
330
5
100
AcDbSymbolTableRecord
100
AcDbLinetypeTableRecord
  2
ByLayer
 70
     0
  3

 72
    65
 73
     0
 40
0.0
  0
LTYPE
  5
16
330
5
100
AcDbSymbolTableRecord
100
AcDbLinetypeTableRecord
  2
Continuous
 70
     0
  3
Solid line
 72
    65
 73
     0
 40
0.0
  0
LTYPE
  5
9B
330
5
100
AcDbSymbolTableRecord
100
AcDbLinetypeTableRecord
  2
Dashed
 70
     0
  3

 72
    65
 73
     2
 40
2.0
 49
1.0
 74
     0
 49
-1.0
 74
     0
  0
LTYPE
  5
116
330
5
100
AcDbSymbolTableRecord
100
AcDbLinetypeTableRecord
  2
Center
 70
     0
  3

 72
    65
 73
     4
 40
1.5
 49
0.45
 74
     0
 49
-0.5
 74
     0
 49
0.05
 74
     0
 49
-0.5
 74
     0
  0
ENDTAB
  0
TABLE
  2
LAYER
  5
2
330
0
100
AcDbSymbolTable
 70
     7
  0
LAYER
  5
10
330
2
100
AcDbSymbolTableRecord
100
AcDbLayerTableRecord
  2
0
 70
     0
 62
     7
  6
Continuous
370
    -3
390
F
347
46
348
0
  0
LAYER
  5
72
330
2
100
AcDbSymbolTableRecord
100
AcDbLayerTableRecord
  2
AM_6
 70
     0
 62
    -2
  6
Continuous
370
    35
390
F
347
46
348
0
  0
LAYER
  5
9C
330
2
100
AcDbSymbolTableRecord
100
AcDbLayerTableRecord
  2
AM_9
 70
     0
 62
     6
  6
Dashed
370
    25
390
F
347
46
348
0
  0
LAYER
  5
B9
330
2
100
AcDbSymbolTableRecord
100
AcDbLayerTableRecord
  2
AM_4
 70
     0
 62
     7
  6
Continuous
370
    50
390
F
347
46
348
0
  0
LAYER
  5
117
330
2
100
AcDbSymbolTableRecord
100
AcDbLayerTableRecord
  2
AM_7
 70
     0
 62
     7
  6
Center
370
    25
390
F
347
46
348
0
  0
LAYER
  5
137
330
2
100
AcDbSymbolTableRecord
100
AcDbLayerTableRecord
  2
AM_5
 70
     0
 62
     3
  6
Continuous
370
    25
390
F
347
46
348
0
  0
LAYER
  5
1DE
330
2
100
AcDbSymbolTableRecord
100
AcDbLayerTableRecord
  2
ConnectionPoints
 70
     0
 62
     7
  6
Continuous
370
    50
390
F
347
46
348
0
  0
ENDTAB
  0
TABLE
  2
STYLE
  5
3
330
0
100
AcDbSymbolTable
 70
     1
  0
STYLE
  5
11
330
3
100
AcDbSymbolTableRecord
100
AcDbTextStyleTableRecord
  2
Standard
 70
     0
 40
0.0
 41
1.0
 50
0.0
 71
     0
 42
0.2
  3
txt
  4

  0
ENDTAB
  0
TABLE
  2
VIEW
  5
6
330
0
100
AcDbSymbolTable
 70
     0
  0
ENDTAB
  0
TABLE
  2
UCS
  5
7
330
0
100
AcDbSymbolTable
 70
     0
  0
ENDTAB
  0
TABLE
  2
APPID
  5
9
330
0
100
AcDbSymbolTable
 70
     1
  0
APPID
  5
12
330
9
100
AcDbSymbolTableRecord
100
AcDbRegAppTableRecord
  2
ACAD
 70
     0
  0
ENDTAB
  0
TABLE
  2
DIMSTYLE
  5
A
330
0
100
AcDbSymbolTable
 70
     1
100
AcDbDimStyleTable
  0
DIMSTYLE
105
27
330
A
100
AcDbSymbolTableRecord
100
AcDbDimStyleTableRecord
  2
Standard
 70
     0
178
     0
340
11
  0
ENDTAB
  0
TABLE
  2
BLOCK_RECORD
  5
1
330
0
100
AcDbSymbolTable
 70
     5
  0
BLOCK_RECORD
  5
1F
330
1
100
AcDbSymbolTableRecord
100
AcDbBlockTableRecord
  2
*Model_Space
340
22
 70
     0
280
     1
281
     0
  0
BLOCK_RECORD
  5
1B
330
1
100
AcDbSymbolTableRecord
100
AcDbBlockTableRecord
  2
*Paper_Space
340
1E
 70
     0
280
     1
281
     0
  0
BLOCK_RECORD
  5
23
330
1
100
AcDbSymbolTableRecord
100
AcDbBlockTableRecord
  2
*Paper_Space0
340
26
 70
     0
280
     1
281
     0
  0
BLOCK_RECORD
  5
6E
330
1
100
AcDbSymbolTableRecord
100
AcDbBlockTableRecord
  2
1_131844_4
340
0
102
{BLKREFS
331
6F
102
}
 70
     0
280
     1
281
     0
  0
BLOCK_RECORD
  5
8F
330
1
100
AcDbSymbolTableRecord
100
AcDbBlockTableRecord
  2
2_405015E_Inch_0_in_131844_4
340
0
102
{BLKREFS
331
90
102
}
 70
     0
280
     1
281
     0
  0
BLOCK_RECORD
  5
D5
330
1
100
AcDbSymbolTableRecord
100
AcDbBlockTableRecord
  2
3_131920_0_in_131844_4
340
0
102
{BLKREFS
331
D6
102
}
 70
     0
280
     1
281
     0
  0
BLOCK_RECORD
  5
139
330
1
100
AcDbSymbolTableRecord
100
AcDbBlockTableRecord
  2
4_131844H_0_in_131844_4
340
0
102
{BLKREFS
331
13A
102
}
 70
     0
280
     1
281
     0
  0
ENDTAB
  0
ENDSEC
  0
SECTION
  2
BLOCKS
  0
BLOCK
  5
20
330
1F
100
AcDbEntity
  8
0
100
AcDbBlockBegin
  2
*Model_Space
 70
     0
 10
0.0
 20
0.0
 30
0.0
  3
*Model_Space
  1

  0
ENDBLK
  5
21
330
1F
100
AcDbEntity
  8
0
100
AcDbBlockEnd
  0
BLOCK
  5
1C
330
1B
100
AcDbEntity
 67
     1
  8
0
100
AcDbBlockBegin
  2
*Paper_Space
 70
     0
 10
0.0
 20
0.0
 30
0.0
  3
*Paper_Space
  1

  0
ENDBLK
  5
1D
330
1B
100
AcDbEntity
 67
     1
  8
0
100
AcDbBlockEnd
  0
BLOCK
  5
24
330
23
100
AcDbEntity
  8
0
100
AcDbBlockBegin
  2
*Paper_Space0
 70
     0
 10
0.0
 20
0.0
 30
0.0
  3
*Paper_Space0
  1

  0
ENDBLK
  5
25
330
23
100
AcDbEntity
  8
0
100
AcDbBlockEnd
  0
BLOCK
  5
70
330
6E
100
AcDbEntity
  8
0
100
AcDbBlockBegin
  2
1_131844_4
 70
     2
 10
0.0
 20
0.0
 30
0.0
  3
1_131844_4
  1

  0
ATTDEF
  5
73
330
6E
100
AcDbEntity
  8
AM_6
100
AcDbText
 10
8.72
 20
1.1
 30
0.0
 40
0.5
  1
Eccentric Collar Low Backing Height Two-Bolt Pillow Block Inch Bore
100
AcDbAttributeDefinition
  3

  2
NN
 70
     8
280
     0
  0
ATTDEF
  5
74
330
6E
100
AcDbEntity
  8
AM_6
100
AcDbText
 10
8.72
 20
0.6000000000000001
 30
0.0
 40
0.5
  1
Eccentric Collar Pillow Block Bearings -(Normal Duty) -Low Backing Height
100
AcDbAttributeDefinition
  3

  2
NT
 70
     8
280
     0
  0
ATTDEF
  5
75
330
6E
100
AcDbEntity
  8
AM_6
100
AcDbText
 10
8.72
 20
0.1000000000000001
 30
0.0
 40
0.5
  1
131844
100
AcDbAttributeDefinition
  3

  2
NB
 70
     8
280
     0
  0
ATTDEF
  5
76
330
6E
100
AcDbEntity
  8
AM_6
100
AcDbText
 10
8.72
 20
-0.3999999999999999
 30
0.0
 40
0.5
  1
$PN.
100
AcDbAttributeDefinition
  3

  2
NBSYN
 70
     8
280
     0
  0
ATTDEF
  5
77
330
6E
100
AcDbEntity
  8
AM_6
100
AcDbText
 10
8.72
 20
-0.8999999999999999
 30
0.0
 40
0.5
  1
131844
100
AcDbAttributeDefinition
  3

  2
LINA
 70
     8
280
     0
  0
ATTDEF
  5
78
330
6E
100
AcDbEntity
  8
AM_6
100
AcDbText
 10
8.72
 20
-1.4
 30
0.0
 40
0.5
  1
209
100
AcDbAttributeDefinition
  3

  2
SERIES
 70
     8
280
     0
  0
ATTDEF
  5
79
330
6E
100
AcDbEntity
  8
AM_6
100
AcDbText
 10
8.72
 20
-1.9
 30
0.0
 40
0.5
  1
1-3/4
100
AcDbAttributeDefinition
  3

  2
SS
 70
     8
280
     0
  0
ATTDEF
  5
7A
330
6E
100
AcDbEntity
  8
AM_6
100
AcDbText
 10
8.72
 20
-2.4
 30
0.0
 40
0.5
  1
131844
100
AcDbAttributeDefinition
  3

  2
PN
 70
     8
280
     0
  0
ATTDEF
  5
7B
330
6E
100
AcDbEntity
  8
AM_6
100
AcDbText
 10
8.72
 20
-2.9
 30
0.0
 40
0.5
  1
P2B-SXRB-112
100
AcDbAttributeDefinition
  3

  2
DESCRIPTION
 70
     8
280
     0
  0
ATTDEF
  5
7C
330
6E
100
AcDbEntity
  8
AM_6
100
AcDbText
 10
8.72
 20
-3.4
 30
0.0
 40
0.5
  1
6.2
100
AcDbAttributeDefinition
  3

  2
WEIGHT
 70
     8
280
     0
  0
ATTDEF
  5
7D
330
6E
100
AcDbEntity
  8
AM_6
100
AcDbText
 10
8.72
 20
-3.9
 30
0.0
 40
0.5
  1
2.13
100
AcDbAttributeDefinition
  3

  2
A
 70
     8
280
     0
  0
ATTDEF
  5
7E
330
6E
100
AcDbEntity
  8
AM_6
100
AcDbText
 10
8.72
 20
-4.4
 30
0.0
 40
0.5
  1
7.44
100
AcDbAttributeDefinition
  3

  2
B
 70
     8
280
     0
  0
ATTDEF
  5
7F
330
6E
100
AcDbEntity
  8
AM_6
100
AcDbText
 10
8.72
 20
-4.9
 30
0.0
 40
0.5
  1
2.00
100
AcDbAttributeDefinition
  3

  2
C
 70
     8
280
     0
  0
ATTDEF
  5
80
330
6E
100
AcDbEntity
  8
AM_6
100
AcDbText
 10
8.72
 20
-5.4
 30
0.0
 40
0.5
  1
5.50
100
AcDbAttributeDefinition
  3

  2
DMIN
 70
     8
280
     0
  0
ATTDEF
  5
81
330
6E
100
AcDbEntity
  8
AM_6
100
AcDbText
 10
8.72
 20
-5.9
 30
0.0
 40
0.5
  1
6.19
100
AcDbAttributeDefinition
  3

  2
DMAX
 70
     8
280
     0
  0
ATTDEF
  5
82
330
6E
100
AcDbEntity
  8
AM_6
100
AcDbText
 10
8.72
 20
-6.4
 30
0.0
 40
0.5
  1
1/2
100
AcDbAttributeDefinition
  3

  2
F
 70
     8
280
     0
  0
ATTDEF
  5
83
330
6E
100
AcDbEntity
  8
AM_6
100
AcDbText
 10
8.72
 20
-6.9
 30
0.0
 40
0.5
  1
0.90
100
AcDbAttributeDefinition
  3

  2
G
 70
     8
280
     0
  0
ATTDEF
  5
84
330
6E
100
AcDbEntity
  8
AM_6
100
AcDbText
 10
8.72
 20
-7.4
 30
0.0
 40
0.5
  1
0.69
100
AcDbAttributeDefinition
  3

  2
H
 70
     8
280
     0
  0
ATTDEF
  5
85
330
6E
100
AcDbEntity
  8
AM_6
100
AcDbText
 10
8.72
 20
-7.9
 30
0.0
 40
0.5
  1
4.21
100
AcDbAttributeDefinition
  3

  2
J
 70
     8
280
     0
  0
ATTDEF
  5
86
330
6E
100
AcDbEntity
  8
AM_6
100
AcDbText
 10
8.72
 20
-8.4
 30
0.0
 40
0.5
  1
2.50
100
AcDbAttributeDefinition
  3

  2
L
 70
     8
280
     0
  0
ATTDEF
  5
87
330
6E
100
AcDbEntity
  8
AM_6
100
AcDbText
 10
8.72
 20
-8.9
 30
0.0
 40
0.5
  1
2.06
100
AcDbAttributeDefinition
  3

  2
M
 70
     8
280
     0
  0
ATTDEF
  5
88
330
6E
100
AcDbEntity
  8
AM_6
100
AcDbText
 10
8.72
 20
-9.4
 30
0.0
 40
0.5
  1
0.75
100
AcDbAttributeDefinition
  3

  2
R
 70
     8
280
     0
  0
ATTDEF
  5
89
330
6E
100
AcDbEntity
  8
AM_6
100
AcDbText
 10
8.72
 20
-9.9
 30
0.0
 40
0.5
  1
1.38
100
AcDbAttributeDefinition
  3

  2
S
 70
     8
280
     0
  0
ATTDEF
  5
8A
330
6E
100
AcDbEntity
  8
AM_6
100
AcDbText
 10
8.72
 20
-10.4
 30
0.0
 40
0.5
  1
3.38
100
AcDbAttributeDefinition
  3

  2
U
 70
     8
280
     0
  0
ATTDEF
  5
8B
330
6E
100
AcDbEntity
  8
AM_6
100
AcDbText
 10
8.72
 20
-10.9
 30
0.0
 40
0.5
  1
6.76
100
AcDbAttributeDefinition
  3

  2
V
 70
     8
280
     0
  0
ATTDEF
  5
8C
330
6E
100
AcDbEntity
  8
AM_6
100
AcDbText
 10
8.72
 20
-11.4
 30
0.0
 40
0.5
  1
0.69
100
AcDbAttributeDefinition
  3

  2
W
 70
     8
280
     0
  0
ATTDEF
  5
8D
330
6E
100
AcDbEntity
  8
AM_6
100
AcDbText
 10
8.72
 20
-11.9
 30
0.0
 40
0.5
  1
0.12
100
AcDbAttributeDefinition
  3

  2
X
 70
     8
280
     0
  0
ATTDEF
  5
8E
330
6E
100
AcDbEntity
  8
AM_6
100
AcDbText
 10
8.72
 20
-12.4
 30
0.0
 40
0.5
  1
baldor
100
AcDbAttributeDefinition
  3

  2
COMPANY
 70
     8
280
     0
  0
INSERT
  5
90
330
6E
100
AcDbEntity
  8
0
100
AcDbBlockReference
  2
2_405015E_Inch_0_in_131844_4
 10
0.0
 20
0.0
 30
0.0
  0
INSERT
  5
D6
330
6E
100
AcDbEntity
  8
0
100
AcDbBlockReference
  2
3_131920_0_in_131844_4
 10
0.0
 20
0.0
 30
0.0
  0
INSERT
  5
13A
330
6E
100
AcDbEntity
  8
0
100
AcDbBlockReference
  2
4_131844H_0_in_131844_4
 10
0.0
 20
0.0
 30
0.0
  0
ENDBLK
  5
71
330
6E
100
AcDbEntity
  8
0
100
AcDbBlockEnd
  0
BLOCK
  5
91
330
8F
100
AcDbEntity
  8
0
100
AcDbBlockBegin
  2
2_405015E_Inch_0_in_131844_4
 70
     2
 10
0.0
 20
0.0
 30
0.0
  3
2_405015E_Inch_0_in_131844_4
  1

  0
ATTDEF
  5
93
330
8F
100
AcDbEntity
  8
AM_6
100
AcDbText
 10
6.858048863230996
 20
0.2187500000000001
 30
0.0
 40
0.5
  1
405015E -Inch
100
AcDbAttributeDefinition
  3

  2
NN
 70
     8
280
     0
  0
ATTDEF
  5
94
330
8F
100
AcDbEntity
  8
AM_6
100
AcDbText
 10
6.858048863230996
 20
-0.2812499999999999
 30
0.0
 40
0.5
  1
Grease Fitting
100
AcDbAttributeDefinition
  3

  2
NT
 70
     8
280
     0
  0
ATTDEF
  5
95
330
8F
100
AcDbEntity
  8
AM_6
100
AcDbText
 10
6.858048863230996
 20
-0.7812499999999999
 30
0.0
 40
0.5
  1
405015E-Inch
100
AcDbAttributeDefinition
  3

  2
NB
 70
     8
280
     0
  0
ATTDEF
  5
96
330
8F
100
AcDbEntity
  8
AM_6
100
AcDbText
 10
6.858048863230996
 20
-1.28125
 30
0.0
 40
0.5
  1
$MN.-Inch
100
AcDbAttributeDefinition
  3

  2
NBSYN
 70
     8
280
     0
  0
ATTDEF
  5
97
330
8F
100
AcDbEntity
  8
AM_6
100
AcDbText
 10
6.858048863230996
 20
-1.78125
 30
0.0
 40
0.5
  1
405015E
100
AcDbAttributeDefinition
  3

  2
LINA
 70
     8
280
     0
  0
ATTDEF
  5
98
330
8F
100
AcDbEntity
  8
AM_6
100
AcDbText
 10
6.858048863230996
 20
-2.28125
 30
0.0
 40
0.5
  1
405015E
100
AcDbAttributeDefinition
  3

  2
MN
 70
     8
280
     0
  0
ATTDEF
  5
99
330
8F
100
AcDbEntity
  8
AM_6
100
AcDbText
 10
6.858048863230996
 20
-2.78125
 30
0.0
 40
0.5
  1
1/8 x 27PTF
100
AcDbAttributeDefinition
  3

  2
T
 70
     8
280
     0
  0
ATTDEF
  5
9A
330
8F
100
AcDbEntity
  8
AM_6
100
AcDbText
 10
6.858048863230996
 20
-3.28125
 30
0.0
 40
0.5
  1
baldor
100
AcDbAttributeDefinition
  3

  2
COMPANY
 70
     8
280
     0
  0
LWPOLYLINE
  5
9D
330
8F
100
AcDbEntity
  8
AM_9
100
AcDbPolyline
 90
        3
 70
     0
 43
0.0
 10
1.654236049859532
 20
0.1093750000000001
 10
1.678254504027334
 20
0.0546875000000001
 10
1.705299967863578
 20
0.0000000000000001
  0
LWPOLYLINE
  5
9E
330
8F
100
AcDbEntity
  8
AM_9
100
AcDbPolyline
 90
        3
 70
     0
 43
0.0
 10
1.705299967863578
 20
0.0000000000000001
 10
1.678369839269716
 20
-0.0544416102741495
 10
1.654236049859532
 20
-0.1093749999999999
  0
ELLIPSE
  5
9F
330
8F
100
AcDbEntity
  8
AM_9
100
AcDbEllipse
 10
1.332896282536642
 20
0.0000000000000001
 30
0.0
 11
9.913691727296317E-18
 21
0.161902872472269
 31
0.0
210
0.0
220
0.0
230
1.0
 40
0.7071067811865478
 41
0.0
 42
6.283185307179586
  0
LWPOLYLINE
  5
A0
330
8F
100
AcDbEntity
  8
AM_9
100
AcDbPolyline
 90
        3
 70
     0
 43
0.0
 10
1.763187123513111
 20
0.0000000000000001
 10
1.74566586345793
 20
0.0544416102741497
 10
1.724946727978187
 20
0.109375
  0
LWPOLYLINE
  5
A1
330
8F
100
AcDbEntity
  8
AM_9
100
AcDbPolyline
 90
        3
 70
     0
 43
0.0
 10
1.724946727978187
 20
-0.1093749999999999
 10
1.74558043057987
 20
-0.0546874999999999
 10
1.763187123513111
 20
0.0000000000000001
  0
LWPOLYLINE
  5
A2
330
8F
100
AcDbEntity
  8
AM_9
100
AcDbPolyline
 90
        3
 70
     0
 43
0.0
 10
1.654236049859532
 20
-0.1093749999999999
 10
1.633602347257849
 20
-0.1640624999999999
 10
1.615995654324608
 20
-0.2187499999999999
  0
LINE
  5
A3
330
8F
100
AcDbEntity
  8
AM_9
100
AcDbLine
 10
1.763187123513111
 20
0.0000000000000001
 30
0.0
 11
1.705299967863578
 21
0.0000000000000001
 31
0.0
  0
LWPOLYLINE
  5
A4
330
8F
100
AcDbEntity
  8
AM_9
100
AcDbPolyline
 90
        3
 70
     0
 43
0.0
 10
1.615995654324608
 20
0.2187500000000001
 10
1.633516914379789
 20
0.1643083897258505
 10
1.654236049859532
 20
0.1093750000000001
  0
LINE
  5
A5
330
8F
100
AcDbEntity
  8
AM_9
100
AcDbLine
 10
1.715025592004192
 20
-0.1328971366116949
 30
0.0
 11
1.724946727978187
 21
-0.1093749999999999
 31
0.0
  0
LINE
  5
A6
330
8F
100
AcDbEntity
  8
AM_9
100
AcDbLine
 10
1.724946727978187
 20
0.109375
 30
0.0
 11
1.71506564614648
 21
0.1328050907175578
 31
0.0
  0
LINE
  5
A7
330
8F
100
AcDbEntity
  8
AM_9
100
AcDbLine
 10
1.354468443985069
 20
-0.1985206121313387
 30
0.0
 11
1.515726042389213
 21
-0.2056510974974048
 31
0.0
  0
LINE
  5
A8
330
8F
100
AcDbEntity
  8
AM_9
100
AcDbLine
 10
1.515726042389213
 20
0.205651097497405
 30
0.0
 11
1.354468443985069
 21
0.1985206121313389
 31
0.0
  0
ELLIPSE
  5
A9
330
8F
100
AcDbEntity
  8
AM_9
100
AcDbEllipse
 10
1.590990257669707
 20
0.0000000000000019
 30
0.0
 11
-4.018372309702199E-17
 21
-0.2187499999999971
 31
0.0
210
0.0
220
0.0
230
1.0
 40
0.7071067811866469
 41
0.9156936017147288
 42
2.225899051875051
  0
LINE
  5
AA
330
8F
100
AcDbEntity
  8
AM_9
100
AcDbLine
 10
1.697056274847714
 20
0.0948683298050515
 30
0.0
 11
1.678442408418648
 21
0.107354891002899
 31
0.0
  0
LINE
  5
AB
330
8F
100
AcDbEntity
  8
AM_9
100
AcDbLine
 10
1.678442408418648
 20
-0.1073548910028989
 30
0.0
 11
1.697056274847714
 21
-0.0948683298050513
 31
0.0
  0
ELLIPSE
  5
AC
330
8F
100
AcDbEntity
  8
AM_9
100
AcDbEllipse
 10
1.665236469694319
 20
-0.0000000000000006
 30
0.0
 11
-1.928818708657058E-17
 21
-0.1049999999999987
 31
0.0
210
0.0
220
0.0
230
1.0
 40
0.7071067811865558
 41
0.0
 42
3.141592653589793
  0
ELLIPSE
  5
AD
330
8F
100
AcDbEntity
  8
AM_9
100
AcDbEllipse
 10
1.590990257669733
 20
-0.0000000000000002
 30
0.0
 11
-3.926523799766190E-17
 21
-0.2137499999999994
 31
0.0
210
0.0
220
0.0
230
1.0
 40
0.7071067811865434
 41
0.9036552188403943
 42
2.237937434749402
  0
LINE
  5
AE
330
8F
100
AcDbEntity
  8
AM_9
100
AcDbLine
 10
1.666555460576858
 20
-0.1049999999999999
 30
0.0
 11
1.686449673129915
 21
-0.1049999999999999
 31
0.0
  0
LINE
  5
AF
330
8F
100
AcDbEntity
  8
AM_9
100
AcDbLine
 10
1.686449673129915
 20
0.1050000000000001
 30
0.0
 11
1.666555460576857
 21
0.1050000000000001
 31
0.0
  0
ELLIPSE
  5
B0
330
8F
100
AcDbEntity
  8
AM_9
100
AcDbEllipse
 10
1.686449673129915
 20
0.0000000000000001
 30
0.0
 11
-1.928818708657080E-17
 21
-0.105
 31
0.0
210
0.0
220
0.0
230
1.0
 40
0.7071067811865498
 41
5.759586531581288
 42
9.948376736367674
  0
ELLIPSE
  5
B1
330
8F
100
AcDbEntity
  8
AM_9
100
AcDbEllipse
 10
1.642434483318696
 20
-0.0000000000000025
 30
0.0
 11
-2.182689656893813E-17
 21
-0.1188200907349225
 31
0.0
210
0.0
220
0.0
230
1.0
 40
0.7071067811865476
 41
0.3762206261011185
 42
2.765372027488689
  0
LINE
  5
B2
330
8F
100
AcDbEntity
  8
AM_9
100
AcDbLine
 10
1.725340196638392
 20
0.0192743186691521
 30
0.0
 11
1.7243273564474
 21
0.0279874918769155
 31
0.0
  0
LINE
  5
B3
330
8F
100
AcDbEntity
  8
AM_9
100
AcDbLine
 10
1.7243273564474
 20
-0.0279874918769153
 30
0.0
 11
1.725340196638392
 21
-0.0192743186691519
 31
0.0
  0
ELLIPSE
  5
B4
330
8F
100
AcDbEntity
  8
AM_9
100
AcDbEllipse
 10
1.60394318007711
 20
0.0000000000000009
 30
0.0
 11
-3.169399141454479E-17
 21
-0.1725340532830167
 31
0.0
210
0.0
220
0.0
230
1.0
 40
0.7071067811865474
 41
0.7772913431420649
 42
2.364301310447722
  0
ELLIPSE
  5
B5
330
8F
100
AcDbEntity
  8
AM_9
100
AcDbEllipse
 10
1.728876080001108
 20
0.0000000000000003
 30
0.0
 11
-2.479909768273386E-17
 21
-0.1349999999999998
 31
0.0
210
0.0
220
0.0
230
1.0
 40
0.7071067811865509
 41
0.4159140521025471
 42
2.725678601487246
  0
ELLIPSE
  5
B6
330
8F
100
AcDbEntity
  8
AM_9
100
AcDbEllipse
 10
1.520279579551077
 20
0.0000000000000004
 30
0.0
 11
-3.779601035290903E-17
 21
-0.2057518972230692
 31
0.0
210
0.0
220
0.0
230
1.0
 40
0.7071067811865478
 41
0.0
 42
6.283185307179586
  0
ELLIPSE
  5
B7
330
8F
100
AcDbEntity
  8
AM_9
100
AcDbEllipse
 10
1.358857534278096
 20
-0.0000000000000001
 30
0.0
 11
-3.648546613377892E-17
 21
-0.1986176267812157
 31
0.0
210
0.0
220
0.0
230
1.0
 40
0.7071067811865477
 41
0.0
 42
6.283185307179586
  0
ELLIPSE
  5
B8
330
8F
100
AcDbEntity
  8
AM_9
100
AcDbEllipse
 10
1.520279579551078
 20
-0.0000000000000006
 30
0.0
 11
-4.018372309702265E-17
 21
-0.2187500000000007
 31
0.0
210
0.0
220
0.0
230
1.0
 40
0.7071067811865479
 41
0.0
 42
6.283185307179586
  0
LWPOLYLINE
  5
BA
330
8F
100
AcDbEntity
  8
AM_4
100
AcDbPolyline
 90
        3
 70
     0
 43
0.0
 10
1.673882809974141
 20
-0.2187499999999999
 10
1.700812938568003
 20
-0.1643083897258503
 10
1.715025592004192
 20
-0.1328971366116949
  0
LWPOLYLINE
  5
BB
330
8F
100
AcDbEntity
  8
AM_4
100
AcDbPolyline
 90
        3
 70
     0
 43
0.0
 10
1.71506564614648
 20
0.1328050907175578
 10
1.700928273810385
 20
0.1640625000000001
 10
1.673882809974141
 20
0.2187500000000001
  0
ELLIPSE
  5
BC
330
8F
100
AcDbEntity
  8
AM_4
100
AcDbEllipse
 10
1.590990257669731
 20
-0.0000000000000008
 30
0.0
 11
-4.018372309702270E-17
 21
-0.2187500000000009
 31
0.0
210
0.0
220
0.0
230
1.0
 40
0.7071067811865481
 41
2.225899051875086
 42
7.198878908894301
  0
ELLIPSE
  5
BD
330
8F
100
AcDbEntity
  8
AM_4
100
AcDbEllipse
 10
1.642434483318714
 20
0.0000000000000001
 30
0.0
 11
-2.182689656893357E-17
 21
-0.1188200907348977
 31
0.0
210
0.0
220
0.0
230
1.0
 40
0.7071067811865475
 41
2.765372027488877
 42
6.659405933280503
  0
ELLIPSE
  5
BE
330
8F
100
AcDbEntity
  8
AM_4
100
AcDbEllipse
 10
1.590990257669731
 20
0.0000000000000001
 30
0.0
 11
-3.926523799766201E-17
 21
-0.21375
 31
0.0
210
0.0
220
0.0
230
1.0
 40
0.7071067811865475
 41
2.237937434749396
 42
7.186840526019983
  0
LINE
  5
BF
330
8F
100
AcDbEntity
  8
AM_4
100
AcDbLine
 10
1.665236469694319
 20
-0.1049999999999999
 30
0.0
 11
1.666555460576858
 21
-0.1049999999999999
 31
0.0
  0
LINE
  5
C0
330
8F
100
AcDbEntity
  8
AM_4
100
AcDbLine
 10
1.666555460576857
 20
0.1050000000000001
 30
0.0
 11
1.665236469694319
 21
0.1050000000000001
 31
0.0
  0
ELLIPSE
  5
C1
330
8F
100
AcDbEntity
  8
AM_4
100
AcDbEllipse
 10
1.665236469694319
 20
0.0000000000000001
 30
0.0
 11
-1.928818708657081E-17
 21
-0.105
 31
0.0
210
0.0
220
0.0
230
1.0
 40
0.7071067811865476
 41
3.141592653589793
 42
6.283185307179586
  0
ELLIPSE
  5
C2
330
8F
100
AcDbEntity
  8
AM_4
100
AcDbEllipse
 10
1.603943180077111
 20
0.0000000000000001
 30
0.0
 11
-3.169399141454455E-17
 21
-0.1725340532830154
 31
0.0
210
0.0
220
0.0
230
1.0
 40
0.7071067811865475
 41
2.36430131044773
 42
7.06047665032165
  0
LINE
  5
C3
330
8F
100
AcDbEntity
  8
AM_4
100
AcDbLine
 10
1.673882809974141
 20
-0.2187499999999999
 30
0.0
 11
1.437387027246668
 21
-0.2187499999999999
 31
0.0
  0
LWPOLYLINE
  5
C4
330
8F
100
AcDbEntity
  8
AM_4
100
AcDbPolyline
 90
        3
 70
     0
 43
0.0
 10
1.457033787361277
 20
-0.1093749999999999
 10
1.477667489962959
 20
-0.1640624999999999
 10
1.4952741828962
 20
-0.2187499999999999
  0
LWPOLYLINE
  5
C5
330
8F
100
AcDbEntity
  8
AM_4
100
AcDbPolyline
 90
        3
 70
     0
 43
0.0
 10
1.386323109242622
 20
-0.1093749999999999
 10
1.365689406640939
 20
-0.0546874999999999
 10
1.348082713707698
 20
0.0000000000000001
  0
LWPOLYLINE
  5
C6
330
8F
100
AcDbEntity
  8
AM_4
100
AcDbPolyline
 90
        3
 70
     0
 43
0.0
 10
1.437387027246668
 20
-0.2187499999999999
 10
1.410456898652806
 20
-0.1643083897258503
 10
1.386323109242622
 20
-0.1093749999999999
  0
LWPOLYLINE
  5
C7
330
8F
100
AcDbEntity
  8
AM_4
100
AcDbPolyline
 90
        3
 70
     0
 43
0.0
 10
1.40596986935723
 20
0.0000000000000001
 10
1.432899997951093
 20
-0.0544416102741495
 10
1.457033787361277
 20
-0.1093749999999999
  0
LINE
  5
C8
330
8F
100
AcDbEntity
  8
AM_4
100
AcDbLine
 10
1.40596986935723
 20
0.0000000000000001
 30
0.0
 11
1.348082713707698
 21
0.0000000000000001
 31
0.0
  0
LWPOLYLINE
  5
C9
330
8F
100
AcDbEntity
  8
AM_4
100
AcDbPolyline
 90
        3
 70
     0
 43
0.0
 10
1.457033787361277
 20
0.109375
 10
1.433015333193475
 20
0.0546875
 10
1.40596986935723
 20
0.0000000000000001
  0
LWPOLYLINE
  5
CA
330
8F
100
AcDbEntity
  8
AM_4
100
AcDbPolyline
 90
        3
 70
     0
 43
0.0
 10
1.4952741828962
 20
0.2187500000000001
 10
1.47775292284102
 20
0.1643083897258505
 10
1.457033787361277
 20
0.109375
  0
LINE
  5
CB
330
8F
100
AcDbEntity
  8
AM_4
100
AcDbLine
 10
1.673882809974141
 20
0.2187500000000001
 30
0.0
 11
1.437387027246668
 21
0.2187500000000001
 31
0.0
  0
LWPOLYLINE
  5
CC
330
8F
100
AcDbEntity
  8
AM_4
100
AcDbPolyline
 90
        3
 70
     0
 43
0.0
 10
1.386323109242622
 20
0.1093750000000001
 10
1.410341563410424
 20
0.1640625000000001
 10
1.437387027246668
 20
0.2187500000000001
  0
LWPOLYLINE
  5
CD
330
8F
100
AcDbEntity
  8
AM_4
100
AcDbPolyline
 90
        3
 70
     0
 43
0.0
 10
1.348082713707698
 20
0.0000000000000001
 10
1.365603973762878
 20
0.0544416102741497
 10
1.386323109242622
 20
0.1093750000000001
  0
LINE
  5
CE
330
8F
100
AcDbEntity
  8
AM_4
100
AcDbLine
 10
1.649326567117622
 20
-0.0909326673973659
 30
0.0
 11
1.681146372271016
 21
-0.1169134295108991
 31
0.0
  0
LINE
  5
CF
330
8F
100
AcDbEntity
  8
AM_4
100
AcDbLine
 10
1.681146372271016
 20
0.1169134295108993
 30
0.0
 11
1.649326567117622
 21
0.0909326673973661
 31
0.0
  0
ELLIPSE
  5
D0
330
8F
100
AcDbEntity
  8
AM_4
100
AcDbEllipse
 10
1.728876080001108
 20
0.0000000000000001
 30
0.0
 11
-2.479909768273392E-17
 21
-0.1350000000000001
 31
0.0
210
0.0
220
0.0
230
1.0
 40
0.7071067811865491
 41
2.725678601487248
 42
6.699099359282132
  0
ELLIPSE
  5
D1
330
8F
100
AcDbEntity
  8
AM_4
100
AcDbEllipse
 10
1.686449673129916
 20
0.0000000000000002
 30
0.0
 11
-1.928818708657081E-17
 21
-0.105
 31
0.0
210
0.0
220
0.0
230
1.0
 40
0.7071067811865497
 41
3.665191429188091
 42
5.759586531581288
  0
LINE
  5
D2
330
8F
100
AcDbEntity
  8
AM_4
100
AcDbLine
 10
1.814778639859807
 20
0.0939243440009288
 30
0.0
 11
1.767444187349917
 21
0.1234908992236336
 31
0.0
  0
LINE
  5
D3
330
8F
100
AcDbEntity
  8
AM_4
100
AcDbLine
 10
1.767444187349917
 20
-0.1234908992236334
 30
0.0
 11
1.814778639859807
 21
-0.0939243440009286
 31
0.0
  0
ELLIPSE
  5
D4
330
8F
100
AcDbEntity
  8
AM_4
100
AcDbEllipse
 10
1.785444622496033
 20
0.0000000000000001
 30
0.0
 11
-1.886162459184661E-17
 21
-0.1026779019331876
 31
0.0
210
0.0
220
0.0
230
1.0
 40
0.707106781186541
 41
0.0
 42
6.283185307179586
  0
ENDBLK
  5
92
330
8F
100
AcDbEntity
  8
0
100
AcDbBlockEnd
  0
BLOCK
  5
D7
330
D5
100
AcDbEntity
  8
0
100
AcDbBlockBegin
  2
3_131920_0_in_131844_4
 70
     2
 10
0.0
 20
0.0
 30
0.0
  3
3_131920_0_in_131844_4
  1

  0
ATTDEF
  5
D9
330
D5
100
AcDbEntity
  8
AM_6
100
AcDbText
 10
6.7932875
 20
0.7499999999999999
 30
0.0
 40
0.5
  1
Eccentric Collar Insert Inch Bore
100
AcDbAttributeDefinition
  3

  2
NN
 70
     8
280
     0
  0
ATTDEF
  5
DA
330
D5
100
AcDbEntity
  8
AM_6
100
AcDbText
 10
6.7932875
 20
0.2499999999999999
 30
0.0
 40
0.5
  1
SXR Normal Duty Bearing Inserts
100
AcDbAttributeDefinition
  3

  2
NT
 70
     8
280
     0
  0
ATTDEF
  5
DB
330
D5
100
AcDbEntity
  8
AM_6
100
AcDbText
 10
6.7932875
 20
-0.2500000000000001
 30
0.0
 40
0.5
  1
131920
100
AcDbAttributeDefinition
  3

  2
NB
 70
     8
280
     0
  0
ATTDEF
  5
DC
330
D5
100
AcDbEntity
  8
AM_6
100
AcDbText
 10
6.7932875
 20
-0.7500000000000001
 30
0.0
 40
0.5
  1
$PN.
100
AcDbAttributeDefinition
  3

  2
NBSYN
 70
     8
280
     0
  0
ATTDEF
  5
DD
330
D5
100
AcDbEntity
  8
AM_6
100
AcDbText
 10
6.7932875
 20
-1.25
 30
0.0
 40
0.5
  1
131920
100
AcDbAttributeDefinition
  3

  2
LINA
 70
     8
280
     0
  0
ATTDEF
  5
DE
330
D5
100
AcDbEntity
  8
AM_6
100
AcDbText
 10
6.7932875
 20
-1.75
 30
0.0
 40
0.5
  1
209
100
AcDbAttributeDefinition
  3

  2
SERIES
 70
     8
280
     0
  0
ATTDEF
  5
DF
330
D5
100
AcDbEntity
  8
AM_6
100
AcDbText
 10
6.7932875
 20
-2.25
 30
0.0
 40
0.5
  1
1-3/4
100
AcDbAttributeDefinition
  3

  2
SS
 70
     8
280
     0
  0
ATTDEF
  5
E0
330
D5
100
AcDbEntity
  8
AM_6
100
AcDbText
 10
6.7932875
 20
-2.75
 30
0.0
 40
0.5
  1
131920
100
AcDbAttributeDefinition
  3

  2
PN
 70
     8
280
     0
  0
ATTDEF
  5
E1
330
D5
100
AcDbEntity
  8
AM_6
100
AcDbText
 10
6.7932875
 20
-3.25
 30
0.0
 40
0.5
  1
INS-SXR-112
100
AcDbAttributeDefinition
  3

  2
DESCRIPTION
 70
     8
280
     0
  0
ATTDEF
  5
E2
330
D5
100
AcDbEntity
  8
AM_6
100
AcDbText
 10
6.7932875
 20
-3.75
 30
0.0
 40
0.5
  1
1.8
100
AcDbAttributeDefinition
  3

  2
WEIGHT
 70
     8
280
     0
  0
ATTDEF
  5
E3
330
D5
100
AcDbEntity
  8
AM_6
100
AcDbText
 10
6.7932875
 20
-4.25
 30
0.0
 40
0.5
  1
2.13
100
AcDbAttributeDefinition
  3

  2
A
 70
     8
280
     0
  0
ATTDEF
  5
E4
330
D5
100
AcDbEntity
  8
AM_6
100
AcDbText
 10
6.7932875
 20
-4.75
 30
0.0
 40
0.5
  1
0.87
100
AcDbAttributeDefinition
  3

  2
C
 70
     8
280
     0
  0
ATTDEF
  5
E5
330
D5
100
AcDbEntity
  8
AM_6
100
AcDbText
 10
6.7932875
 20
-5.25
 30
0.0
 40
0.5
  1
3.3465
100
AcDbAttributeDefinition
  3

  2
D
 70
     8
280
     0
  0
ATTDEF
  5
E6
330
D5
100
AcDbEntity
  8
AM_6
100
AcDbText
 10
6.7932875
 20
-5.75
 30
0.0
 40
0.5
  1
0.25
100
AcDbAttributeDefinition
  3

  2
J
 70
     8
280
     0
  0
ATTDEF
  5
E7
330
D5
100
AcDbEntity
  8
AM_6
100
AcDbText
 10
6.7932875
 20
-6.25
 30
0.0
 40
0.5
  1
2.50
100
AcDbAttributeDefinition
  3

  2
L
 70
     8
280
     0
  0
ATTDEF
  5
E8
330
D5
100
AcDbEntity
  8
AM_6
100
AcDbText
 10
6.7932875
 20
-6.75
 30
0.0
 40
0.5
  1
5/16 - 24
100
AcDbAttributeDefinition
  3

  2
N
 70
     8
280
     0
  0
ATTDEF
  5
E9
330
D5
100
AcDbEntity
  8
AM_6
100
AcDbText
 10
6.7932875
 20
-7.25
 30
0.0
 40
0.5
  1
0.75
100
AcDbAttributeDefinition
  3

  2
W
 70
     8
280
     0
  0
ATTDEF
  5
EA
330
D5
100
AcDbEntity
  8
AM_6
100
AcDbText
 10
6.7932875
 20
-7.75
 30
0.0
 40
0.5
  1
1.38
100
AcDbAttributeDefinition
  3

  2
Y
 70
     8
280
     0
  0
ATTDEF
  5
EB
330
D5
100
AcDbEntity
  8
AM_6
100
AcDbText
 10
6.7932875
 20
-8.25
 30
0.0
 40
0.5
  1
2.22
100
AcDbAttributeDefinition
  3

  2
Z
 70
     8
280
     0
  0
ATTDEF
  5
EC
330
D5
100
AcDbEntity
  8
AM_6
100
AcDbText
 10
6.7932875
 20
-8.75
 30
0.0
 40
0.5
  1
baldor
100
AcDbAttributeDefinition
  3

  2
COMPANY
 70
     8
280
     0
  0
LINE
  5
ED
330
D5
100
AcDbEntity
  8
AM_9
100
AcDbLine
 10
1.656583333333333
 20
0.3541666666666667
 30
0.0
 11
1.635387777931993
 21
0.3541666666666667
 31
0.0
  0
ARC
  5
EE
330
D5
100
AcDbEntity
  8
AM_9
100
AcDbCircle
 10
1.656583333333334
 20
0.2500000000000004
 30
0.0
 40
0.1041666666666664
100
AcDbArc
 50
275.6498600599222
 51
90.0
  0
LINE
  5
EF
330
D5
100
AcDbEntity
  8
AM_9
100
AcDbLine
 10
1.656583333333333
 20
0.3541666666666667
 30
0.0
 11
1.656583333333333
 21
0.2142930555555045
 31
0.0
  0
LINE
  5
F0
330
D5
100
AcDbEntity
  8
AM_9
100
AcDbLine
 10
0.8750000000000001
 20
-0.8989463420073538
 30
0.0
 11
0.8750000000000001
 21
0.7326000000000001
 31
0.0
  0
LINE
  5
F1
330
D5
100
AcDbEntity
  8
AM_9
100
AcDbLine
 10
-0.8750000000000001
 20
0.7326000000000001
 30
0.0
 11
-0.8750000000000001
 21
-0.8989463420073538
 31
0.0
  0
LINE
  5
F2
330
D5
100
AcDbEntity
  8
AM_9
100
AcDbLine
 10
0.8750000000000001
 20
-1.3626
 30
0.0
 11
0.8750000000000001
 21
-0.9235536579926457
 31
0.0
  0
LINE
  5
F3
330
D5
100
AcDbEntity
  8
AM_9
100
AcDbLine
 10
-0.8750000000000001
 20
-0.9235536579926457
 30
0.0
 11
-0.8750000000000001
 21
-1.3626
 31
0.0
  0
LINE
  5
F4
330
D5
100
AcDbEntity
  8
AM_9
100
AcDbLine
 10
-0.8750000000000001
 20
-0.8989463420073538
 30
0.0
 11
0.8750000000000001
 21
-0.8989463420073538
 31
0.0
  0
LINE
  5
F5
330
D5
100
AcDbEntity
  8
AM_9
100
AcDbLine
 10
-0.8750000000000001
 20
-0.8989463420073538
 30
0.0
 11
-0.8873036579926464
 21
-0.9112499999999998
 31
0.0
  0
LINE
  5
F6
330
D5
100
AcDbEntity
  8
AM_9
100
AcDbLine
 10
0.8873036579926464
 20
-0.9112499999999998
 30
0.0
 11
0.8750000000000001
 21
-0.8989463420073538
 31
0.0
  0
LINE
  5
F7
330
D5
100
AcDbEntity
  8
AM_9
100
AcDbLine
 10
-0.8873036579926464
 20
-0.9112499999999998
 30
0.0
 11
0.8873036579926464
 21
-0.9112499999999998
 31
0.0
  0
LINE
  5
F8
330
D5
100
AcDbEntity
  8
AM_9
100
AcDbLine
 10
-0.8750000000000001
 20
-0.9235536579926457
 30
0.0
 11
0.8750000000000001
 21
-0.9235536579926457
 31
0.0
  0
LINE
  5
F9
330
D5
100
AcDbEntity
  8
AM_9
100
AcDbLine
 10
0.8750000000000001
 20
-0.9235536579926457
 30
0.0
 11
0.8873036579926464
 21
-0.9112499999999998
 31
0.0
  0
LINE
  5
FA
330
D5
100
AcDbEntity
  8
AM_9
100
AcDbLine
 10
-0.8873036579926464
 20
-0.9112499999999998
 30
0.0
 11
-0.8750000000000001
 21
-0.9235536579926457
 31
0.0
  0
LINE
  5
FB
330
D5
100
AcDbEntity
  8
AM_9
100
AcDbLine
 10
0.875
 20
0.7326000000000001
 30
0.0
 11
0.8924
 21
0.7499999999999999
 31
0.0
  0
LINE
  5
FC
330
D5
100
AcDbEntity
  8
AM_9
100
AcDbLine
 10
-0.8924
 20
0.7499999999999999
 30
0.0
 11
-0.875
 21
0.7326000000000001
 31
0.0
  0
LINE
  5
FD
330
D5
100
AcDbEntity
  8
AM_9
100
AcDbLine
 10
-0.8750000000000001
 20
-1.3626
 30
0.0
 11
0.8750000000000001
 21
-1.3626
 31
0.0
  0
LINE
  5
FE
330
D5
100
AcDbEntity
  8
AM_9
100
AcDbLine
 10
-0.8750000000000001
 20
-1.3626
 30
0.0
 11
-0.8924
 21
-1.38
 31
0.0
  0
LINE
  5
FF
330
D5
100
AcDbEntity
  8
AM_9
100
AcDbLine
 10
0.8924
 20
-1.38
 30
0.0
 11
0.8750000000000001
 21
-1.3626
 31
0.0
  0
LINE
  5
100
330
D5
100
AcDbEntity
  8
AM_9
100
AcDbLine
 10
1.11
 20
-0.6275476533945028
 30
0.0
 11
1.11
 21
-0.435
 31
0.0
  0
LINE
  5
101
330
D5
100
AcDbEntity
  8
AM_9
100
AcDbLine
 10
-1.11
 20
-0.435
 30
0.0
 11
-1.11
 21
-0.6275476533945028
 31
0.0
  0
LINE
  5
102
330
D5
100
AcDbEntity
  8
AM_9
100
AcDbLine
 10
1.11
 20
0.435
 30
0.0
 11
1.11
 21
0.6275476533945031
 31
0.0
  0
LINE
  5
103
330
D5
100
AcDbEntity
  8
AM_9
100
AcDbLine
 10
-1.11
 20
0.6275476533945031
 30
0.0
 11
-1.11
 21
0.435
 31
0.0
  0
LINE
  5
104
330
D5
100
AcDbEntity
  8
AM_9
100
AcDbLine
 10
1.593571428571428
 20
-0.2999999999999999
 30
0.0
 11
1.593571428571428
 21
-0.2
 31
0.0
  0
LINE
  5
105
330
D5
100
AcDbEntity
  8
AM_9
100
AcDbLine
 10
-1.593571428571428
 20
-0.2
 30
0.0
 11
-1.593571428571428
 21
-0.2999999999999999
 31
0.0
  0
LINE
  5
106
330
D5
100
AcDbEntity
  8
AM_9
100
AcDbLine
 10
-1.58882294927654
 20
-0.4350000000000002
 30
0.0
 11
1.588822949274409
 21
-0.4350000000000002
 31
0.0
  0
ARC
  5
107
330
D5
100
AcDbEntity
  8
AM_9
100
AcDbCircle
 10
1.588822948757979
 20
-0.4002000000000002
 30
0.0
 40
0.0347999999999999
100
AcDbArc
 50
270.0
 51
345.8621749168508
  0
ARC
  5
108
330
D5
100
AcDbEntity
  8
AM_9
100
AcDbCircle
 10
-1.588822948757979
 20
-0.4002000000000002
 30
0.0
 40
0.0347999999999998
100
AcDbArc
 50
194.1378250831492
 51
270.0
  0
LINE
  5
109
330
D5
100
AcDbEntity
  8
AM_9
100
AcDbLine
 10
-1.588822948757979
 20
0.435
 30
0.0
 11
1.588822948755848
 21
0.435
 31
0.0
  0
ARC
  5
10A
330
D5
100
AcDbEntity
  8
AM_9
100
AcDbCircle
 10
1.58882294875798
 20
0.4002000000000007
 30
0.0
 40
0.0347999999999991
100
AcDbArc
 50
14.13782508314909
 51
90.0
  0
ARC
  5
10B
330
D5
100
AcDbEntity
  8
AM_9
100
AcDbCircle
 10
-1.58882294875798
 20
0.4002000000000007
 30
0.0
 40
0.0347999999999993
100
AcDbArc
 50
90.0
 51
165.8621749168509
  0
LINE
  5
10C
330
D5
100
AcDbEntity
  8
AM_9
100
AcDbLine
 10
-1.42623299726938
 20
-0.2999999999999999
 30
0.0
 11
1.42623299726938
 21
-0.2999999999999999
 31
0.0
  0
LINE
  5
10D
330
D5
100
AcDbEntity
  8
AM_9
100
AcDbLine
 10
-1.622568890725557
 20
-0.4087000823949463
 30
0.0
 11
1.622568890725341
 21
-0.4087000823949463
 31
0.0
  0
ARC
  5
10E
330
D5
100
AcDbEntity
  8
AM_9
100
AcDbCircle
 10
-0.0000000003718863
 20
0.0000000000805851
 30
0.0
 40
1.673250000380097
100
AcDbArc
 50
345.8621749172829
 51
349.6714882658766
  0
ARC
  5
10F
330
D5
100
AcDbEntity
  8
AM_9
100
AcDbCircle
 10
0.0000000003718017
 20
0.0000000000805668
 30
0.0
 40
1.67325000038001
100
AcDbArc
 50
190.3285117341233
 51
194.1378250827171
  0
LINE
  5
110
330
D5
100
AcDbEntity
  8
AM_9
100
AcDbLine
 10
-1.661254213689163
 20
-0.2
 30
0.0
 11
1.661254213689159
 21
-0.2
 31
0.0
  0
LINE
  5
111
330
D5
100
AcDbEntity
  8
AM_9
100
AcDbLine
 10
-1.622568890725557
 20
0.4087000823949465
 30
0.0
 11
1.622568890725552
 21
0.4087000823949465
 31
0.0
  0
LINE
  5
112
330
D5
100
AcDbEntity
  8
AM_9
100
AcDbLine
 10
1.635338354815683
 20
0.3541666666485218
 30
0.0
 11
1.666838430384278
 21
0.1463393641302544
 31
0.0
  0
ARC
  5
113
330
D5
100
AcDbEntity
  8
AM_9
100
AcDbCircle
 10
-0.0000000000004245
 20
-0.000000000000013
 30
0.0
 40
1.673250000000416
100
AcDbArc
 50
353.135144884002
 51
5.017393578840211
  0
ARC
  5
114
330
D5
100
AcDbEntity
  8
AM_9
100
AcDbCircle
 10
-0.0000000000114067
 20
-0.0000000000025508
 30
0.0
 40
1.67325000001168
100
AcDbArc
 50
12.20864830013612
 51
14.13782508313917
  0
ARC
  5
115
330
D5
100
AcDbEntity
  8
AM_9
100
AcDbCircle
 10
0.0000000000002565
 20
-0.0000000000000159
 30
0.0
 40
1.673250000000248
100
AcDbArc
 50
165.8621749168518
 51
186.8648551159986
  0
LINE
  5
118
330
D5
100
AcDbEntity
  8
AM_7
100
AcDbLine
 10
1.0774625
 20
0.25
 30
0.0
 11
1.7932875
 21
0.25
 31
0.0
  0
LINE
  5
119
330
D5
100
AcDbEntity
  8
AM_4
100
AcDbLine
 10
1.057142857142857
 20
-0.8487500000000001
 30
0.0
 11
1.057142857142857
 21
-0.8174999999999997
 31
0.0
  0
LINE
  5
11A
330
D5
100
AcDbEntity
  8
AM_4
100
AcDbLine
 10
-1.057142857142857
 20
-0.8174999999999997
 30
0.0
 11
-1.057142857142857
 21
-0.8487500000000001
 31
0.0
  0
LINE
  5
11B
330
D5
100
AcDbEntity
  8
AM_4
100
AcDbLine
 10
1.11
 20
-0.8001
 30
0.0
 11
1.11
 21
-0.6275476533945028
 31
0.0
  0
LINE
  5
11C
330
D5
100
AcDbEntity
  8
AM_4
100
AcDbLine
 10
-1.11
 20
-0.6275476533945028
 30
0.0
 11
-1.11
 21
-0.8001
 31
0.0
  0
LINE
  5
11D
330
D5
100
AcDbEntity
  8
AM_4
100
AcDbLine
 10
-1.0926
 20
-0.8175
 30
0.0
 11
1.0926
 21
-0.8175
 31
0.0
  0
LINE
  5
11E
330
D5
100
AcDbEntity
  8
AM_4
100
AcDbLine
 10
-1.11
 20
-0.8001
 30
0.0
 11
1.11
 21
-0.8001
 31
0.0
  0
LINE
  5
11F
330
D5
100
AcDbEntity
  8
AM_4
100
AcDbLine
 10
1.0926
 20
-0.8175
 30
0.0
 11
1.11
 21
-0.8001
 31
0.0
  0
LINE
  5
120
330
D5
100
AcDbEntity
  8
AM_4
100
AcDbLine
 10
-1.11
 20
-0.8001
 30
0.0
 11
-1.0926
 21
-0.8175
 31
0.0
  0
LINE
  5
121
330
D5
100
AcDbEntity
  8
AM_4
100
AcDbLine
 10
-1.0926
 20
0.7499999999999999
 30
0.0
 11
1.0926
 21
0.7499999999999999
 31
0.0
  0
LINE
  5
122
330
D5
100
AcDbEntity
  8
AM_4
100
AcDbLine
 10
-1.0926
 20
0.7499999999999999
 30
0.0
 11
-1.11
 21
0.7326
 31
0.0
  0
LINE
  5
123
330
D5
100
AcDbEntity
  8
AM_4
100
AcDbLine
 10
1.11
 20
0.7326
 30
0.0
 11
1.0926
 21
0.7499999999999999
 31
0.0
  0
LINE
  5
124
330
D5
100
AcDbEntity
  8
AM_4
100
AcDbLine
 10
-1.11
 20
0.7326
 30
0.0
 11
1.11
 21
0.7326
 31
0.0
  0
LINE
  5
125
330
D5
100
AcDbEntity
  8
AM_4
100
AcDbLine
 10
1.11
 20
0.6275476533945031
 30
0.0
 11
1.11
 21
0.7326
 31
0.0
  0
LINE
  5
126
330
D5
100
AcDbEntity
  8
AM_4
100
AcDbLine
 10
-1.11
 20
0.7326
 30
0.0
 11
-1.11
 21
0.6275476533945031
 31
0.0
  0
LINE
  5
127
330
D5
100
AcDbEntity
  8
AM_4
100
AcDbLine
 10
-1.2109375
 20
-0.8487500000000001
 30
0.0
 11
1.210937499997073
 21
-0.8487500000000001
 31
0.0
  0
ARC
  5
128
330
D5
100
AcDbEntity
  8
AM_4
100
AcDbCircle
 10
1.2109375
 20
-0.8878124999999998
 30
0.0
 40
0.0390624999999996
100
AcDbArc
 50
0.0
 51
90.0
  0
ARC
  5
129
330
D5
100
AcDbEntity
  8
AM_4
100
AcDbCircle
 10
-1.2109375
 20
-0.8878124999999998
 30
0.0
 40
0.0390624999999997
100
AcDbArc
 50
90.0
 51
180.0
  0
ARC
  5
12A
330
D5
100
AcDbEntity
  8
AM_4
100
AcDbCircle
 10
0.0000000000000049
 20
-1.145625000000011
 30
0.0
 40
0.1393500000000114
100
AcDbArc
 50
44.52689170250595
 51
135.4731082974947
  0
ARC
  5
12B
330
D5
100
AcDbEntity
  8
AM_4
100
AcDbCircle
 10
0.0
 20
-1.145624999999999
 30
0.0
 40
0.1393500000000009
100
AcDbArc
 50
224.5268917025038
 51
315.4731082974962
  0
LWPOLYLINE
  5
12C
330
D5
100
AcDbEntity
  8
AM_4
100
AcDbPolyline
 90
       10
 70
     0
 43
0.0
 10
-0.0993455970508073
 20
-1.243343344473382
 10
-0.1143158942177225
 20
-1.225289615488853
 10
-0.1260731775968879
 20
-1.204988089463264
 10
-0.1342363080626467
 20
-1.182975648100037
 10
-0.1386168558330822
 20
-1.159900495751479
 10
-0.1390372307655932
 20
-1.136507793346194
 10
-0.1355663654922536
 20
-1.113373131104993
 10
-0.1282743059244581
 20
-1.091216286196101
 10
-0.1174185286632318
 20
-1.070582934286416
 10
-0.0993455970508073
 20
-1.047906655526617
  0
LWPOLYLINE
  5
12D
330
D5
100
AcDbEntity
  8
AM_4
100
AcDbPolyline
 90
       10
 70
     0
 43
0.0
 10
0.0993455970508073
 20
-1.047906655526617
 10
0.1143158942177225
 20
-1.065960384511147
 10
0.1260731775968879
 20
-1.086261910536735
 10
0.1342363080626467
 20
-1.108274351899963
 10
0.1386168558330822
 20
-1.13134950424852
 10
0.1390372307655932
 20
-1.154742206653806
 10
0.1355663654922536
 20
-1.177876868895006
 10
0.1282743059244581
 20
-1.200033713803898
 10
0.1174185286632318
 20
-1.220667065713583
 10
0.0993455970508072
 20
-1.243343344473382
  0
LWPOLYLINE
  5
12E
330
D5
100
AcDbEntity
  8
AM_4
100
AcDbPolyline
 90
       12
 70
     0
 43
0.0
 10
-0.0993455970508073
 20
-1.047906655526617
 10
-0.0875983044213206
 20
-1.036120455844346
 10
-0.0743164650588219
 20
-1.02569051185469
 10
-0.0542439367921216
 20
-1.014256992595872
 10
-0.0317592918255586
 20
-1.006298356293433
 10
-0.0100738614560863
 20
-1.002716141669166
 10
0.012587789751289
 20
-1.002938480239138
 10
0.0335426990932463
 20
-1.006764863668867
 10
0.0541385332294574
 20
-1.014208572478297
 10
0.0729150595117984
 20
-1.024736831261181
 10
0.0902011392472876
 20
-1.038496814718307
 10
0.099345597050816
 20
-1.047906655526616
  0
LWPOLYLINE
  5
12F
330
D5
100
AcDbEntity
  8
AM_4
100
AcDbPolyline
 90
       12
 70
     0
 43
0.0
 10
0.0993455970508073
 20
-1.243343344473382
 10
0.0875983044213205
 20
-1.255129544155654
 10
0.0743164650588219
 20
-1.265559488145309
 10
0.0542439367921216
 20
-1.276993007404128
 10
0.0317592918255587
 20
-1.284951643706567
 10
0.0100738614560863
 20
-1.288533858330833
 10
-0.012587789751289
 20
-1.288311519760861
 10
-0.0335426990932463
 20
-1.284485136331133
 10
-0.0541385332294575
 20
-1.277041427521703
 10
-0.0729150595117986
 20
-1.266513168738818
 10
-0.0902011392472877
 20
-1.252753185281693
 10
-0.0993455970508073
 20
-1.243343344473382
  0
LINE
  5
130
330
D5
100
AcDbEntity
  8
AM_4
100
AcDbLine
 10
-1.25
 20
-0.8878125
 30
0.0
 11
1.25
 21
-0.8878125
 31
0.0
  0
LINE
  5
131
330
D5
100
AcDbEntity
  8
AM_4
100
AcDbLine
 10
1.25
 20
-1.3409375
 30
0.0
 11
1.25
 21
-0.8878125
 31
0.0
  0
LINE
  5
132
330
D5
100
AcDbEntity
  8
AM_4
100
AcDbLine
 10
-1.25
 20
-0.8878125
 30
0.0
 11
-1.25
 21
-1.3409375
 31
0.0
  0
LINE
  5
133
330
D5
100
AcDbEntity
  8
AM_4
100
AcDbLine
 10
-1.2109375
 20
-1.38
 30
0.0
 11
1.210937499997073
 21
-1.38
 31
0.0
  0
LINE
  5
134
330
D5
100
AcDbEntity
  8
AM_4
100
AcDbLine
 10
-1.25
 20
-1.3409375
 30
0.0
 11
1.25
 21
-1.3409375
 31
0.0
  0
ARC
  5
135
330
D5
100
AcDbEntity
  8
AM_4
100
AcDbCircle
 10
1.2109375
 20
-1.3409375
 30
0.0
 40
0.0390625
100
AcDbArc
 50
270.0
 51
0.0
  0
ARC
  5
136
330
D5
100
AcDbEntity
  8
AM_4
100
AcDbCircle
 10
-1.2109375
 20
-1.3409375
 30
0.0
 40
0.0390624999999998
100
AcDbArc
 50
180.0
 51
270.0
  0
ARC
  5
138
330
D5
100
AcDbEntity
  8
AM_5
100
AcDbCircle
 10
0.0
 20
-1.145625
 30
0.0
 40
0.15625
100
AcDbArc
 50
74.99999999999996
 51
15.00000000000004
  0
ENDBLK
  5
D8
330
D5
100
AcDbEntity
  8
0
100
AcDbBlockEnd
  0
BLOCK
  5
13B
330
139
100
AcDbEntity
  8
0
100
AcDbBlockBegin
  2
4_131844H_0_in_131844_4
 70
     2
 10
0.0
 20
0.0
 30
0.0
  3
4_131844H_0_in_131844_4
  1

  0
ATTDEF
  5
13D
330
139
100
AcDbEntity
  8
AM_6
100
AcDbText
 10
8.72
 20
1.1
 30
0.0
 40
0.5
  1
P2B-SXRB -I-Housing
100
AcDbAttributeDefinition
  3

  2
NN
 70
     8
280
     0
  0
ATTDEF
  5
13E
330
139
100
AcDbEntity
  8
AM_6
100
AcDbText
 10
8.72
 20
0.6000000000000001
 30
0.0
 40
0.5
  1
Eccentric Collar Pillow Block Bearings -(Normal Duty) -Low Backing Height
100
AcDbAttributeDefinition
  3

  2
NT
 70
     8
280
     0
  0
ATTDEF
  5
13F
330
139
100
AcDbEntity
  8
AM_6
100
AcDbText
 10
8.72
 20
0.1000000000000001
 30
0.0
 40
0.5
  1
131844H
100
AcDbAttributeDefinition
  3

  2
NB
 70
     8
280
     0
  0
ATTDEF
  5
140
330
139
100
AcDbEntity
  8
AM_6
100
AcDbText
 10
8.72
 20
-0.3999999999999999
 30
0.0
 40
0.5
  1
$PN.H
100
AcDbAttributeDefinition
  3

  2
NBSYN
 70
     8
280
     0
  0
ATTDEF
  5
141
330
139
100
AcDbEntity
  8
AM_6
100
AcDbText
 10
8.72
 20
-0.8999999999999999
 30
0.0
 40
0.5
  1
131844
100
AcDbAttributeDefinition
  3

  2
LINA
 70
     8
280
     0
  0
ATTDEF
  5
142
330
139
100
AcDbEntity
  8
AM_6
100
AcDbText
 10
8.72
 20
-1.4
 30
0.0
 40
0.5
  1
209
100
AcDbAttributeDefinition
  3

  2
SERIES
 70
     8
280
     0
  0
ATTDEF
  5
143
330
139
100
AcDbEntity
  8
AM_6
100
AcDbText
 10
8.72
 20
-1.9
 30
0.0
 40
0.5
  1
1-3/4
100
AcDbAttributeDefinition
  3

  2
SS
 70
     8
280
     0
  0
ATTDEF
  5
144
330
139
100
AcDbEntity
  8
AM_6
100
AcDbText
 10
8.72
 20
-2.4
 30
0.0
 40
0.5
  1
131844
100
AcDbAttributeDefinition
  3

  2
PN
 70
     8
280
     0
  0
ATTDEF
  5
145
330
139
100
AcDbEntity
  8
AM_6
100
AcDbText
 10
8.72
 20
-2.9
 30
0.0
 40
0.5
  1
P2B-SXRB-112
100
AcDbAttributeDefinition
  3

  2
DESCRIPTION
 70
     8
280
     0
  0
ATTDEF
  5
146
330
139
100
AcDbEntity
  8
AM_6
100
AcDbText
 10
8.72
 20
-3.4
 30
0.0
 40
0.5
  1
6.2
100
AcDbAttributeDefinition
  3

  2
WEIGHT
 70
     8
280
     0
  0
ATTDEF
  5
147
330
139
100
AcDbEntity
  8
AM_6
100
AcDbText
 10
8.72
 20
-3.9
 30
0.0
 40
0.5
  1
2.13
100
AcDbAttributeDefinition
  3

  2
A
 70
     8
280
     0
  0
ATTDEF
  5
148
330
139
100
AcDbEntity
  8
AM_6
100
AcDbText
 10
8.72
 20
-4.4
 30
0.0
 40
0.5
  1
7.44
100
AcDbAttributeDefinition
  3

  2
B
 70
     8
280
     0
  0
ATTDEF
  5
149
330
139
100
AcDbEntity
  8
AM_6
100
AcDbText
 10
8.72
 20
-4.9
 30
0.0
 40
0.5
  1
2.00
100
AcDbAttributeDefinition
  3

  2
C
 70
     8
280
     0
  0
ATTDEF
  5
14A
330
139
100
AcDbEntity
  8
AM_6
100
AcDbText
 10
8.72
 20
-5.4
 30
0.0
 40
0.5
  1
5.50
100
AcDbAttributeDefinition
  3

  2
DMIN
 70
     8
280
     0
  0
ATTDEF
  5
14B
330
139
100
AcDbEntity
  8
AM_6
100
AcDbText
 10
8.72
 20
-5.9
 30
0.0
 40
0.5
  1
6.19
100
AcDbAttributeDefinition
  3

  2
DMAX
 70
     8
280
     0
  0
ATTDEF
  5
14C
330
139
100
AcDbEntity
  8
AM_6
100
AcDbText
 10
8.72
 20
-6.4
 30
0.0
 40
0.5
  1
1/2
100
AcDbAttributeDefinition
  3

  2
F
 70
     8
280
     0
  0
ATTDEF
  5
14D
330
139
100
AcDbEntity
  8
AM_6
100
AcDbText
 10
8.72
 20
-6.9
 30
0.0
 40
0.5
  1
0.90
100
AcDbAttributeDefinition
  3

  2
G
 70
     8
280
     0
  0
ATTDEF
  5
14E
330
139
100
AcDbEntity
  8
AM_6
100
AcDbText
 10
8.72
 20
-7.4
 30
0.0
 40
0.5
  1
0.69
100
AcDbAttributeDefinition
  3

  2
H
 70
     8
280
     0
  0
ATTDEF
  5
14F
330
139
100
AcDbEntity
  8
AM_6
100
AcDbText
 10
8.72
 20
-7.9
 30
0.0
 40
0.5
  1
4.21
100
AcDbAttributeDefinition
  3

  2
J
 70
     8
280
     0
  0
ATTDEF
  5
150
330
139
100
AcDbEntity
  8
AM_6
100
AcDbText
 10
8.72
 20
-8.4
 30
0.0
 40
0.5
  1
2.50
100
AcDbAttributeDefinition
  3

  2
L
 70
     8
280
     0
  0
ATTDEF
  5
151
330
139
100
AcDbEntity
  8
AM_6
100
AcDbText
 10
8.72
 20
-8.9
 30
0.0
 40
0.5
  1
2.06
100
AcDbAttributeDefinition
  3

  2
M
 70
     8
280
     0
  0
ATTDEF
  5
152
330
139
100
AcDbEntity
  8
AM_6
100
AcDbText
 10
8.72
 20
-9.4
 30
0.0
 40
0.5
  1
0.75
100
AcDbAttributeDefinition
  3

  2
R
 70
     8
280
     0
  0
ATTDEF
  5
153
330
139
100
AcDbEntity
  8
AM_6
100
AcDbText
 10
8.72
 20
-9.9
 30
0.0
 40
0.5
  1
1.38
100
AcDbAttributeDefinition
  3

  2
S
 70
     8
280
     0
  0
ATTDEF
  5
154
330
139
100
AcDbEntity
  8
AM_6
100
AcDbText
 10
8.72
 20
-10.4
 30
0.0
 40
0.5
  1
3.38
100
AcDbAttributeDefinition
  3

  2
U
 70
     8
280
     0
  0
ATTDEF
  5
155
330
139
100
AcDbEntity
  8
AM_6
100
AcDbText
 10
8.72
 20
-10.9
 30
0.0
 40
0.5
  1
3.38
100
AcDbAttributeDefinition
  3

  2
U1
 70
     8
280
     0
  0
ATTDEF
  5
156
330
139
100
AcDbEntity
  8
AM_6
100
AcDbText
 10
8.72
 20
-11.4
 30
0.0
 40
0.5
  1
6.76
100
AcDbAttributeDefinition
  3

  2
V
 70
     8
280
     0
  0
ATTDEF
  5
157
330
139
100
AcDbEntity
  8
AM_6
100
AcDbText
 10
8.72
 20
-11.9
 30
0.0
 40
0.5
  1
6.76
100
AcDbAttributeDefinition
  3

  2
V1
 70
     8
280
     0
  0
ATTDEF
  5
158
330
139
100
AcDbEntity
  8
AM_6
100
AcDbText
 10
8.72
 20
-12.4
 30
0.0
 40
0.5
  1
0.69
100
AcDbAttributeDefinition
  3

  2
W
 70
     8
280
     0
  0
ATTDEF
  5
159
330
139
100
AcDbEntity
  8
AM_6
100
AcDbText
 10
8.72
 20
-12.9
 30
0.0
 40
0.5
  1
0.69
100
AcDbAttributeDefinition
  3

  2
W1
 70
     8
280
     0
  0
ATTDEF
  5
15A
330
139
100
AcDbEntity
  8
AM_6
100
AcDbText
 10
8.72
 20
-13.4
 30
0.0
 40
0.5
  1
0.12
100
AcDbAttributeDefinition
  3

  2
X
 70
     8
280
     0
  0
ATTDEF
  5
15B
330
139
100
AcDbEntity
  8
AM_6
100
AcDbText
 10
8.72
 20
-13.9
 30
0.0
 40
0.5
  1
0.12
100
AcDbAttributeDefinition
  3

  2
X1
 70
     8
280
     0
  0
ATTDEF
  5
15C
330
139
100
AcDbEntity
  8
AM_6
100
AcDbText
 10
8.72
 20
-14.4
 30
0.0
 40
0.5
  1
4450
100
AcDbAttributeDefinition
  3

  2
CAPS
 70
     8
280
     0
  0
ATTDEF
  5
15D
330
139
100
AcDbEntity
  8
AM_6
100
AcDbText
 10
8.72
 20
-14.9
 30
0.0
 40
0.5
  1
7891
100
AcDbAttributeDefinition
  3

  2
CAPD
 70
     8
280
     0
  0
ATTDEF
  5
15E
330
139
100
AcDbEntity
  8
AM_6
100
AcDbText
 10
8.72
 20
-15.4
 30
0.0
 40
0.5
  1
baldor
100
AcDbAttributeDefinition
  3

  2
COMPANY
 70
     8
280
     0
  0
LINE
  5
15F
330
139
100
AcDbEntity
  8
AM_9
100
AcDbLine
 10
-1.76075
 20
-0.8
 30
0.0
 11
-1.76075
 21
-0.5000000000000001
 31
0.0
  0
LINE
  5
160
330
139
100
AcDbEntity
  8
AM_9
100
AcDbLine
 10
-1.69175
 20
-0.8000000000000002
 30
0.0
 11
-1.69175
 21
-0.5000000000000001
 31
0.0
  0
LINE
  5
161
330
139
100
AcDbEntity
  8
AM_9
100
AcDbLine
 10
1.76075
 20
-0.3000000000000001
 30
0.0
 11
1.76075
 21
0.809999999999999
 31
0.0
  0
LINE
  5
162
330
139
100
AcDbEntity
  8
AM_9
100
AcDbLine
 10
1.69175
 20
0.4999999999999998
 30
0.0
 11
1.69175
 21
0.7999999999999999
 31
0.0
  0
LINE
  5
163
330
139
100
AcDbEntity
  8
AM_9
100
AcDbLine
 10
-1.76075
 20
-0.3000000000000001
 30
0.0
 11
-1.76075
 21
0.8099999999999998
 31
0.0
  0
LINE
  5
164
330
139
100
AcDbEntity
  8
AM_9
100
AcDbLine
 10
-1.69175
 20
0.4999999999999998
 30
0.0
 11
-1.69175
 21
0.7999999999999999
 31
0.0
  0
LINE
  5
165
330
139
100
AcDbEntity
  8
AM_9
100
AcDbLine
 10
1.76075
 20
-0.8000000000000002
 30
0.0
 11
1.76075
 21
-0.5000000000000001
 31
0.0
  0
LINE
  5
166
330
139
100
AcDbEntity
  8
AM_9
100
AcDbLine
 10
1.69175
 20
-0.8000000000000002
 30
0.0
 11
1.69175
 21
-0.5000000000000001
 31
0.0
  0
LINE
  5
167
330
139
100
AcDbEntity
  8
AM_9
100
AcDbLine
 10
-2.383340223335304
 20
-0.5000000000000001
 30
0.0
 11
-2.383340223335304
 21
0.4999999999999998
 31
0.0
  0
LINE
  5
168
330
139
100
AcDbEntity
  8
AM_9
100
AcDbLine
 10
-3.234500000000001
 20
-0.5000000000000001
 30
0.0
 11
-3.234500000000001
 21
-0.2398874736204446
 31
0.0
  0
LINE
  5
169
330
139
100
AcDbEntity
  8
AM_9
100
AcDbLine
 10
-3.3725
 20
-0.5000000000000001
 30
0.0
 11
-3.3725
 21
0.4999999999999998
 31
0.0
  0
LINE
  5
16A
330
139
100
AcDbEntity
  8
AM_9
100
AcDbLine
 10
3.2345
 20
0.2398874736204457
 30
0.0
 11
3.2345
 21
0.4999999999999998
 31
0.0
  0
LINE
  5
16B
330
139
100
AcDbEntity
  8
AM_9
100
AcDbLine
 10
3.3725
 20
-0.5000000000000001
 30
0.0
 11
3.3725
 21
0.4999999999999998
 31
0.0
  0
LINE
  5
16C
330
139
100
AcDbEntity
  8
AM_9
100
AcDbLine
 10
3.2345
 20
-0.5000000000000001
 30
0.0
 11
3.2345
 21
-0.2398874736204459
 31
0.0
  0
LINE
  5
16D
330
139
100
AcDbEntity
  8
AM_9
100
AcDbLine
 10
-3.234500000000001
 20
0.2398874736204452
 30
0.0
 11
-3.234500000000001
 21
0.4999999999999998
 31
0.0
  0
LINE
  5
16E
330
139
100
AcDbEntity
  8
AM_9
100
AcDbLine
 10
2.383340223335303
 20
-0.5000000000000001
 30
0.0
 11
2.383340223335303
 21
0.4999999999999998
 31
0.0
  0
LINE
  5
16F
330
139
100
AcDbEntity
  8
AM_9
100
AcDbLine
 10
-2.204755082214565
 20
-0.5000000000000001
 30
0.0
 11
-2.204755082214565
 21
0.4999999999999998
 31
0.0
  0
LINE
  5
170
330
139
100
AcDbEntity
  8
AM_9
100
AcDbLine
 10
2.204755082214564
 20
-0.5000000000000001
 30
0.0
 11
2.204755082214564
 21
0.4999999999999998
 31
0.0
  0
LINE
  5
171
330
139
100
AcDbEntity
  8
AM_9
100
AcDbLine
 10
1.104343157482344
 20
-0.5000000000000001
 30
0.0
 11
1.104343157482344
 21
0.4999999999999999
 31
0.0
  0
LINE
  5
172
330
139
100
AcDbEntity
  8
AM_9
100
AcDbLine
 10
-1.104343157482344
 20
-0.5000000000000001
 30
0.0
 11
-1.104343157482344
 21
0.4999999999999999
 31
0.0
  0
LINE
  5
173
330
139
100
AcDbEntity
  8
AM_9
100
AcDbLine
 10
1.386766327120858
 20
-0.5000000000000001
 30
0.0
 11
1.386766327120858
 21
0.4999999999999999
 31
0.0
  0
LINE
  5
174
330
139
100
AcDbEntity
  8
AM_9
100
AcDbLine
 10
3.3725
 20
0.4999999999999998
 30
0.0
 11
-3.3725
 21
0.4999999999999998
 31
0.0
  0
LINE
  5
175
330
139
100
AcDbEntity
  8
AM_9
100
AcDbLine
 10
-1.386766327120858
 20
-0.5000000000000001
 30
0.0
 11
-1.386766327120858
 21
0.4999999999999999
 31
0.0
  0
LINE
  5
176
330
139
100
AcDbEntity
  8
AM_9
100
AcDbLine
 10
3.3725
 20
-0.5000000000000001
 30
0.0
 11
-3.3725
 21
-0.5000000000000001
 31
0.0
  0
LINE
  5
177
330
139
100
AcDbEntity
  8
AM_9
100
AcDbLine
 10
1.527944882022909
 20
-0.3
 30
0.0
 11
1.527944882022909
 21
0.6811079545454546
 31
0.0
  0
LINE
  5
178
330
139
100
AcDbEntity
  8
AM_9
100
AcDbLine
 10
1.76075
 20
-0.3000000000000001
 30
0.0
 11
1.42623299726938
 21
-0.3
 31
0.0
  0
LINE
  5
179
330
139
100
AcDbEntity
  8
AM_9
100
AcDbLine
 10
-1.42623299726938
 20
-0.3
 30
0.0
 11
-1.76075
 21
-0.3000000000000001
 31
0.0
  0
LINE
  5
17A
330
139
100
AcDbEntity
  8
AM_9
100
AcDbLine
 10
-1.527944882022909
 20
-0.3
 30
0.0
 11
-1.527944882022909
 21
0.6811079545454546
 31
0.0
  0
LINE
  5
17B
330
139
100
AcDbEntity
  8
AM_9
100
AcDbLine
 10
1.295318015252109
 20
-0.1806863231297342
 30
0.0
 11
1.516034920897402
 21
-0.1904359696535151
 31
0.0
  0
LINE
  5
17C
330
139
100
AcDbEntity
  8
AM_9
100
AcDbLine
 10
1.516033981474899
 20
0.1904359281567513
 30
0.0
 11
1.295318015252109
 21
0.1806863231297343
 31
0.0
  0
LWPOLYLINE
  5
17D
330
139
100
AcDbEntity
  8
AM_9
100
AcDbPolyline
 90
       21
 70
     0
 43
0.0
 10
1.516052461260189
 20
-0.190436743243588
 10
1.535023177828201
 20
-0.1893717501042433
 10
1.556767533291104
 20
-0.1831887966450474
 10
1.577195432168309
 20
-0.1719005422161124
 10
1.595790601374202
 20
-0.1557326494992028
 10
1.612103589990663
 20
-0.1352224227443554
 10
1.625782024561824
 20
-0.1107742837655254
 10
1.636485491897678
 20
-0.0832081932770576
 10
1.643954043700856
 20
-0.0532145404446368
 10
1.648055116084621
 20
-0.0217129915411997
 10
1.648662076486757
 20
0.0103398176741329
 10
1.64582021119723
 20
0.0421005117438227
 10
1.639554836351229
 20
0.0726155202589852
 10
1.630037122263456
 20
0.1010902020144776
 10
1.617396280805091
 20
0.126740022524978
 10
1.601962689740093
 20
0.1488249387662021
 10
1.584016275113947
 20
0.1666917143154649
 10
1.564041919328561
 20
0.1798506956242682
 10
1.542575052612877
 20
0.1878361618476569
 10
1.520157199756747
 20
0.190530469417273
 10
1.516082963320335
 20
0.1904380905960067
  0
LWPOLYLINE
  5
17E
330
139
100
AcDbEntity
  8
AM_9
100
AcDbPolyline
 90
        7
 70
     0
 43
0.0
 10
1.516082963320335
 20
0.1904380905960067
 10
1.497500508029819
 20
0.1878016167759486
 10
1.475171716740156
 20
0.1798276413251254
 10
1.453851680731614
 20
0.1667702087612015
 10
1.434179467467213
 20
0.1490694858170628
 10
1.422510564723403
 20
0.1351779011369007
 10
1.411978720294678
 20
0.1196679975334442
  0
LINE
  5
17F
330
139
100
AcDbEntity
  8
AM_9
100
AcDbLine
 10
-1.42623299726938
 20
-0.3
 30
0.0
 11
-1.42623299726938
 21
0.6811079545454544
 31
0.0
  0
LINE
  5
180
330
139
100
AcDbEntity
  8
AM_9
100
AcDbLine
 10
1.42623299726938
 20
0.6811079545454544
 30
0.0
 11
1.42623299726938
 21
-0.3
 31
0.0
  0
LINE
  5
181
330
139
100
AcDbEntity
  8
AM_9
100
AcDbLine
 10
1.67325
 20
-0.8
 30
0.0
 11
1.67325
 21
-0.3000000000000001
 31
0.0
  0
LINE
  5
182
330
139
100
AcDbEntity
  8
AM_9
100
AcDbLine
 10
-1.67325
 20
-0.3000000000000001
 30
0.0
 11
-1.67325
 21
-0.8
 31
0.0
  0
LINE
  5
183
330
139
100
AcDbEntity
  8
AM_9
100
AcDbLine
 10
1.11
 20
-0.8000000000000002
 30
0.0
 11
-1.11
 21
-0.8000000000000002
 31
0.0
  0
LWPOLYLINE
  5
184
330
139
100
AcDbEntity
  8
AM_9
100
AcDbPolyline
 90
       15
 70
     0
 43
0.0
 10
1.411978720294678
 20
0.1196679975334442
 10
1.39836518869237
 20
0.0930790923057574
 10
1.388230380758132
 20
0.0638658375605525
 10
1.38197995992843
 20
0.0328191759195151
 10
1.379776974100028
 20
0.0008437056210943
 10
1.381754347794629
 20
-0.0310934503044716
 10
1.387771293995354
 20
-0.0621540160756555
 10
1.397672673538656
 20
-0.0914351398465444
 10
1.411062241208023
 20
-0.1181484116333265
 10
1.427579577825834
 20
-0.1415577077880245
 10
1.446606821087571
 20
-0.1609792927872318
 10
1.46756607027922
 20
-0.1758048594929712
 10
1.48976698951978
 20
-0.1856643901420517
 10
1.512448108640511
 20
-0.1901898448750297
 10
1.516052461260189
 20
-0.190436743243588
  0
ELLIPSE
  5
185
330
139
100
AcDbEntity
  8
AM_9
100
AcDbEllipse
 10
1.299308710430295
 20
-0.000000000000001
 30
0.0
 11
1.106924205118305E-17
 21
0.1807744413963257
 31
0.0
210
0.0
220
0.0
230
1.0
 40
0.7071067811864551
 41
0.0
 42
6.283185307179586
  0
LINE
  5
186
330
139
100
AcDbEntity
  8
AM_7
100
AcDbLine
 10
-3.443
 20
-0.6900000000000001
 30
0.0
 11
-3.317
 21
-0.6900000000000001
 31
0.0
  0
LINE
  5
187
330
139
100
AcDbEntity
  8
AM_7
100
AcDbLine
 10
-3.38
 20
-0.7530000000000001
 30
0.0
 11
-3.38
 21
-0.627
 31
0.0
  0
LINE
  5
188
330
139
100
AcDbEntity
  8
AM_7
100
AcDbLine
 10
3.317
 20
-0.6900000000000001
 30
0.0
 11
3.443
 21
-0.6900000000000001
 31
0.0
  0
LINE
  5
189
330
139
100
AcDbEntity
  8
AM_7
100
AcDbLine
 10
3.38
 20
-0.7530000000000001
 30
0.0
 11
3.38
 21
-0.627
 31
0.0
  0
LINE
  5
18A
330
139
100
AcDbEntity
  8
AM_7
100
AcDbLine
 10
0.0
 20
1.1
 30
0.0
 11
0.0
 21
-1.4865
 31
0.0
  0
LINE
  5
18B
330
139
100
AcDbEntity
  8
AM_7
100
AcDbLine
 10
2.458624999999999
 20
-0.0000000000000001
 30
0.0
 11
3.386375
 21
-0.0000000000000001
 31
0.0
  0
LINE
  5
18C
330
139
100
AcDbEntity
  8
AM_7
100
AcDbLine
 10
2.749999999999999
 20
-0.2913749999999999
 30
0.0
 11
2.749999999999999
 21
0.2913749999999998
 31
0.0
  0
LINE
  5
18D
330
139
100
AcDbEntity
  8
AM_7
100
AcDbLine
 10
-3.386375
 20
0.0000000000000003
 30
0.0
 11
-2.458624999999999
 21
0.0000000000000002
 31
0.0
  0
LINE
  5
18E
330
139
100
AcDbEntity
  8
AM_7
100
AcDbLine
 10
-2.749999999999999
 20
-0.2913749999999996
 30
0.0
 11
-2.749999999999999
 21
0.2913750000000002
 31
0.0
  0
LINE
  5
18F
330
139
100
AcDbEntity
  8
AM_7
100
AcDbLine
 10
3.095
 20
-0.291375
 30
0.0
 11
3.095
 21
0.2913749999999998
 31
0.0
  0
LINE
  5
190
330
139
100
AcDbEntity
  8
AM_7
100
AcDbLine
 10
-3.095
 20
-0.2913749999999996
 30
0.0
 11
-3.095
 21
0.2913750000000002
 31
0.0
  0
LINE
  5
191
330
139
100
AcDbEntity
  8
AM_4
100
AcDbLine
 10
3.72
 20
-1.0
 30
0.0
 11
3.72
 21
0.9999999999999999
 31
0.0
  0
LINE
  5
192
330
139
100
AcDbEntity
  8
AM_4
100
AcDbLine
 10
-3.582
 20
-1.0
 30
0.0
 11
-3.582
 21
-0.7410000000000005
 31
0.0
  0
LINE
  5
193
330
139
100
AcDbEntity
  8
AM_4
100
AcDbLine
 10
-3.72
 20
-1.0
 30
0.0
 11
-3.72
 21
0.9999999999999999
 31
0.0
  0
LINE
  5
194
330
139
100
AcDbEntity
  8
AM_4
100
AcDbLine
 10
-3.582
 20
0.7409999999999997
 30
0.0
 11
-3.582
 21
0.9999999999999999
 31
0.0
  0
LINE
  5
195
330
139
100
AcDbEntity
  8
AM_4
100
AcDbLine
 10
3.582000000000001
 20
-1.0
 30
0.0
 11
3.582000000000001
 21
-0.7409999999999997
 31
0.0
  0
LINE
  5
196
330
139
100
AcDbEntity
  8
AM_4
100
AcDbLine
 10
3.582000000000001
 20
0.7409999999999999
 30
0.0
 11
3.582000000000001
 21
0.9999999999999999
 31
0.0
  0
LINE
  5
197
330
139
100
AcDbEntity
  8
AM_4
100
AcDbLine
 10
2.919951734821587
 20
-1.0
 30
0.0
 11
2.919951734821587
 21
-0.81
 31
0.0
  0
LINE
  5
198
330
139
100
AcDbEntity
  8
AM_4
100
AcDbLine
 10
2.919951734821587
 20
0.8099999999999999
 30
0.0
 11
2.919951734821587
 21
0.9999999999999999
 31
0.0
  0
LINE
  5
199
330
139
100
AcDbEntity
  8
AM_4
100
AcDbLine
 10
-2.919951734821589
 20
-1.0
 30
0.0
 11
-2.919951734821589
 21
-0.81
 31
0.0
  0
LINE
  5
19A
330
139
100
AcDbEntity
  8
AM_4
100
AcDbLine
 10
-2.919951734821589
 20
0.8099999999999999
 30
0.0
 11
-2.919951734821589
 21
0.9999999999999999
 31
0.0
  0
CIRCLE
  5
19B
330
139
100
AcDbEntity
  8
AM_4
100
AcDbCircle
 10
-3.38
 20
-0.6900000000000001
 30
0.0
 40
0.06
  0
ARC
  5
19C
330
139
100
AcDbEntity
  8
AM_4
100
AcDbCircle
 10
-3.095
 20
0.0000000000000003
 30
0.0
 40
0.2774999999999999
100
AcDbArc
 50
90.0
 51
270.0
  0
LINE
  5
19D
330
139
100
AcDbEntity
  8
AM_4
100
AcDbLine
 10
-3.095
 20
0.2775000000000002
 30
0.0
 11
-2.75
 21
0.2775000000000001
 31
0.0
  0
ARC
  5
19E
330
139
100
AcDbEntity
  8
AM_4
100
AcDbCircle
 10
-2.749999999999999
 20
0.0000000000000002
 30
0.0
 40
0.2774999999999999
100
AcDbArc
 50
270.0
 51
90.0
  0
LINE
  5
19F
330
139
100
AcDbEntity
  8
AM_4
100
AcDbLine
 10
-2.75
 20
-0.2774999999999996
 30
0.0
 11
-3.095
 21
-0.2774999999999996
 31
0.0
  0
ARC
  5
1A0
330
139
100
AcDbEntity
  8
AM_4
100
AcDbCircle
 10
-3.374999999999999
 20
-0.4649999999999995
 30
0.0
 40
0.3450000000000011
100
AcDbArc
 50
180.0
 51
270.0
  0
LINE
  5
1A1
330
139
100
AcDbEntity
  8
AM_4
100
AcDbLine
 10
-3.375
 20
-0.8100000000000004
 30
0.0
 11
-2.75
 21
-0.8099999999999998
 31
0.0
  0
LINE
  5
1A2
330
139
100
AcDbEntity
  8
AM_4
100
AcDbLine
 10
-2.75
 20
0.8099999999999999
 30
0.0
 11
-3.375
 21
0.8099999999999998
 31
0.0
  0
ARC
  5
1A3
330
139
100
AcDbEntity
  8
AM_4
100
AcDbCircle
 10
-3.375
 20
0.4650000000000002
 30
0.0
 40
0.3449999999999996
100
AcDbArc
 50
90.0
 51
179.9999987925817
  0
CIRCLE
  5
1A4
330
139
100
AcDbEntity
  8
AM_4
100
AcDbCircle
 10
3.38
 20
-0.6900000000000001
 30
0.0
 40
0.06
  0
ARC
  5
1A5
330
139
100
AcDbEntity
  8
AM_4
100
AcDbCircle
 10
2.749999999999999
 20
-0.0000000000000001
 30
0.0
 40
0.2774999999999999
100
AcDbArc
 50
90.0
 51
270.0
  0
LINE
  5
1A6
330
139
100
AcDbEntity
  8
AM_4
100
AcDbLine
 10
2.75
 20
0.2774999999999999
 30
0.0
 11
3.095
 21
0.2774999999999997
 31
0.0
  0
ARC
  5
1A7
330
139
100
AcDbEntity
  8
AM_4
100
AcDbCircle
 10
3.095
 20
-0.0000000000000001
 30
0.0
 40
0.2774999999999999
100
AcDbArc
 50
270.0
 51
90.0
  0
LINE
  5
1A8
330
139
100
AcDbEntity
  8
AM_4
100
AcDbLine
 10
3.095
 20
-0.2775
 30
0.0
 11
2.75
 21
-0.2775
 31
0.0
  0
ARC
  5
1A9
330
139
100
AcDbEntity
  8
AM_4
100
AcDbCircle
 10
3.375
 20
0.4650000000000005
 30
0.0
 40
0.3449999999999998
100
AcDbArc
 50
0.0
 51
90.0
  0
LINE
  5
1AA
330
139
100
AcDbEntity
  8
AM_4
100
AcDbLine
 10
3.375
 20
0.81
 30
0.0
 11
2.75
 21
0.8099999999999999
 31
0.0
  0
LINE
  5
1AB
330
139
100
AcDbEntity
  8
AM_4
100
AcDbLine
 10
2.75
 20
-0.8100000000000005
 30
0.0
 11
3.375
 21
-0.81
 31
0.0
  0
ARC
  5
1AC
330
139
100
AcDbEntity
  8
AM_4
100
AcDbCircle
 10
3.375000000000001
 20
-0.4650000000000009
 30
0.0
 40
0.3449999999999991
100
AcDbArc
 50
270.0
 51
0.0
  0
LWPOLYLINE
  5
1AD
330
139
100
AcDbEntity
  8
AM_4
100
AcDbPolyline
 90
       14
 70
     0
 43
0.0
 10
2.031537240674451
 20
-0.3740471406952866
 10
2.066871564753458
 20
-0.4352419338225718
 10
2.107404908708918
 20
-0.4931242730272022
 10
2.152828789318628
 20
-0.5472536387575186
 10
2.202797503423458
 20
-0.5972180738561087
 10
2.256930758937137
 20
-0.6426373188025215
 10
2.314816569098653
 20
-0.6831657057178246
 10
2.376014387940268
 20
-0.7184947891058836
 10
2.440058463108343
 20
-0.7483556933098315
 10
2.506461380519982
 20
-0.7725211588181695
 10
2.574717773878502
 20
-0.790807271846872
 10
2.644308170816108
 20
-0.8030748640343338
 10
2.714702946392275
 20
-0.8092305715966335
 10
2.75
 20
-0.8100000000000005
  0
LINE
  5
1AE
330
139
100
AcDbEntity
  8
AM_4
100
AcDbLine
 10
2.789555391001553
 20
-1.0
 30
0.0
 11
2.789555391001552
 21
-0.81
 31
0.0
  0
LWPOLYLINE
  5
1AF
330
139
100
AcDbEntity
  8
AM_4
100
AcDbPolyline
 90
       14
 70
     0
 43
0.0
 10
-2.031537240674451
 20
0.3740471406952871
 10
-2.066871564753458
 20
0.4352419338225723
 10
-2.107404908708918
 20
0.4931242730272026
 10
-2.152828789318628
 20
0.547253638757519
 10
-2.202797503423458
 20
0.597218073856109
 10
-2.256930758937137
 20
0.642637318802522
 10
-2.314816569098653
 20
0.6831657057178249
 10
-2.376014387940268
 20
0.7184947891058838
 10
-2.440058463108343
 20
0.7483556933098318
 10
-2.506461380519982
 20
0.7725211588181699
 10
-2.574717773878502
 20
0.7908072718468723
 10
-2.644308170816108
 20
0.803074864034334
 10
-2.714702946392275
 20
0.8092305715966336
 10
-2.75
 20
0.8100000000000006
  0
LINE
  5
1B0
330
139
100
AcDbEntity
  8
AM_4
100
AcDbLine
 10
-2.789555391001553
 20
0.8099999999999999
 30
0.0
 11
-2.789555391001553
 21
0.9999999999999999
 31
0.0
  0
LWPOLYLINE
  5
1B1
330
139
100
AcDbEntity
  8
AM_4
100
AcDbPolyline
 90
       14
 70
     0
 43
0.0
 10
2.75
 20
0.8099999999999999
 10
2.679403848374397
 20
0.8069177054543138
 10
2.609344976089786
 20
0.7976942799398886
 10
2.540356573466958
 20
0.7823999192941455
 10
2.472963683906209
 20
0.7611510228365861
 10
2.407679207990034
 20
0.7341093074996867
 10
2.345
 20
0.7014805770653957
 10
2.285403086555653
 20
0.6635131558740838
 10
2.229342036153903
 20
0.6204959989263726
 10
2.177243507238896
 20
0.5727564927611041
 10
2.129504001073628
 20
0.5206579638460975
 10
2.086486844125917
 20
0.4645969134443481
 10
2.048519422934605
 20
0.4050000000000009
 10
2.031537240674452
 20
0.3740471406952866
  0
LINE
  5
1B2
330
139
100
AcDbEntity
  8
AM_4
100
AcDbLine
 10
2.789555391001552
 20
0.8099999999999999
 30
0.0
 11
2.789555391001553
 21
0.9999999999999999
 31
0.0
  0
LWPOLYLINE
  5
1B3
330
139
100
AcDbEntity
  8
AM_4
100
AcDbPolyline
 90
       14
 70
     0
 43
0.0
 10
-2.75
 20
-0.8099999999999998
 10
-2.679403848374398
 20
-0.8069177054543137
 10
-2.609344976089787
 20
-0.7976942799398885
 10
-2.540356573466959
 20
-0.7823999192941454
 10
-2.472963683906209
 20
-0.7611510228365861
 10
-2.407679207990034
 20
-0.7341093074996868
 10
-2.345000000000001
 20
-0.7014805770653957
 10
-2.285403086555653
 20
-0.663513155874084
 10
-2.229342036153904
 20
-0.6204959989263727
 10
-2.177243507238897
 20
-0.5727564927611043
 10
-2.129504001073629
 20
-0.5206579638460977
 10
-2.086486844125917
 20
-0.4645969134443484
 10
-2.048519422934605
 20
-0.4050000000000011
 10
-2.031537240674452
 20
-0.3740471406952862
  0
LINE
  5
1B4
330
139
100
AcDbEntity
  8
AM_4
100
AcDbLine
 10
-2.789555391001553
 20
-1.0
 30
0.0
 11
-2.789555391001553
 21
-0.81
 31
0.0
  0
LINE
  5
1B5
330
139
100
AcDbEntity
  8
AM_4
100
AcDbLine
 10
1.527944882022908
 20
0.6811079545454546
 30
0.0
 11
1.527944882022908
 21
0.8
 31
0.0
  0
LINE
  5
1B6
330
139
100
AcDbEntity
  8
AM_4
100
AcDbLine
 10
1.759898166865806
 20
0.8059613067713169
 30
0.0
 11
1.760622461477068
 21
0.8084079873138967
 31
0.0
  0
LWPOLYLINE
  5
1B7
330
139
100
AcDbEntity
  8
AM_4
100
AcDbPolyline
 90
        4
 70
     0
 43
0.0
 10
1.75075
 20
0.8000000000000002
 10
1.752765577917931
 20
0.8002052337620162
 10
1.758562779036933
 20
0.8037581666379128
 10
1.759898166865806
 20
0.8059613067713169
  0
LINE
  5
1B8
330
139
100
AcDbEntity
  8
AM_4
100
AcDbLine
 10
1.76075
 20
0.8053977272727273
 30
0.0
 11
1.760622461477065
 21
0.8084079873166741
 31
0.0
  0
LINE
  5
1B9
330
139
100
AcDbEntity
  8
AM_4
100
AcDbLine
 10
1.75075
 20
0.8000000000000002
 30
0.0
 11
-1.750749999999999
 21
0.8
 31
0.0
  0
LWPOLYLINE
  5
1BA
330
139
100
AcDbEntity
  8
AM_4
100
AcDbPolyline
 90
        4
 70
     0
 43
0.0
 10
-1.75917916793353
 20
0.8046195606175378
 10
-1.758562779036932
 20
0.8037581666379124
 10
-1.75276557791793
 20
0.8002052337620161
 10
-1.750749999999999
 20
0.8
  0
LINE
  5
1BB
330
139
100
AcDbEntity
  8
AM_4
100
AcDbLine
 10
-1.760622461477068
 20
0.8084079873138976
 30
0.0
 11
-1.75917916793353
 21
0.8046195606175378
 31
0.0
  0
LINE
  5
1BC
330
139
100
AcDbEntity
  8
AM_4
100
AcDbLine
 10
-1.527944882022909
 20
0.6811079545454546
 30
0.0
 11
-1.527944882022909
 21
0.8
 31
0.0
  0
LWPOLYLINE
  5
1BD
330
139
100
AcDbEntity
  8
AM_4
100
AcDbPolyline
 90
        7
 70
     0
 43
0.0
 10
-1.76075
 20
0.8053977272727273
 10
-1.754049814665041
 20
0.7835995065279917
 10
-1.734000251116245
 20
0.7619671834052489
 10
-1.700753898638477
 20
0.7406653929454172
 10
-1.654563782048788
 20
0.7198562546362683
 10
-1.595781436024782
 20
0.6996981385852364
 10
-1.527944882022909
 20
0.6811079545454548
  0
LINE
  5
1BE
330
139
100
AcDbEntity
  8
AM_4
100
AcDbLine
 10
1.42623299726938
 20
0.6811079545454544
 30
0.0
 11
1.42623299726938
 21
0.7999999999999999
 31
0.0
  0
LINE
  5
1BF
330
139
100
AcDbEntity
  8
AM_4
100
AcDbLine
 10
-1.42623299726938
 20
0.7999999999999999
 30
0.0
 11
-1.42623299726938
 21
0.6811079545454544
 31
0.0
  0
LINE
  5
1C0
330
139
100
AcDbEntity
  8
AM_4
100
AcDbLine
 10
-1.11
 20
-0.8000000000000002
 30
0.0
 11
-1.760750000000003
 21
-0.7999999999999997
 31
0.0
  0
LINE
  5
1C1
330
139
100
AcDbEntity
  8
AM_4
100
AcDbLine
 10
1.760750000000003
 20
-0.8
 30
0.0
 11
1.11
 21
-0.8000000000000002
 31
0.0
  0
LINE
  5
1C2
330
139
100
AcDbEntity
  8
AM_4
100
AcDbLine
 10
-1.527944882022909
 20
0.6811079545454546
 30
0.0
 11
-1.42623299726938
 21
0.6811079545454544
 31
0.0
  0
LINE
  5
1C3
330
139
100
AcDbEntity
  8
AM_4
100
AcDbLine
 10
-1.760622461477065
 20
0.8084079873166743
 30
0.0
 11
-1.76075
 21
0.8053977272727273
 31
0.0
  0
LWPOLYLINE
  5
1C4
330
139
100
AcDbEntity
  8
AM_4
100
AcDbPolyline
 90
        3
 70
     0
 43
0.0
 10
-1.76075
 20
0.81
 10
-1.760711946980917
 20
0.8091284425725235
 10
-1.760622461477064
 20
0.8084079873166741
  0
LINE
  5
1C5
330
139
100
AcDbEntity
  8
AM_4
100
AcDbLine
 10
-1.76075
 20
0.81
 30
0.0
 11
-1.76075
 21
0.9999999999999999
 31
0.0
  0
LINE
  5
1C6
330
139
100
AcDbEntity
  8
AM_4
100
AcDbLine
 10
-3.72
 20
0.9999999999999999
 30
0.0
 11
-1.76075
 21
0.9999999999999999
 31
0.0
  0
LINE
  5
1C7
330
139
100
AcDbEntity
  8
AM_4
100
AcDbLine
 10
-2.031537240674452
 20
0.7054239163222935
 30
0.0
 11
-2.75
 21
0.9999999999999999
 31
0.0
  0
LINE
  5
1C8
330
139
100
AcDbEntity
  8
AM_4
100
AcDbLine
 10
2.75
 20
0.9999999999999999
 30
0.0
 11
2.031537240674451
 21
0.7054239163222932
 31
0.0
  0
LINE
  5
1C9
330
139
100
AcDbEntity
  8
AM_4
100
AcDbLine
 10
1.76075
 20
0.9999999999999999
 30
0.0
 11
3.72
 21
0.9999999999999999
 31
0.0
  0
LINE
  5
1CA
330
139
100
AcDbEntity
  8
AM_4
100
AcDbLine
 10
1.76075
 20
0.9999999999999999
 30
0.0
 11
1.76075
 21
0.8099999999999982
 31
0.0
  0
LWPOLYLINE
  5
1CB
330
139
100
AcDbEntity
  8
AM_4
100
AcDbPolyline
 90
        3
 70
     0
 43
0.0
 10
1.760622461477064
 20
0.8084079873166741
 10
1.760723646828446
 20
0.8092744871183571
 10
1.76075
 20
0.8099999999999962
  0
LWPOLYLINE
  5
1CC
330
139
100
AcDbEntity
  8
AM_4
100
AcDbPolyline
 90
        7
 70
     0
 43
0.0
 10
1.527944882022909
 20
0.6811079545454546
 10
1.59839186535184
 20
0.7004969900908966
 10
1.656674121450048
 20
0.7206843835870894
 10
1.702348087156837
 20
0.7415164967800452
 10
1.735066156014482
 20
0.762834784709592
 10
1.754579323763269
 20
0.7844770023322516
 10
1.76075
 20
0.8053977272727273
  0
LINE
  5
1CD
330
139
100
AcDbEntity
  8
AM_4
100
AcDbLine
 10
1.42623299726938
 20
0.6811079545454544
 30
0.0
 11
1.527944882022909
 21
0.6811079545454546
 31
0.0
  0
LWPOLYLINE
  5
1CE
330
139
100
AcDbEntity
  8
AM_4
100
AcDbPolyline
 90
       25
 70
     0
 43
0.0
 10
-1.42623299726938
 20
0.6811079545454544
 10
-1.344544475219055
 20
0.6639240401933935
 10
-1.252623157854161
 20
0.6478168260241541
 10
-1.151168621903455
 20
0.6329088976633661
 10
-1.040952997645445
 20
0.6193137134475083
 10
-0.9228150925307487
 20
0.60713474093746
 10
-0.7976540073509056
 20
0.5964646694678872
 10
-0.6664222935384642
 20
0.5873847047254389
 10
-0.5301187036754123
 20
0.5799639507244376
 10
-0.3897805903829655
 20
0.5742588838836047
 10
-0.246476011441749
 20
0.5703129232064126
 10
-0.101295601227176
 20
0.5681560998362508
 10
0.0446557296766921
 20
0.5678048285012918
 10
0.1902672035138538
 20
0.5692617825884981
 10
0.3344306290457965
 20
0.5725158737975332
 10
0.4760488355559656
 20
0.5775423365294223
 10
0.614044022981408
 20
0.5843029163677145
 10
0.7473659646220435
 20
0.5927461612176906
 10
0.8749999999999977
 20
0.6028078128878719
 10
0.9959747570385066
 20
0.6144112961336567
 10
1.109369544789952
 20
0.62746830144117
 10
1.2143213604499
 20
0.6418794571159862
 10
1.310031457329539
 20
0.6575350855617261
 10
1.39577142380028
 20
0.674316037992791
 10
1.42623299726938
 20
0.6811079545454544
  0
LINE
  5
1CF
330
139
100
AcDbEntity
  8
AM_4
100
AcDbLine
 10
1.760750000000003
 20
-0.8
 30
0.0
 11
1.760750000000003
 21
-1.0
 31
0.0
  0
LINE
  5
1D0
330
139
100
AcDbEntity
  8
AM_4
100
AcDbLine
 10
1.760750000000003
 20
-1.0
 30
0.0
 11
3.72
 21
-1.0
 31
0.0
  0
LINE
  5
1D1
330
139
100
AcDbEntity
  8
AM_4
100
AcDbLine
 10
2.031537240674452
 20
-0.7054239163222935
 30
0.0
 11
2.75
 21
-1.0
 31
0.0
  0
LINE
  5
1D2
330
139
100
AcDbEntity
  8
AM_4
100
AcDbLine
 10
-2.75
 20
-1.0
 30
0.0
 11
-2.031537240674452
 21
-0.7054239163222936
 31
0.0
  0
LINE
  5
1D3
330
139
100
AcDbEntity
  8
AM_4
100
AcDbLine
 10
-3.72
 20
-1.0
 30
0.0
 11
-1.760750000000003
 21
-1.0
 31
0.0
  0
LINE
  5
1D4
330
139
100
AcDbEntity
  8
AM_4
100
AcDbLine
 10
-1.760750000000003
 20
-1.0
 30
0.0
 11
-1.760750000000003
 21
-0.7999999999999997
 31
0.0
  0
LWPOLYLINE
  5
1D5
330
139
100
AcDbEntity
  8
AM_4
100
AcDbPolyline
 90
       37
 70
     0
 43
0.0
 10
1.672818448756469
 20
-0.8000000000000002
 10
1.663140951296842
 20
-0.7793109186206193
 10
1.640805946965883
 20
-0.7588203736067266
 10
1.605983418632795
 20
-0.7386843103784074
 10
1.55893838676461
 20
-0.7190559765353163
 10
1.500028892460412
 20
-0.7000847555499116
 10
1.429703272542381
 20
-0.6819150298690282
 10
1.348496747441864
 20
-0.6646850820762783
 10
1.257027347848716
 20
-0.6485260424780916
 10
1.155991211124574
 20
-0.6335608911229053
 10
1.046157283277197
 20
-0.6199035218487374
 10
0.9283614668170419
 20
-0.6076578754823097
 10
0.803500259034429
 20
-0.596917148786594
 10
0.6725239291138431
 20
-0.5877630851771729
 10
0.5364292860116496
 20
-0.5802653526054887
 10
0.3962520921380488
 20
-0.5744810133436669
 10
0.2530591805797225
 20
-0.5704540897061692
 10
0.1079403358558736
 20
-0.5682152290133999
 10
-0.0379999999999954
 20
-0.5677814703470924
 10
-0.183651132910837
 20
-0.5691561148726074
 10
-0.3279045698086412
 20
-0.5723287007150732
 10
-0.4696624549360091
 20
-0.5772750825805687
 10
-0.60784592519137
 20
-0.5839576155163904
 10
-0.74140332092862
 20
-0.592325441411873
 10
-0.8693181897220383
 20
-0.6023148760593205
 10
-0.9906170221829976
 20
-0.6138498938292805
 10
-1.104376660954232
 20
-0.6268427062714889
 10
-1.209731326494745
 20
-0.6411944302379863
 10
-1.305879206184887
 20
-0.6567958404435796
 10
-1.392088556604538
 20
-0.6735282007362152
 10
-1.467703272542376
 20
-0.6912641677507909
 10
-1.532147880352701
 20
-0.7098687600690561
 10
-1.584931917657357
 20
-0.7292003855097083
 10
-1.625653666060584
 20
-0.7491119187303904
 10
-1.654003208468568
 20
-0.7694518209403799
 10
-1.669764787745663
 20
-0.7900652932022902
 10
-1.672818448756469
 20
-0.8
  0
LINE
  5
1D6
330
139
100
AcDbEntity
  8
AM_4
100
AcDbLine
 10
-2.031537240674452
 20
-0.7054239163222936
 30
0.0
 11
-2.031537240674451
 21
-0.3740471406952845
 31
0.0
  0
LWPOLYLINE
  5
1D7
330
139
100
AcDbEntity
  8
AM_4
100
AcDbPolyline
 90
       30
 70
     0
 43
0.0
 10
-2.031537240674451
 20
-0.7054239163222935
 10
-1.962465054224981
 20
-0.6806537591952948
 10
-1.878457323744062
 20
-0.6568329789878329
 10
-1.780153398785907
 20
-0.6341428662206665
 10
-1.66830143157698
 20
-0.6127561063526188
 10
-1.543752683125806
 20
-0.592835465539964
 10
-1.40745504461269
 20
-0.5745325518876984
 10
-1.260445823365479
 20
-0.5579866616203171
 10
-1.10384384832446
 20
-0.5433237189534365
 10
-0.9388409550785533
 20
-0.5306553177344785
 10
-0.7666929152768306
 20
-0.5200778721461092
 10
-0.5887098794480119
 20
-0.5116718829360922
 10
-0.4062464059638495
 20
-0.505501324757991
 10
-0.2206911520320157
 20
-0.5016131592854258
 10
-0.0334563051762573
 20
-0.5000369778053813
 10
0.1540331643633619
 20
-0.5007847760106447
 10
0.3403503485144083
 20
-0.5038508627053416
 10
0.5240772610041008
 20
-0.5092119031183714
 10
0.70381562909105
 20
-0.516827096495106
 10
0.8781975352651202
 20
-0.5266384866157693
 10
1.045895827925653
 20
-0.5385714028772635
 10
1.205634221806504
 20
-0.5525350285815469
 10
1.356197011277561
 20
-0.5684230921055421
 10
1.49643832259865
 20
-0.5861146756923565
 10
1.625290834710601
 20
-0.6054751357084243
 10
1.741773902192965
 20
-0.6263571273628575
 10
1.845001018567805
 20
-0.6486017260902749
 10
1.934186563149269
 20
-0.6720396370627049
 10
2.008651780091389
 20
-0.6964924836254496
 10
2.031537240674451
 20
-0.7054239163222933
  0
LINE
  5
1D8
330
139
100
AcDbEntity
  8
AM_4
100
AcDbLine
 10
2.031537240674452
 20
-0.7054239163222935
 30
0.0
 11
2.031537240674452
 21
-0.3740471406952867
 31
0.0
  0
LWPOLYLINE
  5
1D9
330
139
100
AcDbEntity
  8
AM_4
100
AcDbPolyline
 90
       27
 70
     0
 43
0.0
 10
2.031537240674452
 20
0.3740471406952871
 10
2.020587530107452
 20
0.3522187903748512
 10
2.009632229933614
 20
0.3285659219196783
 10
1.998640249998298
 20
0.3025866287825762
 10
1.987960991447273
 20
0.2745843211911074
 10
1.977922207336379
 20
0.2449383145410146
 10
1.968590518871133
 20
0.2133054682888246
 10
1.959952097261632
 20
0.1786628707605606
 10
1.952568662419375
 20
0.1421381787007833
 10
1.948059887072853
 20
0.1139734207704329
 10
1.944477077636922
 20
0.0850459966585612
 10
1.94184969812969
 20
0.0546804408739916
 10
1.940352617207017
 20
0.0238980236938836
 10
1.940025975740316
 20
-0.0062467882983565
 10
1.94081583709417
 20
-0.036345433033482
 10
1.942785068269592
 20
-0.0670895159451296
 10
1.945868209935457
 20
-0.0973245303487014
 10
1.949749832931849
 20
-0.1252912304825597
 10
1.954480212695733
 20
-0.1524738272864376
 10
1.960104431625912
 20
-0.1793427717526019
 10
1.966415562678867
 20
-0.2051717075722757
 10
1.976148150543922
 20
-0.2392732484238774
 10
1.98672760135119
 20
-0.271136949641491
 10
1.998213769121985
 20
-0.3015255029162534
 10
2.010073231025808
 20
-0.3295578500892005
 10
2.020809252224006
 20
-0.3526775217481625
 10
2.031537240674452
 20
-0.3740471406952867
  0
LINE
  5
1DA
330
139
100
AcDbEntity
  8
AM_4
100
AcDbLine
 10
2.031537240674452
 20
0.3740471406952871
 30
0.0
 11
2.031537240674451
 21
0.7054239163222932
 31
0.0
  0
LWPOLYLINE
  5
1DB
330
139
100
AcDbEntity
  8
AM_4
100
AcDbPolyline
 90
       30
 70
     0
 43
0.0
 10
2.031537240674451
 20
0.7054239163222935
 10
1.962465054224982
 20
0.6806537591952948
 10
1.878457323744062
 20
0.6568329789878329
 10
1.780153398785907
 20
0.6341428662206665
 10
1.668301431576981
 20
0.6127561063526188
 10
1.543752683125807
 20
0.592835465539964
 10
1.40745504461269
 20
0.5745325518876984
 10
1.260445823365479
 20
0.5579866616203171
 10
1.103843848324461
 20
0.5433237189534365
 10
0.9388409550785535
 20
0.5306553177344786
 10
0.7666929152768309
 20
0.5200778721461092
 10
0.5887098794480122
 20
0.5116718829360923
 10
0.4062464059638499
 20
0.5055013247579911
 10
0.220691152032016
 20
0.5016131592854259
 10
0.0334563051762575
 20
0.5000369778053814
 10
-0.1540331643633616
 20
0.500784776010645
 10
-0.340350348514408
 20
0.5038508627053417
 10
-0.5240772610041006
 20
0.5092119031183715
 10
-0.7038156290910497
 20
0.5168270964951062
 10
-0.8781975352651199
 20
0.5266384866157694
 10
-1.045895827925653
 20
0.5385714028772636
 10
-1.205634221806504
 20
0.5525350285815469
 10
-1.356197011277561
 20
0.5684230921055422
 10
-1.49643832259865
 20
0.5861146756923565
 10
-1.6252908347106
 20
0.6054751357084243
 10
-1.741773902192965
 20
0.6263571273628575
 10
-1.845001018567804
 20
0.6486017260902749
 10
-1.934186563149269
 20
0.6720396370627049
 10
-2.008651780091389
 20
0.6964924836254496
 10
-2.03153724067445
 20
0.7054239163222933
  0
LINE
  5
1DC
330
139
100
AcDbEntity
  8
AM_4
100
AcDbLine
 10
-2.031537240674451
 20
0.3740471406952871
 30
0.0
 11
-2.031537240674452
 21
0.7054239163222935
 31
0.0
  0
LWPOLYLINE
  5
1DD
330
139
100
AcDbEntity
  8
AM_4
100
AcDbPolyline
 90
       27
 70
     0
 43
0.0
 10
-2.031537240674451
 20
-0.3740471406952845
 10
-2.020587530107451
 20
-0.3522187903748487
 10
-2.009632229933614
 20
-0.328565921919676
 10
-1.998640249998298
 20
-0.3025866287825744
 10
-1.987960991447272
 20
-0.2745843211911059
 10
-1.977922207336378
 20
-0.2449383145410129
 10
-1.968590518871132
 20
-0.2133054682888227
 10
-1.959952097261632
 20
-0.1786628707605589
 10
-1.952568662419375
 20
-0.1421381787007818
 10
-1.948059887072853
 20
-0.1139734207704313
 10
-1.944477077636923
 20
-0.0850459966585595
 10
-1.94184969812969
 20
-0.0546804408739901
 10
-1.940352617207017
 20
-0.0238980236938822
 10
-1.940025975740316
 20
0.0062467882983577
 10
-1.94081583709417
 20
0.0363454330334831
 10
-1.942785068269592
 20
0.0670895159451306
 10
-1.945868209935458
 20
0.0973245303487022
 10
-1.949749832931849
 20
0.1252912304825607
 10
-1.954480212695733
 20
0.1524738272864385
 10
-1.960104431625912
 20
0.1793427717526028
 10
-1.966415562678867
 20
0.2051717075722765
 10
-1.976148150543923
 20
0.2392732484238781
 10
-1.98672760135119
 20
0.2711369496414916
 10
-1.998213769121985
 20
0.301525502916254
 10
-2.010073231025809
 20
0.3295578500892012
 10
-2.020809252224006
 20
0.3526775217481625
 10
-2.031537240674451
 20
0.3740471406952862
  0
ENDBLK
  5
13C
330
139
100
AcDbEntity
  8
0
100
AcDbBlockEnd
  0
ENDSEC
  0
SECTION
  2
ENTITIES
  0
INSERT
  5
6F
330
1F
100
AcDbEntity
  8
0
100
AcDbBlockReference
  2
1_131844_4
 10
0.0
 20
0.0
 30
0.0
  0
POINT
  5
1DF
330
1F
100
AcDbEntity
  8
ConnectionPoints
100
AcDbPoint
 10
0.0
 20
0.0
 30
0.0
  0
POINT
  5
1E0
330
1F
100
AcDbEntity
  8
ConnectionPoints
100
AcDbPoint
 10
0.0
 20
-1.38
 30
0.0000000000000001
  0
POINT
  5
1E1
330
1F
100
AcDbEntity
  8
ConnectionPoints
100
AcDbPoint
 10
1.520279579551077
 20
0.0000000000000001
 30
1.520279579551078
  0
POINT
  5
1E2
330
1F
100
AcDbEntity
  8
ConnectionPoints
100
AcDbPoint
 10
1.520279579551077
 20
0.0000000000000001
 30
1.520279579551078
  0
POINT
  5
1E3
330
1F
100
AcDbEntity
  8
ConnectionPoints
100
AcDbPoint
 10
0.0
 20
-1.38
 30
0.0000000000000001
  0
ENDSEC
  0
SECTION
  2
OBJECTS
  0
DICTIONARY
  5
C
330
0
100
AcDbDictionary
281
     1
  3
ACAD_DETAILVIEWSTYLE
350
1EB
  3
ACAD_GROUP
350
D
  3
ACAD_LAYOUT
350
1A
  3
ACAD_MATERIAL
350
43
  3
ACAD_MLEADERSTYLE
350
6B
  3
ACAD_MLINESTYLE
350
17
  3
ACAD_PLOTSETTINGS
350
19
  3
ACAD_PLOTSTYLENAME
350
E
  3
ACAD_SCALELIST
350
47
  3
ACAD_SECTIONVIEWSTYLE
350
1EC
  3
ACAD_TABLESTYLE
350
69
  3
ACAD_VISUALSTYLE
350
2A
  3
ACDB_RECOMPOSE_DATA
350
1E8
  3
AcDbVariableDictionary
350
1E4
  0
SUN
  5
6D
330
29
100
AcDbSun
 90
        1
290
     0
 63
     7
421
 16777215
 40
1.0
291
     1
 91
  2455826
 92
 54000000
292
     0
 70
     2
 71
   256
280
     1
  0
DICTIONARY
  5
1EB
102
{ACAD_REACTORS
330
C
102
}
330
C
100
AcDbDictionary
281
     1
  0
DICTIONARY
  5
D
102
{ACAD_REACTORS
330
C
102
}
330
C
100
AcDbDictionary
281
     1
  0
DICTIONARY
  5
1A
102
{ACAD_REACTORS
330
C
102
}
330
C
100
AcDbDictionary
281
     1
  3
Layout1
350
1E
  3
Layout2
350
26
  3
Model
350
22
  0
DICTIONARY
  5
43
102
{ACAD_REACTORS
330
C
102
}
330
C
100
AcDbDictionary
281
     1
  3
ByBlock
350
45
  3
ByLayer
350
44
  3
Global
350
46
  0
DICTIONARY
  5
6B
102
{ACAD_REACTORS
330
C
102
}
330
C
100
AcDbDictionary
281
     1
  3
Standard
350
6C
  0
DICTIONARY
  5
17
102
{ACAD_REACTORS
330
C
102
}
330
C
100
AcDbDictionary
281
     1
  3
Standard
350
18
  0
DICTIONARY
  5
19
102
{ACAD_REACTORS
330
C
102
}
330
C
100
AcDbDictionary
281
     1
  0
ACDBDICTIONARYWDFLT
  5
E
102
{ACAD_REACTORS
330
C
102
}
330
C
100
AcDbDictionary
281
     1
  3
Normal
350
F
100
AcDbDictionaryWithDefault
340
F
  0
DICTIONARY
  5
47
102
{ACAD_REACTORS
330
C
102
}
330
C
100
AcDbDictionary
281
     1
  3
A0
350
48
  3
A1
350
49
  3
A2
350
4A
  3
A3
350
4B
  3
A4
350
4C
  3
A5
350
4D
  3
A6
350
4E
  3
A7
350
4F
  3
A8
350
50
  3
A9
350
51
  3
B0
350
52
  3
B1
350
53
  3
B2
350
54
  3
B3
350
55
  3
B4
350
56
  3
B5
350
57
  3
B6
350
58
  3
B7
350
59
  3
B8
350
5A
  3
B9
350
5B
  3
C0
350
5C
  3
C1
350
5D
  3
C2
350
5E
  3
C3
350
5F
  3
C4
350
60
  3
C5
350
61
  3
C6
350
62
  3
C7
350
63
  3
C8
350
64
  3
C9
350
65
  3
D0
350
66
  3
D1
350
67
  3
D2
350
68
  0
DICTIONARY
  5
1EC
102
{ACAD_REACTORS
330
C
102
}
330
C
100
AcDbDictionary
281
     1
  0
DICTIONARY
  5
69
102
{ACAD_REACTORS
330
C
102
}
330
C
100
AcDbDictionary
281
     1
  3
Standard
350
6A
  0
DICTIONARY
  5
2A
102
{ACAD_REACTORS
330
C
102
}
330
C
100
AcDbDictionary
281
     1
  3
2dWireframe
350
2F
  3
Basic
350
32
  3
Brighten
350
36
  3
ColorChange
350
3A
  3
Conceptual
350
34
  3
Dim
350
35
  3
EdgeColorOff
350
3D
  3
Facepattern
350
39
  3
Flat
350
2B
  3
FlatWithEdges
350
2C
  3
Gouraud
350
2D
  3
GouraudWithEdges
350
2E
  3
Hidden
350
31
  3
JitterOff
350
3B
  3
Linepattern
350
38
  3
OverhangOff
350
3C
  3
Realistic
350
33
  3
Shaded
350
42
  3
Shaded with edges
350
41
  3
Shades of Gray
350
3E
  3
Sketchy
350
3F
  3
Thicken
350
37
  3
Wireframe
350
30
  3
X-Ray
350
40
  0
XRECORD
  5
1E8
102
{ACAD_REACTORS
330
C
102
}
330
C
100
AcDbXrecord
280
     1
 90
        1
330
6A
  0
DICTIONARY
  5
1E4
102
{ACAD_REACTORS
330
C
102
}
330
C
100
AcDbDictionary
281
     1
  3
CANNOSCALE
350
1E5
  3
CMLEADERSTYLE
350
1EA
  3
CTABLESTYLE
350
1E9
  0
LAYOUT
  5
1E
102
{ACAD_REACTORS
330
1A
102
}
330
1A
100
AcDbPlotSettings
  1

  2
none_device
  4

  6

 40
0.0
 41
0.0
 42
0.0
 43
0.0
 44
0.0
 45
0.0
 46
0.0
 47
0.0
 48
0.0
 49
0.0
140
0.0
141
0.0
142
1.0
143
1.0
 70
   688
 72
     0
 73
     0
 74
     5
  7

 75
    16
 76
     0
 77
     2
 78
   300
147
1.0
148
0.0
149
0.0
100
AcDbLayout
  1
Layout1
 70
     1
 71
     1
 10
0.0
 20
0.0
 11
12.0
 21
9.0
 12
0.0
 22
0.0
 32
0.0
 14
1.000000000000000E+20
 24
1.000000000000000E+20
 34
1.000000000000000E+20
 15
-1.000000000000000E+20
 25
-1.000000000000000E+20
 35
-1.000000000000000E+20
146
0.0
 13
0.0
 23
0.0
 33
0.0
 16
1.0
 26
0.0
 36
0.0
 17
0.0
 27
1.0
 37
0.0
 76
     0
330
1B
  0
LAYOUT
  5
26
102
{ACAD_REACTORS
330
1A
102
}
330
1A
100
AcDbPlotSettings
  1

  2
none_device
  4

  6

 40
0.0
 41
0.0
 42
0.0
 43
0.0
 44
0.0
 45
0.0
 46
0.0
 47
0.0
 48
0.0
 49
0.0
140
0.0
141
0.0
142
1.0
143
1.0
 70
   688
 72
     0
 73
     0
 74
     5
  7

 75
    16
 76
     0
 77
     2
 78
   300
147
1.0
148
0.0
149
0.0
100
AcDbLayout
  1
Layout2
 70
     1
 71
     2
 10
0.0
 20
0.0
 11
0.0
 21
0.0
 12
0.0
 22
0.0
 32
0.0
 14
0.0
 24
0.0
 34
0.0
 15
0.0
 25
0.0
 35
0.0
146
0.0
 13
0.0
 23
0.0
 33
0.0
 16
1.0
 26
0.0
 36
0.0
 17
0.0
 27
1.0
 37
0.0
 76
     0
330
23
  0
LAYOUT
  5
22
102
{ACAD_REACTORS
330
1A
102
}
330
1A
100
AcDbPlotSettings
  1

  2
none_device
  4
Letter_(8.50_x_11.00_Inches)
  6

 40
6.35
 41
6.35
 42
6.35000508
 43
6.35000508
 44
215.9
 45
279.4
 46
0.0
 47
0.0
 48
0.0
 49
0.0
140
0.0
141
0.0
142
1.0
143
1.0
 70
  1712
 72
     0
 73
     0
 74
     0
  7

 75
     0
 76
     0
 77
     2
 78
   300
147
1.0
148
0.0
149
0.0
100
AcDbLayout
  1
Model
 70
     1
 71
     0
 10
0.0
 20
0.0
 11
12.0
 21
9.0
 12
0.0
 22
0.0
 32
0.0
 14
1.000000000000000E+20
 24
1.000000000000000E+20
 34
1.000000000000000E+20
 15
-1.000000000000000E+20
 25
-1.000000000000000E+20
 35
-1.000000000000000E+20
146
0.0
 13
0.0
 23
0.0
 33
0.0
 16
1.0
 26
0.0
 36
0.0
 17
0.0
 27
1.0
 37
0.0
 76
     0
330
1F
331
29
  0
MATERIAL
  5
45
102
{ACAD_REACTORS
330
43
102
}
330
43
100
AcDbMaterial
  1
ByBlock
 72
     1
 94
      127
  0
MATERIAL
  5
44
102
{ACAD_REACTORS
330
43
102
}
330
43
100
AcDbMaterial
  1
ByLayer
 72
     1
 94
      127
  0
MATERIAL
  5
46
102
{ACAD_REACTORS
330
43
102
}
330
43
100
AcDbMaterial
  1
Global
 72
     1
 94
      127
  0
MLEADERSTYLE
  5
6C
102
{ACAD_REACTORS
330
6B
102
}
330
6B
100
AcDbMLeaderStyle
179
     2
170
     2
171
     1
172
     0
 90
        2
 40
0.0
 41
0.0
173
     1
 91
-1056964608
340
14
 92
       -2
290
     1
 42
0.09
291
     1
 43
0.36
  3
Standard
341
0
 44
0.18
300

342
11
174
     1
178
     6
175
     1
176
     0
 93
-1056964608
 45
0.18
292
     0
297
     0
 46
0.18
343
0
 94
-1056964608
 47
1.0
 49
1.0
140
1.0
293
     1
141
0.0
294
     1
177
     0
142
1.0
295
     0
296
     0
143
0.125
271
     0
272
     9
273
     9
298
     0
  0
MLINESTYLE
  5
18
102
{ACAD_REACTORS
330
17
102
}
330
17
100
AcDbMlineStyle
  2
Standard
 70
     0
  3

 62
   256
 51
90.0
 52
90.0
 71
     2
 49
0.5
 62
   256
  6
BYLAYER
 49
-0.5
 62
   256
  6
BYLAYER
  0
ACDBPLACEHOLDER
  5
F
102
{ACAD_REACTORS
330
E
102
}
330
E
  0
SCALE
  5
48
102
{ACAD_REACTORS
330
47
102
}
330
47
100
AcDbScale
 70
     0
300
1:1
140
1.0
141
1.0
290
     1
  0
SCALE
  5
49
102
{ACAD_REACTORS
330
47
102
}
330
47
100
AcDbScale
 70
     0
300
1:2
140
1.0
141
2.0
290
     0
  0
SCALE
  5
4A
102
{ACAD_REACTORS
330
47
102
}
330
47
100
AcDbScale
 70
     0
300
1:4
140
1.0
141
4.0
290
     0
  0
SCALE
  5
4B
102
{ACAD_REACTORS
330
47
102
}
330
47
100
AcDbScale
 70
     0
300
1:5
140
1.0
141
5.0
290
     0
  0
SCALE
  5
4C
102
{ACAD_REACTORS
330
47
102
}
330
47
100
AcDbScale
 70
     0
300
1:8
140
1.0
141
8.0
290
     0
  0
SCALE
  5
4D
102
{ACAD_REACTORS
330
47
102
}
330
47
100
AcDbScale
 70
     0
300
1:10
140
1.0
141
10.0
290
     0
  0
SCALE
  5
4E
102
{ACAD_REACTORS
330
47
102
}
330
47
100
AcDbScale
 70
     0
300
1:16
140
1.0
141
16.0
290
     0
  0
SCALE
  5
4F
102
{ACAD_REACTORS
330
47
102
}
330
47
100
AcDbScale
 70
     0
300
1:20
140
1.0
141
20.0
290
     0
  0
SCALE
  5
50
102
{ACAD_REACTORS
330
47
102
}
330
47
100
AcDbScale
 70
     0
300
1:30
140
1.0
141
30.0
290
     0
  0
SCALE
  5
51
102
{ACAD_REACTORS
330
47
102
}
330
47
100
AcDbScale
 70
     0
300
1:40
140
1.0
141
40.0
290
     0
  0
SCALE
  5
52
102
{ACAD_REACTORS
330
47
102
}
330
47
100
AcDbScale
 70
     0
300
1:50
140
1.0
141
50.0
290
     0
  0
SCALE
  5
53
102
{ACAD_REACTORS
330
47
102
}
330
47
100
AcDbScale
 70
     0
300
1:100
140
1.0
141
100.0
290
     0
  0
SCALE
  5
54
102
{ACAD_REACTORS
330
47
102
}
330
47
100
AcDbScale
 70
     0
300
2:1
140
2.0
141
1.0
290
     0
  0
SCALE
  5
55
102
{ACAD_REACTORS
330
47
102
}
330
47
100
AcDbScale
 70
     0
300
4:1
140
4.0
141
1.0
290
     0
  0
SCALE
  5
56
102
{ACAD_REACTORS
330
47
102
}
330
47
100
AcDbScale
 70
     0
300
8:1
140
8.0
141
1.0
290
     0
  0
SCALE
  5
57
102
{ACAD_REACTORS
330
47
102
}
330
47
100
AcDbScale
 70
     0
300
10:1
140
10.0
141
1.0
290
     0
  0
SCALE
  5
58
102
{ACAD_REACTORS
330
47
102
}
330
47
100
AcDbScale
 70
     0
300
100:1
140
100.0
141
1.0
290
     0
  0
SCALE
  5
59
102
{ACAD_REACTORS
330
47
102
}
330
47
100
AcDbScale
 70
     0
300
1/128" = 1'-0"
140
0.0078125
141
12.0
290
     0
  0
SCALE
  5
5A
102
{ACAD_REACTORS
330
47
102
}
330
47
100
AcDbScale
 70
     0
300
1/64" = 1'-0"
140
0.015625
141
12.0
290
     0
  0
SCALE
  5
5B
102
{ACAD_REACTORS
330
47
102
}
330
47
100
AcDbScale
 70
     0
300
1/32" = 1'-0"
140
0.03125
141
12.0
290
     0
  0
SCALE
  5
5C
102
{ACAD_REACTORS
330
47
102
}
330
47
100
AcDbScale
 70
     0
300
1/16" = 1'-0"
140
0.0625
141
12.0
290
     0
  0
SCALE
  5
5D
102
{ACAD_REACTORS
330
47
102
}
330
47
100
AcDbScale
 70
     0
300
3/32" = 1'-0"
140
0.09375
141
12.0
290
     0
  0
SCALE
  5
5E
102
{ACAD_REACTORS
330
47
102
}
330
47
100
AcDbScale
 70
     0
300
1/8" = 1'-0"
140
0.125
141
12.0
290
     0
  0
SCALE
  5
5F
102
{ACAD_REACTORS
330
47
102
}
330
47
100
AcDbScale
 70
     0
300
3/16" = 1'-0"
140
0.1875
141
12.0
290
     0
  0
SCALE
  5
60
102
{ACAD_REACTORS
330
47
102
}
330
47
100
AcDbScale
 70
     0
300
1/4" = 1'-0"
140
0.25
141
12.0
290
     0
  0
SCALE
  5
61
102
{ACAD_REACTORS
330
47
102
}
330
47
100
AcDbScale
 70
     0
300
3/8" = 1'-0"
140
0.375
141
12.0
290
     0
  0
SCALE
  5
62
102
{ACAD_REACTORS
330
47
102
}
330
47
100
AcDbScale
 70
     0
300
1/2" = 1'-0"
140
0.5
141
12.0
290
     0
  0
SCALE
  5
63
102
{ACAD_REACTORS
330
47
102
}
330
47
100
AcDbScale
 70
     0
300
3/4" = 1'-0"
140
0.75
141
12.0
290
     0
  0
SCALE
  5
64
102
{ACAD_REACTORS
330
47
102
}
330
47
100
AcDbScale
 70
     0
300
1" = 1'-0"
140
1.0
141
12.0
290
     0
  0
SCALE
  5
65
102
{ACAD_REACTORS
330
47
102
}
330
47
100
AcDbScale
 70
     0
300
1-1/2" = 1'-0"
140
1.5
141
12.0
290
     0
  0
SCALE
  5
66
102
{ACAD_REACTORS
330
47
102
}
330
47
100
AcDbScale
 70
     0
300
3" = 1'-0"
140
3.0
141
12.0
290
     0
  0
SCALE
  5
67
102
{ACAD_REACTORS
330
47
102
}
330
47
100
AcDbScale
 70
     0
300
6" = 1'-0"
140
6.0
141
12.0
290
     0
  0
SCALE
  5
68
102
{ACAD_REACTORS
330
47
102
}
330
47
100
AcDbScale
 70
     0
300
1'-0" = 1'-0"
140
12.0
141
12.0
290
     0
  0
TABLESTYLE
  5
6A
102
{ACAD_REACTORS
330
69
102
}
102
{ACAD_XDICTIONARY
360
1E6
102
}
330
69
100
AcDbTableStyle
  3
Standard
 70
     0
 71
     0
 40
0.06
 41
0.06
280
     0
281
     0
  7
Standard
140
0.18
170
     2
 62
     0
 63
   257
283
     0
 90
        4
 91
        0
  1

274
    -2
284
     1
 64
     0
275
    -2
285
     1
 65
     0
276
    -2
286
     1
 66
     0
277
    -2
287
     1
 67
     0
278
    -2
288
     1
 68
     0
279
    -2
289
     1
 69
     0
  7
Standard
140
0.25
170
     5
 62
     0
 63
   257
283
     0
 90
        4
 91
        0
  1

274
    -2
284
     1
 64
     0
275
    -2
285
     1
 65
     0
276
    -2
286
     1
 66
     0
277
    -2
287
     1
 67
     0
278
    -2
288
     1
 68
     0
279
    -2
289
     1
 69
     0
  7
Standard
140
0.18
170
     5
 62
     0
 63
   257
283
     0
 90
        4
 91
        0
  1

274
    -2
284
     1
 64
     0
275
    -2
285
     1
 65
     0
276
    -2
286
     1
 66
     0
277
    -2
287
     1
 67
     0
278
    -2
288
     1
 68
     0
279
    -2
289
     1
 69
     0
  0
VISUALSTYLE
  5
2F
102
{ACAD_REACTORS
330
2A
102
}
330
2A
100
AcDbVisualStyle
  2
2dWireframe
 70
     4
177
     3
291
     0
 70
    58
 90
        0
176
     1
 90
        2
176
     1
 90
        0
176
     1
 90
        0
176
     1
 40
0.6
176
     1
 40
30.0
176
     1
 62
     7
420
 16777215
176
     1
 90
        1
176
     1
 90
        4
176
     1
 62
     7
176
     1
 62
   257
176
     1
 90
        1
176
     1
 90
        1
176
     1
 40
1.0
176
     1
 90
        0
176
     1
 62
   257
176
     1
 40
1.0
176
     1
 90
        1
176
     1
 90
        6
176
     1
 90
        2
176
     1
 62
     7
176
     1
 90
        5
176
     1
 90
        0
176
     1
 90
        0
176
     1
290
     0
176
     1
 90
        1
176
     1
 40
0.0
176
     1
 90
        0
176
     1
290
     1
176
     1
290
     1
176
     1
290
     0
176
     1
290
     0
176
     1
290
     0
176
     1
290
     0
176
     1
290
     0
176
     1
290
     0
176
     1
290
     0
176
     1
 90
       50
176
     1
 40
0.0
176
     1
 40
1.0
176
     1
 90
        0
176
     1
 62
    18
420
        0
176
     1
 90
       50
176
     1
 90
        3
176
     1
 62
     5
420
      255
176
     1
290
     0
176
     1
 90
       50
176
     1
 90
       50
176
     1
 90
       50
176
     1
290
     0
176
     1
 90
       50
176
     1
 62
   256
176
     0
 40
1.0
176
     0
 90
        2
176
     1
  1
strokes_ogs.tif
176
     1
290
     0
176
     1
 40
1.0
176
     1
 40
1.0
176
     1
  0
VISUALSTYLE
  5
32
102
{ACAD_REACTORS
330
2A
102
}
330
2A
100
AcDbVisualStyle
  2
Basic
 70
     7
177
     3
291
     1
 70
    58
 90
        1
176
     1
 90
        0
176
     1
 90
        1
176
     1
 90
        0
176
     1
 40
0.6
176
     1
 40
30.0
176
     1
 62
     7
420
 16777215
176
     1
 90
        0
176
     1
 90
        4
176
     1
 62
     7
176
     1
 62
   257
176
     1
 90
        1
176
     1
 90
        1
176
     1
 40
1.0
176
     1
 90
        8
176
     1
 62
     7
176
     1
 40
1.0
176
     1
 90
        1
176
     1
 90
        6
176
     1
 90
        2
176
     1
 62
     7
176
     1
 90
        5
176
     1
 90
        0
176
     1
 90
        0
176
     1
290
     0
176
     1
 90
        1
176
     1
 40
0.0
176
     1
 90
        0
176
     1
290
     0
176
     1
290
     1
176
     1
290
     1
176
     1
290
     0
176
     1
290
     0
176
     1
290
     0
176
     1
290
     0
176
     1
290
     0
176
     1
290
     0
176
     1
 90
       50
176
     1
 40
0.0
176
     1
 40
1.0
176
     1
 90
        0
176
     1
 62
    18
420
        0
176
     1
 90
       50
176
     1
 90
        3
176
     1
 62
     5
420
      255
176
     1
290
     0
176
     1
 90
       50
176
     1
 90
       50
176
     1
 90
       50
176
     1
290
     0
176
     1
 90
       50
176
     1
 62
   256
176
     0
 40
1.0
176
     0
 90
        2
176
     1
  1
strokes_ogs.tif
176
     1
290
     0
176
     1
 40
1.0
176
     1
 40
1.0
176
     1
  0
VISUALSTYLE
  5
36
102
{ACAD_REACTORS
330
2A
102
}
330
2A
100
AcDbVisualStyle
  2
Brighten
 70
    12
177
     3
291
     1
 70
    58
 90
        2
176
     1
 90
        2
176
     1
 90
        0
176
     1
 90
        0
176
     1
 40
0.6
176
     1
 40
30.0
176
     1
 62
     7
420
 16777215
176
     1
 90
        1
176
     1
 90
        4
176
     1
 62
     7
176
     1
 62
   257
176
     1
 90
        1
176
     1
 90
        1
176
     1
 40
1.0
176
     1
 90
        8
176
     1
 62
     7
176
     1
 40
1.0
176
     1
 90
        1
176
     1
 90
        6
176
     1
 90
        2
176
     1
 62
     7
176
     1
 90
        5
176
     1
 90
        0
176
     1
 90
        0
176
     1
290
     0
176
     1
 90
        1
176
     1
 40
50.0
176
     1
 90
        0
176
     1
290
     0
176
     1
290
     1
176
     1
290
     1
176
     1
290
     0
176
     1
290
     0
176
     1
290
     0
176
     1
290
     0
176
     1
290
     0
176
     1
290
     0
176
     1
 90
       50
176
     1
 40
0.0
176
     1
 40
1.0
176
     1
 90
        0
176
     1
 62
    18
420
        0
176
     1
 90
       50
176
     1
 90
        3
176
     1
 62
     5
420
      255
176
     1
290
     0
176
     1
 90
       50
176
     1
 90
       50
176
     1
 90
       50
176
     1
290
     0
176
     1
 90
       50
176
     1
 62
   256
176
     0
 40
1.0
176
     0
 90
        2
176
     1
  1
strokes_ogs.tif
176
     1
290
     0
176
     1
 40
1.0
176
     1
 40
1.0
176
     1
  0
VISUALSTYLE
  5
3A
102
{ACAD_REACTORS
330
2A
102
}
330
2A
100
AcDbVisualStyle
  2
ColorChange
 70
    16
177
     3
291
     1
 70
    58
 90
        2
176
     1
 90
        2
176
     1
 90
        3
176
     1
 90
        0
176
     1
 40
0.6
176
     1
 40
30.0
176
     1
 62
     8
420
  8421504
176
     1
 90
        1
176
     1
 90
        4
176
     1
 62
     7
176
     1
 62
   257
176
     1
 90
        1
176
     1
 90
        1
176
     1
 40
1.0
176
     1
 90
        8
176
     1
 62
     8
420
  8421504
176
     1
 40
1.0
176
     1
 90
        1
176
     1
 90
        6
176
     1
 90
        2
176
     1
 62
     7
176
     1
 90
        5
176
     1
 90
        0
176
     1
 90
        0
176
     1
290
     0
176
     1
 90
        1
176
     1
 40
0.0
176
     1
 90
        0
176
     1
290
     0
176
     1
290
     1
176
     1
290
     1
176
     1
290
     0
176
     1
290
     0
176
     1
290
     0
176
     1
290
     0
176
     1
290
     0
176
     1
290
     0
176
     1
 90
       50
176
     1
 40
0.0
176
     1
 40
1.0
176
     1
 90
        0
176
     1
 62
    18
420
        0
176
     1
 90
       50
176
     1
 90
        3
176
     1
 62
     5
420
      255
176
     1
290
     0
176
     1
 90
       50
176
     1
 90
       50
176
     1
 90
       50
176
     1
290
     0
176
     1
 90
       50
176
     1
 62
   256
176
     0
 40
1.0
176
     0
 90
        2
176
     1
  1
strokes_ogs.tif
176
     1
290
     0
176
     1
 40
1.0
176
     1
 40
1.0
176
     1
  0
VISUALSTYLE
  5
34
102
{ACAD_REACTORS
330
2A
102
}
330
2A
100
AcDbVisualStyle
  2
Conceptual
 70
     9
177
     3
291
     0
 70
    58
 90
        3
176
     1
 90
        2
176
     1
 90
        0
176
     1
 90
        0
176
     1
 40
0.6
176
     1
 40
30.0
176
     1
 62
     7
420
 16777215
176
     1
 90
        2
176
     1
 90
        2
176
     1
 62
     7
176
     1
 62
   257
176
     1
 90
        1
176
     1
 90
        1
176
     1
 40
179.0
176
     1
 90
        8
176
     1
 62
     7
176
     1
 40
1.0
176
     1
 90
        1
176
     1
 90
        6
176
     1
 90
        2
176
     1
 62
     7
176
     1
 90
        3
176
     1
 90
        0
176
     1
 90
        0
176
     1
290
     0
176
     1
 90
        1
176
     1
 40
0.0
176
     1
 90
        0
176
     1
290
     0
176
     1
290
     1
176
     1
290
     1
176
     1
290
     0
176
     1
290
     0
176
     1
290
     0
176
     1
290
     0
176
     1
290
     0
176
     1
290
     0
176
     1
 90
       50
176
     1
 40
0.0
176
     1
 40
1.0
176
     1
 90
        0
176
     1
 62
    18
420
        0
176
     1
 90
       50
176
     1
 90
        3
176
     1
 62
     5
420
      255
176
     1
290
     0
176
     1
 90
       50
176
     1
 90
       50
176
     1
 90
       50
176
     1
290
     0
176
     1
 90
       50
176
     1
 62
   256
176
     0
 40
1.0
176
     0
 90
        2
176
     1
  1
strokes_ogs.tif
176
     1
290
     0
176
     1
 40
1.0
176
     1
 40
1.0
176
     1
  0
VISUALSTYLE
  5
35
102
{ACAD_REACTORS
330
2A
102
}
330
2A
100
AcDbVisualStyle
  2
Dim
 70
    11
177
     3
291
     1
 70
    58
 90
        2
176
     1
 90
        2
176
     1
 90
        0
176
     1
 90
        0
176
     1
 40
0.6
176
     1
 40
30.0
176
     1
 62
     7
420
 16777215
176
     1
 90
        1
176
     1
 90
        4
176
     1
 62
     7
176
     1
 62
   257
176
     1
 90
        1
176
     1
 90
        1
176
     1
 40
1.0
176
     1
 90
        8
176
     1
 62
     7
176
     1
 40
1.0
176
     1
 90
        1
176
     1
 90
        6
176
     1
 90
        2
176
     1
 62
     7
176
     1
 90
        5
176
     1
 90
        0
176
     1
 90
        0
176
     1
290
     0
176
     1
 90
        1
176
     1
 40
-50.0
176
     1
 90
        0
176
     1
290
     0
176
     1
290
     1
176
     1
290
     1
176
     1
290
     0
176
     1
290
     0
176
     1
290
     0
176
     1
290
     0
176
     1
290
     0
176
     1
290
     0
176
     1
 90
       50
176
     1
 40
0.0
176
     1
 40
1.0
176
     1
 90
        0
176
     1
 62
    18
420
        0
176
     1
 90
       50
176
     1
 90
        3
176
     1
 62
     5
420
      255
176
     1
290
     0
176
     1
 90
       50
176
     1
 90
       50
176
     1
 90
       50
176
     1
290
     0
176
     1
 90
       50
176
     1
 62
   256
176
     0
 40
1.0
176
     0
 90
        2
176
     1
  1
strokes_ogs.tif
176
     1
290
     0
176
     1
 40
1.0
176
     1
 40
1.0
176
     1
  0
VISUALSTYLE
  5
3D
102
{ACAD_REACTORS
330
2A
102
}
330
2A
100
AcDbVisualStyle
  2
EdgeColorOff
 70
    22
177
     3
291
     1
 70
    58
 90
        2
176
     0
 90
        2
176
     0
 90
        0
176
     0
 90
        0
176
     0
 40
0.6
176
     0
 40
30.0
176
     0
 62
     7
420
 16777215
176
     0
 90
        1
176
     0
 90
        4
176
     0
 62
     7
176
     0
 62
   257
176
     0
 90
        1
176
     0
 90
        1
176
     0
 40
1.0
176
     0
 90
        8
176
     2
 62
     7
176
     0
 40
1.0
176
     0
 90
        1
176
     0
 90
        6
176
     0
 90
        2
176
     0
 62
     7
176
     0
 90
        5
176
     0
 90
        0
176
     0
 90
        0
176
     0
290
     0
176
     0
 90
        1
176
     0
 40
0.0
176
     0
 90
        0
176
     0
290
     0
176
     0
290
     1
176
     0
290
     1
176
     0
290
     0
176
     0
290
     0
176
     0
290
     0
176
     0
290
     0
176
     0
290
     0
176
     0
290
     0
176
     0
 90
       50
176
     0
 40
0.0
176
     0
 40
1.0
176
     0
 90
        0
176
     0
 62
    18
420
        0
176
     0
 90
       50
176
     0
 90
        3
176
     0
 62
     5
420
      255
176
     0
290
     0
176
     0
 90
       50
176
     0
 90
       50
176
     0
 90
       50
176
     0
290
     0
176
     0
 90
       50
176
     0
 62
   256
176
     0
 40
1.0
176
     0
 90
        2
176
     0
  1
strokes_ogs.tif
176
     0
290
     0
176
     0
 40
1.0
176
     0
 40
1.0
176
     0
  0
VISUALSTYLE
  5
39
102
{ACAD_REACTORS
330
2A
102
}
330
2A
100
AcDbVisualStyle
  2
Facepattern
 70
    15
177
     3
291
     1
 70
    58
 90
        2
176
     1
 90
        2
176
     1
 90
        0
176
     1
 90
        0
176
     1
 40
0.6
176
     1
 40
30.0
176
     1
 62
     7
420
 16777215
176
     1
 90
        1
176
     1
 90
        4
176
     1
 62
     7
176
     1
 62
   257
176
     1
 90
        1
176
     1
 90
        1
176
     1
 40
1.0
176
     1
 90
        8
176
     1
 62
     7
176
     1
 40
1.0
176
     1
 90
        1
176
     1
 90
        6
176
     1
 90
        2
176
     1
 62
     7
176
     1
 90
        5
176
     1
 90
        0
176
     1
 90
        0
176
     1
290
     0
176
     1
 90
        1
176
     1
 40
0.0
176
     1
 90
        0
176
     1
290
     0
176
     1
290
     1
176
     1
290
     1
176
     1
290
     0
176
     1
290
     0
176
     1
290
     0
176
     1
290
     0
176
     1
290
     0
176
     1
290
     0
176
     1
 90
       50
176
     1
 40
0.0
176
     1
 40
1.0
176
     1
 90
        0
176
     1
 62
    18
420
        0
176
     1
 90
       50
176
     1
 90
        3
176
     1
 62
     5
420
      255
176
     1
290
     0
176
     1
 90
       50
176
     1
 90
       50
176
     1
 90
       50
176
     1
290
     0
176
     1
 90
       50
176
     1
 62
   256
176
     0
 40
1.0
176
     0
 90
        2
176
     1
  1
strokes_ogs.tif
176
     1
290
     0
176
     1
 40
1.0
176
     1
 40
1.0
176
     1
  0
VISUALSTYLE
  5
2B
102
{ACAD_REACTORS
330
2A
102
}
330
2A
100
AcDbVisualStyle
  2
Flat
 70
     0
177
     3
291
     1
 70
    58
 90
        2
176
     1
 90
        1
176
     1
 90
        1
176
     1
 90
        2
176
     1
 40
0.6
176
     1
 40
30.0
176
     1
 62
     7
420
 16777215
176
     1
 90
        0
176
     1
 90
        0
176
     1
 62
     7
176
     1
 62
   257
176
     1
 90
        1
176
     1
 90
        1
176
     1
 40
1.0
176
     1
 90
        8
176
     1
 62
     7
176
     1
 40
1.0
176
     1
 90
        1
176
     1
 90
        6
176
     1
 90
        2
176
     1
 62
     7
176
     1
 90
        5
176
     1
 90
        0
176
     1
 90
        0
176
     1
290
     0
176
     1
 90
       13
176
     1
 40
0.0
176
     1
 90
        0
176
     1
290
     0
176
     1
290
     1
176
     1
290
     1
176
     1
290
     0
176
     1
290
     0
176
     1
290
     0
176
     1
290
     0
176
     1
290
     0
176
     1
290
     0
176
     1
 90
       50
176
     1
 40
0.0
176
     1
 40
1.0
176
     1
 90
        0
176
     1
 62
    18
420
        0
176
     1
 90
       50
176
     1
 90
        3
176
     1
 62
     5
420
      255
176
     1
290
     0
176
     1
 90
       50
176
     1
 90
       50
176
     1
 90
       50
176
     1
290
     0
176
     1
 90
       50
176
     1
 62
   256
176
     0
 40
1.0
176
     0
 90
        2
176
     1
  1
strokes_ogs.tif
176
     1
290
     0
176
     1
 40
1.0
176
     1
 40
1.0
176
     1
  0
VISUALSTYLE
  5
2C
102
{ACAD_REACTORS
330
2A
102
}
330
2A
100
AcDbVisualStyle
  2
FlatWithEdges
 70
     1
177
     3
291
     1
 70
    58
 90
        2
176
     1
 90
        1
176
     1
 90
        1
176
     1
 90
        2
176
     1
 40
0.6
176
     1
 40
30.0
176
     1
 62
     7
420
 16777215
176
     1
 90
        1
176
     1
 90
        0
176
     1
 62
     7
176
     1
 62
   257
176
     1
 90
        1
176
     1
 90
        1
176
     1
 40
1.0
176
     1
 90
        0
176
     1
 62
   257
176
     1
 40
1.0
176
     1
 90
        1
176
     1
 90
        6
176
     1
 90
        2
176
     1
 62
     7
176
     1
 90
        5
176
     1
 90
        0
176
     1
 90
        0
176
     1
290
     0
176
     1
 90
       13
176
     1
 40
0.0
176
     1
 90
        0
176
     1
290
     0
176
     1
290
     1
176
     1
290
     1
176
     1
290
     0
176
     1
290
     0
176
     1
290
     0
176
     1
290
     0
176
     1
290
     0
176
     1
290
     0
176
     1
 90
       50
176
     1
 40
0.0
176
     1
 40
1.0
176
     1
 90
        0
176
     1
 62
    18
420
        0
176
     1
 90
       50
176
     1
 90
        3
176
     1
 62
     5
420
      255
176
     1
290
     0
176
     1
 90
       50
176
     1
 90
       50
176
     1
 90
       50
176
     1
290
     0
176
     1
 90
       50
176
     1
 62
   256
176
     0
 40
1.0
176
     0
 90
        2
176
     1
  1
strokes_ogs.tif
176
     1
290
     0
176
     1
 40
1.0
176
     1
 40
1.0
176
     1
  0
VISUALSTYLE
  5
2D
102
{ACAD_REACTORS
330
2A
102
}
330
2A
100
AcDbVisualStyle
  2
Gouraud
 70
     2
177
     3
291
     1
 70
    58
 90
        2
176
     1
 90
        2
176
     1
 90
        1
176
     1
 90
        2
176
     1
 40
0.6
176
     1
 40
30.0
176
     1
 62
     7
420
 16777215
176
     1
 90
        0
176
     1
 90
        0
176
     1
 62
     7
176
     1
 62
   257
176
     1
 90
        1
176
     1
 90
        1
176
     1
 40
1.0
176
     1
 90
        0
176
     1
 62
     7
176
     1
 40
1.0
176
     1
 90
        1
176
     1
 90
        6
176
     1
 90
        2
176
     1
 62
     7
176
     1
 90
        5
176
     1
 90
        0
176
     1
 90
        0
176
     1
290
     0
176
     1
 90
       13
176
     1
 40
0.0
176
     1
 90
        0
176
     1
290
     0
176
     1
290
     1
176
     1
290
     1
176
     1
290
     0
176
     1
290
     0
176
     1
290
     0
176
     1
290
     0
176
     1
290
     0
176
     1
290
     0
176
     1
 90
       50
176
     1
 40
0.0
176
     1
 40
1.0
176
     1
 90
        0
176
     1
 62
    18
420
        0
176
     1
 90
       50
176
     1
 90
        3
176
     1
 62
     5
420
      255
176
     1
290
     0
176
     1
 90
       50
176
     1
 90
       50
176
     1
 90
       50
176
     1
290
     0
176
     1
 90
       50
176
     1
 62
   256
176
     0
 40
1.0
176
     0
 90
        2
176
     1
  1
strokes_ogs.tif
176
     1
290
     0
176
     1
 40
1.0
176
     1
 40
1.0
176
     1
  0
VISUALSTYLE
  5
2E
102
{ACAD_REACTORS
330
2A
102
}
330
2A
100
AcDbVisualStyle
  2
GouraudWithEdges
 70
     3
177
     3
291
     1
 70
    58
 90
        2
176
     1
 90
        2
176
     1
 90
        1
176
     1
 90
        2
176
     1
 40
0.6
176
     1
 40
30.0
176
     1
 62
     7
420
 16777215
176
     1
 90
        1
176
     1
 90
        0
176
     1
 62
     7
176
     1
 62
   257
176
     1
 90
        1
176
     1
 90
        1
176
     1
 40
1.0
176
     1
 90
        0
176
     1
 62
   257
176
     1
 40
1.0
176
     1
 90
        1
176
     1
 90
        6
176
     1
 90
        2
176
     1
 62
     7
176
     1
 90
        5
176
     1
 90
        0
176
     1
 90
        0
176
     1
290
     0
176
     1
 90
       13
176
     1
 40
0.0
176
     1
 90
        0
176
     1
290
     0
176
     1
290
     1
176
     1
290
     1
176
     1
290
     0
176
     1
290
     0
176
     1
290
     0
176
     1
290
     0
176
     1
290
     0
176
     1
290
     0
176
     1
 90
       50
176
     1
 40
0.0
176
     1
 40
1.0
176
     1
 90
        0
176
     1
 62
    18
420
        0
176
     1
 90
       50
176
     1
 90
        3
176
     1
 62
     5
420
      255
176
     1
290
     0
176
     1
 90
       50
176
     1
 90
       50
176
     1
 90
       50
176
     1
290
     0
176
     1
 90
       50
176
     1
 62
   256
176
     0
 40
1.0
176
     0
 90
        2
176
     1
  1
strokes_ogs.tif
176
     1
290
     0
176
     1
 40
1.0
176
     1
 40
1.0
176
     1
  0
VISUALSTYLE
  5
31
102
{ACAD_REACTORS
330
2A
102
}
330
2A
100
AcDbVisualStyle
  2
Hidden
 70
     6
177
     3
291
     0
 70
    58
 90
        1
176
     1
 90
        2
176
     1
 90
        2
176
     1
 90
        0
176
     1
 40
0.6
176
     1
 40
30.0
176
     1
 62
     7
420
 16777215
176
     1
 90
        2
176
     1
 90
        2
176
     1
 62
     7
176
     1
 62
   257
176
     1
 90
        2
176
     1
 90
        1
176
     1
 40
40.0
176
     1
 90
        0
176
     1
 62
   257
176
     1
 40
1.0
176
     1
 90
        1
176
     1
 90
        6
176
     1
 90
        2
176
     1
 62
     7
176
     1
 90
        3
176
     1
 90
        0
176
     1
 90
        0
176
     1
290
     0
176
     1
 90
        1
176
     1
 40
0.0
176
     1
 90
        0
176
     1
290
     0
176
     1
290
     1
176
     1
290
     1
176
     1
290
     0
176
     1
290
     0
176
     1
290
     0
176
     1
290
     0
176
     1
290
     0
176
     1
290
     0
176
     1
 90
       50
176
     1
 40
0.0
176
     1
 40
1.0
176
     1
 90
        0
176
     1
 62
    18
420
        0
176
     1
 90
       50
176
     1
 90
        3
176
     1
 62
     5
420
      255
176
     1
290
     0
176
     1
 90
       50
176
     1
 90
       50
176
     1
 90
       50
176
     1
290
     0
176
     1
 90
       50
176
     1
 62
   256
176
     0
 40
1.0
176
     0
 90
        2
176
     1
  1
strokes_ogs.tif
176
     1
290
     0
176
     1
 40
1.0
176
     1
 40
1.0
176
     1
  0
VISUALSTYLE
  5
3B
102
{ACAD_REACTORS
330
2A
102
}
330
2A
100
AcDbVisualStyle
  2
JitterOff
 70
    20
177
     3
291
     1
 70
    58
 90
        2
176
     0
 90
        2
176
     0
 90
        0
176
     0
 90
        0
176
     0
 40
0.6
176
     0
 40
30.0
176
     0
 62
     7
420
 16777215
176
     0
 90
        1
176
     0
 90
        4
176
     0
 62
     7
176
     0
 62
   257
176
     0
 90
        1
176
     0
 90
        1
176
     0
 40
1.0
176
     0
 90
       10
176
     2
 62
     7
176
     0
 40
1.0
176
     0
 90
        1
176
     0
 90
        6
176
     0
 90
        2
176
     0
 62
     7
176
     0
 90
        5
176
     0
 90
        0
176
     0
 90
        0
176
     0
290
     0
176
     0
 90
        1
176
     0
 40
0.0
176
     0
 90
        0
176
     0
290
     0
176
     0
290
     1
176
     0
290
     1
176
     0
290
     0
176
     0
290
     0
176
     0
290
     0
176
     0
290
     0
176
     0
290
     0
176
     0
290
     0
176
     0
 90
       50
176
     0
 40
0.0
176
     0
 40
1.0
176
     0
 90
        0
176
     0
 62
    18
420
        0
176
     0
 90
       50
176
     0
 90
        3
176
     0
 62
     5
420
      255
176
     0
290
     0
176
     0
 90
       50
176
     0
 90
       50
176
     0
 90
       50
176
     0
290
     0
176
     0
 90
       50
176
     0
 62
   256
176
     0
 40
1.0
176
     0
 90
        2
176
     0
  1
strokes_ogs.tif
176
     0
290
     0
176
     0
 40
1.0
176
     0
 40
1.0
176
     0
  0
VISUALSTYLE
  5
38
102
{ACAD_REACTORS
330
2A
102
}
330
2A
100
AcDbVisualStyle
  2
Linepattern
 70
    14
177
     3
291
     1
 70
    58
 90
        2
176
     1
 90
        2
176
     1
 90
        0
176
     1
 90
        0
176
     1
 40
0.6
176
     1
 40
30.0
176
     1
 62
     7
420
 16777215
176
     1
 90
        1
176
     1
 90
        4
176
     1
 62
     7
176
     1
 62
   257
176
     1
 90
        7
176
     1
 90
        7
176
     1
 40
1.0
176
     1
 90
        8
176
     1
 62
     7
176
     1
 40
1.0
176
     1
 90
        1
176
     1
 90
        6
176
     1
 90
        2
176
     1
 62
     7
176
     1
 90
        5
176
     1
 90
        0
176
     1
 90
        0
176
     1
290
     0
176
     1
 90
        1
176
     1
 40
0.0
176
     1
 90
        0
176
     1
290
     0
176
     1
290
     1
176
     1
290
     1
176
     1
290
     0
176
     1
290
     0
176
     1
290
     0
176
     1
290
     0
176
     1
290
     0
176
     1
290
     0
176
     1
 90
       50
176
     1
 40
0.0
176
     1
 40
1.0
176
     1
 90
        0
176
     1
 62
    18
420
        0
176
     1
 90
       50
176
     1
 90
        3
176
     1
 62
     5
420
      255
176
     1
290
     0
176
     1
 90
       50
176
     1
 90
       50
176
     1
 90
       50
176
     1
290
     0
176
     1
 90
       50
176
     1
 62
   256
176
     0
 40
1.0
176
     0
 90
        2
176
     1
  1
strokes_ogs.tif
176
     1
290
     0
176
     1
 40
1.0
176
     1
 40
1.0
176
     1
  0
VISUALSTYLE
  5
3C
102
{ACAD_REACTORS
330
2A
102
}
330
2A
100
AcDbVisualStyle
  2
OverhangOff
 70
    21
177
     3
291
     1
 70
    58
 90
        2
176
     0
 90
        2
176
     0
 90
        0
176
     0
 90
        0
176
     0
 40
0.6
176
     0
 40
30.0
176
     0
 62
     7
420
 16777215
176
     0
 90
        1
176
     0
 90
        4
176
     0
 62
     7
176
     0
 62
   257
176
     0
 90
        1
176
     0
 90
        1
176
     0
 40
1.0
176
     0
 90
        9
176
     2
 62
     7
176
     0
 40
1.0
176
     0
 90
        1
176
     0
 90
        6
176
     0
 90
        2
176
     0
 62
     7
176
     0
 90
        5
176
     0
 90
        0
176
     0
 90
        0
176
     0
290
     0
176
     0
 90
        1
176
     0
 40
0.0
176
     0
 90
        0
176
     0
290
     0
176
     0
290
     1
176
     0
290
     1
176
     0
290
     0
176
     0
290
     0
176
     0
290
     0
176
     0
290
     0
176
     0
290
     0
176
     0
290
     0
176
     0
 90
       50
176
     0
 40
0.0
176
     0
 40
1.0
176
     0
 90
        0
176
     0
 62
    18
420
        0
176
     0
 90
       50
176
     0
 90
        3
176
     0
 62
     5
420
      255
176
     0
290
     0
176
     0
 90
       50
176
     0
 90
       50
176
     0
 90
       50
176
     0
290
     0
176
     0
 90
       50
176
     0
 62
   256
176
     0
 40
1.0
176
     0
 90
        2
176
     0
  1
strokes_ogs.tif
176
     0
290
     0
176
     0
 40
1.0
176
     0
 40
1.0
176
     0
  0
VISUALSTYLE
  5
33
102
{ACAD_REACTORS
330
2A
102
}
330
2A
100
AcDbVisualStyle
  2
Realistic
 70
     8
177
     3
291
     0
 70
    58
 90
        2
176
     1
 90
        3
176
     1
 90
        0
176
     1
 90
        2
176
     1
 40
0.6
176
     1
 40
30.0
176
     1
 62
     7
420
 16777215
176
     1
 90
        0
176
     1
 90
        0
176
     1
 62
     7
176
     1
 62
   257
176
     1
 90
        1
176
     1
 90
        1
176
     1
 40
1.0
176
     1
 90
        8
176
     1
 62
   257
176
     1
 40
1.0
176
     1
 90
        1
176
     1
 90
        6
176
     1
 90
        2
176
     1
 62
     7
176
     1
 90
        3
176
     1
 90
        0
176
     1
 90
        0
176
     1
290
     0
176
     1
 90
       13
176
     1
 40
0.0
176
     1
 90
        0
176
     1
290
     0
176
     1
290
     1
176
     1
290
     1
176
     1
290
     0
176
     1
290
     0
176
     1
290
     0
176
     1
290
     0
176
     1
290
     0
176
     1
290
     0
176
     1
 90
       50
176
     1
 40
0.0
176
     1
 40
1.0
176
     1
 90
        0
176
     1
 62
    18
420
        0
176
     1
 90
       50
176
     1
 90
        3
176
     1
 62
     5
420
      255
176
     1
290
     0
176
     1
 90
       50
176
     1
 90
       50
176
     1
 90
       50
176
     1
290
     0
176
     1
 90
       50
176
     1
 62
   256
176
     0
 40
1.0
176
     0
 90
        2
176
     1
  1
strokes_ogs.tif
176
     1
290
     0
176
     1
 40
1.0
176
     1
 40
1.0
176
     1
  0
VISUALSTYLE
  5
42
102
{ACAD_REACTORS
330
2A
102
}
330
2A
100
AcDbVisualStyle
  2
Shaded
 70
    27
177
     3
291
     0
 70
    58
 90
        2
176
     1
 90
        2
176
     1
 90
        1
176
     1
 90
        2
176
     1
 40
0.6
176
     1
 40
30.0
176
     1
 62
     7
420
 16777215
176
     1
 90
        0
176
     1
 90
        4
176
     1
 62
     7
176
     1
 62
   257
176
     1
 90
        1
176
     1
 90
        1
176
     1
 40
1.0
176
     1
 90
        8
176
     1
 62
   257
176
     1
 40
1.0
176
     1
 90
        1
176
     1
 90
        6
176
     1
 90
        2
176
     1
 62
     8
420
  7895160
176
     1
 90
        3
176
     1
 90
        0
176
     1
 90
        0
176
     1
290
     0
176
     1
 90
        5
176
     1
 40
0.0
176
     1
 90
        0
176
     1
290
     0
176
     1
290
     1
176
     1
290
     1
176
     1
290
     0
176
     1
290
     0
176
     1
290
     0
176
     1
290
     0
176
     1
290
     0
176
     1
290
     0
176
     1
 90
       50
176
     1
 40
0.0
176
     1
 40
1.0
176
     1
 90
        0
176
     1
 62
    18
420
        0
176
     1
 90
       50
176
     1
 90
        3
176
     1
 62
     5
420
      255
176
     1
290
     0
176
     1
 90
       50
176
     1
 90
       50
176
     1
 90
       50
176
     1
290
     0
176
     1
 90
       50
176
     1
 62
   256
176
     0
 40
1.0
176
     0
 90
        2
176
     1
  1
strokes_ogs.tif
176
     1
290
     0
176
     1
 40
1.0
176
     1
 40
1.0
176
     1
  0
VISUALSTYLE
  5
41
102
{ACAD_REACTORS
330
2A
102
}
330
2A
100
AcDbVisualStyle
  2
Shaded with edges
 70
    26
177
     3
291
     0
 70
    58
 90
        2
176
     1
 90
        2
176
     1
 90
        1
176
     1
 90
        2
176
     1
 40
0.6
176
     1
 40
30.0
176
     1
 62
     7
420
 16777215
176
     1
 90
        1
176
     1
 90
       10
176
     1
 62
     7
176
     1
 62
   257
176
     1
 90
        2
176
     1
 90
        1
176
     1
 40
1.0
176
     1
 90
        8
176
     1
 62
   257
176
     1
 40
1.0
176
     1
 90
        1
176
     1
 90
        6
176
     1
 90
        2
176
     1
 62
     7
176
     1
 90
        3
176
     1
 90
        0
176
     1
 90
        0
176
     1
290
     0
176
     1
 90
        5
176
     1
 40
0.0
176
     1
 90
        0
176
     1
290
     0
176
     1
290
     1
176
     1
290
     1
176
     1
290
     0
176
     1
290
     0
176
     1
290
     0
176
     1
290
     0
176
     1
290
     0
176
     1
290
     0
176
     1
 90
       50
176
     1
 40
0.0
176
     1
 40
1.0
176
     1
 90
        0
176
     1
 62
    18
420
        0
176
     1
 90
       50
176
     1
 90
        3
176
     1
 62
     5
420
      255
176
     1
290
     0
176
     1
 90
       50
176
     1
 90
       50
176
     1
 90
       50
176
     1
290
     0
176
     1
 90
       50
176
     1
 62
   256
176
     0
 40
1.0
176
     0
 90
        2
176
     1
  1
strokes_ogs.tif
176
     1
290
     0
176
     1
 40
1.0
176
     1
 40
1.0
176
     1
  0
VISUALSTYLE
  5
3E
102
{ACAD_REACTORS
330
2A
102
}
330
2A
100
AcDbVisualStyle
  2
Shades of Gray
 70
    23
177
     3
291
     0
 70
    58
 90
        2
176
     1
 90
        2
176
     1
 90
        3
176
     1
 90
        0
176
     1
 40
0.6
176
     1
 40
30.0
176
     1
 62
     7
420
 16777215
176
     1
 90
        2
176
     1
 90
        2
176
     1
 62
     7
176
     1
 62
     7
176
     1
 90
        1
176
     1
 90
        1
176
     1
 40
40.0
176
     1
 90
        8
176
     1
 62
     7
176
     1
 40
1.0
176
     1
 90
        1
176
     1
 90
        6
176
     1
 90
        2
176
     1
 62
     7
176
     1
 90
        3
176
     1
 90
        0
176
     1
 90
        0
176
     1
290
     0
176
     1
 90
        1
176
     1
 40
0.0
176
     1
 90
        0
176
     1
290
     0
176
     1
290
     1
176
     1
290
     1
176
     1
290
     0
176
     1
290
     0
176
     1
290
     0
176
     1
290
     0
176
     1
290
     0
176
     1
290
     0
176
     1
 90
       50
176
     1
 40
0.0
176
     1
 40
1.0
176
     1
 90
        0
176
     1
 62
    18
420
        0
176
     1
 90
       50
176
     1
 90
        3
176
     1
 62
     5
420
      255
176
     1
290
     0
176
     1
 90
       50
176
     1
 90
       50
176
     1
 90
       50
176
     1
290
     0
176
     1
 90
       50
176
     1
 62
   256
176
     0
 40
1.0
176
     0
 90
        2
176
     1
  1
strokes_ogs.tif
176
     1
290
     0
176
     1
 40
1.0
176
     1
 40
1.0
176
     1
  0
VISUALSTYLE
  5
3F
102
{ACAD_REACTORS
330
2A
102
}
330
2A
100
AcDbVisualStyle
  2
Sketchy
 70
    24
177
     3
291
     0
 70
    58
 90
        1
176
     1
 90
        2
176
     1
 90
        2
176
     1
 90
        0
176
     1
 40
0.6
176
     1
 40
30.0
176
     1
 62
     7
420
 16777215
176
     1
 90
        2
176
     1
 90
        2
176
     1
 62
     7
176
     1
 62
     7
176
     1
 90
        1
176
     1
 90
        1
176
     1
 40
40.0
176
     1
 90
       11
176
     1
 62
     7
176
     1
 40
1.0
176
     1
 90
        1
176
     1
 90
        6
176
     1
 90
        2
176
     1
 62
     7
176
     1
 90
        6
176
     1
 90
        0
176
     1
 90
        0
176
     1
290
     0
176
     1
 90
        1
176
     1
 40
0.0
176
     1
 90
        0
176
     1
290
     0
176
     1
290
     1
176
     1
290
     1
176
     1
290
     0
176
     1
290
     0
176
     1
290
     0
176
     1
290
     0
176
     1
290
     0
176
     1
290
     0
176
     1
 90
       50
176
     1
 40
0.0
176
     1
 40
1.0
176
     1
 90
        0
176
     1
 62
    18
420
        0
176
     1
 90
       50
176
     1
 90
        3
176
     1
 62
     5
420
      255
176
     1
290
     0
176
     1
 90
       50
176
     1
 90
       50
176
     1
 90
       50
176
     1
290
     0
176
     1
 90
       50
176
     1
 62
   256
176
     0
 40
1.0
176
     0
 90
        2
176
     1
  1
strokes_ogs.tif
176
     1
290
     0
176
     1
 40
1.0
176
     1
 40
1.0
176
     1
  0
VISUALSTYLE
  5
37
102
{ACAD_REACTORS
330
2A
102
}
330
2A
100
AcDbVisualStyle
  2
Thicken
 70
    13
177
     3
291
     1
 70
    58
 90
        2
176
     1
 90
        2
176
     1
 90
        0
176
     1
 90
        0
176
     1
 40
0.6
176
     1
 40
30.0
176
     1
 62
     7
420
 16777215
176
     1
 90
        1
176
     1
 90
        4
176
     1
 62
     7
176
     1
 62
   257
176
     1
 90
        1
176
     1
 90
        1
176
     1
 40
1.0
176
     1
 90
       12
176
     1
 62
     7
176
     1
 40
1.0
176
     1
 90
        1
176
     1
 90
        6
176
     1
 90
        2
176
     1
 62
     7
176
     1
 90
        5
176
     1
 90
        0
176
     1
 90
        0
176
     1
290
     0
176
     1
 90
        1
176
     1
 40
0.0
176
     1
 90
        0
176
     1
290
     0
176
     1
290
     1
176
     1
290
     1
176
     1
290
     0
176
     1
290
     0
176
     1
290
     0
176
     1
290
     0
176
     1
290
     0
176
     1
290
     0
176
     1
 90
       50
176
     1
 40
0.0
176
     1
 40
1.0
176
     1
 90
        0
176
     1
 62
    18
420
        0
176
     1
 90
       50
176
     1
 90
        3
176
     1
 62
     5
420
      255
176
     1
290
     0
176
     1
 90
       50
176
     1
 90
       50
176
     1
 90
       50
176
     1
290
     0
176
     1
 90
       50
176
     1
 62
   256
176
     0
 40
1.0
176
     0
 90
        2
176
     1
  1
strokes_ogs.tif
176
     1
290
     0
176
     1
 40
1.0
176
     1
 40
1.0
176
     1
  0
VISUALSTYLE
  5
30
102
{ACAD_REACTORS
330
2A
102
}
330
2A
100
AcDbVisualStyle
  2
Wireframe
 70
     5
177
     3
291
     0
 70
    58
 90
        0
176
     1
 90
        2
176
     1
 90
        0
176
     1
 90
        0
176
     1
 40
0.6
176
     1
 40
30.0
176
     1
 62
     7
420
 16777215
176
     1
 90
        1
176
     1
 90
        4
176
     1
 62
     7
176
     1
 62
   257
176
     1
 90
        1
176
     1
 90
        1
176
     1
 40
1.0
176
     1
 90
        0
176
     1
 62
   257
176
     1
 40
1.0
176
     1
 90
        1
176
     1
 90
        6
176
     1
 90
        2
176
     1
 62
     7
176
     1
 90
        3
176
     1
 90
        0
176
     1
 90
        0
176
     1
290
     0
176
     1
 90
        1
176
     1
 40
0.0
176
     1
 90
        0
176
     1
290
     0
176
     1
290
     1
176
     1
290
     1
176
     1
290
     0
176
     1
290
     0
176
     1
290
     0
176
     1
290
     0
176
     1
290
     0
176
     1
290
     0
176
     1
 90
       50
176
     1
 40
0.0
176
     1
 40
1.0
176
     1
 90
        0
176
     1
 62
    18
420
        0
176
     1
 90
       50
176
     1
 90
        3
176
     1
 62
     5
420
      255
176
     1
290
     0
176
     1
 90
       50
176
     1
 90
       50
176
     1
 90
       50
176
     1
290
     0
176
     1
 90
       50
176
     1
 62
   256
176
     0
 40
1.0
176
     0
 90
        2
176
     1
  1
strokes_ogs.tif
176
     1
290
     0
176
     1
 40
1.0
176
     1
 40
1.0
176
     1
  0
VISUALSTYLE
  5
40
102
{ACAD_REACTORS
330
2A
102
}
330
2A
100
AcDbVisualStyle
  2
X-Ray
 70
    25
177
     3
291
     0
 70
    58
 90
        2
176
     1
 90
        2
176
     1
 90
        1
176
     1
 90
        1
176
     1
 40
0.5
176
     1
 40
30.0
176
     1
 62
     7
420
 16777215
176
     1
 90
        1
176
     1
 90
        0
176
     1
 62
     7
176
     1
 62
   257
176
     1
 90
        1
176
     1
 90
        1
176
     1
 40
1.0
176
     1
 90
        8
176
     1
 62
     7
176
     1
 40
1.0
176
     1
 90
        1
176
     1
 90
        6
176
     1
 90
        2
176
     1
 62
     7
176
     1
 90
        3
176
     1
 90
        0
176
     1
 90
        0
176
     1
290
     0
176
     1
 90
       13
176
     1
 40
0.0
176
     1
 90
        0
176
     1
290
     0
176
     1
290
     1
176
     1
290
     1
176
     1
290
     0
176
     1
290
     0
176
     1
290
     0
176
     1
290
     0
176
     1
290
     0
176
     1
290
     0
176
     1
 90
       50
176
     1
 40
0.0
176
     1
 40
1.0
176
     1
 90
        0
176
     1
 62
    18
420
        0
176
     1
 90
       50
176
     1
 90
        3
176
     1
 62
     5
420
      255
176
     1
290
     0
176
     1
 90
       50
176
     1
 90
       50
176
     1
 90
       50
176
     1
290
     0
176
     1
 90
       50
176
     1
 62
   256
176
     0
 40
1.0
176
     0
 90
        2
176
     1
  1
strokes_ogs.tif
176
     1
290
     0
176
     1
 40
1.0
176
     1
 40
1.0
176
     1
  0
DICTIONARYVAR
  5
1E5
102
{ACAD_REACTORS
330
1E4
102
}
330
1E4
100
DictionaryVariables
280
     0
  1
1:1
  0
DICTIONARYVAR
  5
1EA
102
{ACAD_REACTORS
330
1E4
102
}
330
1E4
100
DictionaryVariables
280
     0
  1
Standard
  0
DICTIONARYVAR
  5
1E9
102
{ACAD_REACTORS
330
1E4
102
}
330
1E4
100
DictionaryVariables
280
     0
  1
Standard
  0
DICTIONARY
  5
1E6
330
6A
100
AcDbDictionary
280
     1
281
     1
  3
ACAD_ROUNDTRIP_2008_TABLESTYLE_CELLSTYLEMAP
360
1E7
  0
CELLSTYLEMAP
  5
1E7
102
{ACAD_REACTORS
330
1E6
102
}
330
1E6
100
AcDbCellStyleMap
 90
        3
300
CELLSTYLE
  1
TABLEFORMAT_BEGIN
 90
        5
170
     1
 91
        0
 92
    32768
 62
   257
 93
        1
300
CONTENTFORMAT
  1
CONTENTFORMAT_BEGIN
 90
        0
 91
        0
 92
        4
 93
        0
300

 40
0.0
140
1.0
 94
        5
 62
     0
340
11
144
0.25
309
CONTENTFORMAT_END
171
     1
301
MARGIN
  1
CELLMARGIN_BEGIN
 40
0.06
 40
0.06
 40
0.06
 40
0.06
 40
0.06
 40
0.06
309
CELLMARGIN_END
 94
        6
 95
        1
302
GRIDFORMAT
  1
GRIDFORMAT_BEGIN
 90
        0
 91
        1
 62
     0
 92
       -2
340
14
 93
        0
 40
0.045
309
GRIDFORMAT_END
 95
        2
302
GRIDFORMAT
  1
GRIDFORMAT_BEGIN
 90
        0
 91
        1
 62
     0
 92
       -2
340
14
 93
        0
 40
0.045
309
GRIDFORMAT_END
 95
        4
302
GRIDFORMAT
  1
GRIDFORMAT_BEGIN
 90
        0
 91
        1
 62
     0
 92
       -2
340
14
 93
        0
 40
0.045
309
GRIDFORMAT_END
 95
        8
302
GRIDFORMAT
  1
GRIDFORMAT_BEGIN
 90
        0
 91
        1
 62
     0
 92
       -2
340
14
 93
        0
 40
0.045
309
GRIDFORMAT_END
 95
       16
302
GRIDFORMAT
  1
GRIDFORMAT_BEGIN
 90
        0
 91
        1
 62
     0
 92
       -2
340
14
 93
        0
 40
0.045
309
GRIDFORMAT_END
 95
       32
302
GRIDFORMAT
  1
GRIDFORMAT_BEGIN
 90
        0
 91
        1
 62
     0
 92
       -2
340
14
 93
        0
 40
0.045
309
GRIDFORMAT_END
309
TABLEFORMAT_END
  1
CELLSTYLE_BEGIN
 90
        1
 91
        1
300
_TITLE
309
CELLSTYLE_END
300
CELLSTYLE
  1
TABLEFORMAT_BEGIN
 90
        5
170
     1
 91
        0
 92
        0
 62
   257
 93
        1
300
CONTENTFORMAT
  1
CONTENTFORMAT_BEGIN
 90
        0
 91
        0
 92
        4
 93
        0
300

 40
0.0
140
1.0
 94
        5
 62
     0
340
11
144
0.18
309
CONTENTFORMAT_END
171
     1
301
MARGIN
  1
CELLMARGIN_BEGIN
 40
0.06
 40
0.06
 40
0.06
 40
0.06
 40
0.06
 40
0.06
309
CELLMARGIN_END
 94
        6
 95
        1
302
GRIDFORMAT
  1
GRIDFORMAT_BEGIN
 90
        0
 91
        1
 62
     0
 92
       -2
340
14
 93
        0
 40
0.045
309
GRIDFORMAT_END
 95
        2
302
GRIDFORMAT
  1
GRIDFORMAT_BEGIN
 90
        0
 91
        1
 62
     0
 92
       -2
340
14
 93
        0
 40
0.045
309
GRIDFORMAT_END
 95
        4
302
GRIDFORMAT
  1
GRIDFORMAT_BEGIN
 90
        0
 91
        1
 62
     0
 92
       -2
340
14
 93
        0
 40
0.045
309
GRIDFORMAT_END
 95
        8
302
GRIDFORMAT
  1
GRIDFORMAT_BEGIN
 90
        0
 91
        1
 62
     0
 92
       -2
340
14
 93
        0
 40
0.045
309
GRIDFORMAT_END
 95
       16
302
GRIDFORMAT
  1
GRIDFORMAT_BEGIN
 90
        0
 91
        1
 62
     0
 92
       -2
340
14
 93
        0
 40
0.045
309
GRIDFORMAT_END
 95
       32
302
GRIDFORMAT
  1
GRIDFORMAT_BEGIN
 90
        0
 91
        1
 62
     0
 92
       -2
340
14
 93
        0
 40
0.045
309
GRIDFORMAT_END
309
TABLEFORMAT_END
  1
CELLSTYLE_BEGIN
 90
        2
 91
        1
300
_HEADER
309
CELLSTYLE_END
300
CELLSTYLE
  1
TABLEFORMAT_BEGIN
 90
        5
170
     1
 91
        0
 92
        0
 62
   257
 93
        1
300
CONTENTFORMAT
  1
CONTENTFORMAT_BEGIN
 90
        0
 91
        0
 92
        4
 93
        0
300

 40
0.0
140
1.0
 94
        2
 62
     0
340
11
144
0.18
309
CONTENTFORMAT_END
171
     1
301
MARGIN
  1
CELLMARGIN_BEGIN
 40
0.06
 40
0.06
 40
0.06
 40
0.06
 40
0.06
 40
0.06
309
CELLMARGIN_END
 94
        6
 95
        1
302
GRIDFORMAT
  1
GRIDFORMAT_BEGIN
 90
        0
 91
        1
 62
     0
 92
       -2
340
14
 93
        0
 40
0.045
309
GRIDFORMAT_END
 95
        2
302
GRIDFORMAT
  1
GRIDFORMAT_BEGIN
 90
        0
 91
        1
 62
     0
 92
       -2
340
14
 93
        0
 40
0.045
309
GRIDFORMAT_END
 95
        4
302
GRIDFORMAT
  1
GRIDFORMAT_BEGIN
 90
        0
 91
        1
 62
     0
 92
       -2
340
14
 93
        0
 40
0.045
309
GRIDFORMAT_END
 95
        8
302
GRIDFORMAT
  1
GRIDFORMAT_BEGIN
 90
        0
 91
        1
 62
     0
 92
       -2
340
14
 93
        0
 40
0.045
309
GRIDFORMAT_END
 95
       16
302
GRIDFORMAT
  1
GRIDFORMAT_BEGIN
 90
        0
 91
        1
 62
     0
 92
       -2
340
14
 93
        0
 40
0.045
309
GRIDFORMAT_END
 95
       32
302
GRIDFORMAT
  1
GRIDFORMAT_BEGIN
 90
        0
 91
        1
 62
     0
 92
       -2
340
14
 93
        0
 40
0.045
309
GRIDFORMAT_END
309
TABLEFORMAT_END
  1
CELLSTYLE_BEGIN
 90
        3
 91
        2
300
_DATA
309
CELLSTYLE_END
  0
ENDSEC
  0
EOF