0
SECTION
  2
HEADER
  9
$ACADVER
  1
AC1027
  9
$ACADMAINTVER
 70
     8
  9
$DWGCODEPAGE
  3
ANSI_1252
  9
$REQUIREDVERSIONS
160
                 0
  9
$COMMENTS
  1
File was created by Cadenas
  9
$CUSTOMPROPERTYTAG
  1
NN
  9
$CUSTOMPROPERTY
  1
Eccentric Collar Low Backing Height Two-Bolt Pillow Block Inch Bore
  9
$CUSTOMPROPERTYTAG
  1
NT
  9
$CUSTOMPROPERTY
  1
Eccentric Collar Pillow Block Bearings -(Normal Duty) -Low Backing Height
  9
$CUSTOMPROPERTYTAG
  1
NB
  9
$CUSTOMPROPERTY
  1
131840
  9
$CUSTOMPROPERTYTAG
  1
NBSYN
  9
$CUSTOMPROPERTY
  1
$PN.
  9
$CUSTOMPROPERTYTAG
  1
LINA
  9
$CUSTOMPROPERTY
  1
131840
  9
$CUSTOMPROPERTYTAG
  1
SERIES
  9
$CUSTOMPROPERTY
  1
207
  9
$CUSTOMPROPERTYTAG
  1
SS
  9
$CUSTOMPROPERTY
  1
1-7/16
  9
$CUSTOMPROPERTYTAG
  1
PN
  9
$CUSTOMPROPERTY
  1
131840
  9
$CUSTOMPROPERTYTAG
  1
DESCRIPTION
  9
$CUSTOMPROPERTY
  1
P2B-SXRB-107
  9
$CUSTOMPROPERTYTAG
  1
WEIGHT
  9
$CUSTOMPROPERTY
  1
4.1
  9
$CUSTOMPROPERTYTAG
  1
A
  9
$CUSTOMPROPERTY
  1
1.95
  9
$CUSTOMPROPERTYTAG
  1
B
  9
$CUSTOMPROPERTY
  1
6.50
  9
$CUSTOMPROPERTYTAG
  1
C
  9
$CUSTOMPROPERTY
  1
1.75
  9
$CUSTOMPROPERTYTAG
  1
DMIN
  9
$CUSTOMPROPERTY
  1
4.68
  9
$CUSTOMPROPERTYTAG
  1
DMAX
  9
$CUSTOMPROPERTY
  1
5.44
  9
$CUSTOMPROPERTYTAG
  1
F
  9
$CUSTOMPROPERTY
  1
1/2
  9
$CUSTOMPROPERTYTAG
  1
G
  9
$CUSTOMPROPERTY
  1
0.94
  9
$CUSTOMPROPERTYTAG
  1
H
  9
$CUSTOMPROPERTY
  1
0.65
  9
$CUSTOMPROPERTYTAG
  1
J
  9
$CUSTOMPROPERTY
  1
3.69
  9
$CUSTOMPROPERTYTAG
  1
L
  9
$CUSTOMPROPERTY
  1
2.13
  9
$CUSTOMPROPERTYTAG
  1
M
  9
$CUSTOMPROPERTY
  1
1.81
  9
$CUSTOMPROPERTYTAG
  1
R
  9
$CUSTOMPROPERTY
  1
0.67
  9
$CUSTOMPROPERTYTAG
  1
S
  9
$CUSTOMPROPERTY
  1
1.28
  9
$CUSTOMPROPERTYTAG
  1
U
  9
$CUSTOMPROPERTY
  1
2.91
  9
$CUSTOMPROPERTYTAG
  1
V
  9
$CUSTOMPROPERTY
  1
5.82
  9
$CUSTOMPROPERTYTAG
  1
W
  9
$CUSTOMPROPERTY
  1
0.56
  9
$CUSTOMPROPERTYTAG
  1
X
  9
$CUSTOMPROPERTY
  1
0.12
  9
$CUSTOMPROPERTYTAG
  1
COMPANY
  9
$CUSTOMPROPERTY
  1
baldor
  9
$INSBASE
 10
0.0
 20
0.0
 30
0.0
  9
$EXTMIN
 10
1.000000000000000E+20
 20
1.000000000000000E+20
 30
1.000000000000000E+20
  9
$EXTMAX
 10
-1.000000000000000E+20
 20
-1.000000000000000E+20
 30
-1.000000000000000E+20
  9
$LIMMIN
 10
0.0
 20
0.0
  9
$LIMMAX
 10
12.0
 20
9.0
  9
$ORTHOMODE
 70
     0
  9
$REGENMODE
 70
     1
  9
$FILLMODE
 70
     1
  9
$QTEXTMODE
 70
     0
  9
$MIRRTEXT
 70
     1
  9
$LTSCALE
 40
1.0
  9
$ATTMODE
 70
     1
  9
$TEXTSIZE
 40
0.2
  9
$TRACEWID
 40
0.05
  9
$TEXTSTYLE
  7
Standard
  9
$CLAYER
  8
0
  9
$CELTYPE
  6
ByLayer
  9
$CECOLOR
 62
   256
  9
$CELTSCALE
 40
1.0
  9
$DISPSILH
 70
     0
  9
$DIMSCALE
 40
1.0
  9
$DIMASZ
 40
0.18
  9
$DIMEXO
 40
0.0625
  9
$DIMDLI
 40
0.38
  9
$DIMRND
 40
0.0
  9
$DIMDLE
 40
0.0
  9
$DIMEXE
 40
0.18
  9
$DIMTP
 40
0.0
  9
$DIMTM
 40
0.0
  9
$DIMTXT
 40
0.18
  9
$DIMCEN
 40
0.09
  9
$DIMTSZ
 40
0.0
  9
$DIMTOL
 70
     0
  9
$DIMLIM
 70
     0
  9
$DIMTIH
 70
     1
  9
$DIMTOH
 70
     1
  9
$DIMSE1
 70
     0
  9
$DIMSE2
 70
     0
  9
$DIMTAD
 70
     0
  9
$DIMZIN
 70
     0
  9
$DIMBLK
  1

  9
$DIMASO
 70
     1
  9
$DIMSHO
 70
     1
  9
$DIMPOST
  1

  9
$DIMAPOST
  1

  9
$DIMALT
 70
     0
  9
$DIMALTD
 70
     2
  9
$DIMALTF
 40
25.4
  9
$DIMLFAC
 40
1.0
  9
$DIMTOFL
 70
     0
  9
$DIMTVP
 40
0.0
  9
$DIMTIX
 70
     0
  9
$DIMSOXD
 70
     0
  9
$DIMSAH
 70
     0
  9
$DIMBLK1
  1

  9
$DIMBLK2
  1

  9
$DIMSTYLE
  2
Standard
  9
$DIMCLRD
 70
     0
  9
$DIMCLRE
 70
     0
  9
$DIMCLRT
 70
     0
  9
$DIMTFAC
 40
1.0
  9
$DIMGAP
 40
0.09
  9
$DIMJUST
 70
     0
  9
$DIMSD1
 70
     0
  9
$DIMSD2
 70
     0
  9
$DIMTOLJ
 70
     1
  9
$DIMTZIN
 70
     0
  9
$DIMALTZ
 70
     0
  9
$DIMALTTZ
 70
     0
  9
$DIMUPT
 70
     0
  9
$DIMDEC
 70
     4
  9
$DIMTDEC
 70
     4
  9
$DIMALTU
 70
     2
  9
$DIMALTTD
 70
     2
  9
$DIMTXSTY
  7
Standard
  9
$DIMAUNIT
 70
     0
  9
$DIMADEC
 70
     0
  9
$DIMALTRND
 40
0.0
  9
$DIMAZIN
 70
     0
  9
$DIMDSEP
 70
    46
  9
$DIMATFIT
 70
     3
  9
$DIMFRAC
 70
     0
  9
$DIMLDRBLK
  1

  9
$DIMLUNIT
 70
     2
  9
$DIMLWD
 70
    -2
  9
$DIMLWE
 70
    -2
  9
$DIMTMOVE
 70
     0
  9
$DIMFXL
 40
1.0
  9
$DIMFXLON
 70
     0
  9
$DIMJOGANG
 40
0.7853981633974483
  9
$DIMTFILL
 70
     0
  9
$DIMTFILLCLR
 70
     0
  9
$DIMARCSYM
 70
     0
  9
$DIMLTYPE
  6

  9
$DIMLTEX1
  6

  9
$DIMLTEX2
  6

  9
$DIMTXTDIRECTION
 70
     0
  9
$LUNITS
 70
     2
  9
$LUPREC
 70
     4
  9
$SKETCHINC
 40
0.1
  9
$FILLETRAD
 40
0.5
  9
$AUNITS
 70
     0
  9
$AUPREC
 70
     0
  9
$MENU
  1
.
  9
$ELEVATION
 40
0.0
  9
$PELEVATION
 40
0.0
  9
$THICKNESS
 40
0.0
  9
$LIMCHECK
 70
     0
  9
$CHAMFERA
 40
0.0
  9
$CHAMFERB
 40
0.0
  9
$CHAMFERC
 40
0.0
  9
$CHAMFERD
 40
0.0
  9
$SKPOLY
 70
     0
  9
$TDCREATE
 40
2458168.980791493
  9
$TDUCREATE
 40
2458168.939124826
  9
$TDUPDATE
 40
2458168.980791678
  9
$TDUUPDATE
 40
2458168.939125012
  9
$TDINDWG
 40
0.0000000116
  9
$TDUSRTIMER
 40
0.0000000116
  9
$USRTIMER
 70
     1
  9
$ANGBASE
 50
0.0
  9
$ANGDIR
 70
     0
  9
$PDMODE
 70
     0
  9
$PDSIZE
 40
0.0
  9
$PLINEWID
 40
0.0
  9
$SPLFRAME
 70
     0
  9
$SPLINETYPE
 70
     6
  9
$SPLINESEGS
 70
     8
  9
$HANDSEED
  5
1EB
  9
$SURFTAB1
 70
     6
  9
$SURFTAB2
 70
     6
  9
$SURFTYPE
 70
     6
  9
$SURFU
 70
     6
  9
$SURFV
 70
     6
  9
$UCSBASE
  2

  9
$UCSNAME
  2

  9
$UCSORG
 10
0.0
 20
0.0
 30
0.0
  9
$UCSXDIR
 10
1.0
 20
0.0
 30
0.0
  9
$UCSYDIR
 10
0.0
 20
1.0
 30
0.0
  9
$UCSORTHOREF
  2

  9
$UCSORTHOVIEW
 70
     0
  9
$UCSORGTOP
 10
0.0
 20
0.0
 30
0.0
  9
$UCSORGBOTTOM
 10
0.0
 20
0.0
 30
0.0
  9
$UCSORGLEFT
 10
0.0
 20
0.0
 30
0.0
  9
$UCSORGRIGHT
 10
0.0
 20
0.0
 30
0.0
  9
$UCSORGFRONT
 10
0.0
 20
0.0
 30
0.0
  9
$UCSORGBACK
 10
0.0
 20
0.0
 30
0.0
  9
$PUCSBASE
  2

  9
$PUCSNAME
  2

  9
$PUCSORG
 10
0.0
 20
0.0
 30
0.0
  9
$PUCSXDIR
 10
1.0
 20
0.0
 30
0.0
  9
$PUCSYDIR
 10
0.0
 20
1.0
 30
0.0
  9
$PUCSORTHOREF
  2

  9
$PUCSORTHOVIEW
 70
     0
  9
$PUCSORGTOP
 10
0.0
 20
0.0
 30
0.0
  9
$PUCSORGBOTTOM
 10
0.0
 20
0.0
 30
0.0
  9
$PUCSORGLEFT
 10
0.0
 20
0.0
 30
0.0
  9
$PUCSORGRIGHT
 10
0.0
 20
0.0
 30
0.0
  9
$PUCSORGFRONT
 10
0.0
 20
0.0
 30
0.0
  9
$PUCSORGBACK
 10
0.0
 20
0.0
 30
0.0
  9
$USERI1
 70
     0
  9
$USERI2
 70
     0
  9
$USERI3
 70
     0
  9
$USERI4
 70
     0
  9
$USERI5
 70
     0
  9
$USERR1
 40
0.0
  9
$USERR2
 40
0.0
  9
$USERR3
 40
0.0
  9
$USERR4
 40
0.0
  9
$USERR5
 40
0.0
  9
$WORLDVIEW
 70
     1
  9
$SHADEDGE
 70
     3
  9
$SHADEDIF
 70
    70
  9
$TILEMODE
 70
     1
  9
$MAXACTVP
 70
    64
  9
$PINSBASE
 10
0.0
 20
0.0
 30
0.0
  9
$PLIMCHECK
 70
     0
  9
$PEXTMIN
 10
1.000000000000000E+20
 20
1.000000000000000E+20
 30
1.000000000000000E+20
  9
$PEXTMAX
 10
-1.000000000000000E+20
 20
-1.000000000000000E+20
 30
-1.000000000000000E+20
  9
$PLIMMIN
 10
0.0
 20
0.0
  9
$PLIMMAX
 10
12.0
 20
9.0
  9
$UNITMODE
 70
     0
  9
$VISRETAIN
 70
     1
  9
$PLINEGEN
 70
     0
  9
$PSLTSCALE
 70
     1
  9
$TREEDEPTH
 70
  3020
  9
$CMLSTYLE
  2
Standard
  9
$CMLJUST
 70
     0
  9
$CMLSCALE
 40
1.0
  9
$PROXYGRAPHICS
 70
     1
  9
$MEASUREMENT
 70
     0
  9
$CELWEIGHT
370
    -1
  9
$ENDCAPS
280
     0
  9
$JOINSTYLE
280
     0
  9
$LWDISPLAY
290
     0
  9
$INSUNITS
 70
     1
  9
$HYPERLINKBASE
  1

  9
$STYLESHEET
  1

  9
$XEDIT
290
     1
  9
$CEPSNTYPE
380
     0
  9
$PSTYLEMODE
290
     1
  9
$FINGERPRINTGUID
  2
{30E5A2DC-CF08-4C8E-A10A-37279C576923}
  9
$VERSIONGUID
  2
{FAEB1C32-E019-11D5-929B-00C0DF256EC4}
  9
$EXTNAMES
290
     1
  9
$PSVPSCALE
 40
0.0
  9
$OLESTARTUP
290
     0
  9
$SORTENTS
280
   127
  9
$INDEXCTL
280
     0
  9
$HIDETEXT
280
     1
  9
$XCLIPFRAME
280
     2
  9
$HALOGAP
280
     0
  9
$OBSCOLOR
 70
   257
  9
$OBSLTYPE
280
     0
  9
$INTERSECTIONDISPLAY
280
     0
  9
$INTERSECTIONCOLOR
 70
   257
  9
$DIMASSOC
280
     2
  9
$PROJECTNAME
  1

  9
$CAMERADISPLAY
290
     0
  9
$LENSLENGTH
 40
50.0
  9
$CAMERAHEIGHT
 40
0.0
  9
$STEPSPERSEC
 40
2.0
  9
$STEPSIZE
 40
6.0
  9
$3DDWFPREC
 40
2.0
  9
$PSOLWIDTH
 40
0.25
  9
$PSOLHEIGHT
 40
4.0
  9
$LOFTANG1
 40
1.570796326794897
  9
$LOFTANG2
 40
1.570796326794897
  9
$LOFTMAG1
 40
0.0
  9
$LOFTMAG2
 40
0.0
  9
$LOFTPARAM
 70
     7
  9
$LOFTNORMALS
280
     1
  9
$LATITUDE
 40
37.795
  9
$LONGITUDE
 40
-122.394
  9
$NORTHDIRECTION
 40
0.0
  9
$TIMEZONE
 70
 -8000
  9
$LIGHTGLYPHDISPLAY
280
     1
  9
$TILEMODELIGHTSYNCH
280
     1
  9
$CMATERIAL
347
44
  9
$SOLIDHIST
280
     0
  9
$SHOWHIST
280
     1
  9
$DWFFRAME
280
     2
  9
$DGNFRAME
280
     2
  9
$REALWORLDSCALE
290
     1
  9
$INTERFERECOLOR
 62
   256
  9
$CSHADOW
280
     0
  9
$SHADOWPLANELOCATION
 40
0.0
  0
ENDSEC
  0
SECTION
  2
CLASSES
  0
CLASS
  1
ACDBDICTIONARYWDFLT
  2
AcDbDictionaryWithDefault
  3
ObjectDBX Classes
 90
        0
 91
        4
280
     0
281
     0
  0
CLASS
  1
VISUALSTYLE
  2
AcDbVisualStyle
  3
ObjectDBX Classes
 90
     4095
 91
        4
280
     0
281
     0
  0
CLASS
  1
MATERIAL
  2
AcDbMaterial
  3
ObjectDBX Classes
 90
     1153
 91
        4
280
     0
281
     0
  0
CLASS
  1
SCALE
  2
AcDbScale
  3
ObjectDBX Classes
 90
     1153
 91
        4
280
     0
281
     0
  0
CLASS
  1
TABLESTYLE
  2
AcDbTableStyle
  3
ObjectDBX Classes
 90
     4095
 91
        4
280
     0
281
     0
  0
CLASS
  1
MLEADERSTYLE
  2
AcDbMLeaderStyle
  3
ACDB_MLEADERSTYLE_CLASS
 90
     4095
 91
        4
280
     0
281
     0
  0
CLASS
  1
SUN
  2
AcDbSun
  3
SCENEOE
 90
     1153
 91
        4
280
     0
281
     0
  0
CLASS
  1
DICTIONARYVAR
  2
AcDbDictionaryVar
  3
ObjectDBX Classes
 90
        0
 91
        4
280
     0
281
     0
  0
CLASS
  1
CELLSTYLEMAP
  2
AcDbCellStyleMap
  3
ObjectDBX Classes
 90
     1152
 91
        4
280
     0
281
     0
  0
ENDSEC
  0
SECTION
  2
TABLES
  0
TABLE
  2
VPORT
  5
8
330
0
100
AcDbSymbolTable
 70
     1
  0
VPORT
  5
29
330
8
100
AcDbSymbolTableRecord
100
AcDbViewportTableRecord
  2
*Active
 70
     0
 10
0.0
 20
0.0
 11
1.0
 21
1.0
 12
0.0
 22
-0.2074999999999996
 13
0.0
 23
0.0
 14
0.5
 24
0.5
 15
0.5
 25
0.5
 16
0.0
 26
0.0
 36
1.0
 17
0.0
 27
0.0
 37
0.0
 40
2.3868
 41
2.777777777777778
 42
50.0
 43
0.0
 44
0.0
 50
0.0
 51
0.0
 71
     0
 72
   100
 73
     1
 74
     3
 75
     0
 76
     0
 77
     0
 78
     0
281
     0
 65
     1
110
0.0
120
0.0
130
0.0
111
1.0
121
0.0
131
0.0
112
0.0
122
1.0
132
0.0
 79
     0
146
0.0
348
2F
 60
     3
 61
     5
292
     1
282
     1
141
0.0
142
0.0
 63
   250
361
6D
  0
ENDTAB
  0
TABLE
  2
LTYPE
  5
5
330
0
100
AcDbSymbolTable
 70
     3
  0
LTYPE
  5
14
330
5
100
AcDbSymbolTableRecord
100
AcDbLinetypeTableRecord
  2
ByBlock
 70
     0
  3

 72
    65
 73
     0
 40
0.0
  0
LTYPE
  5
15
330
5
100
AcDbSymbolTableRecord
100
AcDbLinetypeTableRecord
  2
ByLayer
 70
     0
  3

 72
    65
 73
     0
 40
0.0
  0
LTYPE
  5
16
330
5
100
AcDbSymbolTableRecord
100
AcDbLinetypeTableRecord
  2
Continuous
 70
     0
  3
Solid line
 72
    65
 73
     0
 40
0.0
  0
LTYPE
  5
9B
330
5
100
AcDbSymbolTableRecord
100
AcDbLinetypeTableRecord
  2
Dashed
 70
     0
  3

 72
    65
 73
     2
 40
2.0
 49
1.0
 74
     0
 49
-1.0
 74
     0
  0
LTYPE
  5
115
330
5
100
AcDbSymbolTableRecord
100
AcDbLinetypeTableRecord
  2
Center
 70
     0
  3

 72
    65
 73
     4
 40
1.5
 49
0.45
 74
     0
 49
-0.5
 74
     0
 49
0.05
 74
     0
 49
-0.5
 74
     0
  0
ENDTAB
  0
TABLE
  2
LAYER
  5
2
330
0
100
AcDbSymbolTable
 70
     7
  0
LAYER
  5
10
330
2
100
AcDbSymbolTableRecord
100
AcDbLayerTableRecord
  2
0
 70
     0
 62
     7
  6
Continuous
370
    -3
390
F
347
46
348
0
  0
LAYER
  5
72
330
2
100
AcDbSymbolTableRecord
100
AcDbLayerTableRecord
  2
AM_6
 70
     0
 62
    -2
  6
Continuous
370
    35
390
F
347
46
348
0
  0
LAYER
  5
9C
330
2
100
AcDbSymbolTableRecord
100
AcDbLayerTableRecord
  2
AM_9
 70
     0
 62
     6
  6
Dashed
370
    25
390
F
347
46
348
0
  0
LAYER
  5
B9
330
2
100
AcDbSymbolTableRecord
100
AcDbLayerTableRecord
  2
AM_4
 70
     0
 62
     7
  6
Continuous
370
    50
390
F
347
46
348
0
  0
LAYER
  5
116
330
2
100
AcDbSymbolTableRecord
100
AcDbLayerTableRecord
  2
AM_7
 70
     0
 62
     7
  6
Center
370
    25
390
F
347
46
348
0
  0
LAYER
  5
136
330
2
100
AcDbSymbolTableRecord
100
AcDbLayerTableRecord
  2
AM_5
 70
     0
 62
     3
  6
Continuous
370
    25
390
F
347
46
348
0
  0
LAYER
  5
1DC
330
2
100
AcDbSymbolTableRecord
100
AcDbLayerTableRecord
  2
ConnectionPoints
 70
     0
 62
     7
  6
Continuous
370
    50
390
F
347
46
348
0
  0
ENDTAB
  0
TABLE
  2
STYLE
  5
3
330
0
100
AcDbSymbolTable
 70
     1
  0
STYLE
  5
11
330
3
100
AcDbSymbolTableRecord
100
AcDbTextStyleTableRecord
  2
Standard
 70
     0
 40
0.0
 41
1.0
 50
0.0
 71
     0
 42
0.2
  3
txt
  4

  0
ENDTAB
  0
TABLE
  2
VIEW
  5
6
330
0
100
AcDbSymbolTable
 70
     0
  0
ENDTAB
  0
TABLE
  2
UCS
  5
7
330
0
100
AcDbSymbolTable
 70
     0
  0
ENDTAB
  0
TABLE
  2
APPID
  5
9
330
0
100
AcDbSymbolTable
 70
     1
  0
APPID
  5
12
330
9
100
AcDbSymbolTableRecord
100
AcDbRegAppTableRecord
  2
ACAD
 70
     0
  0
ENDTAB
  0
TABLE
  2
DIMSTYLE
  5
A
330
0
100
AcDbSymbolTable
 70
     1
100
AcDbDimStyleTable
  0
DIMSTYLE
105
27
330
A
100
AcDbSymbolTableRecord
100
AcDbDimStyleTableRecord
  2
Standard
 70
     0
178
     0
340
11
  0
ENDTAB
  0
TABLE
  2
BLOCK_RECORD
  5
1
330
0
100
AcDbSymbolTable
 70
     5
  0
BLOCK_RECORD
  5
1F
330
1
100
AcDbSymbolTableRecord
100
AcDbBlockTableRecord
  2
*Model_Space
340
22
 70
     0
280
     1
281
     0
  0
BLOCK_RECORD
  5
1B
330
1
100
AcDbSymbolTableRecord
100
AcDbBlockTableRecord
  2
*Paper_Space
340
1E
 70
     0
280
     1
281
     0
  0
BLOCK_RECORD
  5
23
330
1
100
AcDbSymbolTableRecord
100
AcDbBlockTableRecord
  2
*Paper_Space0
340
26
 70
     0
280
     1
281
     0
  0
BLOCK_RECORD
  5
6E
330
1
100
AcDbSymbolTableRecord
100
AcDbBlockTableRecord
  2
1_131840_4
340
0
102
{BLKREFS
331
6F
102
}
 70
     0
280
     1
281
     0
  0
BLOCK_RECORD
  5
8F
330
1
100
AcDbSymbolTableRecord
100
AcDbBlockTableRecord
  2
2_405015E_Inch_0_in_131840_4
340
0
102
{BLKREFS
331
90
102
}
 70
     0
280
     1
281
     0
  0
BLOCK_RECORD
  5
D5
330
1
100
AcDbSymbolTableRecord
100
AcDbBlockTableRecord
  2
3_131915_0_in_131840_4
340
0
102
{BLKREFS
331
D6
102
}
 70
     0
280
     1
281
     0
  0
BLOCK_RECORD
  5
138
330
1
100
AcDbSymbolTableRecord
100
AcDbBlockTableRecord
  2
4_131840H_0_in_131840_4
340
0
102
{BLKREFS
331
139
102
}
 70
     0
280
     1
281
     0
  0
ENDTAB
  0
ENDSEC
  0
SECTION
  2
BLOCKS
  0
BLOCK
  5
20
330
1F
100
AcDbEntity
  8
0
100
AcDbBlockBegin
  2
*Model_Space
 70
     0
 10
0.0
 20
0.0
 30
0.0
  3
*Model_Space
  1

  0
ENDBLK
  5
21
330
1F
100
AcDbEntity
  8
0
100
AcDbBlockEnd
  0
BLOCK
  5
1C
330
1B
100
AcDbEntity
 67
     1
  8
0
100
AcDbBlockBegin
  2
*Paper_Space
 70
     0
 10
0.0
 20
0.0
 30
0.0
  3
*Paper_Space
  1

  0
ENDBLK
  5
1D
330
1B
100
AcDbEntity
 67
     1
  8
0
100
AcDbBlockEnd
  0
BLOCK
  5
24
330
23
100
AcDbEntity
  8
0
100
AcDbBlockBegin
  2
*Paper_Space0
 70
     0
 10
0.0
 20
0.0
 30
0.0
  3
*Paper_Space0
  1

  0
ENDBLK
  5
25
330
23
100
AcDbEntity
  8
0
100
AcDbBlockEnd
  0
BLOCK
  5
70
330
6E
100
AcDbEntity
  8
0
100
AcDbBlockBegin
  2
1_131840_4
 70
     2
 10
0.0
 20
0.0
 30
0.0
  3
1_131840_4
  1

  0
ATTDEF
  5
73
330
6E
100
AcDbEntity
  8
AM_6
100
AcDbText
 10
8.25
 20
0.9625
 30
0.0
 40
0.5
  1
Eccentric Collar Low Backing Height Two-Bolt Pillow Block Inch Bore
100
AcDbAttributeDefinition
  3

  2
NN
 70
     8
280
     0
  0
ATTDEF
  5
74
330
6E
100
AcDbEntity
  8
AM_6
100
AcDbText
 10
8.25
 20
0.4625
 30
0.0
 40
0.5
  1
Eccentric Collar Pillow Block Bearings -(Normal Duty) -Low Backing Height
100
AcDbAttributeDefinition
  3

  2
NT
 70
     8
280
     0
  0
ATTDEF
  5
75
330
6E
100
AcDbEntity
  8
AM_6
100
AcDbText
 10
8.25
 20
-0.0375
 30
0.0
 40
0.5
  1
131840
100
AcDbAttributeDefinition
  3

  2
NB
 70
     8
280
     0
  0
ATTDEF
  5
76
330
6E
100
AcDbEntity
  8
AM_6
100
AcDbText
 10
8.25
 20
-0.5375
 30
0.0
 40
0.5
  1
$PN.
100
AcDbAttributeDefinition
  3

  2
NBSYN
 70
     8
280
     0
  0
ATTDEF
  5
77
330
6E
100
AcDbEntity
  8
AM_6
100
AcDbText
 10
8.25
 20
-1.0375
 30
0.0
 40
0.5
  1
131840
100
AcDbAttributeDefinition
  3

  2
LINA
 70
     8
280
     0
  0
ATTDEF
  5
78
330
6E
100
AcDbEntity
  8
AM_6
100
AcDbText
 10
8.25
 20
-1.5375
 30
0.0
 40
0.5
  1
207
100
AcDbAttributeDefinition
  3

  2
SERIES
 70
     8
280
     0
  0
ATTDEF
  5
79
330
6E
100
AcDbEntity
  8
AM_6
100
AcDbText
 10
8.25
 20
-2.0375
 30
0.0
 40
0.5
  1
1-7/16
100
AcDbAttributeDefinition
  3

  2
SS
 70
     8
280
     0
  0
ATTDEF
  5
7A
330
6E
100
AcDbEntity
  8
AM_6
100
AcDbText
 10
8.25
 20
-2.5375
 30
0.0
 40
0.5
  1
131840
100
AcDbAttributeDefinition
  3

  2
PN
 70
     8
280
     0
  0
ATTDEF
  5
7B
330
6E
100
AcDbEntity
  8
AM_6
100
AcDbText
 10
8.25
 20
-3.0375
 30
0.0
 40
0.5
  1
P2B-SXRB-107
100
AcDbAttributeDefinition
  3

  2
DESCRIPTION
 70
     8
280
     0
  0
ATTDEF
  5
7C
330
6E
100
AcDbEntity
  8
AM_6
100
AcDbText
 10
8.25
 20
-3.5375
 30
0.0
 40
0.5
  1
4.1
100
AcDbAttributeDefinition
  3

  2
WEIGHT
 70
     8
280
     0
  0
ATTDEF
  5
7D
330
6E
100
AcDbEntity
  8
AM_6
100
AcDbText
 10
8.25
 20
-4.0375
 30
0.0
 40
0.5
  1
1.95
100
AcDbAttributeDefinition
  3

  2
A
 70
     8
280
     0
  0
ATTDEF
  5
7E
330
6E
100
AcDbEntity
  8
AM_6
100
AcDbText
 10
8.25
 20
-4.5375
 30
0.0
 40
0.5
  1
6.50
100
AcDbAttributeDefinition
  3

  2
B
 70
     8
280
     0
  0
ATTDEF
  5
7F
330
6E
100
AcDbEntity
  8
AM_6
100
AcDbText
 10
8.25
 20
-5.0375
 30
0.0
 40
0.5
  1
1.75
100
AcDbAttributeDefinition
  3

  2
C
 70
     8
280
     0
  0
ATTDEF
  5
80
330
6E
100
AcDbEntity
  8
AM_6
100
AcDbText
 10
8.25
 20
-5.5375
 30
0.0
 40
0.5
  1
4.68
100
AcDbAttributeDefinition
  3

  2
DMIN
 70
     8
280
     0
  0
ATTDEF
  5
81
330
6E
100
AcDbEntity
  8
AM_6
100
AcDbText
 10
8.25
 20
-6.0375
 30
0.0
 40
0.5
  1
5.44
100
AcDbAttributeDefinition
  3

  2
DMAX
 70
     8
280
     0
  0
ATTDEF
  5
82
330
6E
100
AcDbEntity
  8
AM_6
100
AcDbText
 10
8.25
 20
-6.5375
 30
0.0
 40
0.5
  1
1/2
100
AcDbAttributeDefinition
  3

  2
F
 70
     8
280
     0
  0
ATTDEF
  5
83
330
6E
100
AcDbEntity
  8
AM_6
100
AcDbText
 10
8.25
 20
-7.0375
 30
0.0
 40
0.5
  1
0.94
100
AcDbAttributeDefinition
  3

  2
G
 70
     8
280
     0
  0
ATTDEF
  5
84
330
6E
100
AcDbEntity
  8
AM_6
100
AcDbText
 10
8.25
 20
-7.5375
 30
0.0
 40
0.5
  1
0.65
100
AcDbAttributeDefinition
  3

  2
H
 70
     8
280
     0
  0
ATTDEF
  5
85
330
6E
100
AcDbEntity
  8
AM_6
100
AcDbText
 10
8.25
 20
-8.0375
 30
0.0
 40
0.5
  1
3.69
100
AcDbAttributeDefinition
  3

  2
J
 70
     8
280
     0
  0
ATTDEF
  5
86
330
6E
100
AcDbEntity
  8
AM_6
100
AcDbText
 10
8.25
 20
-8.5375
 30
0.0
 40
0.5
  1
2.13
100
AcDbAttributeDefinition
  3

  2
L
 70
     8
280
     0
  0
ATTDEF
  5
87
330
6E
100
AcDbEntity
  8
AM_6
100
AcDbText
 10
8.25
 20
-9.0375
 30
0.0
 40
0.5
  1
1.81
100
AcDbAttributeDefinition
  3

  2
M
 70
     8
280
     0
  0
ATTDEF
  5
88
330
6E
100
AcDbEntity
  8
AM_6
100
AcDbText
 10
8.25
 20
-9.5375
 30
0.0
 40
0.5
  1
0.67
100
AcDbAttributeDefinition
  3

  2
R
 70
     8
280
     0
  0
ATTDEF
  5
89
330
6E
100
AcDbEntity
  8
AM_6
100
AcDbText
 10
8.25
 20
-10.0375
 30
0.0
 40
0.5
  1
1.28
100
AcDbAttributeDefinition
  3

  2
S
 70
     8
280
     0
  0
ATTDEF
  5
8A
330
6E
100
AcDbEntity
  8
AM_6
100
AcDbText
 10
8.25
 20
-10.5375
 30
0.0
 40
0.5
  1
2.91
100
AcDbAttributeDefinition
  3

  2
U
 70
     8
280
     0
  0
ATTDEF
  5
8B
330
6E
100
AcDbEntity
  8
AM_6
100
AcDbText
 10
8.25
 20
-11.0375
 30
0.0
 40
0.5
  1
5.82
100
AcDbAttributeDefinition
  3

  2
V
 70
     8
280
     0
  0
ATTDEF
  5
8C
330
6E
100
AcDbEntity
  8
AM_6
100
AcDbText
 10
8.25
 20
-11.5375
 30
0.0
 40
0.5
  1
0.56
100
AcDbAttributeDefinition
  3

  2
W
 70
     8
280
     0
  0
ATTDEF
  5
8D
330
6E
100
AcDbEntity
  8
AM_6
100
AcDbText
 10
8.25
 20
-12.0375
 30
0.0
 40
0.5
  1
0.12
100
AcDbAttributeDefinition
  3

  2
X
 70
     8
280
     0
  0
ATTDEF
  5
8E
330
6E
100
AcDbEntity
  8
AM_6
100
AcDbText
 10
8.25
 20
-12.5375
 30
0.0
 40
0.5
  1
baldor
100
AcDbAttributeDefinition
  3

  2
COMPANY
 70
     8
280
     0
  0
INSERT
  5
90
330
6E
100
AcDbEntity
  8
0
100
AcDbBlockReference
  2
2_405015E_Inch_0_in_131840_4
 10
0.0
 20
0.0
 30
0.0
  0
INSERT
  5
D6
330
6E
100
AcDbEntity
  8
0
100
AcDbBlockReference
  2
3_131915_0_in_131840_4
 10
0.0
 20
0.0
 30
0.0
  0
INSERT
  5
139
330
6E
100
AcDbEntity
  8
0
100
AcDbBlockReference
  2
4_131840H_0_in_131840_4
 10
0.0
 20
0.0
 30
0.0
  0
ENDBLK
  5
71
330
6E
100
AcDbEntity
  8
0
100
AcDbBlockEnd
  0
BLOCK
  5
91
330
8F
100
AcDbEntity
  8
0
100
AcDbBlockBegin
  2
2_405015E_Inch_0_in_131840_4
 70
     2
 10
0.0
 20
0.0
 30
0.0
  3
2_405015E_Inch_0_in_131840_4
  1

  0
ATTDEF
  5
93
330
8F
100
AcDbEntity
  8
AM_6
100
AcDbText
 10
6.667130032310628
 20
0.2187500000000001
 30
0.0
 40
0.5
  1
405015E -Inch
100
AcDbAttributeDefinition
  3

  2
NN
 70
     8
280
     0
  0
ATTDEF
  5
94
330
8F
100
AcDbEntity
  8
AM_6
100
AcDbText
 10
6.667130032310628
 20
-0.2812499999999999
 30
0.0
 40
0.5
  1
Grease Fitting
100
AcDbAttributeDefinition
  3

  2
NT
 70
     8
280
     0
  0
ATTDEF
  5
95
330
8F
100
AcDbEntity
  8
AM_6
100
AcDbText
 10
6.667130032310628
 20
-0.78125
 30
0.0
 40
0.5
  1
405015E-Inch
100
AcDbAttributeDefinition
  3

  2
NB
 70
     8
280
     0
  0
ATTDEF
  5
96
330
8F
100
AcDbEntity
  8
AM_6
100
AcDbText
 10
6.667130032310628
 20
-1.28125
 30
0.0
 40
0.5
  1
$MN.-Inch
100
AcDbAttributeDefinition
  3

  2
NBSYN
 70
     8
280
     0
  0
ATTDEF
  5
97
330
8F
100
AcDbEntity
  8
AM_6
100
AcDbText
 10
6.667130032310628
 20
-1.78125
 30
0.0
 40
0.5
  1
405015E
100
AcDbAttributeDefinition
  3

  2
LINA
 70
     8
280
     0
  0
ATTDEF
  5
98
330
8F
100
AcDbEntity
  8
AM_6
100
AcDbText
 10
6.667130032310628
 20
-2.28125
 30
0.0
 40
0.5
  1
405015E
100
AcDbAttributeDefinition
  3

  2
MN
 70
     8
280
     0
  0
ATTDEF
  5
99
330
8F
100
AcDbEntity
  8
AM_6
100
AcDbText
 10
6.667130032310628
 20
-2.78125
 30
0.0
 40
0.5
  1
1/8 x 27PTF
100
AcDbAttributeDefinition
  3

  2
T
 70
     8
280
     0
  0
ATTDEF
  5
9A
330
8F
100
AcDbEntity
  8
AM_6
100
AcDbText
 10
6.667130032310628
 20
-3.28125
 30
0.0
 40
0.5
  1
baldor
100
AcDbAttributeDefinition
  3

  2
COMPANY
 70
     8
280
     0
  0
LWPOLYLINE
  5
9D
330
8F
100
AcDbEntity
  8
AM_9
100
AcDbPolyline
 90
        3
 70
     0
 43
0.0
 10
1.463317218939164
 20
0.1093750000000001
 10
1.487335673106966
 20
0.0546875000000001
 10
1.51438113694321
 20
0.0000000000000001
  0
LWPOLYLINE
  5
9E
330
8F
100
AcDbEntity
  8
AM_9
100
AcDbPolyline
 90
        3
 70
     0
 43
0.0
 10
1.51438113694321
 20
0.0000000000000001
 10
1.487451008349348
 20
-0.0544416102741495
 10
1.463317218939164
 20
-0.1093749999999999
  0
ELLIPSE
  5
9F
330
8F
100
AcDbEntity
  8
AM_9
100
AcDbEllipse
 10
1.141977451616274
 20
0.0000000000000001
 30
0.0
 11
9.913691727296317E-18
 21
0.161902872472269
 31
0.0
210
0.0
220
0.0
230
1.0
 40
0.7071067811865478
 41
0.0
 42
6.283185307179586
  0
LWPOLYLINE
  5
A0
330
8F
100
AcDbEntity
  8
AM_9
100
AcDbPolyline
 90
        3
 70
     0
 43
0.0
 10
1.572268292592742
 20
0.0000000000000001
 10
1.554747032537562
 20
0.0544416102741496
 10
1.534027897057819
 20
0.109375
  0
LWPOLYLINE
  5
A1
330
8F
100
AcDbEntity
  8
AM_9
100
AcDbPolyline
 90
        3
 70
     0
 43
0.0
 10
1.534027897057819
 20
-0.1093749999999999
 10
1.554661599659501
 20
-0.0546874999999999
 10
1.572268292592742
 20
0.0000000000000001
  0
LWPOLYLINE
  5
A2
330
8F
100
AcDbEntity
  8
AM_9
100
AcDbPolyline
 90
        3
 70
     0
 43
0.0
 10
1.463317218939164
 20
-0.1093749999999999
 10
1.442683516337481
 20
-0.1640624999999999
 10
1.42507682340424
 20
-0.2187499999999999
  0
LINE
  5
A3
330
8F
100
AcDbEntity
  8
AM_9
100
AcDbLine
 10
1.572268292592742
 20
0.0000000000000001
 30
0.0
 11
1.51438113694321
 21
0.0000000000000001
 31
0.0
  0
LWPOLYLINE
  5
A4
330
8F
100
AcDbEntity
  8
AM_9
100
AcDbPolyline
 90
        3
 70
     0
 43
0.0
 10
1.42507682340424
 20
0.2187500000000001
 10
1.442598083459421
 20
0.1643083897258505
 10
1.463317218939164
 20
0.1093750000000001
  0
LINE
  5
A5
330
8F
100
AcDbEntity
  8
AM_9
100
AcDbLine
 10
1.534027897057819
 20
0.109375
 30
0.0
 11
1.524196119424406
 21
0.1326917576625792
 31
0.0
  0
LINE
  5
A6
330
8F
100
AcDbEntity
  8
AM_9
100
AcDbLine
 10
1.524063531748246
 20
-0.1329964545693766
 30
0.0
 11
1.534027897057819
 21
-0.1093749999999999
 31
0.0
  0
LINE
  5
A7
330
8F
100
AcDbEntity
  8
AM_9
100
AcDbLine
 10
1.163549613064701
 20
-0.1985206121313388
 30
0.0
 11
1.324806235963002
 21
-0.2056510543625063
 31
0.0
  0
LINE
  5
A8
330
8F
100
AcDbEntity
  8
AM_9
100
AcDbLine
 10
1.324806235963002
 20
0.2056510543625065
 30
0.0
 11
1.163549613064701
 21
0.1985206121313389
 31
0.0
  0
ELLIPSE
  5
A9
330
8F
100
AcDbEntity
  8
AM_9
100
AcDbEllipse
 10
1.400071426749382
 20
0.0000000000000164
 30
0.0
 11
-4.018372309701691E-17
 21
-0.2187499999999694
 31
0.0
210
0.0
220
0.0
230
1.0
 40
0.7071067811865475
 41
0.915693601714545
 42
2.225899051875129
  0
LINE
  5
AA
330
8F
100
AcDbEntity
  8
AM_9
100
AcDbLine
 10
1.506137443927346
 20
0.0948683298050515
 30
0.0
 11
1.48752357749828
 21
0.107354891002899
 31
0.0
  0
LINE
  5
AB
330
8F
100
AcDbEntity
  8
AM_9
100
AcDbLine
 10
1.48752357749828
 20
-0.1073548910028989
 30
0.0
 11
1.506137443927346
 21
-0.0948683298050513
 31
0.0
  0
ELLIPSE
  5
AC
330
8F
100
AcDbEntity
  8
AM_9
100
AcDbEllipse
 10
1.474317638773951
 20
-0.0000000000000002
 30
0.0
 11
-1.928818708657072E-17
 21
-0.1049999999999995
 31
0.0
210
0.0
220
0.0
230
1.0
 40
0.7071067811865506
 41
0.0
 42
3.141592653589793
  0
ELLIPSE
  5
AD
330
8F
100
AcDbEntity
  8
AM_9
100
AcDbEllipse
 10
1.400071426749365
 20
-0.0000000000000011
 30
0.0
 11
-3.926523799766155E-17
 21
-0.2137499999999975
 31
0.0
210
0.0
220
0.0
230
1.0
 40
0.7071067811865486
 41
0.9036552188403686
 42
2.237937434749433
  0
LINE
  5
AE
330
8F
100
AcDbEntity
  8
AM_9
100
AcDbLine
 10
1.475636629656489
 20
-0.1049999999999999
 30
0.0
 11
1.495530842209547
 21
-0.1049999999999999
 31
0.0
  0
LINE
  5
AF
330
8F
100
AcDbEntity
  8
AM_9
100
AcDbLine
 10
1.495530842209547
 20
0.1050000000000001
 30
0.0
 11
1.475636629656489
 21
0.1050000000000001
 31
0.0
  0
ELLIPSE
  5
B0
330
8F
100
AcDbEntity
  8
AM_9
100
AcDbEllipse
 10
1.495530842209548
 20
0.0
 30
0.0
 11
-1.928818708657078E-17
 21
-0.1049999999999998
 31
0.0
210
0.0
220
0.0
230
1.0
 40
0.7071067811865465
 41
5.759586531581284
 42
9.948376736367681
  0
ELLIPSE
  5
B1
330
8F
100
AcDbEntity
  8
AM_9
100
AcDbEllipse
 10
1.451515652398395
 20
0.0000000000000052
 30
0.0
 11
-2.182689656892080E-17
 21
-0.1188200907348281
 31
0.0
210
0.0
220
0.0
230
1.0
 40
0.7071067811865485
 41
0.3762206261003609
 42
2.765372027489402
  0
LINE
  5
B2
330
8F
100
AcDbEntity
  8
AM_9
100
AcDbLine
 10
1.534421365718024
 20
0.0192743186691521
 30
0.0
 11
1.533408525527032
 21
0.0279874918769155
 31
0.0
  0
LINE
  5
B3
330
8F
100
AcDbEntity
  8
AM_9
100
AcDbLine
 10
1.533408525527032
 20
-0.0279874918769153
 30
0.0
 11
1.534421365718024
 21
-0.0192743186691519
 31
0.0
  0
ELLIPSE
  5
B4
330
8F
100
AcDbEntity
  8
AM_9
100
AcDbEllipse
 10
1.413024349156743
 20
0.000000000000001
 30
0.0
 11
-3.169399141454485E-17
 21
-0.172534053283017
 31
0.0
210
0.0
220
0.0
230
1.0
 40
0.707106781186541
 41
0.7772913431420809
 42
2.364301310447706
  0
ELLIPSE
  5
B5
330
8F
100
AcDbEntity
  8
AM_9
100
AcDbEllipse
 10
1.53795724908074
 20
0.0000000000000002
 30
0.0
 11
-2.479909768273386E-17
 21
-0.1349999999999998
 31
0.0
210
0.0
220
0.0
230
1.0
 40
0.7071067811865476
 41
0.4159140521025471
 42
2.725678601487247
  0
ELLIPSE
  5
B6
330
8F
100
AcDbEntity
  8
AM_9
100
AcDbEllipse
 10
1.329360748630709
 20
0.0000000000000003
 30
0.0
 11
-3.779601035290904E-17
 21
-0.2057518972230692
 31
0.0
210
0.0
220
0.0
230
1.0
 40
0.7071067811865462
 41
0.0
 42
6.283185307179586
  0
ELLIPSE
  5
B7
330
8F
100
AcDbEntity
  8
AM_9
100
AcDbEllipse
 10
1.167938703357728
 20
0.0000000000000002
 30
0.0
 11
-3.648546613377884E-17
 21
-0.1986176267812153
 31
0.0
210
0.0
220
0.0
230
1.0
 40
0.7071067811865481
 41
0.0
 42
6.283185307179586
  0
ELLIPSE
  5
B8
330
8F
100
AcDbEntity
  8
AM_9
100
AcDbEllipse
 10
1.32936074863071
 20
0.0000000000000005
 30
0.0
 11
-4.018372309702244E-17
 21
-0.2187499999999995
 31
0.0
210
0.0
220
0.0
230
1.0
 40
0.7071067811865507
 41
0.0
 42
6.283185307179586
  0
LWPOLYLINE
  5
BA
330
8F
100
AcDbEntity
  8
AM_4
100
AcDbPolyline
 90
        3
 70
     0
 43
0.0
 10
1.524196119424406
 20
0.1326917576625792
 10
1.510009442890017
 20
0.1640625
 10
1.482963979053773
 20
0.2187500000000001
  0
LWPOLYLINE
  5
BB
330
8F
100
AcDbEntity
  8
AM_4
100
AcDbPolyline
 90
        3
 70
     0
 43
0.0
 10
1.482963979053773
 20
-0.2187499999999999
 10
1.509894107647635
 20
-0.1643083897258503
 10
1.524063531748246
 20
-0.1329964545693766
  0
ELLIPSE
  5
BC
330
8F
100
AcDbEntity
  8
AM_4
100
AcDbEllipse
 10
1.400071426749363
 20
0.000000000000001
 30
0.0
 11
-4.018372309702234E-17
 21
-0.218749999999999
 31
0.0
210
0.0
220
0.0
230
1.0
 40
0.7071067811865493
 41
2.225899051875114
 42
7.19887890889426
  0
ELLIPSE
  5
BD
330
8F
100
AcDbEntity
  8
AM_4
100
AcDbEllipse
 10
1.451515652398346
 20
0.0000000000000001
 30
0.0
 11
-2.182689656893357E-17
 21
-0.1188200907348977
 31
0.0
210
0.0
220
0.0
230
1.0
 40
0.7071067811865475
 41
2.765372027488874
 42
6.659405933280507
  0
ELLIPSE
  5
BE
330
8F
100
AcDbEntity
  8
AM_4
100
AcDbEllipse
 10
1.400071426749363
 20
0.0000000000000001
 30
0.0
 11
-3.926523799766202E-17
 21
-0.2137500000000001
 31
0.0
210
0.0
220
0.0
230
1.0
 40
0.7071067811865475
 41
2.237937434749421
 42
7.186840526019957
  0
LINE
  5
BF
330
8F
100
AcDbEntity
  8
AM_4
100
AcDbLine
 10
1.474317638773951
 20
-0.1049999999999999
 30
0.0
 11
1.475636629656489
 21
-0.1049999999999999
 31
0.0
  0
LINE
  5
C0
330
8F
100
AcDbEntity
  8
AM_4
100
AcDbLine
 10
1.475636629656489
 20
0.1050000000000001
 30
0.0
 11
1.474317638773951
 21
0.1050000000000001
 31
0.0
  0
ELLIPSE
  5
C1
330
8F
100
AcDbEntity
  8
AM_4
100
AcDbEllipse
 10
1.474317638773951
 20
0.0000000000000001
 30
0.0
 11
-1.928818708657087E-17
 21
-0.1050000000000003
 31
0.0
210
0.0
220
0.0
230
1.0
 40
0.7071067811865474
 41
3.141592653589793
 42
6.283185307179586
  0
ELLIPSE
  5
C2
330
8F
100
AcDbEntity
  8
AM_4
100
AcDbEllipse
 10
1.413024349156743
 20
0.0000000000000001
 30
0.0
 11
-3.169399141454455E-17
 21
-0.1725340532830154
 31
0.0
210
0.0
220
0.0
230
1.0
 40
0.7071067811865475
 41
2.364301310447714
 42
7.060476650321666
  0
LINE
  5
C3
330
8F
100
AcDbEntity
  8
AM_4
100
AcDbLine
 10
1.482963979053773
 20
-0.2187499999999999
 30
0.0
 11
1.2464681963263
 21
-0.2187499999999999
 31
0.0
  0
LWPOLYLINE
  5
C4
330
8F
100
AcDbEntity
  8
AM_4
100
AcDbPolyline
 90
        3
 70
     0
 43
0.0
 10
1.266114956440908
 20
-0.1093749999999999
 10
1.286748659042591
 20
-0.1640624999999999
 10
1.304355351975832
 20
-0.2187499999999999
  0
LWPOLYLINE
  5
C5
330
8F
100
AcDbEntity
  8
AM_4
100
AcDbPolyline
 90
        3
 70
     0
 43
0.0
 10
1.195404278322254
 20
-0.1093749999999999
 10
1.174770575720571
 20
-0.0546874999999999
 10
1.15716388278733
 20
0.0000000000000001
  0
LWPOLYLINE
  5
C6
330
8F
100
AcDbEntity
  8
AM_4
100
AcDbPolyline
 90
        3
 70
     0
 43
0.0
 10
1.2464681963263
 20
-0.2187499999999999
 10
1.219538067732438
 20
-0.1643083897258503
 10
1.195404278322254
 20
-0.1093749999999999
  0
LWPOLYLINE
  5
C7
330
8F
100
AcDbEntity
  8
AM_4
100
AcDbPolyline
 90
        3
 70
     0
 43
0.0
 10
1.215051038436862
 20
0.0000000000000001
 10
1.241981167030724
 20
-0.0544416102741495
 10
1.266114956440908
 20
-0.1093749999999999
  0
LINE
  5
C8
330
8F
100
AcDbEntity
  8
AM_4
100
AcDbLine
 10
1.215051038436862
 20
0.0000000000000001
 30
0.0
 11
1.15716388278733
 21
0.0000000000000001
 31
0.0
  0
LWPOLYLINE
  5
C9
330
8F
100
AcDbEntity
  8
AM_4
100
AcDbPolyline
 90
        3
 70
     0
 43
0.0
 10
1.266114956440908
 20
0.109375
 10
1.242096502273106
 20
0.0546875
 10
1.215051038436862
 20
0.0000000000000001
  0
LWPOLYLINE
  5
CA
330
8F
100
AcDbEntity
  8
AM_4
100
AcDbPolyline
 90
        3
 70
     0
 43
0.0
 10
1.304355351975832
 20
0.2187500000000001
 10
1.286834091920652
 20
0.1643083897258504
 10
1.266114956440908
 20
0.109375
  0
LINE
  5
CB
330
8F
100
AcDbEntity
  8
AM_4
100
AcDbLine
 10
1.482963979053773
 20
0.2187500000000001
 30
0.0
 11
1.2464681963263
 21
0.2187500000000001
 31
0.0
  0
LWPOLYLINE
  5
CC
330
8F
100
AcDbEntity
  8
AM_4
100
AcDbPolyline
 90
        3
 70
     0
 43
0.0
 10
1.195404278322254
 20
0.1093750000000001
 10
1.219422732490056
 20
0.1640625
 10
1.2464681963263
 20
0.2187500000000001
  0
LWPOLYLINE
  5
CD
330
8F
100
AcDbEntity
  8
AM_4
100
AcDbPolyline
 90
        3
 70
     0
 43
0.0
 10
1.15716388278733
 20
0.0000000000000001
 10
1.174685142842511
 20
0.0544416102741497
 10
1.195404278322254
 20
0.1093750000000001
  0
LINE
  5
CE
330
8F
100
AcDbEntity
  8
AM_4
100
AcDbLine
 10
1.458407736197254
 20
-0.0909326673973659
 30
0.0
 11
1.490227541350648
 21
-0.1169134295108991
 31
0.0
  0
LINE
  5
CF
330
8F
100
AcDbEntity
  8
AM_4
100
AcDbLine
 10
1.490227541350648
 20
0.1169134295108993
 30
0.0
 11
1.458407736197254
 21
0.0909326673973661
 31
0.0
  0
ELLIPSE
  5
D0
330
8F
100
AcDbEntity
  8
AM_4
100
AcDbEllipse
 10
1.53795724908074
 20
0.0000000000000001
 30
0.0
 11
-2.479909768273389E-17
 21
-0.135
 31
0.0
210
0.0
220
0.0
230
1.0
 40
0.7071067811865467
 41
2.725678601487244
 42
6.699099359282135
  0
ELLIPSE
  5
D1
330
8F
100
AcDbEntity
  8
AM_4
100
AcDbEllipse
 10
1.495530842209547
 20
0.0000000000000002
 30
0.0
 11
-1.928818708657078E-17
 21
-0.1049999999999998
 31
0.0
210
0.0
220
0.0
230
1.0
 40
0.7071067811865486
 41
3.665191429188091
 42
5.75958653158129
  0
LINE
  5
D2
330
8F
100
AcDbEntity
  8
AM_4
100
AcDbLine
 10
1.623859808939439
 20
0.0939243440009288
 30
0.0
 11
1.576525356429549
 21
0.1234908992236336
 31
0.0
  0
LINE
  5
D3
330
8F
100
AcDbEntity
  8
AM_4
100
AcDbLine
 10
1.576525356429549
 20
-0.1234908992236334
 30
0.0
 11
1.623859808939439
 21
-0.0939243440009286
 31
0.0
  0
ELLIPSE
  5
D4
330
8F
100
AcDbEntity
  8
AM_4
100
AcDbEllipse
 10
1.594525791575663
 20
0.0000000000000001
 30
0.0
 11
-1.886162459184658E-17
 21
-0.1026779019331875
 31
0.0
210
0.0
220
0.0
230
1.0
 40
0.7071067811865528
 41
0.0
 42
6.283185307179586
  0
ENDBLK
  5
92
330
8F
100
AcDbEntity
  8
0
100
AcDbBlockEnd
  0
BLOCK
  5
D7
330
D5
100
AcDbEntity
  8
0
100
AcDbBlockBegin
  2
3_131915_0_in_131840_4
 70
     2
 10
0.0
 20
0.0
 30
0.0
  3
3_131915_0_in_131840_4
  1

  0
ATTDEF
  5
D9
330
D5
100
AcDbEntity
  8
AM_6
100
AcDbText
 10
6.51763375
 20
0.67
 30
0.0
 40
0.5
  1
Eccentric Collar Insert Inch Bore
100
AcDbAttributeDefinition
  3

  2
NN
 70
     8
280
     0
  0
ATTDEF
  5
DA
330
D5
100
AcDbEntity
  8
AM_6
100
AcDbText
 10
6.51763375
 20
0.17
 30
0.0
 40
0.5
  1
SXR Normal Duty Bearing Inserts
100
AcDbAttributeDefinition
  3

  2
NT
 70
     8
280
     0
  0
ATTDEF
  5
DB
330
D5
100
AcDbEntity
  8
AM_6
100
AcDbText
 10
6.51763375
 20
-0.33
 30
0.0
 40
0.5
  1
131915
100
AcDbAttributeDefinition
  3

  2
NB
 70
     8
280
     0
  0
ATTDEF
  5
DC
330
D5
100
AcDbEntity
  8
AM_6
100
AcDbText
 10
6.51763375
 20
-0.83
 30
0.0
 40
0.5
  1
$PN.
100
AcDbAttributeDefinition
  3

  2
NBSYN
 70
     8
280
     0
  0
ATTDEF
  5
DD
330
D5
100
AcDbEntity
  8
AM_6
100
AcDbText
 10
6.51763375
 20
-1.33
 30
0.0
 40
0.5
  1
131915
100
AcDbAttributeDefinition
  3

  2
LINA
 70
     8
280
     0
  0
ATTDEF
  5
DE
330
D5
100
AcDbEntity
  8
AM_6
100
AcDbText
 10
6.51763375
 20
-1.83
 30
0.0
 40
0.5
  1
207
100
AcDbAttributeDefinition
  3

  2
SERIES
 70
     8
280
     0
  0
ATTDEF
  5
DF
330
D5
100
AcDbEntity
  8
AM_6
100
AcDbText
 10
6.51763375
 20
-2.33
 30
0.0
 40
0.5
  1
1-7/16
100
AcDbAttributeDefinition
  3

  2
SS
 70
     8
280
     0
  0
ATTDEF
  5
E0
330
D5
100
AcDbEntity
  8
AM_6
100
AcDbText
 10
6.51763375
 20
-2.83
 30
0.0
 40
0.5
  1
131915
100
AcDbAttributeDefinition
  3

  2
PN
 70
     8
280
     0
  0
ATTDEF
  5
E1
330
D5
100
AcDbEntity
  8
AM_6
100
AcDbText
 10
6.51763375
 20
-3.33
 30
0.0
 40
0.5
  1
INS-SXR-107
100
AcDbAttributeDefinition
  3

  2
DESCRIPTION
 70
     8
280
     0
  0
ATTDEF
  5
E2
330
D5
100
AcDbEntity
  8
AM_6
100
AcDbText
 10
6.51763375
 20
-3.83
 30
0.0
 40
0.5
  1
1.2
100
AcDbAttributeDefinition
  3

  2
WEIGHT
 70
     8
280
     0
  0
ATTDEF
  5
E3
330
D5
100
AcDbEntity
  8
AM_6
100
AcDbText
 10
6.51763375
 20
-4.33
 30
0.0
 40
0.5
  1
1.95
100
AcDbAttributeDefinition
  3

  2
A
 70
     8
280
     0
  0
ATTDEF
  5
E4
330
D5
100
AcDbEntity
  8
AM_6
100
AcDbText
 10
6.51763375
 20
-4.83
 30
0.0
 40
0.5
  1
0.75
100
AcDbAttributeDefinition
  3

  2
C
 70
     8
280
     0
  0
ATTDEF
  5
E5
330
D5
100
AcDbEntity
  8
AM_6
100
AcDbText
 10
6.51763375
 20
-5.33
 30
0.0
 40
0.5
  1
2.8346
100
AcDbAttributeDefinition
  3

  2
D
 70
     8
280
     0
  0
ATTDEF
  5
E6
330
D5
100
AcDbEntity
  8
AM_6
100
AcDbText
 10
6.51763375
 20
-5.83
 30
0.0
 40
0.5
  1
0.20
100
AcDbAttributeDefinition
  3

  2
J
 70
     8
280
     0
  0
ATTDEF
  5
E7
330
D5
100
AcDbEntity
  8
AM_6
100
AcDbText
 10
6.51763375
 20
-6.33
 30
0.0
 40
0.5
  1
2.13
100
AcDbAttributeDefinition
  3

  2
L
 70
     8
280
     0
  0
ATTDEF
  5
E8
330
D5
100
AcDbEntity
  8
AM_6
100
AcDbText
 10
6.51763375
 20
-6.83
 30
0.0
 40
0.5
  1
5/16 - 24
100
AcDbAttributeDefinition
  3

  2
N
 70
     8
280
     0
  0
ATTDEF
  5
E9
330
D5
100
AcDbEntity
  8
AM_6
100
AcDbText
 10
6.51763375
 20
-7.33
 30
0.0
 40
0.5
  1
0.67
100
AcDbAttributeDefinition
  3

  2
W
 70
     8
280
     0
  0
ATTDEF
  5
EA
330
D5
100
AcDbEntity
  8
AM_6
100
AcDbText
 10
6.51763375
 20
-7.83
 30
0.0
 40
0.5
  1
1.28
100
AcDbAttributeDefinition
  3

  2
Y
 70
     8
280
     0
  0
ATTDEF
  5
EB
330
D5
100
AcDbEntity
  8
AM_6
100
AcDbText
 10
6.51763375
 20
-8.33
 30
0.0
 40
0.5
  1
1.84
100
AcDbAttributeDefinition
  3

  2
Z
 70
     8
280
     0
  0
ATTDEF
  5
EC
330
D5
100
AcDbEntity
  8
AM_6
100
AcDbText
 10
6.51763375
 20
-8.83
 30
0.0
 40
0.5
  1
baldor
100
AcDbAttributeDefinition
  3

  2
COMPANY
 70
     8
280
     0
  0
ARC
  5
ED
330
D5
100
AcDbEntity
  8
AM_9
100
AcDbCircle
 10
1.385008333333334
 20
0.2000000000000011
 30
0.0
 40
0.1041666666666657
100
AcDbArc
 50
286.0316873222654
 51
90.0
  0
LINE
  5
EE
330
D5
100
AcDbEntity
  8
AM_9
100
AcDbLine
 10
1.385008333333333
 20
0.3041666666666667
 30
0.0
 11
1.385008333333333
 21
0.2991012803818007
 31
0.0
  0
LINE
  5
EF
330
D5
100
AcDbEntity
  8
AM_9
100
AcDbLine
 10
0.7187500000000001
 20
-0.800643398282202
 30
0.0
 11
0.7187500000000001
 21
0.655
 31
0.0
  0
LINE
  5
F0
330
D5
100
AcDbEntity
  8
AM_9
100
AcDbLine
 10
-0.7187500000000001
 20
0.655
 30
0.0
 11
-0.7187500000000001
 21
-0.800643398282202
 31
0.0
  0
LINE
  5
F1
330
D5
100
AcDbEntity
  8
AM_9
100
AcDbLine
 10
0.7187500000000001
 20
-1.265
 30
0.0
 11
0.7187500000000001
 21
-0.8218566017177983
 31
0.0
  0
LINE
  5
F2
330
D5
100
AcDbEntity
  8
AM_9
100
AcDbLine
 10
-0.7187500000000001
 20
-0.8218566017177983
 30
0.0
 11
-0.7187500000000001
 21
-1.265
 31
0.0
  0
LINE
  5
F3
330
D5
100
AcDbEntity
  8
AM_9
100
AcDbLine
 10
-0.7187500000000001
 20
-0.800643398282202
 30
0.0
 11
0.7187500000000001
 21
-0.800643398282202
 31
0.0
  0
LINE
  5
F4
330
D5
100
AcDbEntity
  8
AM_9
100
AcDbLine
 10
-0.7187500000000001
 20
-0.800643398282202
 30
0.0
 11
-0.7293566017177984
 21
-0.8112499999999998
 31
0.0
  0
LINE
  5
F5
330
D5
100
AcDbEntity
  8
AM_9
100
AcDbLine
 10
0.7293566017177984
 20
-0.8112499999999998
 30
0.0
 11
0.7187500000000001
 21
-0.800643398282202
 31
0.0
  0
LINE
  5
F6
330
D5
100
AcDbEntity
  8
AM_9
100
AcDbLine
 10
-0.7293566017177984
 20
-0.8112499999999998
 30
0.0
 11
0.7293566017177984
 21
-0.8112499999999998
 31
0.0
  0
LINE
  5
F7
330
D5
100
AcDbEntity
  8
AM_9
100
AcDbLine
 10
-0.7187500000000001
 20
-0.8218566017177983
 30
0.0
 11
0.7187500000000001
 21
-0.8218566017177983
 31
0.0
  0
LINE
  5
F8
330
D5
100
AcDbEntity
  8
AM_9
100
AcDbLine
 10
0.7187500000000001
 20
-0.8218566017177983
 30
0.0
 11
0.7293566017177984
 21
-0.8112499999999998
 31
0.0
  0
LINE
  5
F9
330
D5
100
AcDbEntity
  8
AM_9
100
AcDbLine
 10
-0.7293566017177984
 20
-0.8112499999999998
 30
0.0
 11
-0.7187500000000001
 21
-0.8218566017177983
 31
0.0
  0
LINE
  5
FA
330
D5
100
AcDbEntity
  8
AM_9
100
AcDbLine
 10
0.71875
 20
0.655
 30
0.0
 11
0.73375
 21
0.67
 31
0.0
  0
LINE
  5
FB
330
D5
100
AcDbEntity
  8
AM_9
100
AcDbLine
 10
-0.73375
 20
0.67
 30
0.0
 11
-0.71875
 21
0.655
 31
0.0
  0
LINE
  5
FC
330
D5
100
AcDbEntity
  8
AM_9
100
AcDbLine
 10
-0.7187500000000001
 20
-1.265
 30
0.0
 11
0.7187500000000001
 21
-1.265
 31
0.0
  0
LINE
  5
FD
330
D5
100
AcDbEntity
  8
AM_9
100
AcDbLine
 10
-0.7187500000000001
 20
-1.265
 30
0.0
 11
-0.73375
 21
-1.28
 31
0.0
  0
LINE
  5
FE
330
D5
100
AcDbEntity
  8
AM_9
100
AcDbLine
 10
0.73375
 20
-1.28
 30
0.0
 11
0.7187500000000001
 21
-1.265
 31
0.0
  0
LINE
  5
FF
330
D5
100
AcDbEntity
  8
AM_9
100
AcDbLine
 10
0.92
 20
-0.5529023680485283
 30
0.0
 11
0.92
 21
-0.3749999999999999
 31
0.0
  0
LINE
  5
100
330
D5
100
AcDbEntity
  8
AM_9
100
AcDbLine
 10
-0.92
 20
-0.3749999999999999
 30
0.0
 11
-0.92
 21
-0.5529023680485283
 31
0.0
  0
LINE
  5
101
330
D5
100
AcDbEntity
  8
AM_9
100
AcDbLine
 10
0.9200000000000003
 20
0.3749999999999999
 30
0.0
 11
0.9200000000000003
 21
0.5529023680485287
 31
0.0
  0
LINE
  5
102
330
D5
100
AcDbEntity
  8
AM_9
100
AcDbLine
 10
-0.9200000000000003
 20
0.5529023680485287
 30
0.0
 11
-0.9200000000000003
 21
0.3749999999999999
 31
0.0
  0
LINE
  5
103
330
D5
100
AcDbEntity
  8
AM_9
100
AcDbLine
 10
1.349809523809524
 20
-0.24
 30
0.0
 11
1.349809523809524
 21
-0.1600000000000001
 31
0.0
  0
LINE
  5
104
330
D5
100
AcDbEntity
  8
AM_9
100
AcDbLine
 10
-1.349809523809524
 20
-0.1600000000000001
 30
0.0
 11
-1.349809523809524
 21
-0.24
 31
0.0
  0
LINE
  5
105
330
D5
100
AcDbEntity
  8
AM_9
100
AcDbLine
 10
-1.343717340068215
 20
-0.3750000000000001
 30
0.0
 11
1.343717340063222
 21
-0.3750000000000001
 31
0.0
  0
ARC
  5
106
330
D5
100
AcDbEntity
  8
AM_9
100
AcDbCircle
 10
1.343717340068215
 20
-0.3450000000000001
 30
0.0
 40
0.03
100
AcDbArc
 50
270.0
 51
345.6003189653798
  0
ARC
  5
107
330
D5
100
AcDbEntity
  8
AM_9
100
AcDbCircle
 10
-1.343717340068215
 20
-0.345
 30
0.0
 40
0.0300000000000001
100
AcDbArc
 50
194.3996810346203
 51
270.0
  0
LINE
  5
108
330
D5
100
AcDbEntity
  8
AM_9
100
AcDbLine
 10
-1.343717340068215
 20
0.3749999999999999
 30
0.0
 11
1.343717340063223
 21
0.3749999999999999
 31
0.0
  0
ARC
  5
109
330
D5
100
AcDbEntity
  8
AM_9
100
AcDbCircle
 10
1.343717340068215
 20
0.3450000000000001
 30
0.0
 40
0.0299999999999999
100
AcDbArc
 50
14.39967851916593
 51
90.0
  0
ARC
  5
10A
330
D5
100
AcDbEntity
  8
AM_9
100
AcDbCircle
 10
-1.343717340068215
 20
0.3450000000000001
 30
0.0
 40
0.0299999999999999
100
AcDbArc
 50
90.0
 51
165.6003214808341
  0
LINE
  5
10B
330
D5
100
AcDbEntity
  8
AM_9
100
AcDbLine
 10
-1.396831876068126
 20
-0.24
 30
0.0
 11
1.396831876067967
 21
-0.24
 31
0.0
  0
LINE
  5
10C
330
D5
100
AcDbEntity
  8
AM_9
100
AcDbLine
 10
-1.372774876435293
 20
-0.3524605348518704
 30
0.0
 11
1.372774876435134
 21
-0.3524605348518704
 31
0.0
  0
ARC
  5
10D
330
D5
100
AcDbEntity
  8
AM_9
100
AcDbCircle
 10
-0.0000000001847484
 20
0.0000000000394841
 30
0.0
 40
1.41730000018861
100
AcDbArc
 50
345.600318965689
 51
350.2507814747765
  0
ARC
  5
10E
330
D5
100
AcDbEntity
  8
AM_9
100
AcDbCircle
 10
0.0000000001847484
 20
0.0000000000394841
 30
0.0
 40
1.41730000018861
100
AcDbArc
 50
189.7492185252236
 51
194.399681034311
  0
LINE
  5
10F
330
D5
100
AcDbEntity
  8
AM_9
100
AcDbLine
 10
-1.40823978426971
 20
-0.1600000000000001
 30
0.0
 11
1.408239784269699
 21
-0.1600000000000001
 31
0.0
  0
LINE
  5
110
330
D5
100
AcDbEntity
  8
AM_9
100
AcDbLine
 10
-1.372774876762832
 20
0.3524605335761585
 30
0.0
 11
1.372774876762821
 21
0.3524605335761585
 31
0.0
  0
LINE
  5
111
330
D5
100
AcDbEntity
  8
AM_9
100
AcDbLine
 10
1.384276680765535
 20
0.3041666666106223
 30
0.0
 11
1.413775930999521
 21
0.0998844678935361
 31
0.0
  0
ARC
  5
112
330
D5
100
AcDbEntity
  8
AM_9
100
AcDbCircle
 10
-0.0000000000012743
 20
-0.0000000000000302
 30
0.0
 40
1.417300000001252
100
AcDbArc
 50
353.518020799489
 51
4.041280241824961
  0
ARC
  5
113
330
D5
100
AcDbEntity
  8
AM_9
100
AcDbCircle
 10
-0.000000000032601
 20
-0.0000000000074579
 30
0.0
 40
1.417300000033421
100
AcDbArc
 50
12.38662072940957
 51
14.39968098134045
  0
ARC
  5
114
330
D5
100
AcDbEntity
  8
AM_9
100
AcDbCircle
 10
0.0000000000006375
 20
-0.0000000000000427
 30
0.0
 40
1.417300000000617
100
AcDbArc
 50
165.6003190186286
 51
186.4819792005134
  0
LINE
  5
117
330
D5
100
AcDbEntity
  8
AM_7
100
AcDbLine
 10
0.8915412500000001
 20
0.2
 30
0.0
 11
1.51763375
 21
0.2
 31
0.0
  0
LINE
  5
118
330
D5
100
AcDbEntity
  8
AM_4
100
AcDbLine
 10
0.8761904761904761
 20
-0.7487500000000001
 30
0.0
 11
0.8761904761904761
 21
-0.7175
 31
0.0
  0
LINE
  5
119
330
D5
100
AcDbEntity
  8
AM_4
100
AcDbLine
 10
-0.8761904761904761
 20
-0.7175
 30
0.0
 11
-0.8761904761904761
 21
-0.7487500000000001
 31
0.0
  0
LINE
  5
11A
330
D5
100
AcDbEntity
  8
AM_4
100
AcDbLine
 10
-0.9049999999999999
 20
0.67
 30
0.0
 11
0.9049999999999999
 21
0.67
 31
0.0
  0
LINE
  5
11B
330
D5
100
AcDbEntity
  8
AM_4
100
AcDbLine
 10
-0.9049999999999999
 20
0.67
 30
0.0
 11
-0.9199999999999999
 21
0.655
 31
0.0
  0
LINE
  5
11C
330
D5
100
AcDbEntity
  8
AM_4
100
AcDbLine
 10
0.9199999999999999
 20
0.655
 30
0.0
 11
0.9049999999999999
 21
0.67
 31
0.0
  0
LINE
  5
11D
330
D5
100
AcDbEntity
  8
AM_4
100
AcDbLine
 10
-0.905
 20
-0.7175000000000004
 30
0.0
 11
0.905
 21
-0.7175000000000004
 31
0.0
  0
LINE
  5
11E
330
D5
100
AcDbEntity
  8
AM_4
100
AcDbLine
 10
0.905
 20
-0.7175000000000004
 30
0.0
 11
0.92
 21
-0.7025000000000001
 31
0.0
  0
LINE
  5
11F
330
D5
100
AcDbEntity
  8
AM_4
100
AcDbLine
 10
-0.92
 20
-0.7025000000000001
 30
0.0
 11
-0.905
 21
-0.7175000000000004
 31
0.0
  0
LINE
  5
120
330
D5
100
AcDbEntity
  8
AM_4
100
AcDbLine
 10
-0.92
 20
-0.7025000000000001
 30
0.0
 11
0.92
 21
-0.7025000000000001
 31
0.0
  0
LINE
  5
121
330
D5
100
AcDbEntity
  8
AM_4
100
AcDbLine
 10
0.92
 20
-0.7025000000000001
 30
0.0
 11
0.92
 21
-0.5529023680485283
 31
0.0
  0
LINE
  5
122
330
D5
100
AcDbEntity
  8
AM_4
100
AcDbLine
 10
-0.92
 20
-0.5529023680485283
 30
0.0
 11
-0.92
 21
-0.7025000000000001
 31
0.0
  0
LINE
  5
123
330
D5
100
AcDbEntity
  8
AM_4
100
AcDbLine
 10
-0.9199999999999999
 20
0.655
 30
0.0
 11
0.9200000000000003
 21
0.655
 31
0.0
  0
LINE
  5
124
330
D5
100
AcDbEntity
  8
AM_4
100
AcDbLine
 10
0.9200000000000003
 20
0.5529023680485287
 30
0.0
 11
0.9200000000000003
 21
0.655
 31
0.0
  0
LINE
  5
125
330
D5
100
AcDbEntity
  8
AM_4
100
AcDbLine
 10
-0.9200000000000003
 20
0.655
 30
0.0
 11
-0.9200000000000003
 21
0.5529023680485287
 31
0.0
  0
LINE
  5
126
330
D5
100
AcDbEntity
  8
AM_4
100
AcDbLine
 10
-1.0259375
 20
-0.7487500000000001
 30
0.0
 11
1.025937499993155
 21
-0.7487500000000001
 31
0.0
  0
ARC
  5
127
330
D5
100
AcDbEntity
  8
AM_4
100
AcDbCircle
 10
1.0259375
 20
-0.7878125000000004
 30
0.0
 40
0.0390625
100
AcDbArc
 50
0.0
 51
90.0
  0
ARC
  5
128
330
D5
100
AcDbEntity
  8
AM_4
100
AcDbCircle
 10
-1.0259375
 20
-0.7878125000000004
 30
0.0
 40
0.0390625000000002
100
AcDbArc
 50
90.0
 51
180.0
  0
ARC
  5
129
330
D5
100
AcDbEntity
  8
AM_4
100
AcDbCircle
 10
-0.0000000000000001
 20
-1.045625
 30
0.0
 40
0.13935
100
AcDbArc
 50
38.01188056189672
 51
141.9881194381033
  0
ARC
  5
12A
330
D5
100
AcDbEntity
  8
AM_4
100
AcDbCircle
 10
0.0
 20
-1.045625
 30
0.0
 40
0.1393500000000001
100
AcDbArc
 50
218.0118805618967
 51
321.9881194381032
  0
LWPOLYLINE
  5
12B
330
D5
100
AcDbEntity
  8
AM_4
100
AcDbPolyline
 90
        9
 70
     0
 43
0.0
 10
-0.1097915066726101
 20
-1.131440194240637
 10
-0.12258875934368
 20
-1.111856308620511
 10
-0.1319589661683725
 20
-1.090405059711598
 10
-0.1375826537778091
 20
-1.067657790189631
 10
-0.1393435348149181
 20
-1.044282686592592
 10
-0.1371557269170321
 20
-1.021072423304522
 10
-0.1311592368301027
 20
-0.9985540206799873
 10
-0.1220101475087527
 20
-0.9783282704334848
 10
-0.1097915066726101
 20
-0.959809805759363
  0
LWPOLYLINE
  5
12C
330
D5
100
AcDbEntity
  8
AM_4
100
AcDbPolyline
 90
        9
 70
     0
 43
0.0
 10
0.1097915066726101
 20
-0.959809805759363
 10
0.12258875934368
 20
-0.9793936913794886
 10
0.1319589661683725
 20
-1.000844940288402
 10
0.1375826537778091
 20
-1.023592209810368
 10
0.1393435348149181
 20
-1.046967313407408
 10
0.1371557269170321
 20
-1.070177576695478
 10
0.1311592368301027
 20
-1.092695979320012
 10
0.1220101475087527
 20
-1.112921729566515
 10
0.1097915066726101
 20
-1.131440194240637
  0
LWPOLYLINE
  5
12D
330
D5
100
AcDbEntity
  8
AM_4
100
AcDbPolyline
 90
       14
 70
     0
 43
0.0
 10
-0.1097915066726101
 20
-0.959809805759363
 10
-0.1003456692506309
 20
-0.9475890924472662
 10
-0.0894988495954508
 20
-0.9363385594959927
 10
-0.0706824429429399
 20
-0.9216875301345111
 10
-0.0488517476900714
 20
-0.9102674023483508
 10
-0.0273906213060871
 20
-0.9035695148123252
 10
-0.0043516857935998
 20
-0.9006748454260087
 10
0.0169401672770107
 20
-0.901729092955767
 10
0.038359960180611
 20
-0.9064825828558264
 10
0.057973965204753
 20
-0.9144169158971328
 10
0.0765317454001315
 20
-0.9256920051444598
 10
0.0932735150801352
 20
-0.9399751902486815
 10
0.1079145504325035
 20
-0.9571566014888349
 10
0.10979150667261
 20
-0.959809805759363
  0
LWPOLYLINE
  5
12E
330
D5
100
AcDbEntity
  8
AM_4
100
AcDbPolyline
 90
       14
 70
     0
 43
0.0
 10
0.1097915066726101
 20
-1.131440194240637
 10
0.1003456692506312
 20
-1.143660907552733
 10
0.0894988495954512
 20
-1.154911440504006
 10
0.0706824429429404
 20
-1.169562469865488
 10
0.048851747690072
 20
-1.180982597651649
 10
0.0273906213060877
 20
-1.187680485187675
 10
0.0043516857936004
 20
-1.190575154573991
 10
-0.0169401672770101
 20
-1.189520907044233
 10
-0.0383599601806104
 20
-1.184767417144174
 10
-0.0579739652047525
 20
-1.176833084102867
 10
-0.076531745400131
 20
-1.165557994855541
 10
-0.0932735150801347
 20
-1.151274809751319
 10
-0.1079145504325032
 20
-1.134093398511165
 10
-0.1097915066726101
 20
-1.131440194240637
  0
LINE
  5
12F
330
D5
100
AcDbEntity
  8
AM_4
100
AcDbLine
 10
-1.065
 20
-0.7878125000000004
 30
0.0
 11
1.065
 21
-0.7878125000000004
 31
0.0
  0
LINE
  5
130
330
D5
100
AcDbEntity
  8
AM_4
100
AcDbLine
 10
1.065
 20
-1.2409375
 30
0.0
 11
1.065
 21
-0.7878125000000004
 31
0.0
  0
LINE
  5
131
330
D5
100
AcDbEntity
  8
AM_4
100
AcDbLine
 10
-1.065
 20
-0.7878125000000004
 30
0.0
 11
-1.065
 21
-1.2409375
 31
0.0
  0
LINE
  5
132
330
D5
100
AcDbEntity
  8
AM_4
100
AcDbLine
 10
-1.0259375
 20
-1.28
 30
0.0
 11
1.025937499993155
 21
-1.28
 31
0.0
  0
LINE
  5
133
330
D5
100
AcDbEntity
  8
AM_4
100
AcDbLine
 10
-1.065
 20
-1.2409375
 30
0.0
 11
1.065
 21
-1.2409375
 31
0.0
  0
ARC
  5
134
330
D5
100
AcDbEntity
  8
AM_4
100
AcDbCircle
 10
1.0259375
 20
-1.2409375
 30
0.0
 40
0.0390625
100
AcDbArc
 50
270.0
 51
0.0
  0
ARC
  5
135
330
D5
100
AcDbEntity
  8
AM_4
100
AcDbCircle
 10
-1.0259375
 20
-1.2409375
 30
0.0
 40
0.0390625
100
AcDbArc
 50
180.0
 51
270.0
  0
ARC
  5
137
330
D5
100
AcDbEntity
  8
AM_5
100
AcDbCircle
 10
0.0
 20
-1.045625
 30
0.0
 40
0.15625
100
AcDbArc
 50
74.99999999999996
 51
15.00000000000004
  0
ENDBLK
  5
D8
330
D5
100
AcDbEntity
  8
0
100
AcDbBlockEnd
  0
BLOCK
  5
13A
330
138
100
AcDbEntity
  8
0
100
AcDbBlockBegin
  2
4_131840H_0_in_131840_4
 70
     2
 10
0.0
 20
0.0
 30
0.0
  3
4_131840H_0_in_131840_4
  1

  0
ATTDEF
  5
13C
330
138
100
AcDbEntity
  8
AM_6
100
AcDbText
 10
8.25
 20
0.9625
 30
0.0
 40
0.5
  1
P2B-SXRB -I-Housing
100
AcDbAttributeDefinition
  3

  2
NN
 70
     8
280
     0
  0
ATTDEF
  5
13D
330
138
100
AcDbEntity
  8
AM_6
100
AcDbText
 10
8.25
 20
0.4625
 30
0.0
 40
0.5
  1
Eccentric Collar Pillow Block Bearings -(Normal Duty) -Low Backing Height
100
AcDbAttributeDefinition
  3

  2
NT
 70
     8
280
     0
  0
ATTDEF
  5
13E
330
138
100
AcDbEntity
  8
AM_6
100
AcDbText
 10
8.25
 20
-0.0375
 30
0.0
 40
0.5
  1
131840H
100
AcDbAttributeDefinition
  3

  2
NB
 70
     8
280
     0
  0
ATTDEF
  5
13F
330
138
100
AcDbEntity
  8
AM_6
100
AcDbText
 10
8.25
 20
-0.5375
 30
0.0
 40
0.5
  1
$PN.H
100
AcDbAttributeDefinition
  3

  2
NBSYN
 70
     8
280
     0
  0
ATTDEF
  5
140
330
138
100
AcDbEntity
  8
AM_6
100
AcDbText
 10
8.25
 20
-1.0375
 30
0.0
 40
0.5
  1
131840
100
AcDbAttributeDefinition
  3

  2
LINA
 70
     8
280
     0
  0
ATTDEF
  5
141
330
138
100
AcDbEntity
  8
AM_6
100
AcDbText
 10
8.25
 20
-1.5375
 30
0.0
 40
0.5
  1
207
100
AcDbAttributeDefinition
  3

  2
SERIES
 70
     8
280
     0
  0
ATTDEF
  5
142
330
138
100
AcDbEntity
  8
AM_6
100
AcDbText
 10
8.25
 20
-2.0375
 30
0.0
 40
0.5
  1
1-7/16
100
AcDbAttributeDefinition
  3

  2
SS
 70
     8
280
     0
  0
ATTDEF
  5
143
330
138
100
AcDbEntity
  8
AM_6
100
AcDbText
 10
8.25
 20
-2.5375
 30
0.0
 40
0.5
  1
131840
100
AcDbAttributeDefinition
  3

  2
PN
 70
     8
280
     0
  0
ATTDEF
  5
144
330
138
100
AcDbEntity
  8
AM_6
100
AcDbText
 10
8.25
 20
-3.0375
 30
0.0
 40
0.5
  1
P2B-SXRB-107
100
AcDbAttributeDefinition
  3

  2
DESCRIPTION
 70
     8
280
     0
  0
ATTDEF
  5
145
330
138
100
AcDbEntity
  8
AM_6
100
AcDbText
 10
8.25
 20
-3.5375
 30
0.0
 40
0.5
  1
4.1
100
AcDbAttributeDefinition
  3

  2
WEIGHT
 70
     8
280
     0
  0
ATTDEF
  5
146
330
138
100
AcDbEntity
  8
AM_6
100
AcDbText
 10
8.25
 20
-4.0375
 30
0.0
 40
0.5
  1
1.95
100
AcDbAttributeDefinition
  3

  2
A
 70
     8
280
     0
  0
ATTDEF
  5
147
330
138
100
AcDbEntity
  8
AM_6
100
AcDbText
 10
8.25
 20
-4.5375
 30
0.0
 40
0.5
  1
6.50
100
AcDbAttributeDefinition
  3

  2
B
 70
     8
280
     0
  0
ATTDEF
  5
148
330
138
100
AcDbEntity
  8
AM_6
100
AcDbText
 10
8.25
 20
-5.0375
 30
0.0
 40
0.5
  1
1.75
100
AcDbAttributeDefinition
  3

  2
C
 70
     8
280
     0
  0
ATTDEF
  5
149
330
138
100
AcDbEntity
  8
AM_6
100
AcDbText
 10
8.25
 20
-5.5375
 30
0.0
 40
0.5
  1
4.68
100
AcDbAttributeDefinition
  3

  2
DMIN
 70
     8
280
     0
  0
ATTDEF
  5
14A
330
138
100
AcDbEntity
  8
AM_6
100
AcDbText
 10
8.25
 20
-6.0375
 30
0.0
 40
0.5
  1
5.44
100
AcDbAttributeDefinition
  3

  2
DMAX
 70
     8
280
     0
  0
ATTDEF
  5
14B
330
138
100
AcDbEntity
  8
AM_6
100
AcDbText
 10
8.25
 20
-6.5375
 30
0.0
 40
0.5
  1
1/2
100
AcDbAttributeDefinition
  3

  2
F
 70
     8
280
     0
  0
ATTDEF
  5
14C
330
138
100
AcDbEntity
  8
AM_6
100
AcDbText
 10
8.25
 20
-7.0375
 30
0.0
 40
0.5
  1
0.94
100
AcDbAttributeDefinition
  3

  2
G
 70
     8
280
     0
  0
ATTDEF
  5
14D
330
138
100
AcDbEntity
  8
AM_6
100
AcDbText
 10
8.25
 20
-7.5375
 30
0.0
 40
0.5
  1
0.65
100
AcDbAttributeDefinition
  3

  2
H
 70
     8
280
     0
  0
ATTDEF
  5
14E
330
138
100
AcDbEntity
  8
AM_6
100
AcDbText
 10
8.25
 20
-8.0375
 30
0.0
 40
0.5
  1
3.69
100
AcDbAttributeDefinition
  3

  2
J
 70
     8
280
     0
  0
ATTDEF
  5
14F
330
138
100
AcDbEntity
  8
AM_6
100
AcDbText
 10
8.25
 20
-8.5375
 30
0.0
 40
0.5
  1
2.13
100
AcDbAttributeDefinition
  3

  2
L
 70
     8
280
     0
  0
ATTDEF
  5
150
330
138
100
AcDbEntity
  8
AM_6
100
AcDbText
 10
8.25
 20
-9.0375
 30
0.0
 40
0.5
  1
1.81
100
AcDbAttributeDefinition
  3

  2
M
 70
     8
280
     0
  0
ATTDEF
  5
151
330
138
100
AcDbEntity
  8
AM_6
100
AcDbText
 10
8.25
 20
-9.5375
 30
0.0
 40
0.5
  1
0.67
100
AcDbAttributeDefinition
  3

  2
R
 70
     8
280
     0
  0
ATTDEF
  5
152
330
138
100
AcDbEntity
  8
AM_6
100
AcDbText
 10
8.25
 20
-10.0375
 30
0.0
 40
0.5
  1
1.28
100
AcDbAttributeDefinition
  3

  2
S
 70
     8
280
     0
  0
ATTDEF
  5
153
330
138
100
AcDbEntity
  8
AM_6
100
AcDbText
 10
8.25
 20
-10.5375
 30
0.0
 40
0.5
  1
2.91
100
AcDbAttributeDefinition
  3

  2
U
 70
     8
280
     0
  0
ATTDEF
  5
154
330
138
100
AcDbEntity
  8
AM_6
100
AcDbText
 10
8.25
 20
-11.0375
 30
0.0
 40
0.5
  1
2.91
100
AcDbAttributeDefinition
  3

  2
U1
 70
     8
280
     0
  0
ATTDEF
  5
155
330
138
100
AcDbEntity
  8
AM_6
100
AcDbText
 10
8.25
 20
-11.5375
 30
0.0
 40
0.5
  1
5.82
100
AcDbAttributeDefinition
  3

  2
V
 70
     8
280
     0
  0
ATTDEF
  5
156
330
138
100
AcDbEntity
  8
AM_6
100
AcDbText
 10
8.25
 20
-12.0375
 30
0.0
 40
0.5
  1
5.82
100
AcDbAttributeDefinition
  3

  2
V1
 70
     8
280
     0
  0
ATTDEF
  5
157
330
138
100
AcDbEntity
  8
AM_6
100
AcDbText
 10
8.25
 20
-12.5375
 30
0.0
 40
0.5
  1
0.56
100
AcDbAttributeDefinition
  3

  2
W
 70
     8
280
     0
  0
ATTDEF
  5
158
330
138
100
AcDbEntity
  8
AM_6
100
AcDbText
 10
8.25
 20
-13.0375
 30
0.0
 40
0.5
  1
0.56
100
AcDbAttributeDefinition
  3

  2
W1
 70
     8
280
     0
  0
ATTDEF
  5
159
330
138
100
AcDbEntity
  8
AM_6
100
AcDbText
 10
8.25
 20
-13.5375
 30
0.0
 40
0.5
  1
0.12
100
AcDbAttributeDefinition
  3

  2
X
 70
     8
280
     0
  0
ATTDEF
  5
15A
330
138
100
AcDbEntity
  8
AM_6
100
AcDbText
 10
8.25
 20
-14.0375
 30
0.0
 40
0.5
  1
0.12
100
AcDbAttributeDefinition
  3

  2
X1
 70
     8
280
     0
  0
ATTDEF
  5
15B
330
138
100
AcDbEntity
  8
AM_6
100
AcDbText
 10
8.25
 20
-14.5375
 30
0.0
 40
0.5
  1
3065
100
AcDbAttributeDefinition
  3

  2
CAPS
 70
     8
280
     0
  0
ATTDEF
  5
15C
330
138
100
AcDbEntity
  8
AM_6
100
AcDbText
 10
8.25
 20
-15.0375
 30
0.0
 40
0.5
  1
5759
100
AcDbAttributeDefinition
  3

  2
CAPD
 70
     8
280
     0
  0
ATTDEF
  5
15D
330
138
100
AcDbEntity
  8
AM_6
100
AcDbText
 10
8.25
 20
-15.5375
 30
0.0
 40
0.5
  1
baldor
100
AcDbAttributeDefinition
  3

  2
COMPANY
 70
     8
280
     0
  0
LINE
  5
15E
330
138
100
AcDbEntity
  8
AM_9
100
AcDbLine
 10
-1.489175
 20
-0.7000000000000006
 30
0.0
 11
-1.489175
 21
-0.4375000000000001
 31
0.0
  0
LINE
  5
15F
330
138
100
AcDbEntity
  8
AM_9
100
AcDbLine
 10
-1.424175
 20
-0.7000000000000001
 30
0.0
 11
-1.424175
 21
-0.4375000000000001
 31
0.0
  0
LINE
  5
160
330
138
100
AcDbEntity
  8
AM_9
100
AcDbLine
 10
1.424175
 20
0.4374999999999998
 30
0.0
 11
1.424175
 21
0.6999999999999997
 31
0.0
  0
LINE
  5
161
330
138
100
AcDbEntity
  8
AM_9
100
AcDbLine
 10
-1.489175
 20
-0.2625
 30
0.0
 11
-1.489175
 21
0.7099999999999994
 31
0.0
  0
LINE
  5
162
330
138
100
AcDbEntity
  8
AM_9
100
AcDbLine
 10
-1.424175
 20
0.4374999999999998
 30
0.0
 11
-1.424175
 21
0.6999999999999997
 31
0.0
  0
LINE
  5
163
330
138
100
AcDbEntity
  8
AM_9
100
AcDbLine
 10
1.489175
 20
-0.7000000000000001
 30
0.0
 11
1.489175
 21
-0.4375000000000001
 31
0.0
  0
LINE
  5
164
330
138
100
AcDbEntity
  8
AM_9
100
AcDbLine
 10
1.424175
 20
-0.7000000000000001
 30
0.0
 11
1.424175
 21
-0.4375000000000001
 31
0.0
  0
LINE
  5
165
330
138
100
AcDbEntity
  8
AM_9
100
AcDbLine
 10
-1.957574123431809
 20
-0.4375000000000001
 30
0.0
 11
-1.957574123431809
 21
0.4374999999999999
 31
0.0
  0
LINE
  5
166
330
138
100
AcDbEntity
  8
AM_9
100
AcDbLine
 10
-2.87
 20
-0.4375000000000001
 30
0.0
 11
-2.87
 21
-0.2364318083507367
 31
0.0
  0
LINE
  5
167
330
138
100
AcDbEntity
  8
AM_9
100
AcDbLine
 10
-3.0
 20
-0.4375000000000001
 30
0.0
 11
-3.0
 21
0.4374999999999998
 31
0.0
  0
LINE
  5
168
330
138
100
AcDbEntity
  8
AM_9
100
AcDbLine
 10
-2.87
 20
0.2364318083507372
 30
0.0
 11
-2.87
 21
0.4374999999999999
 31
0.0
  0
LINE
  5
169
330
138
100
AcDbEntity
  8
AM_9
100
AcDbLine
 10
2.87
 20
-0.4375000000000001
 30
0.0
 11
2.87
 21
-0.2364318083507371
 31
0.0
  0
LINE
  5
16A
330
138
100
AcDbEntity
  8
AM_9
100
AcDbLine
 10
3.0
 20
-0.4375000000000001
 30
0.0
 11
3.0
 21
0.4374999999999998
 31
0.0
  0
LINE
  5
16B
330
138
100
AcDbEntity
  8
AM_9
100
AcDbLine
 10
2.87
 20
0.2364318083507368
 30
0.0
 11
2.87
 21
0.4374999999999999
 31
0.0
  0
LINE
  5
16C
330
138
100
AcDbEntity
  8
AM_9
100
AcDbLine
 10
1.957574123431807
 20
-0.4375000000000001
 30
0.0
 11
1.957574123431807
 21
0.4374999999999999
 31
0.0
  0
LINE
  5
16D
330
138
100
AcDbEntity
  8
AM_9
100
AcDbLine
 10
-1.789341744115169
 20
-0.4375000000000001
 30
0.0
 11
-1.789341744115169
 21
0.4374999999999999
 31
0.0
  0
LINE
  5
16E
330
138
100
AcDbEntity
  8
AM_9
100
AcDbLine
 10
1.789341744115168
 20
-0.4375000000000001
 30
0.0
 11
1.789341744115168
 21
0.4374999999999999
 31
0.0
  0
LINE
  5
16F
330
138
100
AcDbEntity
  8
AM_9
100
AcDbLine
 10
-0.9353076260942889
 20
-0.4375000000000001
 30
0.0
 11
-0.9353076260942889
 21
0.4374999999999999
 31
0.0
  0
LINE
  5
170
330
138
100
AcDbEntity
  8
AM_9
100
AcDbLine
 10
0.9353076206691121
 20
-0.4375000000000001
 30
0.0
 11
0.9353076206691121
 21
0.4374999999999999
 31
0.0
  0
LINE
  5
171
330
138
100
AcDbEntity
  8
AM_9
100
AcDbLine
 10
1.195360715466482
 20
-0.4375000000000001
 30
0.0
 11
1.195360715466482
 21
0.4374999999999999
 31
0.0
  0
LINE
  5
172
330
138
100
AcDbEntity
  8
AM_9
100
AcDbLine
 10
-1.195360715466481
 20
-0.4375000000000001
 30
0.0
 11
-1.195360715466481
 21
0.4374999999999999
 31
0.0
  0
LINE
  5
173
330
138
100
AcDbEntity
  8
AM_9
100
AcDbLine
 10
3.0
 20
0.4374999999999998
 30
0.0
 11
-3.0
 21
0.4374999999999998
 31
0.0
  0
LINE
  5
174
330
138
100
AcDbEntity
  8
AM_9
100
AcDbLine
 10
3.0
 20
-0.4375000000000001
 30
0.0
 11
-3.0
 21
-0.4375000000000001
 31
0.0
  0
LINE
  5
175
330
138
100
AcDbEntity
  8
AM_9
100
AcDbLine
 10
1.304239478824729
 20
-0.2625
 30
0.0
 11
1.304239478824729
 21
0.6046206825657894
 31
0.0
  0
LINE
  5
176
330
138
100
AcDbEntity
  8
AM_9
100
AcDbLine
 10
1.489175
 20
-0.2625
 30
0.0
 11
1.489175
 21
0.7099999999999972
 31
0.0
  0
LINE
  5
177
330
138
100
AcDbEntity
  8
AM_9
100
AcDbLine
 10
1.489175
 20
-0.2625
 30
0.0
 11
1.221530895024763
 21
-0.2625
 31
0.0
  0
LINE
  5
178
330
138
100
AcDbEntity
  8
AM_9
100
AcDbLine
 10
-1.221530895024763
 20
-0.2625
 30
0.0
 11
-1.489175
 21
-0.2625
 31
0.0
  0
LINE
  5
179
330
138
100
AcDbEntity
  8
AM_9
100
AcDbLine
 10
-1.304239478824729
 20
-0.2625
 30
0.0
 11
-1.304239478824729
 21
0.6046206825657894
 31
0.0
  0
LINE
  5
17A
330
138
100
AcDbEntity
  8
AM_9
100
AcDbLine
 10
-1.221530895024763
 20
-0.2625
 30
0.0
 11
-1.221530895024763
 21
0.6046206825657894
 31
0.0
  0
LINE
  5
17B
330
138
100
AcDbEntity
  8
AM_9
100
AcDbLine
 10
1.221530895024763
 20
0.6046206825657894
 30
0.0
 11
1.221530895024763
 21
-0.2625
 31
0.0
  0
LINE
  5
17C
330
138
100
AcDbEntity
  8
AM_9
100
AcDbLine
 10
1.4173
 20
-0.7
 30
0.0
 11
1.4173
 21
-0.2625
 31
0.0
  0
LINE
  5
17D
330
138
100
AcDbEntity
  8
AM_9
100
AcDbLine
 10
-1.4173
 20
-0.2625
 30
0.0
 11
-1.4173
 21
-0.7
 31
0.0
  0
LINE
  5
17E
330
138
100
AcDbEntity
  8
AM_9
100
AcDbLine
 10
0.9200000000000002
 20
-0.7
 30
0.0
 11
-0.9200000000000002
 21
-0.7
 31
0.0
  0
LINE
  5
17F
330
138
100
AcDbEntity
  8
AM_9
100
AcDbLine
 10
1.104399184331749
 20
-0.1806863231297344
 30
0.0
 11
1.325113442119868
 21
-0.1904358526906967
 31
0.0
  0
LINE
  5
180
330
138
100
AcDbEntity
  8
AM_9
100
AcDbLine
 10
1.325111079183937
 20
0.1904357483135988
 30
0.0
 11
1.104399184331749
 21
0.1806863231297345
 31
0.0
  0
LWPOLYLINE
  5
181
330
138
100
AcDbEntity
  8
AM_9
100
AcDbPolyline
 90
       21
 70
     0
 43
0.0
 10
1.325133101806237
 20
-0.190436719946095
 10
1.344300126487062
 20
-0.1893383301964718
 10
1.365946774637723
 20
-0.1831179571109133
 10
1.386234661322299
 20
-0.1718095813506287
 10
1.404667913456658
 20
-0.1556319782981477
 10
1.420804905937479
 20
-0.1351263827211241
 10
1.434325622909597
 20
-0.1106646985052587
 10
1.444886586852716
 20
-0.0830876149276772
 10
1.452244577248752
 20
-0.0530766785241464
 10
1.456274015027714
 20
-0.0215587405500495
 10
1.456856471951932
 20
0.0104789942284203
 10
1.454042052961603
 20
0.0422204545478127
 10
1.44785701650575
 20
0.0726983398310269
 10
1.438461818437343
 20
0.1011359035386584
 10
1.42596313894929
 20
0.1267702943236361
 10
1.410679885053369
 20
0.1488420386399827
 10
1.39286112977385
 20
0.1667107273409209
 10
1.372986037139978
 20
0.1798687839892603
 10
1.35159059039252
 20
0.1878451149582021
 10
1.329199059376085
 20
0.1905304106030379
 10
1.325163190312411
 20
0.1904380489995285
  0
LWPOLYLINE
  5
182
330
138
100
AcDbEntity
  8
AM_9
100
AcDbPolyline
 90
        7
 70
     0
 43
0.0
 10
1.325163190312411
 20
0.1904380489995285
 10
1.306547902577026
 20
0.1877983281576331
 10
1.284181426214296
 20
0.1798338118596678
 10
1.26278632886397
 20
0.1668003493417138
 10
1.243009920023165
 20
0.1491374146163473
 10
1.231097056228173
 20
0.1350609398035278
 10
1.220352269490177
 20
0.119325273961833
  0
LWPOLYLINE
  5
183
330
138
100
AcDbEntity
  8
AM_9
100
AcDbPolyline
 90
        5
 70
     0
 43
0.0
 10
1.661081585921314
 20
0.0383378015134117
 10
1.660527336524045
 20
0.0267749806515711
 10
1.660014837698246
 20
-0.0040324880451931
 10
1.660891195701908
 20
-0.0348027574312087
 10
1.661114915456355
 20
-0.0389235402316933
  0
LWPOLYLINE
  5
184
330
138
100
AcDbEntity
  8
AM_9
100
AcDbPolyline
 90
       15
 70
     0
 43
0.0
 10
1.220352269490177
 20
0.119325273961833
 10
1.206656398984665
 20
0.0927034153711085
 10
1.196466471631452
 20
0.0634675927671582
 10
1.19019981271301
 20
0.0324069235589055
 10
1.188025803323745
 20
0.0004278095451232
 10
1.190077003561344
 20
-0.0314785679384521
 10
1.196203579947576
 20
-0.0624975049173889
 10
1.20624114353666
 20
-0.0917272642706537
 10
1.219780041911372
 20
-0.1183843981609842
 10
1.23646292042343
 20
-0.1417572789609029
 10
1.255645129157478
 20
-0.1611382808700323
 10
1.276740650170787
 20
-0.1759240634223853
 10
1.299040897127244
 20
-0.1857374354383468
 10
1.321749886194497
 20
-0.1902077171920306
 10
1.325133101806237
 20
-0.190436719946095
  0
ELLIPSE
  5
185
330
138
100
AcDbEntity
  8
AM_9
100
AcDbEllipse
 10
1.108389879509934
 20
-0.0000000000000053
 30
0.0
 11
1.106924205118346E-17
 21
0.1807744413963324
 31
0.0
210
0.0
220
0.0
230
1.0
 40
0.7071067811864472
 41
0.0
 42
6.283185307179586
  0
LINE
  5
186
330
138
100
AcDbEntity
  8
AM_7
100
AcDbLine
 10
2.847
 20
-0.56
 30
0.0
 11
2.973000000000001
 21
-0.56
 31
0.0
  0
LINE
  5
187
330
138
100
AcDbEntity
  8
AM_7
100
AcDbLine
 10
2.910000000000001
 20
-0.623
 30
0.0
 11
2.910000000000001
 21
-0.4970000000000001
 31
0.0
  0
LINE
  5
188
330
138
100
AcDbEntity
  8
AM_7
100
AcDbLine
 10
-2.973000000000001
 20
-0.56
 30
0.0
 11
-2.847
 21
-0.56
 31
0.0
  0
LINE
  5
189
330
138
100
AcDbEntity
  8
AM_7
100
AcDbLine
 10
-2.910000000000001
 20
-0.623
 30
0.0
 11
-2.910000000000001
 21
-0.4970000000000001
 31
0.0
  0
LINE
  5
18A
330
138
100
AcDbEntity
  8
AM_7
100
AcDbLine
 10
0.0
 20
0.9625
 30
0.0
 11
0.0
 21
-1.3775
 31
0.0
  0
LINE
  5
18B
330
138
100
AcDbEntity
  8
AM_7
100
AcDbLine
 10
2.046
 20
-0.0000000000000001
 30
0.0
 11
3.013999999999999
 21
-0.0000000000000001
 31
0.0
  0
LINE
  5
18C
330
138
100
AcDbEntity
  8
AM_7
100
AcDbLine
 10
2.34
 20
-0.2939999999999999
 30
0.0
 11
2.34
 21
0.2939999999999997
 31
0.0
  0
LINE
  5
18D
330
138
100
AcDbEntity
  8
AM_7
100
AcDbLine
 10
-3.013999999999999
 20
0.0000000000000002
 30
0.0
 11
-2.046
 21
0.0000000000000002
 31
0.0
  0
LINE
  5
18E
330
138
100
AcDbEntity
  8
AM_7
100
AcDbLine
 10
-2.72
 20
-0.293999999999999
 30
0.0
 11
-2.72
 21
0.2939999999999996
 31
0.0
  0
LINE
  5
18F
330
138
100
AcDbEntity
  8
AM_7
100
AcDbLine
 10
-2.34
 20
-0.2939999999999996
 30
0.0
 11
-2.34
 21
0.294
 31
0.0
  0
LINE
  5
190
330
138
100
AcDbEntity
  8
AM_7
100
AcDbLine
 10
2.72
 20
-0.2939999999999994
 30
0.0
 11
2.72
 21
0.2939999999999993
 31
0.0
  0
LINE
  5
191
330
138
100
AcDbEntity
  8
AM_4
100
AcDbLine
 10
3.25
 20
-0.8750000000000001
 30
0.0
 11
3.25
 21
0.8749999999999998
 31
0.0
  0
LINE
  5
192
330
138
100
AcDbEntity
  8
AM_4
100
AcDbLine
 10
-3.25
 20
-0.8750000000000001
 30
0.0
 11
-3.25
 21
0.8749999999999998
 31
0.0
  0
LINE
  5
193
330
138
100
AcDbEntity
  8
AM_4
100
AcDbLine
 10
-3.12
 20
-0.8750000000000001
 30
0.0
 11
-3.12
 21
-0.6364318083507375
 31
0.0
  0
LINE
  5
194
330
138
100
AcDbEntity
  8
AM_4
100
AcDbLine
 10
3.12
 20
0.6364318083507373
 30
0.0
 11
3.12
 21
0.8749999999999998
 31
0.0
  0
LINE
  5
195
330
138
100
AcDbEntity
  8
AM_4
100
AcDbLine
 10
-3.12
 20
0.6364318083507378
 30
0.0
 11
-3.12
 21
0.8749999999999998
 31
0.0
  0
LINE
  5
196
330
138
100
AcDbEntity
  8
AM_4
100
AcDbLine
 10
3.12
 20
-0.8750000000000001
 30
0.0
 11
3.12
 21
-0.6364318083507375
 31
0.0
  0
LINE
  5
197
330
138
100
AcDbEntity
  8
AM_4
100
AcDbLine
 10
-2.496985349507099
 20
-0.8750000000000001
 30
0.0
 11
-2.496985349507099
 21
-0.6800000000000002
 31
0.0
  0
LINE
  5
198
330
138
100
AcDbEntity
  8
AM_4
100
AcDbLine
 10
-2.496985349507099
 20
0.6799999999999998
 30
0.0
 11
-2.496985349507099
 21
0.8749999999999998
 31
0.0
  0
LINE
  5
199
330
138
100
AcDbEntity
  8
AM_4
100
AcDbLine
 10
2.496985349507099
 20
-0.8750000000000001
 30
0.0
 11
2.496985349507099
 21
-0.6800000000000002
 31
0.0
  0
LINE
  5
19A
330
138
100
AcDbEntity
  8
AM_4
100
AcDbLine
 10
2.496985349507099
 20
0.6799999999999998
 30
0.0
 11
2.496985349507099
 21
0.8749999999999998
 31
0.0
  0
CIRCLE
  5
19B
330
138
100
AcDbEntity
  8
AM_4
100
AcDbCircle
 10
2.910000000000001
 20
-0.56
 30
0.0
 40
0.06
  0
ARC
  5
19C
330
138
100
AcDbEntity
  8
AM_4
100
AcDbCircle
 10
2.34
 20
-0.0000000000000001
 30
0.0
 40
0.2799999999999998
100
AcDbArc
 50
90.0
 51
270.0
  0
LINE
  5
19D
330
138
100
AcDbEntity
  8
AM_4
100
AcDbLine
 10
2.34
 20
0.2799999999999997
 30
0.0
 11
2.719999999999999
 21
0.2799999999999997
 31
0.0
  0
ARC
  5
19E
330
138
100
AcDbEntity
  8
AM_4
100
AcDbCircle
 10
2.72
 20
-0.0000000000000001
 30
0.0
 40
0.2799999999999998
100
AcDbArc
 50
270.0
 51
90.0
  0
LINE
  5
19F
330
138
100
AcDbEntity
  8
AM_4
100
AcDbLine
 10
2.719999999999999
 20
-0.2799999999999999
 30
0.0
 11
2.34
 21
-0.2799999999999999
 31
0.0
  0
ARC
  5
1A0
330
138
100
AcDbEntity
  8
AM_4
100
AcDbCircle
 10
2.97
 20
0.3999999999999997
 30
0.0
 40
0.2799999999999998
100
AcDbArc
 50
0.0
 51
90.0
  0
LINE
  5
1A1
330
138
100
AcDbEntity
  8
AM_4
100
AcDbLine
 10
2.969999999999999
 20
0.6799999999999998
 30
0.0
 11
2.34
 21
0.6799999999999999
 31
0.0
  0
LINE
  5
1A2
330
138
100
AcDbEntity
  8
AM_4
100
AcDbLine
 10
2.34
 20
-0.6800000000000003
 30
0.0
 11
2.969999999999999
 21
-0.6800000000000002
 31
0.0
  0
ARC
  5
1A3
330
138
100
AcDbEntity
  8
AM_4
100
AcDbCircle
 10
2.97
 20
-0.3999999999999997
 30
0.0
 40
0.2800000000000005
100
AcDbArc
 50
270.0
 51
0.0
  0
CIRCLE
  5
1A4
330
138
100
AcDbEntity
  8
AM_4
100
AcDbCircle
 10
-2.910000000000001
 20
-0.56
 30
0.0
 40
0.06
  0
ARC
  5
1A5
330
138
100
AcDbEntity
  8
AM_4
100
AcDbCircle
 10
-2.72
 20
0.0000000000000002
 30
0.0
 40
0.2799999999999998
100
AcDbArc
 50
90.0
 51
270.0
  0
LINE
  5
1A6
330
138
100
AcDbEntity
  8
AM_4
100
AcDbLine
 10
-2.719999999999999
 20
0.28
 30
0.0
 11
-2.34
 21
0.28
 31
0.0
  0
ARC
  5
1A7
330
138
100
AcDbEntity
  8
AM_4
100
AcDbCircle
 10
-2.34
 20
0.0000000000000002
 30
0.0
 40
0.2799999999999997
100
AcDbArc
 50
270.0
 51
90.0
  0
LINE
  5
1A8
330
138
100
AcDbEntity
  8
AM_4
100
AcDbLine
 10
-2.34
 20
-0.2799999999999996
 30
0.0
 11
-2.719999999999999
 21
-0.2799999999999995
 31
0.0
  0
ARC
  5
1A9
330
138
100
AcDbEntity
  8
AM_4
100
AcDbCircle
 10
-2.969999999999999
 20
-0.399999999999999
 30
0.0
 40
0.2800000000000007
100
AcDbArc
 50
180.0
 51
270.0
  0
LINE
  5
1AA
330
138
100
AcDbEntity
  8
AM_4
100
AcDbLine
 10
-2.969999999999999
 20
-0.6800000000000002
 30
0.0
 11
-2.34
 21
-0.6799999999999999
 31
0.0
  0
LINE
  5
1AB
330
138
100
AcDbEntity
  8
AM_4
100
AcDbLine
 10
-2.34
 20
0.6799999999999998
 30
0.0
 11
-2.970000000000001
 21
0.6799999999999998
 31
0.0
  0
ARC
  5
1AC
330
138
100
AcDbEntity
  8
AM_4
100
AcDbCircle
 10
-2.970000000000001
 20
0.4000000000000001
 30
0.0
 40
0.2799999999999997
100
AcDbArc
 50
90.0
 51
180.0
  0
LWPOLYLINE
  5
1AD
330
138
100
AcDbEntity
  8
AM_4
100
AcDbPolyline
 90
       12
 70
     0
 43
0.0
 10
2.34
 20
0.6799999999999999
 10
2.280734094931593
 20
0.677412394702387
 10
2.221919239186488
 20
0.6696692720483015
 10
2.164003049330286
 20
0.6568295618765665
 10
2.107426302538546
 20
0.6389909821344179
 10
2.052619582016325
 20
0.616289295184922
 10
2.0
 20
0.5888972745734186
 10
1.949968023281289
 20
0.5570233901165148
 10
1.902904425413154
 20
0.5209102213209055
 10
1.859167388793148
 20
0.4808326112068528
 10
1.819089778679096
 20
0.4370955745868473
 10
1.792087133690956
 20
0.402730047218987
  0
LINE
  5
1AE
330
138
100
AcDbEntity
  8
AM_4
100
AcDbLine
 10
2.373064430688044
 20
0.6799999999999998
 30
0.0
 11
2.373064430688044
 21
0.8749999999999998
 31
0.0
  0
LWPOLYLINE
  5
1AF
330
138
100
AcDbEntity
  8
AM_4
100
AcDbPolyline
 90
       12
 70
     0
 43
0.0
 10
1.792087133690956
 20
-0.4027300472189869
 10
1.829272343958849
 20
-0.4489512906259562
 10
1.870344500075006
 20
-0.4917557436270609
 10
1.914991018131336
 20
-0.5308176384889273
 10
1.962872111167126
 20
-0.5658396906054397
 10
2.01362337515298
 20
-0.596555361013098
 10
2.066858562325514
 20
-0.6227308849134713
 10
2.12217252076606
 20
-0.6441670507644641
 10
2.179144277851404
 20
-0.6607007164004396
 10
2.23734024410964
 20
-0.6722060506426076
 10
2.296317513097857
 20
-0.6785954909502747
 10
2.34
 20
-0.6800000000000003
  0
LINE
  5
1B0
330
138
100
AcDbEntity
  8
AM_4
100
AcDbLine
 10
2.373064430688044
 20
-0.8750000000000001
 30
0.0
 11
2.373064430688044
 21
-0.6800000000000002
 31
0.0
  0
LWPOLYLINE
  5
1B1
330
138
100
AcDbEntity
  8
AM_4
100
AcDbPolyline
 90
       12
 70
     0
 43
0.0
 10
-1.792087133690955
 20
0.4027300472189871
 10
-1.829272343958849
 20
0.4489512906259562
 10
-1.870344500075005
 20
0.491755743627061
 10
-1.914991018131336
 20
0.5308176384889276
 10
-1.962872111167126
 20
0.5658396906054399
 10
-2.01362337515298
 20
0.5965553610130983
 10
-2.066858562325514
 20
0.6227308849134715
 10
-2.12217252076606
 20
0.6441670507644642
 10
-2.179144277851404
 20
0.6607007164004398
 10
-2.23734024410964
 20
0.6722060506426077
 10
-2.296317513097857
 20
0.6785954909502749
 10
-2.34
 20
0.6800000000000004
  0
LINE
  5
1B2
330
138
100
AcDbEntity
  8
AM_4
100
AcDbLine
 10
-2.373064430688044
 20
0.6799999999999998
 30
0.0
 11
-2.373064430688044
 21
0.8749999999999998
 31
0.0
  0
LWPOLYLINE
  5
1B3
330
138
100
AcDbEntity
  8
AM_4
100
AcDbPolyline
 90
       12
 70
     0
 43
0.0
 10
-2.34
 20
-0.6799999999999998
 10
-2.280734094931593
 20
-0.6774123947023869
 10
-2.221919239186488
 20
-0.6696692720483014
 10
-2.164003049330286
 20
-0.6568295618765664
 10
-2.107426302538546
 20
-0.6389909821344176
 10
-2.052619582016325
 20
-0.6162892951849219
 10
-2.0
 20
-0.5888972745734183
 10
-1.949968023281289
 20
-0.5570233901165145
 10
-1.902904425413154
 20
-0.5209102213209051
 10
-1.859167388793148
 20
-0.4808326112068525
 10
-1.819089778679096
 20
-0.437095574586847
 10
-1.792087133690956
 20
-0.4027300472189864
  0
LINE
  5
1B4
330
138
100
AcDbEntity
  8
AM_4
100
AcDbLine
 10
-2.373064430688044
 20
-0.8750000000000001
 30
0.0
 11
-2.373064430688044
 21
-0.6800000000000002
 31
0.0
  0
LINE
  5
1B5
330
138
100
AcDbEntity
  8
AM_4
100
AcDbLine
 10
1.304239478824729
 20
0.6046206825657894
 30
0.0
 11
1.304239478824729
 21
0.7
 31
0.0
  0
LWPOLYLINE
  5
1B6
330
138
100
AcDbEntity
  8
AM_4
100
AcDbPolyline
 90
        5
 70
     0
 43
0.0
 10
1.479175
 20
0.7
 10
1.481355478516271
 20
0.7002406192081628
 10
1.484912820097428
 20
0.7018099193819871
 10
1.487400349926641
 20
0.7043128549706722
 10
1.48915019730318
 20
0.7092961258900647
  0
LINE
  5
1B7
330
138
100
AcDbEntity
  8
AM_4
100
AcDbLine
 10
1.489175
 20
0.7080592105263155
 30
0.0
 11
1.48915019730318
 21
0.7092961258900646
 31
0.0
  0
LINE
  5
1B8
330
138
100
AcDbEntity
  8
AM_4
100
AcDbLine
 10
1.479175
 20
0.7
 30
0.0
 11
-1.479175
 21
0.7
 31
0.0
  0
LWPOLYLINE
  5
1B9
330
138
100
AcDbEntity
  8
AM_4
100
AcDbPolyline
 90
        5
 70
     0
 43
0.0
 10
-1.488392148362157
 20
0.7061213177405222
 10
-1.487400349926641
 20
0.7043128549706724
 10
-1.484916669228825
 20
0.7018126173616497
 10
-1.481355478516271
 20
0.7002406192081628
 10
-1.479175
 20
0.7
  0
LINE
  5
1BA
330
138
100
AcDbEntity
  8
AM_4
100
AcDbLine
 10
-1.48915019730318
 20
0.7092961258900696
 30
0.0
 11
-1.488392148362157
 21
0.7061213177405222
 31
0.0
  0
LINE
  5
1BB
330
138
100
AcDbEntity
  8
AM_4
100
AcDbLine
 10
-1.304239478824728
 20
0.6046206825657894
 30
0.0
 11
-1.304239478824728
 21
0.7
 31
0.0
  0
LWPOLYLINE
  5
1BC
330
138
100
AcDbEntity
  8
AM_4
100
AcDbPolyline
 90
        7
 70
     0
 43
0.0
 10
-1.489175
 20
0.7080592105263155
 10
-1.483508239530775
 20
0.6893805289382459
 10
-1.466551085591955
 20
0.6708440033955579
 10
-1.438432592364023
 20
0.6525907080502913
 10
-1.399366758558855
 20
0.6347595615016648
 10
-1.349650898760303
 20
0.6174862695416541
 10
-1.304239478824729
 20
0.6046206825657894
  0
LINE
  5
1BD
330
138
100
AcDbEntity
  8
AM_4
100
AcDbLine
 10
1.221530895024763
 20
0.6046206825657894
 30
0.0
 11
1.221530895024763
 21
0.7000000000000001
 31
0.0
  0
LINE
  5
1BE
330
138
100
AcDbEntity
  8
AM_4
100
AcDbLine
 10
-1.221530895024763
 20
0.7000000000000001
 30
0.0
 11
-1.221530895024763
 21
0.6046206825657894
 31
0.0
  0
LINE
  5
1BF
330
138
100
AcDbEntity
  8
AM_4
100
AcDbLine
 10
-0.9200000000000002
 20
-0.7
 30
0.0
 11
-1.489175000000006
 21
-0.700000000000001
 31
0.0
  0
LINE
  5
1C0
330
138
100
AcDbEntity
  8
AM_4
100
AcDbLine
 10
1.489175000000006
 20
-0.7
 30
0.0
 11
0.9200000000000002
 21
-0.7
 31
0.0
  0
LINE
  5
1C1
330
138
100
AcDbEntity
  8
AM_4
100
AcDbLine
 10
-1.304239478824729
 20
0.6046206825657894
 30
0.0
 11
-1.221530895024763
 21
0.6046206825657894
 31
0.0
  0
LINE
  5
1C2
330
138
100
AcDbEntity
  8
AM_4
100
AcDbLine
 10
-1.48915019730318
 20
0.709296125890068
 30
0.0
 11
-1.489175
 21
0.7080592105263155
 31
0.0
  0
LINE
  5
1C3
330
138
100
AcDbEntity
  8
AM_4
100
AcDbLine
 10
-1.489174999999999
 20
0.7099999999999996
 30
0.0
 11
-1.489175
 21
0.8749999999999998
 31
0.0
  0
LINE
  5
1C4
330
138
100
AcDbEntity
  8
AM_4
100
AcDbLine
 10
-3.25
 20
0.8749999999999998
 30
0.0
 11
-1.489175
 21
0.8749999999999998
 31
0.0
  0
LINE
  5
1C5
330
138
100
AcDbEntity
  8
AM_4
100
AcDbLine
 10
-1.792087133690956
 20
0.6262904936717005
 30
0.0
 11
-2.34
 21
0.8749999999999998
 31
0.0
  0
LINE
  5
1C6
330
138
100
AcDbEntity
  8
AM_4
100
AcDbLine
 10
2.340000000000001
 20
0.8749999999999998
 30
0.0
 11
1.792087133690956
 21
0.6262904936717002
 31
0.0
  0
LINE
  5
1C7
330
138
100
AcDbEntity
  8
AM_4
100
AcDbLine
 10
1.489175
 20
0.8750000000000001
 30
0.0
 11
3.25
 21
0.8749999999999998
 31
0.0
  0
LINE
  5
1C8
330
138
100
AcDbEntity
  8
AM_4
100
AcDbLine
 10
1.489175
 20
0.8750000000000001
 30
0.0
 11
1.489175
 21
0.7099999999999946
 31
0.0
  0
LWPOLYLINE
  5
1C9
330
138
100
AcDbEntity
  8
AM_4
100
AcDbPolyline
 90
        7
 70
     0
 43
0.0
 10
1.304239478824729
 20
0.6046206825657894
 10
1.361919643947015
 20
0.621373337761316
 10
1.4092347782293
 20
0.6387857247909455
 10
1.445824784930037
 20
0.6567253248754954
 10
1.471411192004581
 20
0.6750556068260956
 10
1.485799271445601
 20
0.6936370661289752
 10
1.489175
 20
0.7080592105263155
  0
LINE
  5
1CA
330
138
100
AcDbEntity
  8
AM_4
100
AcDbLine
 10
1.221530895024763
 20
0.6046206825657894
 30
0.0
 11
1.304239478824729
 21
0.6046206825657894
 31
0.0
  0
LWPOLYLINE
  5
1CB
330
138
100
AcDbEntity
  8
AM_4
100
AcDbPolyline
 90
       25
 70
     0
 43
0.0
 10
-1.221530895024764
 20
0.6046206825657894
 10
-1.154239411079055
 20
0.5896926685466743
 10
-1.078163468266223
 20
0.5756654953836964
 10
-0.9938820504469834
 20
0.5626459183344648
 10
-0.9020365901014525
 20
0.5507330242417595
 10
-0.8033260866406647
 20
0.5400174774228284
 10
-0.6985017865989885
 20
0.5305808296591873
 10
-0.5883614661943837
 20
0.5224948995383216
 10
-0.473743359769673
 20
0.5158212258708688
 10
-0.3555197803230534
 20
0.5106105993431128
 10
-0.2345904806794629
 20
0.5069026759691919
 10
-0.1118758058282966
 20
0.5047256752848873
 10
0.0116903114576815
 20
0.5040961655799154
 10
0.1351674584146637
 20
0.5050189378032394
 10
0.2576158993967674
 20
0.5074869691010545
 10
0.3781037278317287
 20
0.5114814762649464
 10
0.4957139585926176
 20
0.5169720586834488
 10
0.6095515068083448
 20
0.5239169297090521
 10
0.7187499999999974
 20
0.5322632346798241
 10
0.8224783716985347
 20
0.5419474531753002
 10
0.9199471863624267
 20
0.5528958824452389
 10
1.010414647458802
 20
0.5650251983320539
 10
1.093192242982971
 20
0.5782430894179649
 10
1.167649985450516
 20
0.5924489595706276
 10
1.221530895024763
 20
0.6046206825657893
  0
LINE
  5
1CC
330
138
100
AcDbEntity
  8
AM_4
100
AcDbLine
 10
1.489175000000006
 20
-0.7
 30
0.0
 11
1.489175000000006
 21
-0.8750000000000003
 31
0.0
  0
LINE
  5
1CD
330
138
100
AcDbEntity
  8
AM_4
100
AcDbLine
 10
1.489175000000006
 20
-0.8750000000000003
 30
0.0
 11
3.25
 21
-0.8750000000000001
 31
0.0
  0
LINE
  5
1CE
330
138
100
AcDbEntity
  8
AM_4
100
AcDbLine
 10
1.792087133690956
 20
-0.6262904936717001
 30
0.0
 11
2.34
 21
-0.8750000000000001
 31
0.0
  0
LINE
  5
1CF
330
138
100
AcDbEntity
  8
AM_4
100
AcDbLine
 10
-2.34
 20
-0.8750000000000001
 30
0.0
 11
-1.792087133690956
 21
-0.6262904936717002
 31
0.0
  0
LINE
  5
1D0
330
138
100
AcDbEntity
  8
AM_4
100
AcDbLine
 10
-3.25
 20
-0.8750000000000001
 30
0.0
 11
-1.489175000000006
 21
-0.8750000000000001
 31
0.0
  0
LINE
  5
1D1
330
138
100
AcDbEntity
  8
AM_4
100
AcDbLine
 10
-1.489175000000006
 20
-0.8750000000000001
 30
0.0
 11
-1.489175000000006
 21
-0.700000000000001
 31
0.0
  0
LWPOLYLINE
  5
1D2
330
138
100
AcDbEntity
  8
AM_4
100
AcDbPolyline
 90
       37
 70
     0
 43
0.0
 10
1.416193238933162
 20
-0.7
 10
1.405923474504724
 20
-0.682267394388446
 10
1.384953783515501
 20
-0.6647310800712255
 10
1.353443757975766
 20
-0.647524518989009
 10
1.31163320820615
 20
-0.6307786634612373
 10
1.259840337736301
 20
-0.6146209595599009
 10
1.198459321583884
 20
-0.5991743771679776
 10
1.127957306344691
 20
-0.5845564741043712
 10
1.048870854924971
 20
-0.5708785014379268
 10
0.9618018629737342
 20
-0.558244556799622
 10
0.8674129780934239
 20
-0.5467507921367385
 10
0.7664225566915467
 20
-0.5364846819384859
 10
0.6595991968546543
 20
-0.5275243575023193
 10
0.5477558888528137
 20
-0.5199380123075901
 10
0.4317438277927545
 20
-0.5137833830219906
 10
0.3124459355091417
 20
-0.5091073100906509
 10
0.1907701409962902
 20
-0.5059453812520686
 10
0.0676424705202965
 20
-0.50432166069393
 10
-0.0559999999999971
 20
-0.5042485059101122
 10
-0.1792162767065663
 20
-0.5057264736526916
 10
-0.3010686093336518
 20
-0.5087443156947262
 10
-0.4206296280535117
 20
-0.5132790644360531
 10
-0.5369894013207709
 20
-0.5192962077005948
 10
-0.6492623610009133
 20
-0.5267499513948576
 10
-0.7565940420785064
 20
-0.5355835680286347
 10
-0.8581675856519091
 20
-0.5457298284454595
 10
-0.9532099557227453
 20
-0.5571115134770803
 10
-1.040997822466623
 20
-0.5696420016279572
 10
-1.12086306720986
 20
-0.5832259283171466
 10
-1.192197867216005
 20
-0.5977599116603444
 10
-1.254459321583882
 20
-0.6131333392684497
 10
-1.307173583051257
 20
-0.6292292100746357
 10
-1.349939464258623
 20
-0.6459250247831146
 10
-1.382431491027246
 20
-0.6630937181627463
 10
-1.404402379414196
 20
-0.6806046260901716
 10
-1.415684917692461
 20
-0.6983244799826871
 10
-1.416193238933162
 20
-0.6999999999999997
  0
LINE
  5
1D3
330
138
100
AcDbEntity
  8
AM_4
100
AcDbLine
 10
-1.792087133690956
 20
-0.6262904936717002
 30
0.0
 11
-1.792087133690955
 21
-0.4027300472189855
 31
0.0
  0
LWPOLYLINE
  5
1D4
330
138
100
AcDbEntity
  8
AM_4
100
AcDbPolyline
 90
       30
 70
     0
 43
0.0
 10
-1.792087133690956
 20
-0.6262904936717001
 10
-1.735747919883077
 20
-0.6041235480702773
 10
-1.666198616331638
 20
-0.5827476156182139
 10
-1.583968535231684
 20
-0.5623253800686108
 10
-1.489683497152266
 20
-0.5430122669652837
 10
-1.38406106816403
 20
-0.5249552607605252
 10
-1.267905098728143
 20
-0.5082917861746722
 10
-1.142099605908906
 20
-0.4931486623110038
 10
-1.007602045470104
 20
-0.4796411374857911
 10
-0.8654360250585255
 20
-0.4678720121190201
 10
-0.7166835139316923
 20
-0.4579308563611242
 10
-0.5624766085185015
 20
-0.4498933284100552
 10
-0.4039889164818227
 20
-0.4438205987067125
 10
-0.2424266248555402
 20
-0.439758884390953
 10
-0.0790193202329086
 20
-0.43773909756125
 10
0.0849893691298654
 20
-0.437776610014958
 10
0.248351238075577
 20
-0.4398711362596537
 10
0.4098230041409559
 20
-0.4440067356859054
 10
0.5681757696869266
 20
-0.4501519338849362
 10
0.7222043745516699
 20
-0.4582599621878793
 10
0.8707365680471508
 20
-0.4682691136035879
 10
1.012641930494678
 20
-0.4801032124460978
 10
1.146840476401226
 20
-0.493672194077593
 10
1.272310873801147
 20
-0.5088727903546828
 10
1.388098217209133
 20
-0.5255893155613276
 10
1.493321295027537
 20
-0.5436945468469909
 10
1.587179296098729
 20
-0.5630506924693514
 10
1.66895790436155
 20
-0.5835104404726624
 10
1.738034735227844
 20
-0.6049180798206852
 10
1.792087133690956
 20
-0.6262904936717
  0
LINE
  5
1D5
330
138
100
AcDbEntity
  8
AM_4
100
AcDbLine
 10
1.792087133690956
 20
-0.6262904936717001
 30
0.0
 11
1.792087133690956
 21
-0.4027300472189875
 31
0.0
  0
LWPOLYLINE
  5
1D6
330
138
100
AcDbEntity
  8
AM_4
100
AcDbPolyline
 90
       15
 70
     0
 43
0.0
 10
1.661114915456355
 20
-0.0389235402316933
 10
1.662775877223416
 20
-0.0613634879537901
 10
1.665654034134598
 20
-0.0875072472487726
 10
1.66958302528798
 20
-0.1137515961685982
 10
1.674409221801404
 20
-0.1392440877631341
 10
1.6801392344502
 20
-0.1642641137685321
 10
1.686588416263598
 20
-0.1882904730438782
 10
1.693797843275734
 20
-0.2117126179148389
 10
1.701526080742548
 20
-0.233989432299899
 10
1.714174633104192
 20
-0.2659742201763416
 10
1.727432693287936
 20
-0.2952309176687426
 10
1.741356735501469
 20
-0.3225327921627555
 10
1.75531105547493
 20
-0.3471870362645531
 10
1.774064921846908
 20
-0.3769847308789221
 10
1.792087133690956
 20
-0.4027300472189875
  0
LWPOLYLINE
  5
1D7
330
138
100
AcDbEntity
  8
AM_4
100
AcDbPolyline
 90
       15
 70
     0
 43
0.0
 10
1.792087133690956
 20
0.4027300472189873
 10
1.777915896926275
 20
0.3827055166216952
 10
1.763156913494183
 20
0.3600722893398524
 10
1.747727723523725
 20
0.334089108154686
 10
1.732199752849327
 20
0.3049243505585941
 10
1.720610340275599
 20
0.2806359675043192
 10
1.709355173895055
 20
0.2543365945102362
 10
1.698391015605622
 20
0.2252477434144866
 10
1.688265980971894
 20
0.1940174436525529
 10
1.681287512418498
 20
0.1688093215229424
 10
1.675092560709025
 20
0.1424713907264133
 10
1.669685707446592
 20
0.1143515990675526
 10
1.665372567125063
 20
0.085310180005513
 10
1.662335105336058
 20
0.056277972252718
 10
1.661081585921314
 20
0.0383378015134117
  0
LINE
  5
1D8
330
138
100
AcDbEntity
  8
AM_4
100
AcDbLine
 10
1.792087133690956
 20
0.4027300472189873
 30
0.0
 11
1.792087133690956
 21
0.6262904936717002
 31
0.0
  0
LWPOLYLINE
  5
1D9
330
138
100
AcDbEntity
  8
AM_4
100
AcDbPolyline
 90
       30
 70
     0
 43
0.0
 10
1.792087133690956
 20
0.6262904936717002
 10
1.735747919883077
 20
0.6041235480702776
 10
1.666198616331638
 20
0.5827476156182141
 10
1.583968535231684
 20
0.5623253800686111
 10
1.489683497152265
 20
0.5430122669652839
 10
1.38406106816403
 20
0.5249552607605255
 10
1.267905098728143
 20
0.5082917861746725
 10
1.142099605908905
 20
0.4931486623110042
 10
1.007602045470104
 20
0.4796411374857915
 10
0.8654360250585253
 20
0.4678720121190205
 10
0.7166835139316922
 20
0.4579308563611247
 10
0.5624766085185013
 20
0.4498933284100556
 10
0.4039889164818226
 20
0.4438205987067129
 10
0.2424266248555401
 20
0.4397588843909535
 10
0.0790193202329086
 20
0.4377390975612504
 10
-0.0849893691298654
 20
0.4377766100149585
 10
-0.2483512380755769
 20
0.4398711362596542
 10
-0.4098230041409558
 20
0.4440067356859058
 10
-0.5681757696869264
 20
0.4501519338849367
 10
-0.7222043745516697
 20
0.4582599621878797
 10
-0.8707365680471507
 20
0.4682691136035884
 10
-1.012641930494678
 20
0.4801032124460982
 10
-1.146840476401226
 20
0.4936721940775934
 10
-1.272310873801147
 20
0.5088727903546831
 10
-1.388098217209132
 20
0.5255893155613279
 10
-1.493321295027536
 20
0.5436945468469913
 10
-1.587179296098729
 20
0.5630506924693517
 10
-1.668957904361549
 20
0.5835104404726627
 10
-1.738034735227843
 20
0.6049180798206855
 10
-1.792087133690955
 20
0.6262904936717001
  0
LINE
  5
1DA
330
138
100
AcDbEntity
  8
AM_4
100
AcDbLine
 10
-1.792087133690955
 20
0.4027300472189873
 30
0.0
 11
-1.792087133690956
 21
0.6262904936717005
 31
0.0
  0
LWPOLYLINE
  5
1DB
330
138
100
AcDbEntity
  8
AM_4
100
AcDbPolyline
 90
       31
 70
     0
 43
0.0
 10
-1.792087133690955
 20
-0.4027300472189855
 10
-1.777915896926273
 20
-0.3827055166216935
 10
-1.763156913494182
 20
-0.360072289339851
 10
-1.747727723523724
 20
-0.3340891081546846
 10
-1.732199752849326
 20
-0.3049243505585925
 10
-1.720610340275599
 20
-0.2806359675043176
 10
-1.709355173895055
 20
-0.2543365945102345
 10
-1.698391015605622
 20
-0.2252477434144851
 10
-1.688265980971893
 20
-0.1940174436525514
 10
-1.681287512418497
 20
-0.1688093215229406
 10
-1.675092560709025
 20
-0.1424713907264114
 10
-1.669685707446591
 20
-0.1143515990675509
 10
-1.665372567125063
 20
-0.0853101800055116
 10
-1.662335105336058
 20
-0.0562779722527167
 10
-1.660527336524045
 20
-0.0267749806515698
 10
-1.660014837698246
 20
0.0040324880451944
 10
-1.660891195701908
 20
0.0348027574312099
 10
-1.662775877223416
 20
0.0613634879537912
 10
-1.665654034134598
 20
0.0875072472487737
 10
-1.66958302528798
 20
0.1137515961685992
 10
-1.674409221801404
 20
0.1392440877631349
 10
-1.6801392344502
 20
0.164264113768533
 10
-1.686588416263598
 20
0.1882904730438792
 10
-1.693797843275734
 20
0.2117126179148397
 10
-1.701526080742548
 20
0.2339894322998997
 10
-1.714174633104192
 20
0.2659742201763424
 10
-1.727432693287936
 20
0.2952309176687433
 10
-1.741356735501469
 20
0.3225327921627562
 10
-1.755311055474931
 20
0.3471870362645538
 10
-1.774064921846908
 20
0.3769847308789225
 10
-1.792087133690955
 20
0.4027300472189867
  0
ENDBLK
  5
13B
330
138
100
AcDbEntity
  8
0
100
AcDbBlockEnd
  0
ENDSEC
  0
SECTION
  2
ENTITIES
  0
INSERT
  5
6F
330
1F
100
AcDbEntity
  8
0
100
AcDbBlockReference
  2
1_131840_4
 10
0.0
 20
0.0
 30
0.0
  0
POINT
  5
1DD
330
1F
100
AcDbEntity
  8
ConnectionPoints
100
AcDbPoint
 10
0.0
 20
0.0
 30
0.0
  0
POINT
  5
1DE
330
1F
100
AcDbEntity
  8
ConnectionPoints
100
AcDbPoint
 10
0.0
 20
-1.28
 30
0.0000000000000001
  0
POINT
  5
1DF
330
1F
100
AcDbEntity
  8
ConnectionPoints
100
AcDbPoint
 10
1.329360748630709
 20
0.0000000000000001
 30
1.32936074863071
  0
POINT
  5
1E0
330
1F
100
AcDbEntity
  8
ConnectionPoints
100
AcDbPoint
 10
1.329360748630709
 20
0.0000000000000001
 30
1.32936074863071
  0
POINT
  5
1E1
330
1F
100
AcDbEntity
  8
ConnectionPoints
100
AcDbPoint
 10
0.0
 20
-1.28
 30
0.0000000000000001
  0
ENDSEC
  0
SECTION
  2
OBJECTS
  0
DICTIONARY
  5
C
330
0
100
AcDbDictionary
281
     1
  3
ACAD_DETAILVIEWSTYLE
350
1E9
  3
ACAD_GROUP
350
D
  3
ACAD_LAYOUT
350
1A
  3
ACAD_MATERIAL
350
43
  3
ACAD_MLEADERSTYLE
350
6B
  3
ACAD_MLINESTYLE
350
17
  3
ACAD_PLOTSETTINGS
350
19
  3
ACAD_PLOTSTYLENAME
350
E
  3
ACAD_SCALELIST
350
47
  3
ACAD_SECTIONVIEWSTYLE
350
1EA
  3
ACAD_TABLESTYLE
350
69
  3
ACAD_VISUALSTYLE
350
2A
  3
ACDB_RECOMPOSE_DATA
350
1E6
  3
AcDbVariableDictionary
350
1E2
  0
SUN
  5
6D
330
29
100
AcDbSun
 90
        1
290
     0
 63
     7
421
 16777215
 40
1.0
291
     1
 91
  2455826
 92
 54000000
292
     0
 70
     2
 71
   256
280
     1
  0
DICTIONARY
  5
1E9
102
{ACAD_REACTORS
330
C
102
}
330
C
100
AcDbDictionary
281
     1
  0
DICTIONARY
  5
D
102
{ACAD_REACTORS
330
C
102
}
330
C
100
AcDbDictionary
281
     1
  0
DICTIONARY
  5
1A
102
{ACAD_REACTORS
330
C
102
}
330
C
100
AcDbDictionary
281
     1
  3
Layout1
350
1E
  3
Layout2
350
26
  3
Model
350
22
  0
DICTIONARY
  5
43
102
{ACAD_REACTORS
330
C
102
}
330
C
100
AcDbDictionary
281
     1
  3
ByBlock
350
45
  3
ByLayer
350
44
  3
Global
350
46
  0
DICTIONARY
  5
6B
102
{ACAD_REACTORS
330
C
102
}
330
C
100
AcDbDictionary
281
     1
  3
Standard
350
6C
  0
DICTIONARY
  5
17
102
{ACAD_REACTORS
330
C
102
}
330
C
100
AcDbDictionary
281
     1
  3
Standard
350
18
  0
DICTIONARY
  5
19
102
{ACAD_REACTORS
330
C
102
}
330
C
100
AcDbDictionary
281
     1
  0
ACDBDICTIONARYWDFLT
  5
E
102
{ACAD_REACTORS
330
C
102
}
330
C
100
AcDbDictionary
281
     1
  3
Normal
350
F
100
AcDbDictionaryWithDefault
340
F
  0
DICTIONARY
  5
47
102
{ACAD_REACTORS
330
C
102
}
330
C
100
AcDbDictionary
281
     1
  3
A0
350
48
  3
A1
350
49
  3
A2
350
4A
  3
A3
350
4B
  3
A4
350
4C
  3
A5
350
4D
  3
A6
350
4E
  3
A7
350
4F
  3
A8
350
50
  3
A9
350
51
  3
B0
350
52
  3
B1
350
53
  3
B2
350
54
  3
B3
350
55
  3
B4
350
56
  3
B5
350
57
  3
B6
350
58
  3
B7
350
59
  3
B8
350
5A
  3
B9
350
5B
  3
C0
350
5C
  3
C1
350
5D
  3
C2
350
5E
  3
C3
350
5F
  3
C4
350
60
  3
C5
350
61
  3
C6
350
62
  3
C7
350
63
  3
C8
350
64
  3
C9
350
65
  3
D0
350
66
  3
D1
350
67
  3
D2
350
68
  0
DICTIONARY
  5
1EA
102
{ACAD_REACTORS
330
C
102
}
330
C
100
AcDbDictionary
281
     1
  0
DICTIONARY
  5
69
102
{ACAD_REACTORS
330
C
102
}
330
C
100
AcDbDictionary
281
     1
  3
Standard
350
6A
  0
DICTIONARY
  5
2A
102
{ACAD_REACTORS
330
C
102
}
330
C
100
AcDbDictionary
281
     1
  3
2dWireframe
350
2F
  3
Basic
350
32
  3
Brighten
350
36
  3
ColorChange
350
3A
  3
Conceptual
350
34
  3
Dim
350
35
  3
EdgeColorOff
350
3D
  3
Facepattern
350
39
  3
Flat
350
2B
  3
FlatWithEdges
350
2C
  3
Gouraud
350
2D
  3
GouraudWithEdges
350
2E
  3
Hidden
350
31
  3
JitterOff
350
3B
  3
Linepattern
350
38
  3
OverhangOff
350
3C
  3
Realistic
350
33
  3
Shaded
350
42
  3
Shaded with edges
350
41
  3
Shades of Gray
350
3E
  3
Sketchy
350
3F
  3
Thicken
350
37
  3
Wireframe
350
30
  3
X-Ray
350
40
  0
XRECORD
  5
1E6
102
{ACAD_REACTORS
330
C
102
}
330
C
100
AcDbXrecord
280
     1
 90
        1
330
6A
  0
DICTIONARY
  5
1E2
102
{ACAD_REACTORS
330
C
102
}
330
C
100
AcDbDictionary
281
     1
  3
CANNOSCALE
350
1E3
  3
CMLEADERSTYLE
350
1E8
  3
CTABLESTYLE
350
1E7
  0
LAYOUT
  5
1E
102
{ACAD_REACTORS
330
1A
102
}
330
1A
100
AcDbPlotSettings
  1

  2
none_device
  4

  6

 40
0.0
 41
0.0
 42
0.0
 43
0.0
 44
0.0
 45
0.0
 46
0.0
 47
0.0
 48
0.0
 49
0.0
140
0.0
141
0.0
142
1.0
143
1.0
 70
   688
 72
     0
 73
     0
 74
     5
  7

 75
    16
 76
     0
 77
     2
 78
   300
147
1.0
148
0.0
149
0.0
100
AcDbLayout
  1
Layout1
 70
     1
 71
     1
 10
0.0
 20
0.0
 11
12.0
 21
9.0
 12
0.0
 22
0.0
 32
0.0
 14
1.000000000000000E+20
 24
1.000000000000000E+20
 34
1.000000000000000E+20
 15
-1.000000000000000E+20
 25
-1.000000000000000E+20
 35
-1.000000000000000E+20
146
0.0
 13
0.0
 23
0.0
 33
0.0
 16
1.0
 26
0.0
 36
0.0
 17
0.0
 27
1.0
 37
0.0
 76
     0
330
1B
  0
LAYOUT
  5
26
102
{ACAD_REACTORS
330
1A
102
}
330
1A
100
AcDbPlotSettings
  1

  2
none_device
  4

  6

 40
0.0
 41
0.0
 42
0.0
 43
0.0
 44
0.0
 45
0.0
 46
0.0
 47
0.0
 48
0.0
 49
0.0
140
0.0
141
0.0
142
1.0
143
1.0
 70
   688
 72
     0
 73
     0
 74
     5
  7

 75
    16
 76
     0
 77
     2
 78
   300
147
1.0
148
0.0
149
0.0
100
AcDbLayout
  1
Layout2
 70
     1
 71
     2
 10
0.0
 20
0.0
 11
0.0
 21
0.0
 12
0.0
 22
0.0
 32
0.0
 14
0.0
 24
0.0
 34
0.0
 15
0.0
 25
0.0
 35
0.0
146
0.0
 13
0.0
 23
0.0
 33
0.0
 16
1.0
 26
0.0
 36
0.0
 17
0.0
 27
1.0
 37
0.0
 76
     0
330
23
  0
LAYOUT
  5
22
102
{ACAD_REACTORS
330
1A
102
}
330
1A
100
AcDbPlotSettings
  1

  2
none_device
  4
Letter_(8.50_x_11.00_Inches)
  6

 40
6.35
 41
6.35
 42
6.35000508
 43
6.35000508
 44
215.9
 45
279.4
 46
0.0
 47
0.0
 48
0.0
 49
0.0
140
0.0
141
0.0
142
1.0
143
1.0
 70
  1712
 72
     0
 73
     0
 74
     0
  7

 75
     0
 76
     0
 77
     2
 78
   300
147
1.0
148
0.0
149
0.0
100
AcDbLayout
  1
Model
 70
     1
 71
     0
 10
0.0
 20
0.0
 11
12.0
 21
9.0
 12
0.0
 22
0.0
 32
0.0
 14
1.000000000000000E+20
 24
1.000000000000000E+20
 34
1.000000000000000E+20
 15
-1.000000000000000E+20
 25
-1.000000000000000E+20
 35
-1.000000000000000E+20
146
0.0
 13
0.0
 23
0.0
 33
0.0
 16
1.0
 26
0.0
 36
0.0
 17
0.0
 27
1.0
 37
0.0
 76
     0
330
1F
331
29
  0
MATERIAL
  5
45
102
{ACAD_REACTORS
330
43
102
}
330
43
100
AcDbMaterial
  1
ByBlock
 72
     1
 94
      127
  0
MATERIAL
  5
44
102
{ACAD_REACTORS
330
43
102
}
330
43
100
AcDbMaterial
  1
ByLayer
 72
     1
 94
      127
  0
MATERIAL
  5
46
102
{ACAD_REACTORS
330
43
102
}
330
43
100
AcDbMaterial
  1
Global
 72
     1
 94
      127
  0
MLEADERSTYLE
  5
6C
102
{ACAD_REACTORS
330
6B
102
}
330
6B
100
AcDbMLeaderStyle
179
     2
170
     2
171
     1
172
     0
 90
        2
 40
0.0
 41
0.0
173
     1
 91
-1056964608
340
14
 92
       -2
290
     1
 42
0.09
291
     1
 43
0.36
  3
Standard
341
0
 44
0.18
300

342
11
174
     1
178
     6
175
     1
176
     0
 93
-1056964608
 45
0.18
292
     0
297
     0
 46
0.18
343
0
 94
-1056964608
 47
1.0
 49
1.0
140
1.0
293
     1
141
0.0
294
     1
177
     0
142
1.0
295
     0
296
     0
143
0.125
271
     0
272
     9
273
     9
298
     0
  0
MLINESTYLE
  5
18
102
{ACAD_REACTORS
330
17
102
}
330
17
100
AcDbMlineStyle
  2
Standard
 70
     0
  3

 62
   256
 51
90.0
 52
90.0
 71
     2
 49
0.5
 62
   256
  6
BYLAYER
 49
-0.5
 62
   256
  6
BYLAYER
  0
ACDBPLACEHOLDER
  5
F
102
{ACAD_REACTORS
330
E
102
}
330
E
  0
SCALE
  5
48
102
{ACAD_REACTORS
330
47
102
}
330
47
100
AcDbScale
 70
     0
300
1:1
140
1.0
141
1.0
290
     1
  0
SCALE
  5
49
102
{ACAD_REACTORS
330
47
102
}
330
47
100
AcDbScale
 70
     0
300
1:2
140
1.0
141
2.0
290
     0
  0
SCALE
  5
4A
102
{ACAD_REACTORS
330
47
102
}
330
47
100
AcDbScale
 70
     0
300
1:4
140
1.0
141
4.0
290
     0
  0
SCALE
  5
4B
102
{ACAD_REACTORS
330
47
102
}
330
47
100
AcDbScale
 70
     0
300
1:5
140
1.0
141
5.0
290
     0
  0
SCALE
  5
4C
102
{ACAD_REACTORS
330
47
102
}
330
47
100
AcDbScale
 70
     0
300
1:8
140
1.0
141
8.0
290
     0
  0
SCALE
  5
4D
102
{ACAD_REACTORS
330
47
102
}
330
47
100
AcDbScale
 70
     0
300
1:10
140
1.0
141
10.0
290
     0
  0
SCALE
  5
4E
102
{ACAD_REACTORS
330
47
102
}
330
47
100
AcDbScale
 70
     0
300
1:16
140
1.0
141
16.0
290
     0
  0
SCALE
  5
4F
102
{ACAD_REACTORS
330
47
102
}
330
47
100
AcDbScale
 70
     0
300
1:20
140
1.0
141
20.0
290
     0
  0
SCALE
  5
50
102
{ACAD_REACTORS
330
47
102
}
330
47
100
AcDbScale
 70
     0
300
1:30
140
1.0
141
30.0
290
     0
  0
SCALE
  5
51
102
{ACAD_REACTORS
330
47
102
}
330
47
100
AcDbScale
 70
     0
300
1:40
140
1.0
141
40.0
290
     0
  0
SCALE
  5
52
102
{ACAD_REACTORS
330
47
102
}
330
47
100
AcDbScale
 70
     0
300
1:50
140
1.0
141
50.0
290
     0
  0
SCALE
  5
53
102
{ACAD_REACTORS
330
47
102
}
330
47
100
AcDbScale
 70
     0
300
1:100
140
1.0
141
100.0
290
     0
  0
SCALE
  5
54
102
{ACAD_REACTORS
330
47
102
}
330
47
100
AcDbScale
 70
     0
300
2:1
140
2.0
141
1.0
290
     0
  0
SCALE
  5
55
102
{ACAD_REACTORS
330
47
102
}
330
47
100
AcDbScale
 70
     0
300
4:1
140
4.0
141
1.0
290
     0
  0
SCALE
  5
56
102
{ACAD_REACTORS
330
47
102
}
330
47
100
AcDbScale
 70
     0
300
8:1
140
8.0
141
1.0
290
     0
  0
SCALE
  5
57
102
{ACAD_REACTORS
330
47
102
}
330
47
100
AcDbScale
 70
     0
300
10:1
140
10.0
141
1.0
290
     0
  0
SCALE
  5
58
102
{ACAD_REACTORS
330
47
102
}
330
47
100
AcDbScale
 70
     0
300
100:1
140
100.0
141
1.0
290
     0
  0
SCALE
  5
59
102
{ACAD_REACTORS
330
47
102
}
330
47
100
AcDbScale
 70
     0
300
1/128" = 1'-0"
140
0.0078125
141
12.0
290
     0
  0
SCALE
  5
5A
102
{ACAD_REACTORS
330
47
102
}
330
47
100
AcDbScale
 70
     0
300
1/64" = 1'-0"
140
0.015625
141
12.0
290
     0
  0
SCALE
  5
5B
102
{ACAD_REACTORS
330
47
102
}
330
47
100
AcDbScale
 70
     0
300
1/32" = 1'-0"
140
0.03125
141
12.0
290
     0
  0
SCALE
  5
5C
102
{ACAD_REACTORS
330
47
102
}
330
47
100
AcDbScale
 70
     0
300
1/16" = 1'-0"
140
0.0625
141
12.0
290
     0
  0
SCALE
  5
5D
102
{ACAD_REACTORS
330
47
102
}
330
47
100
AcDbScale
 70
     0
300
3/32" = 1'-0"
140
0.09375
141
12.0
290
     0
  0
SCALE
  5
5E
102
{ACAD_REACTORS
330
47
102
}
330
47
100
AcDbScale
 70
     0
300
1/8" = 1'-0"
140
0.125
141
12.0
290
     0
  0
SCALE
  5
5F
102
{ACAD_REACTORS
330
47
102
}
330
47
100
AcDbScale
 70
     0
300
3/16" = 1'-0"
140
0.1875
141
12.0
290
     0
  0
SCALE
  5
60
102
{ACAD_REACTORS
330
47
102
}
330
47
100
AcDbScale
 70
     0
300
1/4" = 1'-0"
140
0.25
141
12.0
290
     0
  0
SCALE
  5
61
102
{ACAD_REACTORS
330
47
102
}
330
47
100
AcDbScale
 70
     0
300
3/8" = 1'-0"
140
0.375
141
12.0
290
     0
  0
SCALE
  5
62
102
{ACAD_REACTORS
330
47
102
}
330
47
100
AcDbScale
 70
     0
300
1/2" = 1'-0"
140
0.5
141
12.0
290
     0
  0
SCALE
  5
63
102
{ACAD_REACTORS
330
47
102
}
330
47
100
AcDbScale
 70
     0
300
3/4" = 1'-0"
140
0.75
141
12.0
290
     0
  0
SCALE
  5
64
102
{ACAD_REACTORS
330
47
102
}
330
47
100
AcDbScale
 70
     0
300
1" = 1'-0"
140
1.0
141
12.0
290
     0
  0
SCALE
  5
65
102
{ACAD_REACTORS
330
47
102
}
330
47
100
AcDbScale
 70
     0
300
1-1/2" = 1'-0"
140
1.5
141
12.0
290
     0
  0
SCALE
  5
66
102
{ACAD_REACTORS
330
47
102
}
330
47
100
AcDbScale
 70
     0
300
3" = 1'-0"
140
3.0
141
12.0
290
     0
  0
SCALE
  5
67
102
{ACAD_REACTORS
330
47
102
}
330
47
100
AcDbScale
 70
     0
300
6" = 1'-0"
140
6.0
141
12.0
290
     0
  0
SCALE
  5
68
102
{ACAD_REACTORS
330
47
102
}
330
47
100
AcDbScale
 70
     0
300
1'-0" = 1'-0"
140
12.0
141
12.0
290
     0
  0
TABLESTYLE
  5
6A
102
{ACAD_REACTORS
330
69
102
}
102
{ACAD_XDICTIONARY
360
1E4
102
}
330
69
100
AcDbTableStyle
  3
Standard
 70
     0
 71
     0
 40
0.06
 41
0.06
280
     0
281
     0
  7
Standard
140
0.18
170
     2
 62
     0
 63
   257
283
     0
 90
        4
 91
        0
  1

274
    -2
284
     1
 64
     0
275
    -2
285
     1
 65
     0
276
    -2
286
     1
 66
     0
277
    -2
287
     1
 67
     0
278
    -2
288
     1
 68
     0
279
    -2
289
     1
 69
     0
  7
Standard
140
0.25
170
     5
 62
     0
 63
   257
283
     0
 90
        4
 91
        0
  1

274
    -2
284
     1
 64
     0
275
    -2
285
     1
 65
     0
276
    -2
286
     1
 66
     0
277
    -2
287
     1
 67
     0
278
    -2
288
     1
 68
     0
279
    -2
289
     1
 69
     0
  7
Standard
140
0.18
170
     5
 62
     0
 63
   257
283
     0
 90
        4
 91
        0
  1

274
    -2
284
     1
 64
     0
275
    -2
285
     1
 65
     0
276
    -2
286
     1
 66
     0
277
    -2
287
     1
 67
     0
278
    -2
288
     1
 68
     0
279
    -2
289
     1
 69
     0
  0
VISUALSTYLE
  5
2F
102
{ACAD_REACTORS
330
2A
102
}
330
2A
100
AcDbVisualStyle
  2
2dWireframe
 70
     4
177
     3
291
     0
 70
    58
 90
        0
176
     1
 90
        2
176
     1
 90
        0
176
     1
 90
        0
176
     1
 40
0.6
176
     1
 40
30.0
176
     1
 62
     7
420
 16777215
176
     1
 90
        1
176
     1
 90
        4
176
     1
 62
     7
176
     1
 62
   257
176
     1
 90
        1
176
     1
 90
        1
176
     1
 40
1.0
176
     1
 90
        0
176
     1
 62
   257
176
     1
 40
1.0
176
     1
 90
        1
176
     1
 90
        6
176
     1
 90
        2
176
     1
 62
     7
176
     1
 90
        5
176
     1
 90
        0
176
     1
 90
        0
176
     1
290
     0
176
     1
 90
        1
176
     1
 40
0.0
176
     1
 90
        0
176
     1
290
     1
176
     1
290
     1
176
     1
290
     0
176
     1
290
     0
176
     1
290
     0
176
     1
290
     0
176
     1
290
     0
176
     1
290
     0
176
     1
290
     0
176
     1
 90
       50
176
     1
 40
0.0
176
     1
 40
1.0
176
     1
 90
        0
176
     1
 62
    18
420
        0
176
     1
 90
       50
176
     1
 90
        3
176
     1
 62
     5
420
      255
176
     1
290
     0
176
     1
 90
       50
176
     1
 90
       50
176
     1
 90
       50
176
     1
290
     0
176
     1
 90
       50
176
     1
 62
   256
176
     0
 40
1.0
176
     0
 90
        2
176
     1
  1
strokes_ogs.tif
176
     1
290
     0
176
     1
 40
1.0
176
     1
 40
1.0
176
     1
  0
VISUALSTYLE
  5
32
102
{ACAD_REACTORS
330
2A
102
}
330
2A
100
AcDbVisualStyle
  2
Basic
 70
     7
177
     3
291
     1
 70
    58
 90
        1
176
     1
 90
        0
176
     1
 90
        1
176
     1
 90
        0
176
     1
 40
0.6
176
     1
 40
30.0
176
     1
 62
     7
420
 16777215
176
     1
 90
        0
176
     1
 90
        4
176
     1
 62
     7
176
     1
 62
   257
176
     1
 90
        1
176
     1
 90
        1
176
     1
 40
1.0
176
     1
 90
        8
176
     1
 62
     7
176
     1
 40
1.0
176
     1
 90
        1
176
     1
 90
        6
176
     1
 90
        2
176
     1
 62
     7
176
     1
 90
        5
176
     1
 90
        0
176
     1
 90
        0
176
     1
290
     0
176
     1
 90
        1
176
     1
 40
0.0
176
     1
 90
        0
176
     1
290
     0
176
     1
290
     1
176
     1
290
     1
176
     1
290
     0
176
     1
290
     0
176
     1
290
     0
176
     1
290
     0
176
     1
290
     0
176
     1
290
     0
176
     1
 90
       50
176
     1
 40
0.0
176
     1
 40
1.0
176
     1
 90
        0
176
     1
 62
    18
420
        0
176
     1
 90
       50
176
     1
 90
        3
176
     1
 62
     5
420
      255
176
     1
290
     0
176
     1
 90
       50
176
     1
 90
       50
176
     1
 90
       50
176
     1
290
     0
176
     1
 90
       50
176
     1
 62
   256
176
     0
 40
1.0
176
     0
 90
        2
176
     1
  1
strokes_ogs.tif
176
     1
290
     0
176
     1
 40
1.0
176
     1
 40
1.0
176
     1
  0
VISUALSTYLE
  5
36
102
{ACAD_REACTORS
330
2A
102
}
330
2A
100
AcDbVisualStyle
  2
Brighten
 70
    12
177
     3
291
     1
 70
    58
 90
        2
176
     1
 90
        2
176
     1
 90
        0
176
     1
 90
        0
176
     1
 40
0.6
176
     1
 40
30.0
176
     1
 62
     7
420
 16777215
176
     1
 90
        1
176
     1
 90
        4
176
     1
 62
     7
176
     1
 62
   257
176
     1
 90
        1
176
     1
 90
        1
176
     1
 40
1.0
176
     1
 90
        8
176
     1
 62
     7
176
     1
 40
1.0
176
     1
 90
        1
176
     1
 90
        6
176
     1
 90
        2
176
     1
 62
     7
176
     1
 90
        5
176
     1
 90
        0
176
     1
 90
        0
176
     1
290
     0
176
     1
 90
        1
176
     1
 40
50.0
176
     1
 90
        0
176
     1
290
     0
176
     1
290
     1
176
     1
290
     1
176
     1
290
     0
176
     1
290
     0
176
     1
290
     0
176
     1
290
     0
176
     1
290
     0
176
     1
290
     0
176
     1
 90
       50
176
     1
 40
0.0
176
     1
 40
1.0
176
     1
 90
        0
176
     1
 62
    18
420
        0
176
     1
 90
       50
176
     1
 90
        3
176
     1
 62
     5
420
      255
176
     1
290
     0
176
     1
 90
       50
176
     1
 90
       50
176
     1
 90
       50
176
     1
290
     0
176
     1
 90
       50
176
     1
 62
   256
176
     0
 40
1.0
176
     0
 90
        2
176
     1
  1
strokes_ogs.tif
176
     1
290
     0
176
     1
 40
1.0
176
     1
 40
1.0
176
     1
  0
VISUALSTYLE
  5
3A
102
{ACAD_REACTORS
330
2A
102
}
330
2A
100
AcDbVisualStyle
  2
ColorChange
 70
    16
177
     3
291
     1
 70
    58
 90
        2
176
     1
 90
        2
176
     1
 90
        3
176
     1
 90
        0
176
     1
 40
0.6
176
     1
 40
30.0
176
     1
 62
     8
420
  8421504
176
     1
 90
        1
176
     1
 90
        4
176
     1
 62
     7
176
     1
 62
   257
176
     1
 90
        1
176
     1
 90
        1
176
     1
 40
1.0
176
     1
 90
        8
176
     1
 62
     8
420
  8421504
176
     1
 40
1.0
176
     1
 90
        1
176
     1
 90
        6
176
     1
 90
        2
176
     1
 62
     7
176
     1
 90
        5
176
     1
 90
        0
176
     1
 90
        0
176
     1
290
     0
176
     1
 90
        1
176
     1
 40
0.0
176
     1
 90
        0
176
     1
290
     0
176
     1
290
     1
176
     1
290
     1
176
     1
290
     0
176
     1
290
     0
176
     1
290
     0
176
     1
290
     0
176
     1
290
     0
176
     1
290
     0
176
     1
 90
       50
176
     1
 40
0.0
176
     1
 40
1.0
176
     1
 90
        0
176
     1
 62
    18
420
        0
176
     1
 90
       50
176
     1
 90
        3
176
     1
 62
     5
420
      255
176
     1
290
     0
176
     1
 90
       50
176
     1
 90
       50
176
     1
 90
       50
176
     1
290
     0
176
     1
 90
       50
176
     1
 62
   256
176
     0
 40
1.0
176
     0
 90
        2
176
     1
  1
strokes_ogs.tif
176
     1
290
     0
176
     1
 40
1.0
176
     1
 40
1.0
176
     1
  0
VISUALSTYLE
  5
34
102
{ACAD_REACTORS
330
2A
102
}
330
2A
100
AcDbVisualStyle
  2
Conceptual
 70
     9
177
     3
291
     0
 70
    58
 90
        3
176
     1
 90
        2
176
     1
 90
        0
176
     1
 90
        0
176
     1
 40
0.6
176
     1
 40
30.0
176
     1
 62
     7
420
 16777215
176
     1
 90
        2
176
     1
 90
        2
176
     1
 62
     7
176
     1
 62
   257
176
     1
 90
        1
176
     1
 90
        1
176
     1
 40
179.0
176
     1
 90
        8
176
     1
 62
     7
176
     1
 40
1.0
176
     1
 90
        1
176
     1
 90
        6
176
     1
 90
        2
176
     1
 62
     7
176
     1
 90
        3
176
     1
 90
        0
176
     1
 90
        0
176
     1
290
     0
176
     1
 90
        1
176
     1
 40
0.0
176
     1
 90
        0
176
     1
290
     0
176
     1
290
     1
176
     1
290
     1
176
     1
290
     0
176
     1
290
     0
176
     1
290
     0
176
     1
290
     0
176
     1
290
     0
176
     1
290
     0
176
     1
 90
       50
176
     1
 40
0.0
176
     1
 40
1.0
176
     1
 90
        0
176
     1
 62
    18
420
        0
176
     1
 90
       50
176
     1
 90
        3
176
     1
 62
     5
420
      255
176
     1
290
     0
176
     1
 90
       50
176
     1
 90
       50
176
     1
 90
       50
176
     1
290
     0
176
     1
 90
       50
176
     1
 62
   256
176
     0
 40
1.0
176
     0
 90
        2
176
     1
  1
strokes_ogs.tif
176
     1
290
     0
176
     1
 40
1.0
176
     1
 40
1.0
176
     1
  0
VISUALSTYLE
  5
35
102
{ACAD_REACTORS
330
2A
102
}
330
2A
100
AcDbVisualStyle
  2
Dim
 70
    11
177
     3
291
     1
 70
    58
 90
        2
176
     1
 90
        2
176
     1
 90
        0
176
     1
 90
        0
176
     1
 40
0.6
176
     1
 40
30.0
176
     1
 62
     7
420
 16777215
176
     1
 90
        1
176
     1
 90
        4
176
     1
 62
     7
176
     1
 62
   257
176
     1
 90
        1
176
     1
 90
        1
176
     1
 40
1.0
176
     1
 90
        8
176
     1
 62
     7
176
     1
 40
1.0
176
     1
 90
        1
176
     1
 90
        6
176
     1
 90
        2
176
     1
 62
     7
176
     1
 90
        5
176
     1
 90
        0
176
     1
 90
        0
176
     1
290
     0
176
     1
 90
        1
176
     1
 40
-50.0
176
     1
 90
        0
176
     1
290
     0
176
     1
290
     1
176
     1
290
     1
176
     1
290
     0
176
     1
290
     0
176
     1
290
     0
176
     1
290
     0
176
     1
290
     0
176
     1
290
     0
176
     1
 90
       50
176
     1
 40
0.0
176
     1
 40
1.0
176
     1
 90
        0
176
     1
 62
    18
420
        0
176
     1
 90
       50
176
     1
 90
        3
176
     1
 62
     5
420
      255
176
     1
290
     0
176
     1
 90
       50
176
     1
 90
       50
176
     1
 90
       50
176
     1
290
     0
176
     1
 90
       50
176
     1
 62
   256
176
     0
 40
1.0
176
     0
 90
        2
176
     1
  1
strokes_ogs.tif
176
     1
290
     0
176
     1
 40
1.0
176
     1
 40
1.0
176
     1
  0
VISUALSTYLE
  5
3D
102
{ACAD_REACTORS
330
2A
102
}
330
2A
100
AcDbVisualStyle
  2
EdgeColorOff
 70
    22
177
     3
291
     1
 70
    58
 90
        2
176
     0
 90
        2
176
     0
 90
        0
176
     0
 90
        0
176
     0
 40
0.6
176
     0
 40
30.0
176
     0
 62
     7
420
 16777215
176
     0
 90
        1
176
     0
 90
        4
176
     0
 62
     7
176
     0
 62
   257
176
     0
 90
        1
176
     0
 90
        1
176
     0
 40
1.0
176
     0
 90
        8
176
     2
 62
     7
176
     0
 40
1.0
176
     0
 90
        1
176
     0
 90
        6
176
     0
 90
        2
176
     0
 62
     7
176
     0
 90
        5
176
     0
 90
        0
176
     0
 90
        0
176
     0
290
     0
176
     0
 90
        1
176
     0
 40
0.0
176
     0
 90
        0
176
     0
290
     0
176
     0
290
     1
176
     0
290
     1
176
     0
290
     0
176
     0
290
     0
176
     0
290
     0
176
     0
290
     0
176
     0
290
     0
176
     0
290
     0
176
     0
 90
       50
176
     0
 40
0.0
176
     0
 40
1.0
176
     0
 90
        0
176
     0
 62
    18
420
        0
176
     0
 90
       50
176
     0
 90
        3
176
     0
 62
     5
420
      255
176
     0
290
     0
176
     0
 90
       50
176
     0
 90
       50
176
     0
 90
       50
176
     0
290
     0
176
     0
 90
       50
176
     0
 62
   256
176
     0
 40
1.0
176
     0
 90
        2
176
     0
  1
strokes_ogs.tif
176
     0
290
     0
176
     0
 40
1.0
176
     0
 40
1.0
176
     0
  0
VISUALSTYLE
  5
39
102
{ACAD_REACTORS
330
2A
102
}
330
2A
100
AcDbVisualStyle
  2
Facepattern
 70
    15
177
     3
291
     1
 70
    58
 90
        2
176
     1
 90
        2
176
     1
 90
        0
176
     1
 90
        0
176
     1
 40
0.6
176
     1
 40
30.0
176
     1
 62
     7
420
 16777215
176
     1
 90
        1
176
     1
 90
        4
176
     1
 62
     7
176
     1
 62
   257
176
     1
 90
        1
176
     1
 90
        1
176
     1
 40
1.0
176
     1
 90
        8
176
     1
 62
     7
176
     1
 40
1.0
176
     1
 90
        1
176
     1
 90
        6
176
     1
 90
        2
176
     1
 62
     7
176
     1
 90
        5
176
     1
 90
        0
176
     1
 90
        0
176
     1
290
     0
176
     1
 90
        1
176
     1
 40
0.0
176
     1
 90
        0
176
     1
290
     0
176
     1
290
     1
176
     1
290
     1
176
     1
290
     0
176
     1
290
     0
176
     1
290
     0
176
     1
290
     0
176
     1
290
     0
176
     1
290
     0
176
     1
 90
       50
176
     1
 40
0.0
176
     1
 40
1.0
176
     1
 90
        0
176
     1
 62
    18
420
        0
176
     1
 90
       50
176
     1
 90
        3
176
     1
 62
     5
420
      255
176
     1
290
     0
176
     1
 90
       50
176
     1
 90
       50
176
     1
 90
       50
176
     1
290
     0
176
     1
 90
       50
176
     1
 62
   256
176
     0
 40
1.0
176
     0
 90
        2
176
     1
  1
strokes_ogs.tif
176
     1
290
     0
176
     1
 40
1.0
176
     1
 40
1.0
176
     1
  0
VISUALSTYLE
  5
2B
102
{ACAD_REACTORS
330
2A
102
}
330
2A
100
AcDbVisualStyle
  2
Flat
 70
     0
177
     3
291
     1
 70
    58
 90
        2
176
     1
 90
        1
176
     1
 90
        1
176
     1
 90
        2
176
     1
 40
0.6
176
     1
 40
30.0
176
     1
 62
     7
420
 16777215
176
     1
 90
        0
176
     1
 90
        0
176
     1
 62
     7
176
     1
 62
   257
176
     1
 90
        1
176
     1
 90
        1
176
     1
 40
1.0
176
     1
 90
        8
176
     1
 62
     7
176
     1
 40
1.0
176
     1
 90
        1
176
     1
 90
        6
176
     1
 90
        2
176
     1
 62
     7
176
     1
 90
        5
176
     1
 90
        0
176
     1
 90
        0
176
     1
290
     0
176
     1
 90
       13
176
     1
 40
0.0
176
     1
 90
        0
176
     1
290
     0
176
     1
290
     1
176
     1
290
     1
176
     1
290
     0
176
     1
290
     0
176
     1
290
     0
176
     1
290
     0
176
     1
290
     0
176
     1
290
     0
176
     1
 90
       50
176
     1
 40
0.0
176
     1
 40
1.0
176
     1
 90
        0
176
     1
 62
    18
420
        0
176
     1
 90
       50
176
     1
 90
        3
176
     1
 62
     5
420
      255
176
     1
290
     0
176
     1
 90
       50
176
     1
 90
       50
176
     1
 90
       50
176
     1
290
     0
176
     1
 90
       50
176
     1
 62
   256
176
     0
 40
1.0
176
     0
 90
        2
176
     1
  1
strokes_ogs.tif
176
     1
290
     0
176
     1
 40
1.0
176
     1
 40
1.0
176
     1
  0
VISUALSTYLE
  5
2C
102
{ACAD_REACTORS
330
2A
102
}
330
2A
100
AcDbVisualStyle
  2
FlatWithEdges
 70
     1
177
     3
291
     1
 70
    58
 90
        2
176
     1
 90
        1
176
     1
 90
        1
176
     1
 90
        2
176
     1
 40
0.6
176
     1
 40
30.0
176
     1
 62
     7
420
 16777215
176
     1
 90
        1
176
     1
 90
        0
176
     1
 62
     7
176
     1
 62
   257
176
     1
 90
        1
176
     1
 90
        1
176
     1
 40
1.0
176
     1
 90
        0
176
     1
 62
   257
176
     1
 40
1.0
176
     1
 90
        1
176
     1
 90
        6
176
     1
 90
        2
176
     1
 62
     7
176
     1
 90
        5
176
     1
 90
        0
176
     1
 90
        0
176
     1
290
     0
176
     1
 90
       13
176
     1
 40
0.0
176
     1
 90
        0
176
     1
290
     0
176
     1
290
     1
176
     1
290
     1
176
     1
290
     0
176
     1
290
     0
176
     1
290
     0
176
     1
290
     0
176
     1
290
     0
176
     1
290
     0
176
     1
 90
       50
176
     1
 40
0.0
176
     1
 40
1.0
176
     1
 90
        0
176
     1
 62
    18
420
        0
176
     1
 90
       50
176
     1
 90
        3
176
     1
 62
     5
420
      255
176
     1
290
     0
176
     1
 90
       50
176
     1
 90
       50
176
     1
 90
       50
176
     1
290
     0
176
     1
 90
       50
176
     1
 62
   256
176
     0
 40
1.0
176
     0
 90
        2
176
     1
  1
strokes_ogs.tif
176
     1
290
     0
176
     1
 40
1.0
176
     1
 40
1.0
176
     1
  0
VISUALSTYLE
  5
2D
102
{ACAD_REACTORS
330
2A
102
}
330
2A
100
AcDbVisualStyle
  2
Gouraud
 70
     2
177
     3
291
     1
 70
    58
 90
        2
176
     1
 90
        2
176
     1
 90
        1
176
     1
 90
        2
176
     1
 40
0.6
176
     1
 40
30.0
176
     1
 62
     7
420
 16777215
176
     1
 90
        0
176
     1
 90
        0
176
     1
 62
     7
176
     1
 62
   257
176
     1
 90
        1
176
     1
 90
        1
176
     1
 40
1.0
176
     1
 90
        0
176
     1
 62
     7
176
     1
 40
1.0
176
     1
 90
        1
176
     1
 90
        6
176
     1
 90
        2
176
     1
 62
     7
176
     1
 90
        5
176
     1
 90
        0
176
     1
 90
        0
176
     1
290
     0
176
     1
 90
       13
176
     1
 40
0.0
176
     1
 90
        0
176
     1
290
     0
176
     1
290
     1
176
     1
290
     1
176
     1
290
     0
176
     1
290
     0
176
     1
290
     0
176
     1
290
     0
176
     1
290
     0
176
     1
290
     0
176
     1
 90
       50
176
     1
 40
0.0
176
     1
 40
1.0
176
     1
 90
        0
176
     1
 62
    18
420
        0
176
     1
 90
       50
176
     1
 90
        3
176
     1
 62
     5
420
      255
176
     1
290
     0
176
     1
 90
       50
176
     1
 90
       50
176
     1
 90
       50
176
     1
290
     0
176
     1
 90
       50
176
     1
 62
   256
176
     0
 40
1.0
176
     0
 90
        2
176
     1
  1
strokes_ogs.tif
176
     1
290
     0
176
     1
 40
1.0
176
     1
 40
1.0
176
     1
  0
VISUALSTYLE
  5
2E
102
{ACAD_REACTORS
330
2A
102
}
330
2A
100
AcDbVisualStyle
  2
GouraudWithEdges
 70
     3
177
     3
291
     1
 70
    58
 90
        2
176
     1
 90
        2
176
     1
 90
        1
176
     1
 90
        2
176
     1
 40
0.6
176
     1
 40
30.0
176
     1
 62
     7
420
 16777215
176
     1
 90
        1
176
     1
 90
        0
176
     1
 62
     7
176
     1
 62
   257
176
     1
 90
        1
176
     1
 90
        1
176
     1
 40
1.0
176
     1
 90
        0
176
     1
 62
   257
176
     1
 40
1.0
176
     1
 90
        1
176
     1
 90
        6
176
     1
 90
        2
176
     1
 62
     7
176
     1
 90
        5
176
     1
 90
        0
176
     1
 90
        0
176
     1
290
     0
176
     1
 90
       13
176
     1
 40
0.0
176
     1
 90
        0
176
     1
290
     0
176
     1
290
     1
176
     1
290
     1
176
     1
290
     0
176
     1
290
     0
176
     1
290
     0
176
     1
290
     0
176
     1
290
     0
176
     1
290
     0
176
     1
 90
       50
176
     1
 40
0.0
176
     1
 40
1.0
176
     1
 90
        0
176
     1
 62
    18
420
        0
176
     1
 90
       50
176
     1
 90
        3
176
     1
 62
     5
420
      255
176
     1
290
     0
176
     1
 90
       50
176
     1
 90
       50
176
     1
 90
       50
176
     1
290
     0
176
     1
 90
       50
176
     1
 62
   256
176
     0
 40
1.0
176
     0
 90
        2
176
     1
  1
strokes_ogs.tif
176
     1
290
     0
176
     1
 40
1.0
176
     1
 40
1.0
176
     1
  0
VISUALSTYLE
  5
31
102
{ACAD_REACTORS
330
2A
102
}
330
2A
100
AcDbVisualStyle
  2
Hidden
 70
     6
177
     3
291
     0
 70
    58
 90
        1
176
     1
 90
        2
176
     1
 90
        2
176
     1
 90
        0
176
     1
 40
0.6
176
     1
 40
30.0
176
     1
 62
     7
420
 16777215
176
     1
 90
        2
176
     1
 90
        2
176
     1
 62
     7
176
     1
 62
   257
176
     1
 90
        2
176
     1
 90
        1
176
     1
 40
40.0
176
     1
 90
        0
176
     1
 62
   257
176
     1
 40
1.0
176
     1
 90
        1
176
     1
 90
        6
176
     1
 90
        2
176
     1
 62
     7
176
     1
 90
        3
176
     1
 90
        0
176
     1
 90
        0
176
     1
290
     0
176
     1
 90
        1
176
     1
 40
0.0
176
     1
 90
        0
176
     1
290
     0
176
     1
290
     1
176
     1
290
     1
176
     1
290
     0
176
     1
290
     0
176
     1
290
     0
176
     1
290
     0
176
     1
290
     0
176
     1
290
     0
176
     1
 90
       50
176
     1
 40
0.0
176
     1
 40
1.0
176
     1
 90
        0
176
     1
 62
    18
420
        0
176
     1
 90
       50
176
     1
 90
        3
176
     1
 62
     5
420
      255
176
     1
290
     0
176
     1
 90
       50
176
     1
 90
       50
176
     1
 90
       50
176
     1
290
     0
176
     1
 90
       50
176
     1
 62
   256
176
     0
 40
1.0
176
     0
 90
        2
176
     1
  1
strokes_ogs.tif
176
     1
290
     0
176
     1
 40
1.0
176
     1
 40
1.0
176
     1
  0
VISUALSTYLE
  5
3B
102
{ACAD_REACTORS
330
2A
102
}
330
2A
100
AcDbVisualStyle
  2
JitterOff
 70
    20
177
     3
291
     1
 70
    58
 90
        2
176
     0
 90
        2
176
     0
 90
        0
176
     0
 90
        0
176
     0
 40
0.6
176
     0
 40
30.0
176
     0
 62
     7
420
 16777215
176
     0
 90
        1
176
     0
 90
        4
176
     0
 62
     7
176
     0
 62
   257
176
     0
 90
        1
176
     0
 90
        1
176
     0
 40
1.0
176
     0
 90
       10
176
     2
 62
     7
176
     0
 40
1.0
176
     0
 90
        1
176
     0
 90
        6
176
     0
 90
        2
176
     0
 62
     7
176
     0
 90
        5
176
     0
 90
        0
176
     0
 90
        0
176
     0
290
     0
176
     0
 90
        1
176
     0
 40
0.0
176
     0
 90
        0
176
     0
290
     0
176
     0
290
     1
176
     0
290
     1
176
     0
290
     0
176
     0
290
     0
176
     0
290
     0
176
     0
290
     0
176
     0
290
     0
176
     0
290
     0
176
     0
 90
       50
176
     0
 40
0.0
176
     0
 40
1.0
176
     0
 90
        0
176
     0
 62
    18
420
        0
176
     0
 90
       50
176
     0
 90
        3
176
     0
 62
     5
420
      255
176
     0
290
     0
176
     0
 90
       50
176
     0
 90
       50
176
     0
 90
       50
176
     0
290
     0
176
     0
 90
       50
176
     0
 62
   256
176
     0
 40
1.0
176
     0
 90
        2
176
     0
  1
strokes_ogs.tif
176
     0
290
     0
176
     0
 40
1.0
176
     0
 40
1.0
176
     0
  0
VISUALSTYLE
  5
38
102
{ACAD_REACTORS
330
2A
102
}
330
2A
100
AcDbVisualStyle
  2
Linepattern
 70
    14
177
     3
291
     1
 70
    58
 90
        2
176
     1
 90
        2
176
     1
 90
        0
176
     1
 90
        0
176
     1
 40
0.6
176
     1
 40
30.0
176
     1
 62
     7
420
 16777215
176
     1
 90
        1
176
     1
 90
        4
176
     1
 62
     7
176
     1
 62
   257
176
     1
 90
        7
176
     1
 90
        7
176
     1
 40
1.0
176
     1
 90
        8
176
     1
 62
     7
176
     1
 40
1.0
176
     1
 90
        1
176
     1
 90
        6
176
     1
 90
        2
176
     1
 62
     7
176
     1
 90
        5
176
     1
 90
        0
176
     1
 90
        0
176
     1
290
     0
176
     1
 90
        1
176
     1
 40
0.0
176
     1
 90
        0
176
     1
290
     0
176
     1
290
     1
176
     1
290
     1
176
     1
290
     0
176
     1
290
     0
176
     1
290
     0
176
     1
290
     0
176
     1
290
     0
176
     1
290
     0
176
     1
 90
       50
176
     1
 40
0.0
176
     1
 40
1.0
176
     1
 90
        0
176
     1
 62
    18
420
        0
176
     1
 90
       50
176
     1
 90
        3
176
     1
 62
     5
420
      255
176
     1
290
     0
176
     1
 90
       50
176
     1
 90
       50
176
     1
 90
       50
176
     1
290
     0
176
     1
 90
       50
176
     1
 62
   256
176
     0
 40
1.0
176
     0
 90
        2
176
     1
  1
strokes_ogs.tif
176
     1
290
     0
176
     1
 40
1.0
176
     1
 40
1.0
176
     1
  0
VISUALSTYLE
  5
3C
102
{ACAD_REACTORS
330
2A
102
}
330
2A
100
AcDbVisualStyle
  2
OverhangOff
 70
    21
177
     3
291
     1
 70
    58
 90
        2
176
     0
 90
        2
176
     0
 90
        0
176
     0
 90
        0
176
     0
 40
0.6
176
     0
 40
30.0
176
     0
 62
     7
420
 16777215
176
     0
 90
        1
176
     0
 90
        4
176
     0
 62
     7
176
     0
 62
   257
176
     0
 90
        1
176
     0
 90
        1
176
     0
 40
1.0
176
     0
 90
        9
176
     2
 62
     7
176
     0
 40
1.0
176
     0
 90
        1
176
     0
 90
        6
176
     0
 90
        2
176
     0
 62
     7
176
     0
 90
        5
176
     0
 90
        0
176
     0
 90
        0
176
     0
290
     0
176
     0
 90
        1
176
     0
 40
0.0
176
     0
 90
        0
176
     0
290
     0
176
     0
290
     1
176
     0
290
     1
176
     0
290
     0
176
     0
290
     0
176
     0
290
     0
176
     0
290
     0
176
     0
290
     0
176
     0
290
     0
176
     0
 90
       50
176
     0
 40
0.0
176
     0
 40
1.0
176
     0
 90
        0
176
     0
 62
    18
420
        0
176
     0
 90
       50
176
     0
 90
        3
176
     0
 62
     5
420
      255
176
     0
290
     0
176
     0
 90
       50
176
     0
 90
       50
176
     0
 90
       50
176
     0
290
     0
176
     0
 90
       50
176
     0
 62
   256
176
     0
 40
1.0
176
     0
 90
        2
176
     0
  1
strokes_ogs.tif
176
     0
290
     0
176
     0
 40
1.0
176
     0
 40
1.0
176
     0
  0
VISUALSTYLE
  5
33
102
{ACAD_REACTORS
330
2A
102
}
330
2A
100
AcDbVisualStyle
  2
Realistic
 70
     8
177
     3
291
     0
 70
    58
 90
        2
176
     1
 90
        3
176
     1
 90
        0
176
     1
 90
        2
176
     1
 40
0.6
176
     1
 40
30.0
176
     1
 62
     7
420
 16777215
176
     1
 90
        0
176
     1
 90
        0
176
     1
 62
     7
176
     1
 62
   257
176
     1
 90
        1
176
     1
 90
        1
176
     1
 40
1.0
176
     1
 90
        8
176
     1
 62
   257
176
     1
 40
1.0
176
     1
 90
        1
176
     1
 90
        6
176
     1
 90
        2
176
     1
 62
     7
176
     1
 90
        3
176
     1
 90
        0
176
     1
 90
        0
176
     1
290
     0
176
     1
 90
       13
176
     1
 40
0.0
176
     1
 90
        0
176
     1
290
     0
176
     1
290
     1
176
     1
290
     1
176
     1
290
     0
176
     1
290
     0
176
     1
290
     0
176
     1
290
     0
176
     1
290
     0
176
     1
290
     0
176
     1
 90
       50
176
     1
 40
0.0
176
     1
 40
1.0
176
     1
 90
        0
176
     1
 62
    18
420
        0
176
     1
 90
       50
176
     1
 90
        3
176
     1
 62
     5
420
      255
176
     1
290
     0
176
     1
 90
       50
176
     1
 90
       50
176
     1
 90
       50
176
     1
290
     0
176
     1
 90
       50
176
     1
 62
   256
176
     0
 40
1.0
176
     0
 90
        2
176
     1
  1
strokes_ogs.tif
176
     1
290
     0
176
     1
 40
1.0
176
     1
 40
1.0
176
     1
  0
VISUALSTYLE
  5
42
102
{ACAD_REACTORS
330
2A
102
}
330
2A
100
AcDbVisualStyle
  2
Shaded
 70
    27
177
     3
291
     0
 70
    58
 90
        2
176
     1
 90
        2
176
     1
 90
        1
176
     1
 90
        2
176
     1
 40
0.6
176
     1
 40
30.0
176
     1
 62
     7
420
 16777215
176
     1
 90
        0
176
     1
 90
        4
176
     1
 62
     7
176
     1
 62
   257
176
     1
 90
        1
176
     1
 90
        1
176
     1
 40
1.0
176
     1
 90
        8
176
     1
 62
   257
176
     1
 40
1.0
176
     1
 90
        1
176
     1
 90
        6
176
     1
 90
        2
176
     1
 62
     8
420
  7895160
176
     1
 90
        3
176
     1
 90
        0
176
     1
 90
        0
176
     1
290
     0
176
     1
 90
        5
176
     1
 40
0.0
176
     1
 90
        0
176
     1
290
     0
176
     1
290
     1
176
     1
290
     1
176
     1
290
     0
176
     1
290
     0
176
     1
290
     0
176
     1
290
     0
176
     1
290
     0
176
     1
290
     0
176
     1
 90
       50
176
     1
 40
0.0
176
     1
 40
1.0
176
     1
 90
        0
176
     1
 62
    18
420
        0
176
     1
 90
       50
176
     1
 90
        3
176
     1
 62
     5
420
      255
176
     1
290
     0
176
     1
 90
       50
176
     1
 90
       50
176
     1
 90
       50
176
     1
290
     0
176
     1
 90
       50
176
     1
 62
   256
176
     0
 40
1.0
176
     0
 90
        2
176
     1
  1
strokes_ogs.tif
176
     1
290
     0
176
     1
 40
1.0
176
     1
 40
1.0
176
     1
  0
VISUALSTYLE
  5
41
102
{ACAD_REACTORS
330
2A
102
}
330
2A
100
AcDbVisualStyle
  2
Shaded with edges
 70
    26
177
     3
291
     0
 70
    58
 90
        2
176
     1
 90
        2
176
     1
 90
        1
176
     1
 90
        2
176
     1
 40
0.6
176
     1
 40
30.0
176
     1
 62
     7
420
 16777215
176
     1
 90
        1
176
     1
 90
       10
176
     1
 62
     7
176
     1
 62
   257
176
     1
 90
        2
176
     1
 90
        1
176
     1
 40
1.0
176
     1
 90
        8
176
     1
 62
   257
176
     1
 40
1.0
176
     1
 90
        1
176
     1
 90
        6
176
     1
 90
        2
176
     1
 62
     7
176
     1
 90
        3
176
     1
 90
        0
176
     1
 90
        0
176
     1
290
     0
176
     1
 90
        5
176
     1
 40
0.0
176
     1
 90
        0
176
     1
290
     0
176
     1
290
     1
176
     1
290
     1
176
     1
290
     0
176
     1
290
     0
176
     1
290
     0
176
     1
290
     0
176
     1
290
     0
176
     1
290
     0
176
     1
 90
       50
176
     1
 40
0.0
176
     1
 40
1.0
176
     1
 90
        0
176
     1
 62
    18
420
        0
176
     1
 90
       50
176
     1
 90
        3
176
     1
 62
     5
420
      255
176
     1
290
     0
176
     1
 90
       50
176
     1
 90
       50
176
     1
 90
       50
176
     1
290
     0
176
     1
 90
       50
176
     1
 62
   256
176
     0
 40
1.0
176
     0
 90
        2
176
     1
  1
strokes_ogs.tif
176
     1
290
     0
176
     1
 40
1.0
176
     1
 40
1.0
176
     1
  0
VISUALSTYLE
  5
3E
102
{ACAD_REACTORS
330
2A
102
}
330
2A
100
AcDbVisualStyle
  2
Shades of Gray
 70
    23
177
     3
291
     0
 70
    58
 90
        2
176
     1
 90
        2
176
     1
 90
        3
176
     1
 90
        0
176
     1
 40
0.6
176
     1
 40
30.0
176
     1
 62
     7
420
 16777215
176
     1
 90
        2
176
     1
 90
        2
176
     1
 62
     7
176
     1
 62
     7
176
     1
 90
        1
176
     1
 90
        1
176
     1
 40
40.0
176
     1
 90
        8
176
     1
 62
     7
176
     1
 40
1.0
176
     1
 90
        1
176
     1
 90
        6
176
     1
 90
        2
176
     1
 62
     7
176
     1
 90
        3
176
     1
 90
        0
176
     1
 90
        0
176
     1
290
     0
176
     1
 90
        1
176
     1
 40
0.0
176
     1
 90
        0
176
     1
290
     0
176
     1
290
     1
176
     1
290
     1
176
     1
290
     0
176
     1
290
     0
176
     1
290
     0
176
     1
290
     0
176
     1
290
     0
176
     1
290
     0
176
     1
 90
       50
176
     1
 40
0.0
176
     1
 40
1.0
176
     1
 90
        0
176
     1
 62
    18
420
        0
176
     1
 90
       50
176
     1
 90
        3
176
     1
 62
     5
420
      255
176
     1
290
     0
176
     1
 90
       50
176
     1
 90
       50
176
     1
 90
       50
176
     1
290
     0
176
     1
 90
       50
176
     1
 62
   256
176
     0
 40
1.0
176
     0
 90
        2
176
     1
  1
strokes_ogs.tif
176
     1
290
     0
176
     1
 40
1.0
176
     1
 40
1.0
176
     1
  0
VISUALSTYLE
  5
3F
102
{ACAD_REACTORS
330
2A
102
}
330
2A
100
AcDbVisualStyle
  2
Sketchy
 70
    24
177
     3
291
     0
 70
    58
 90
        1
176
     1
 90
        2
176
     1
 90
        2
176
     1
 90
        0
176
     1
 40
0.6
176
     1
 40
30.0
176
     1
 62
     7
420
 16777215
176
     1
 90
        2
176
     1
 90
        2
176
     1
 62
     7
176
     1
 62
     7
176
     1
 90
        1
176
     1
 90
        1
176
     1
 40
40.0
176
     1
 90
       11
176
     1
 62
     7
176
     1
 40
1.0
176
     1
 90
        1
176
     1
 90
        6
176
     1
 90
        2
176
     1
 62
     7
176
     1
 90
        6
176
     1
 90
        0
176
     1
 90
        0
176
     1
290
     0
176
     1
 90
        1
176
     1
 40
0.0
176
     1
 90
        0
176
     1
290
     0
176
     1
290
     1
176
     1
290
     1
176
     1
290
     0
176
     1
290
     0
176
     1
290
     0
176
     1
290
     0
176
     1
290
     0
176
     1
290
     0
176
     1
 90
       50
176
     1
 40
0.0
176
     1
 40
1.0
176
     1
 90
        0
176
     1
 62
    18
420
        0
176
     1
 90
       50
176
     1
 90
        3
176
     1
 62
     5
420
      255
176
     1
290
     0
176
     1
 90
       50
176
     1
 90
       50
176
     1
 90
       50
176
     1
290
     0
176
     1
 90
       50
176
     1
 62
   256
176
     0
 40
1.0
176
     0
 90
        2
176
     1
  1
strokes_ogs.tif
176
     1
290
     0
176
     1
 40
1.0
176
     1
 40
1.0
176
     1
  0
VISUALSTYLE
  5
37
102
{ACAD_REACTORS
330
2A
102
}
330
2A
100
AcDbVisualStyle
  2
Thicken
 70
    13
177
     3
291
     1
 70
    58
 90
        2
176
     1
 90
        2
176
     1
 90
        0
176
     1
 90
        0
176
     1
 40
0.6
176
     1
 40
30.0
176
     1
 62
     7
420
 16777215
176
     1
 90
        1
176
     1
 90
        4
176
     1
 62
     7
176
     1
 62
   257
176
     1
 90
        1
176
     1
 90
        1
176
     1
 40
1.0
176
     1
 90
       12
176
     1
 62
     7
176
     1
 40
1.0
176
     1
 90
        1
176
     1
 90
        6
176
     1
 90
        2
176
     1
 62
     7
176
     1
 90
        5
176
     1
 90
        0
176
     1
 90
        0
176
     1
290
     0
176
     1
 90
        1
176
     1
 40
0.0
176
     1
 90
        0
176
     1
290
     0
176
     1
290
     1
176
     1
290
     1
176
     1
290
     0
176
     1
290
     0
176
     1
290
     0
176
     1
290
     0
176
     1
290
     0
176
     1
290
     0
176
     1
 90
       50
176
     1
 40
0.0
176
     1
 40
1.0
176
     1
 90
        0
176
     1
 62
    18
420
        0
176
     1
 90
       50
176
     1
 90
        3
176
     1
 62
     5
420
      255
176
     1
290
     0
176
     1
 90
       50
176
     1
 90
       50
176
     1
 90
       50
176
     1
290
     0
176
     1
 90
       50
176
     1
 62
   256
176
     0
 40
1.0
176
     0
 90
        2
176
     1
  1
strokes_ogs.tif
176
     1
290
     0
176
     1
 40
1.0
176
     1
 40
1.0
176
     1
  0
VISUALSTYLE
  5
30
102
{ACAD_REACTORS
330
2A
102
}
330
2A
100
AcDbVisualStyle
  2
Wireframe
 70
     5
177
     3
291
     0
 70
    58
 90
        0
176
     1
 90
        2
176
     1
 90
        0
176
     1
 90
        0
176
     1
 40
0.6
176
     1
 40
30.0
176
     1
 62
     7
420
 16777215
176
     1
 90
        1
176
     1
 90
        4
176
     1
 62
     7
176
     1
 62
   257
176
     1
 90
        1
176
     1
 90
        1
176
     1
 40
1.0
176
     1
 90
        0
176
     1
 62
   257
176
     1
 40
1.0
176
     1
 90
        1
176
     1
 90
        6
176
     1
 90
        2
176
     1
 62
     7
176
     1
 90
        3
176
     1
 90
        0
176
     1
 90
        0
176
     1
290
     0
176
     1
 90
        1
176
     1
 40
0.0
176
     1
 90
        0
176
     1
290
     0
176
     1
290
     1
176
     1
290
     1
176
     1
290
     0
176
     1
290
     0
176
     1
290
     0
176
     1
290
     0
176
     1
290
     0
176
     1
290
     0
176
     1
 90
       50
176
     1
 40
0.0
176
     1
 40
1.0
176
     1
 90
        0
176
     1
 62
    18
420
        0
176
     1
 90
       50
176
     1
 90
        3
176
     1
 62
     5
420
      255
176
     1
290
     0
176
     1
 90
       50
176
     1
 90
       50
176
     1
 90
       50
176
     1
290
     0
176
     1
 90
       50
176
     1
 62
   256
176
     0
 40
1.0
176
     0
 90
        2
176
     1
  1
strokes_ogs.tif
176
     1
290
     0
176
     1
 40
1.0
176
     1
 40
1.0
176
     1
  0
VISUALSTYLE
  5
40
102
{ACAD_REACTORS
330
2A
102
}
330
2A
100
AcDbVisualStyle
  2
X-Ray
 70
    25
177
     3
291
     0
 70
    58
 90
        2
176
     1
 90
        2
176
     1
 90
        1
176
     1
 90
        1
176
     1
 40
0.5
176
     1
 40
30.0
176
     1
 62
     7
420
 16777215
176
     1
 90
        1
176
     1
 90
        0
176
     1
 62
     7
176
     1
 62
   257
176
     1
 90
        1
176
     1
 90
        1
176
     1
 40
1.0
176
     1
 90
        8
176
     1
 62
     7
176
     1
 40
1.0
176
     1
 90
        1
176
     1
 90
        6
176
     1
 90
        2
176
     1
 62
     7
176
     1
 90
        3
176
     1
 90
        0
176
     1
 90
        0
176
     1
290
     0
176
     1
 90
       13
176
     1
 40
0.0
176
     1
 90
        0
176
     1
290
     0
176
     1
290
     1
176
     1
290
     1
176
     1
290
     0
176
     1
290
     0
176
     1
290
     0
176
     1
290
     0
176
     1
290
     0
176
     1
290
     0
176
     1
 90
       50
176
     1
 40
0.0
176
     1
 40
1.0
176
     1
 90
        0
176
     1
 62
    18
420
        0
176
     1
 90
       50
176
     1
 90
        3
176
     1
 62
     5
420
      255
176
     1
290
     0
176
     1
 90
       50
176
     1
 90
       50
176
     1
 90
       50
176
     1
290
     0
176
     1
 90
       50
176
     1
 62
   256
176
     0
 40
1.0
176
     0
 90
        2
176
     1
  1
strokes_ogs.tif
176
     1
290
     0
176
     1
 40
1.0
176
     1
 40
1.0
176
     1
  0
DICTIONARYVAR
  5
1E3
102
{ACAD_REACTORS
330
1E2
102
}
330
1E2
100
DictionaryVariables
280
     0
  1
1:1
  0
DICTIONARYVAR
  5
1E8
102
{ACAD_REACTORS
330
1E2
102
}
330
1E2
100
DictionaryVariables
280
     0
  1
Standard
  0
DICTIONARYVAR
  5
1E7
102
{ACAD_REACTORS
330
1E2
102
}
330
1E2
100
DictionaryVariables
280
     0
  1
Standard
  0
DICTIONARY
  5
1E4
330
6A
100
AcDbDictionary
280
     1
281
     1
  3
ACAD_ROUNDTRIP_2008_TABLESTYLE_CELLSTYLEMAP
360
1E5
  0
CELLSTYLEMAP
  5
1E5
102
{ACAD_REACTORS
330
1E4
102
}
330
1E4
100
AcDbCellStyleMap
 90
        3
300
CELLSTYLE
  1
TABLEFORMAT_BEGIN
 90
        5
170
     1
 91
        0
 92
    32768
 62
   257
 93
        1
300
CONTENTFORMAT
  1
CONTENTFORMAT_BEGIN
 90
        0
 91
        0
 92
        4
 93
        0
300

 40
0.0
140
1.0
 94
        5
 62
     0
340
11
144
0.25
309
CONTENTFORMAT_END
171
     1
301
MARGIN
  1
CELLMARGIN_BEGIN
 40
0.06
 40
0.06
 40
0.06
 40
0.06
 40
0.06
 40
0.06
309
CELLMARGIN_END
 94
        6
 95
        1
302
GRIDFORMAT
  1
GRIDFORMAT_BEGIN
 90
        0
 91
        1
 62
     0
 92
       -2
340
14
 93
        0
 40
0.045
309
GRIDFORMAT_END
 95
        2
302
GRIDFORMAT
  1
GRIDFORMAT_BEGIN
 90
        0
 91
        1
 62
     0
 92
       -2
340
14
 93
        0
 40
0.045
309
GRIDFORMAT_END
 95
        4
302
GRIDFORMAT
  1
GRIDFORMAT_BEGIN
 90
        0
 91
        1
 62
     0
 92
       -2
340
14
 93
        0
 40
0.045
309
GRIDFORMAT_END
 95
        8
302
GRIDFORMAT
  1
GRIDFORMAT_BEGIN
 90
        0
 91
        1
 62
     0
 92
       -2
340
14
 93
        0
 40
0.045
309
GRIDFORMAT_END
 95
       16
302
GRIDFORMAT
  1
GRIDFORMAT_BEGIN
 90
        0
 91
        1
 62
     0
 92
       -2
340
14
 93
        0
 40
0.045
309
GRIDFORMAT_END
 95
       32
302
GRIDFORMAT
  1
GRIDFORMAT_BEGIN
 90
        0
 91
        1
 62
     0
 92
       -2
340
14
 93
        0
 40
0.045
309
GRIDFORMAT_END
309
TABLEFORMAT_END
  1
CELLSTYLE_BEGIN
 90
        1
 91
        1
300
_TITLE
309
CELLSTYLE_END
300
CELLSTYLE
  1
TABLEFORMAT_BEGIN
 90
        5
170
     1
 91
        0
 92
        0
 62
   257
 93
        1
300
CONTENTFORMAT
  1
CONTENTFORMAT_BEGIN
 90
        0
 91
        0
 92
        4
 93
        0
300

 40
0.0
140
1.0
 94
        5
 62
     0
340
11
144
0.18
309
CONTENTFORMAT_END
171
     1
301
MARGIN
  1
CELLMARGIN_BEGIN
 40
0.06
 40
0.06
 40
0.06
 40
0.06
 40
0.06
 40
0.06
309
CELLMARGIN_END
 94
        6
 95
        1
302
GRIDFORMAT
  1
GRIDFORMAT_BEGIN
 90
        0
 91
        1
 62
     0
 92
       -2
340
14
 93
        0
 40
0.045
309
GRIDFORMAT_END
 95
        2
302
GRIDFORMAT
  1
GRIDFORMAT_BEGIN
 90
        0
 91
        1
 62
     0
 92
       -2
340
14
 93
        0
 40
0.045
309
GRIDFORMAT_END
 95
        4
302
GRIDFORMAT
  1
GRIDFORMAT_BEGIN
 90
        0
 91
        1
 62
     0
 92
       -2
340
14
 93
        0
 40
0.045
309
GRIDFORMAT_END
 95
        8
302
GRIDFORMAT
  1
GRIDFORMAT_BEGIN
 90
        0
 91
        1
 62
     0
 92
       -2
340
14
 93
        0
 40
0.045
309
GRIDFORMAT_END
 95
       16
302
GRIDFORMAT
  1
GRIDFORMAT_BEGIN
 90
        0
 91
        1
 62
     0
 92
       -2
340
14
 93
        0
 40
0.045
309
GRIDFORMAT_END
 95
       32
302
GRIDFORMAT
  1
GRIDFORMAT_BEGIN
 90
        0
 91
        1
 62
     0
 92
       -2
340
14
 93
        0
 40
0.045
309
GRIDFORMAT_END
309
TABLEFORMAT_END
  1
CELLSTYLE_BEGIN
 90
        2
 91
        1
300
_HEADER
309
CELLSTYLE_END
300
CELLSTYLE
  1
TABLEFORMAT_BEGIN
 90
        5
170
     1
 91
        0
 92
        0
 62
   257
 93
        1
300
CONTENTFORMAT
  1
CONTENTFORMAT_BEGIN
 90
        0
 91
        0
 92
        4
 93
        0
300

 40
0.0
140
1.0
 94
        2
 62
     0
340
11
144
0.18
309
CONTENTFORMAT_END
171
     1
301
MARGIN
  1
CELLMARGIN_BEGIN
 40
0.06
 40
0.06
 40
0.06
 40
0.06
 40
0.06
 40
0.06
309
CELLMARGIN_END
 94
        6
 95
        1
302
GRIDFORMAT
  1
GRIDFORMAT_BEGIN
 90
        0
 91
        1
 62
     0
 92
       -2
340
14
 93
        0
 40
0.045
309
GRIDFORMAT_END
 95
        2
302
GRIDFORMAT
  1
GRIDFORMAT_BEGIN
 90
        0
 91
        1
 62
     0
 92
       -2
340
14
 93
        0
 40
0.045
309
GRIDFORMAT_END
 95
        4
302
GRIDFORMAT
  1
GRIDFORMAT_BEGIN
 90
        0
 91
        1
 62
     0
 92
       -2
340
14
 93
        0
 40
0.045
309
GRIDFORMAT_END
 95
        8
302
GRIDFORMAT
  1
GRIDFORMAT_BEGIN
 90
        0
 91
        1
 62
     0
 92
       -2
340
14
 93
        0
 40
0.045
309
GRIDFORMAT_END
 95
       16
302
GRIDFORMAT
  1
GRIDFORMAT_BEGIN
 90
        0
 91
        1
 62
     0
 92
       -2
340
14
 93
        0
 40
0.045
309
GRIDFORMAT_END
 95
       32
302
GRIDFORMAT
  1
GRIDFORMAT_BEGIN
 90
        0
 91
        1
 62
     0
 92
       -2
340
14
 93
        0
 40
0.045
309
GRIDFORMAT_END
309
TABLEFORMAT_END
  1
CELLSTYLE_BEGIN
 90
        3
 91
        2
300
_DATA
309
CELLSTYLE_END
  0
ENDSEC
  0
EOF