0
SECTION
  2
HEADER
  9
$ACADVER
  1
AC1027
  9
$ACADMAINTVER
 70
     8
  9
$DWGCODEPAGE
  3
ANSI_1252
  9
$REQUIREDVERSIONS
160
                 0
  9
$COMMENTS
  1
File was created by Cadenas
  9
$CUSTOMPROPERTYTAG
  1
NN
  9
$CUSTOMPROPERTY
  1
Eccentric Collar Two-Bolt Pillow Block Inch Bore
  9
$CUSTOMPROPERTYTAG
  1
NT
  9
$CUSTOMPROPERTY
  1
Eccentric Collar Pillow Block Bearings -(Normal Duty)
  9
$CUSTOMPROPERTYTAG
  1
NB
  9
$CUSTOMPROPERTY
  1
131820
  9
$CUSTOMPROPERTYTAG
  1
NBSYN
  9
$CUSTOMPROPERTY
  1
$PN.
  9
$CUSTOMPROPERTYTAG
  1
LINA
  9
$CUSTOMPROPERTY
  1
131820
  9
$CUSTOMPROPERTYTAG
  1
SERIES
  9
$CUSTOMPROPERTY
  1
212
  9
$CUSTOMPROPERTYTAG
  1
SS
  9
$CUSTOMPROPERTY
  1
2-1/4
  9
$CUSTOMPROPERTYTAG
  1
PN
  9
$CUSTOMPROPERTY
  1
131820
  9
$CUSTOMPROPERTYTAG
  1
DESCRIPTION
  9
$CUSTOMPROPERTY
  1
P2B-SXR-204
  9
$CUSTOMPROPERTYTAG
  1
LF
  9
$CUSTOMPROPERTY
  1
RE-LUBE
  9
$CUSTOMPROPERTYTAG
  1
WEIGHT
  9
$CUSTOMPROPERTY
  1
11.6
  9
$CUSTOMPROPERTYTAG
  1
A
  9
$CUSTOMPROPERTY
  1
2.74
  9
$CUSTOMPROPERTYTAG
  1
B
  9
$CUSTOMPROPERTY
  1
9.50
  9
$CUSTOMPROPERTYTAG
  1
C
  9
$CUSTOMPROPERTY
  1
2.37
  9
$CUSTOMPROPERTYTAG
  1
DMIN
  9
$CUSTOMPROPERTY
  1
6.88
  9
$CUSTOMPROPERTYTAG
  1
DMAX
  9
$CUSTOMPROPERTY
  1
7.94
  9
$CUSTOMPROPERTYTAG
  1
F
  9
$CUSTOMPROPERTY
  1
5/8
  9
$CUSTOMPROPERTYTAG
  1
G
  9
$CUSTOMPROPERTY
  1
1.21
  9
$CUSTOMPROPERTYTAG
  1
H
  9
$CUSTOMPROPERTY
  1
0.88
  9
$CUSTOMPROPERTYTAG
  1
J
  9
$CUSTOMPROPERTY
  1
5.40
  9
$CUSTOMPROPERTYTAG
  1
L
  9
$CUSTOMPROPERTY
  1
3.31
  9
$CUSTOMPROPERTYTAG
  1
M
  9
$CUSTOMPROPERTY
  1
2.75
  9
$CUSTOMPROPERTYTAG
  1
R
  9
$CUSTOMPROPERTY
  1
0.90
  9
$CUSTOMPROPERTYTAG
  1
S
  9
$CUSTOMPROPERTY
  1
1.84
  9
$CUSTOMPROPERTYTAG
  1
U
  9
$CUSTOMPROPERTY
  1
4.25
  9
$CUSTOMPROPERTYTAG
  1
V
  9
$CUSTOMPROPERTY
  1
8.50
  9
$CUSTOMPROPERTYTAG
  1
W
  9
$CUSTOMPROPERTY
  1
0.88
  9
$CUSTOMPROPERTYTAG
  1
X
  9
$CUSTOMPROPERTY
  1
0.12
  9
$CUSTOMPROPERTYTAG
  1
COMPANY
  9
$CUSTOMPROPERTY
  1
baldor
  9
$INSBASE
 10
0.0
 20
0.0
 30
0.0
  9
$EXTMIN
 10
1.000000000000000E+20
 20
1.000000000000000E+20
 30
1.000000000000000E+20
  9
$EXTMAX
 10
-1.000000000000000E+20
 20
-1.000000000000000E+20
 30
-1.000000000000000E+20
  9
$LIMMIN
 10
0.0
 20
0.0
  9
$LIMMAX
 10
12.0
 20
9.0
  9
$ORTHOMODE
 70
     0
  9
$REGENMODE
 70
     1
  9
$FILLMODE
 70
     1
  9
$QTEXTMODE
 70
     0
  9
$MIRRTEXT
 70
     1
  9
$LTSCALE
 40
1.0
  9
$ATTMODE
 70
     1
  9
$TEXTSIZE
 40
0.2
  9
$TRACEWID
 40
0.05
  9
$TEXTSTYLE
  7
Standard
  9
$CLAYER
  8
0
  9
$CELTYPE
  6
ByLayer
  9
$CECOLOR
 62
   256
  9
$CELTSCALE
 40
1.0
  9
$DISPSILH
 70
     0
  9
$DIMSCALE
 40
1.0
  9
$DIMASZ
 40
0.18
  9
$DIMEXO
 40
0.0625
  9
$DIMDLI
 40
0.38
  9
$DIMRND
 40
0.0
  9
$DIMDLE
 40
0.0
  9
$DIMEXE
 40
0.18
  9
$DIMTP
 40
0.0
  9
$DIMTM
 40
0.0
  9
$DIMTXT
 40
0.18
  9
$DIMCEN
 40
0.09
  9
$DIMTSZ
 40
0.0
  9
$DIMTOL
 70
     0
  9
$DIMLIM
 70
     0
  9
$DIMTIH
 70
     1
  9
$DIMTOH
 70
     1
  9
$DIMSE1
 70
     0
  9
$DIMSE2
 70
     0
  9
$DIMTAD
 70
     0
  9
$DIMZIN
 70
     0
  9
$DIMBLK
  1

  9
$DIMASO
 70
     1
  9
$DIMSHO
 70
     1
  9
$DIMPOST
  1

  9
$DIMAPOST
  1

  9
$DIMALT
 70
     0
  9
$DIMALTD
 70
     2
  9
$DIMALTF
 40
25.4
  9
$DIMLFAC
 40
1.0
  9
$DIMTOFL
 70
     0
  9
$DIMTVP
 40
0.0
  9
$DIMTIX
 70
     0
  9
$DIMSOXD
 70
     0
  9
$DIMSAH
 70
     0
  9
$DIMBLK1
  1

  9
$DIMBLK2
  1

  9
$DIMSTYLE
  2
Standard
  9
$DIMCLRD
 70
     0
  9
$DIMCLRE
 70
     0
  9
$DIMCLRT
 70
     0
  9
$DIMTFAC
 40
1.0
  9
$DIMGAP
 40
0.09
  9
$DIMJUST
 70
     0
  9
$DIMSD1
 70
     0
  9
$DIMSD2
 70
     0
  9
$DIMTOLJ
 70
     1
  9
$DIMTZIN
 70
     0
  9
$DIMALTZ
 70
     0
  9
$DIMALTTZ
 70
     0
  9
$DIMUPT
 70
     0
  9
$DIMDEC
 70
     4
  9
$DIMTDEC
 70
     4
  9
$DIMALTU
 70
     2
  9
$DIMALTTD
 70
     2
  9
$DIMTXSTY
  7
Standard
  9
$DIMAUNIT
 70
     0
  9
$DIMADEC
 70
     0
  9
$DIMALTRND
 40
0.0
  9
$DIMAZIN
 70
     0
  9
$DIMDSEP
 70
    46
  9
$DIMATFIT
 70
     3
  9
$DIMFRAC
 70
     0
  9
$DIMLDRBLK
  1

  9
$DIMLUNIT
 70
     2
  9
$DIMLWD
 70
    -2
  9
$DIMLWE
 70
    -2
  9
$DIMTMOVE
 70
     0
  9
$DIMFXL
 40
1.0
  9
$DIMFXLON
 70
     0
  9
$DIMJOGANG
 40
0.7853981633974483
  9
$DIMTFILL
 70
     0
  9
$DIMTFILLCLR
 70
     0
  9
$DIMARCSYM
 70
     0
  9
$DIMLTYPE
  6

  9
$DIMLTEX1
  6

  9
$DIMLTEX2
  6

  9
$DIMTXTDIRECTION
 70
     0
  9
$LUNITS
 70
     2
  9
$LUPREC
 70
     4
  9
$SKETCHINC
 40
0.1
  9
$FILLETRAD
 40
0.5
  9
$AUNITS
 70
     0
  9
$AUPREC
 70
     0
  9
$MENU
  1
.
  9
$ELEVATION
 40
0.0
  9
$PELEVATION
 40
0.0
  9
$THICKNESS
 40
0.0
  9
$LIMCHECK
 70
     0
  9
$CHAMFERA
 40
0.0
  9
$CHAMFERB
 40
0.0
  9
$CHAMFERC
 40
0.0
  9
$CHAMFERD
 40
0.0
  9
$SKPOLY
 70
     0
  9
$TDCREATE
 40
2458168.975806875
  9
$TDUCREATE
 40
2458168.934140208
  9
$TDUPDATE
 40
2458168.975807048
  9
$TDUUPDATE
 40
2458168.934140382
  9
$TDINDWG
 40
0.0000000116
  9
$TDUSRTIMER
 40
0.0000000116
  9
$USRTIMER
 70
     1
  9
$ANGBASE
 50
0.0
  9
$ANGDIR
 70
     0
  9
$PDMODE
 70
     0
  9
$PDSIZE
 40
0.0
  9
$PLINEWID
 40
0.0
  9
$SPLFRAME
 70
     0
  9
$SPLINETYPE
 70
     6
  9
$SPLINESEGS
 70
     8
  9
$HANDSEED
  5
1E5
  9
$SURFTAB1
 70
     6
  9
$SURFTAB2
 70
     6
  9
$SURFTYPE
 70
     6
  9
$SURFU
 70
     6
  9
$SURFV
 70
     6
  9
$UCSBASE
  2

  9
$UCSNAME
  2

  9
$UCSORG
 10
0.0
 20
0.0
 30
0.0
  9
$UCSXDIR
 10
1.0
 20
0.0
 30
0.0
  9
$UCSYDIR
 10
0.0
 20
1.0
 30
0.0
  9
$UCSORTHOREF
  2

  9
$UCSORTHOVIEW
 70
     0
  9
$UCSORGTOP
 10
0.0
 20
0.0
 30
0.0
  9
$UCSORGBOTTOM
 10
0.0
 20
0.0
 30
0.0
  9
$UCSORGLEFT
 10
0.0
 20
0.0
 30
0.0
  9
$UCSORGRIGHT
 10
0.0
 20
0.0
 30
0.0
  9
$UCSORGFRONT
 10
0.0
 20
0.0
 30
0.0
  9
$UCSORGBACK
 10
0.0
 20
0.0
 30
0.0
  9
$PUCSBASE
  2

  9
$PUCSNAME
  2

  9
$PUCSORG
 10
0.0
 20
0.0
 30
0.0
  9
$PUCSXDIR
 10
1.0
 20
0.0
 30
0.0
  9
$PUCSYDIR
 10
0.0
 20
1.0
 30
0.0
  9
$PUCSORTHOREF
  2

  9
$PUCSORTHOVIEW
 70
     0
  9
$PUCSORGTOP
 10
0.0
 20
0.0
 30
0.0
  9
$PUCSORGBOTTOM
 10
0.0
 20
0.0
 30
0.0
  9
$PUCSORGLEFT
 10
0.0
 20
0.0
 30
0.0
  9
$PUCSORGRIGHT
 10
0.0
 20
0.0
 30
0.0
  9
$PUCSORGFRONT
 10
0.0
 20
0.0
 30
0.0
  9
$PUCSORGBACK
 10
0.0
 20
0.0
 30
0.0
  9
$USERI1
 70
     0
  9
$USERI2
 70
     0
  9
$USERI3
 70
     0
  9
$USERI4
 70
     0
  9
$USERI5
 70
     0
  9
$USERR1
 40
0.0
  9
$USERR2
 40
0.0
  9
$USERR3
 40
0.0
  9
$USERR4
 40
0.0
  9
$USERR5
 40
0.0
  9
$WORLDVIEW
 70
     1
  9
$SHADEDGE
 70
     3
  9
$SHADEDIF
 70
    70
  9
$TILEMODE
 70
     1
  9
$MAXACTVP
 70
    64
  9
$PINSBASE
 10
0.0
 20
0.0
 30
0.0
  9
$PLIMCHECK
 70
     0
  9
$PEXTMIN
 10
1.000000000000000E+20
 20
1.000000000000000E+20
 30
1.000000000000000E+20
  9
$PEXTMAX
 10
-1.000000000000000E+20
 20
-1.000000000000000E+20
 30
-1.000000000000000E+20
  9
$PLIMMIN
 10
0.0
 20
0.0
  9
$PLIMMAX
 10
12.0
 20
9.0
  9
$UNITMODE
 70
     0
  9
$VISRETAIN
 70
     1
  9
$PLINEGEN
 70
     0
  9
$PSLTSCALE
 70
     1
  9
$TREEDEPTH
 70
  3020
  9
$CMLSTYLE
  2
Standard
  9
$CMLJUST
 70
     0
  9
$CMLSCALE
 40
1.0
  9
$PROXYGRAPHICS
 70
     1
  9
$MEASUREMENT
 70
     0
  9
$CELWEIGHT
370
    -1
  9
$ENDCAPS
280
     0
  9
$JOINSTYLE
280
     0
  9
$LWDISPLAY
290
     0
  9
$INSUNITS
 70
     1
  9
$HYPERLINKBASE
  1

  9
$STYLESHEET
  1

  9
$XEDIT
290
     1
  9
$CEPSNTYPE
380
     0
  9
$PSTYLEMODE
290
     1
  9
$FINGERPRINTGUID
  2
{4EC82E0E-2388-4531-9F75-A3BB045F672D}
  9
$VERSIONGUID
  2
{FAEB1C32-E019-11D5-929B-00C0DF256EC4}
  9
$EXTNAMES
290
     1
  9
$PSVPSCALE
 40
0.0
  9
$OLESTARTUP
290
     0
  9
$SORTENTS
280
   127
  9
$INDEXCTL
280
     0
  9
$HIDETEXT
280
     1
  9
$XCLIPFRAME
280
     2
  9
$HALOGAP
280
     0
  9
$OBSCOLOR
 70
   257
  9
$OBSLTYPE
280
     0
  9
$INTERSECTIONDISPLAY
280
     0
  9
$INTERSECTIONCOLOR
 70
   257
  9
$DIMASSOC
280
     2
  9
$PROJECTNAME
  1

  9
$CAMERADISPLAY
290
     0
  9
$LENSLENGTH
 40
50.0
  9
$CAMERAHEIGHT
 40
0.0
  9
$STEPSPERSEC
 40
2.0
  9
$STEPSIZE
 40
6.0
  9
$3DDWFPREC
 40
2.0
  9
$PSOLWIDTH
 40
0.25
  9
$PSOLHEIGHT
 40
4.0
  9
$LOFTANG1
 40
1.570796326794897
  9
$LOFTANG2
 40
1.570796326794897
  9
$LOFTMAG1
 40
0.0
  9
$LOFTMAG2
 40
0.0
  9
$LOFTPARAM
 70
     7
  9
$LOFTNORMALS
280
     1
  9
$LATITUDE
 40
37.795
  9
$LONGITUDE
 40
-122.394
  9
$NORTHDIRECTION
 40
0.0
  9
$TIMEZONE
 70
 -8000
  9
$LIGHTGLYPHDISPLAY
280
     1
  9
$TILEMODELIGHTSYNCH
280
     1
  9
$CMATERIAL
347
44
  9
$SOLIDHIST
280
     0
  9
$SHOWHIST
280
     1
  9
$DWFFRAME
280
     2
  9
$DGNFRAME
280
     2
  9
$REALWORLDSCALE
290
     1
  9
$INTERFERECOLOR
 62
   256
  9
$CSHADOW
280
     0
  9
$SHADOWPLANELOCATION
 40
0.0
  0
ENDSEC
  0
SECTION
  2
CLASSES
  0
CLASS
  1
ACDBDICTIONARYWDFLT
  2
AcDbDictionaryWithDefault
  3
ObjectDBX Classes
 90
        0
 91
        4
280
     0
281
     0
  0
CLASS
  1
VISUALSTYLE
  2
AcDbVisualStyle
  3
ObjectDBX Classes
 90
     4095
 91
        4
280
     0
281
     0
  0
CLASS
  1
MATERIAL
  2
AcDbMaterial
  3
ObjectDBX Classes
 90
     1153
 91
        4
280
     0
281
     0
  0
CLASS
  1
SCALE
  2
AcDbScale
  3
ObjectDBX Classes
 90
     1153
 91
        4
280
     0
281
     0
  0
CLASS
  1
TABLESTYLE
  2
AcDbTableStyle
  3
ObjectDBX Classes
 90
     4095
 91
        4
280
     0
281
     0
  0
CLASS
  1
MLEADERSTYLE
  2
AcDbMLeaderStyle
  3
ACDB_MLEADERSTYLE_CLASS
 90
     4095
 91
        4
280
     0
281
     0
  0
CLASS
  1
SUN
  2
AcDbSun
  3
SCENEOE
 90
     1153
 91
        4
280
     0
281
     0
  0
CLASS
  1
DICTIONARYVAR
  2
AcDbDictionaryVar
  3
ObjectDBX Classes
 90
        0
 91
        4
280
     0
281
     0
  0
CLASS
  1
CELLSTYLEMAP
  2
AcDbCellStyleMap
  3
ObjectDBX Classes
 90
     1152
 91
        4
280
     0
281
     0
  0
ENDSEC
  0
SECTION
  2
TABLES
  0
TABLE
  2
VPORT
  5
8
330
0
100
AcDbSymbolTable
 70
     1
  0
VPORT
  5
29
330
8
100
AcDbSymbolTableRecord
100
AcDbViewportTableRecord
  2
*Active
 70
     0
 10
0.0
 20
0.0
 11
1.0
 21
1.0
 12
0.0
 22
-0.3367500000000003
 13
0.0
 23
0.0
 14
0.5
 24
0.5
 15
0.5
 25
0.5
 16
0.0
 26
0.0
 36
1.0
 17
0.0
 27
0.0
 37
0.0
 40
3.34611
 41
2.895900015241579
 42
50.0
 43
0.0
 44
0.0
 50
0.0
 51
0.0
 71
     0
 72
   100
 73
     1
 74
     3
 75
     0
 76
     0
 77
     0
 78
     0
281
     0
 65
     1
110
0.0
120
0.0
130
0.0
111
1.0
121
0.0
131
0.0
112
0.0
122
1.0
132
0.0
 79
     0
146
0.0
348
2F
 60
     3
 61
     5
292
     1
282
     1
141
0.0
142
0.0
 63
   250
361
6D
  0
ENDTAB
  0
TABLE
  2
LTYPE
  5
5
330
0
100
AcDbSymbolTable
 70
     3
  0
LTYPE
  5
14
330
5
100
AcDbSymbolTableRecord
100
AcDbLinetypeTableRecord
  2
ByBlock
 70
     0
  3

 72
    65
 73
     0
 40
0.0
  0
LTYPE
  5
15
330
5
100
AcDbSymbolTableRecord
100
AcDbLinetypeTableRecord
  2
ByLayer
 70
     0
  3

 72
    65
 73
     0
 40
0.0
  0
LTYPE
  5
16
330
5
100
AcDbSymbolTableRecord
100
AcDbLinetypeTableRecord
  2
Continuous
 70
     0
  3
Solid line
 72
    65
 73
     0
 40
0.0
  0
LTYPE
  5
9C
330
5
100
AcDbSymbolTableRecord
100
AcDbLinetypeTableRecord
  2
Dashed
 70
     0
  3

 72
    65
 73
     2
 40
2.0
 49
1.0
 74
     0
 49
-1.0
 74
     0
  0
LTYPE
  5
117
330
5
100
AcDbSymbolTableRecord
100
AcDbLinetypeTableRecord
  2
Center
 70
     0
  3

 72
    65
 73
     4
 40
1.5
 49
0.45
 74
     0
 49
-0.5
 74
     0
 49
0.05
 74
     0
 49
-0.5
 74
     0
  0
ENDTAB
  0
TABLE
  2
LAYER
  5
2
330
0
100
AcDbSymbolTable
 70
     7
  0
LAYER
  5
10
330
2
100
AcDbSymbolTableRecord
100
AcDbLayerTableRecord
  2
0
 70
     0
 62
     7
  6
Continuous
370
    -3
390
F
347
46
348
0
  0
LAYER
  5
72
330
2
100
AcDbSymbolTableRecord
100
AcDbLayerTableRecord
  2
AM_6
 70
     0
 62
    -2
  6
Continuous
370
    35
390
F
347
46
348
0
  0
LAYER
  5
9D
330
2
100
AcDbSymbolTableRecord
100
AcDbLayerTableRecord
  2
AM_9
 70
     0
 62
     6
  6
Dashed
370
    25
390
F
347
46
348
0
  0
LAYER
  5
BA
330
2
100
AcDbSymbolTableRecord
100
AcDbLayerTableRecord
  2
AM_4
 70
     0
 62
     7
  6
Continuous
370
    50
390
F
347
46
348
0
  0
LAYER
  5
118
330
2
100
AcDbSymbolTableRecord
100
AcDbLayerTableRecord
  2
AM_7
 70
     0
 62
     7
  6
Center
370
    25
390
F
347
46
348
0
  0
LAYER
  5
138
330
2
100
AcDbSymbolTableRecord
100
AcDbLayerTableRecord
  2
AM_5
 70
     0
 62
     3
  6
Continuous
370
    25
390
F
347
46
348
0
  0
LAYER
  5
1D6
330
2
100
AcDbSymbolTableRecord
100
AcDbLayerTableRecord
  2
ConnectionPoints
 70
     0
 62
     7
  6
Continuous
370
    50
390
F
347
46
348
0
  0
ENDTAB
  0
TABLE
  2
STYLE
  5
3
330
0
100
AcDbSymbolTable
 70
     1
  0
STYLE
  5
11
330
3
100
AcDbSymbolTableRecord
100
AcDbTextStyleTableRecord
  2
Standard
 70
     0
 40
0.0
 41
1.0
 50
0.0
 71
     0
 42
0.2
  3
txt
  4

  0
ENDTAB
  0
TABLE
  2
VIEW
  5
6
330
0
100
AcDbSymbolTable
 70
     0
  0
ENDTAB
  0
TABLE
  2
UCS
  5
7
330
0
100
AcDbSymbolTable
 70
     0
  0
ENDTAB
  0
TABLE
  2
APPID
  5
9
330
0
100
AcDbSymbolTable
 70
     1
  0
APPID
  5
12
330
9
100
AcDbSymbolTableRecord
100
AcDbRegAppTableRecord
  2
ACAD
 70
     0
  0
ENDTAB
  0
TABLE
  2
DIMSTYLE
  5
A
330
0
100
AcDbSymbolTable
 70
     1
100
AcDbDimStyleTable
  0
DIMSTYLE
105
27
330
A
100
AcDbSymbolTableRecord
100
AcDbDimStyleTableRecord
  2
Standard
 70
     0
178
     0
340
11
  0
ENDTAB
  0
TABLE
  2
BLOCK_RECORD
  5
1
330
0
100
AcDbSymbolTable
 70
     5
  0
BLOCK_RECORD
  5
1F
330
1
100
AcDbSymbolTableRecord
100
AcDbBlockTableRecord
  2
*Model_Space
340
22
 70
     0
280
     1
281
     0
  0
BLOCK_RECORD
  5
1B
330
1
100
AcDbSymbolTableRecord
100
AcDbBlockTableRecord
  2
*Paper_Space
340
1E
 70
     0
280
     1
281
     0
  0
BLOCK_RECORD
  5
23
330
1
100
AcDbSymbolTableRecord
100
AcDbBlockTableRecord
  2
*Paper_Space0
340
26
 70
     0
280
     1
281
     0
  0
BLOCK_RECORD
  5
6E
330
1
100
AcDbSymbolTableRecord
100
AcDbBlockTableRecord
  2
1_131820_4
340
0
102
{BLKREFS
331
6F
102
}
 70
     0
280
     1
281
     0
  0
BLOCK_RECORD
  5
90
330
1
100
AcDbSymbolTableRecord
100
AcDbBlockTableRecord
  2
2_405015E_Inch_0_in_131820_4
340
0
102
{BLKREFS
331
91
102
}
 70
     0
280
     1
281
     0
  0
BLOCK_RECORD
  5
D6
330
1
100
AcDbSymbolTableRecord
100
AcDbBlockTableRecord
  2
3_131928_0_in_131820_4
340
0
102
{BLKREFS
331
D7
102
}
 70
     0
280
     1
281
     0
  0
BLOCK_RECORD
  5
13A
330
1
100
AcDbSymbolTableRecord
100
AcDbBlockTableRecord
  2
4_131820H_0_in_131820_4
340
0
102
{BLKREFS
331
13B
102
}
 70
     0
280
     1
281
     0
  0
ENDTAB
  0
ENDSEC
  0
SECTION
  2
BLOCKS
  0
BLOCK
  5
20
330
1F
100
AcDbEntity
  8
0
100
AcDbBlockBegin
  2
*Model_Space
 70
     0
 10
0.0
 20
0.0
 30
0.0
  3
*Model_Space
  1

  0
ENDBLK
  5
21
330
1F
100
AcDbEntity
  8
0
100
AcDbBlockEnd
  0
BLOCK
  5
1C
330
1B
100
AcDbEntity
 67
     1
  8
0
100
AcDbBlockBegin
  2
*Paper_Space
 70
     0
 10
0.0
 20
0.0
 30
0.0
  3
*Paper_Space
  1

  0
ENDBLK
  5
1D
330
1B
100
AcDbEntity
 67
     1
  8
0
100
AcDbBlockEnd
  0
BLOCK
  5
24
330
23
100
AcDbEntity
  8
0
100
AcDbBlockBegin
  2
*Paper_Space0
 70
     0
 10
0.0
 20
0.0
 30
0.0
  3
*Paper_Space0
  1

  0
ENDBLK
  5
25
330
23
100
AcDbEntity
  8
0
100
AcDbBlockEnd
  0
BLOCK
  5
70
330
6E
100
AcDbEntity
  8
0
100
AcDbBlockBegin
  2
1_131820_4
 70
     2
 10
0.0
 20
0.0
 30
0.0
  3
1_131820_4
  1

  0
ATTDEF
  5
73
330
6E
100
AcDbEntity
  8
AM_6
100
AcDbText
 10
9.75
 20
1.3035
 30
0.0
 40
0.5
  1
Eccentric Collar Two-Bolt Pillow Block Inch Bore
100
AcDbAttributeDefinition
  3

  2
NN
 70
     8
280
     0
  0
ATTDEF
  5
74
330
6E
100
AcDbEntity
  8
AM_6
100
AcDbText
 10
9.75
 20
0.8035000000000001
 30
0.0
 40
0.5
  1
Eccentric Collar Pillow Block Bearings -(Normal Duty)
100
AcDbAttributeDefinition
  3

  2
NT
 70
     8
280
     0
  0
ATTDEF
  5
75
330
6E
100
AcDbEntity
  8
AM_6
100
AcDbText
 10
9.75
 20
0.3035000000000001
 30
0.0
 40
0.5
  1
131820
100
AcDbAttributeDefinition
  3

  2
NB
 70
     8
280
     0
  0
ATTDEF
  5
76
330
6E
100
AcDbEntity
  8
AM_6
100
AcDbText
 10
9.75
 20
-0.1964999999999999
 30
0.0
 40
0.5
  1
$PN.
100
AcDbAttributeDefinition
  3

  2
NBSYN
 70
     8
280
     0
  0
ATTDEF
  5
77
330
6E
100
AcDbEntity
  8
AM_6
100
AcDbText
 10
9.75
 20
-0.6964999999999999
 30
0.0
 40
0.5
  1
131820
100
AcDbAttributeDefinition
  3

  2
LINA
 70
     8
280
     0
  0
ATTDEF
  5
78
330
6E
100
AcDbEntity
  8
AM_6
100
AcDbText
 10
9.75
 20
-1.1965
 30
0.0
 40
0.5
  1
212
100
AcDbAttributeDefinition
  3

  2
SERIES
 70
     8
280
     0
  0
ATTDEF
  5
79
330
6E
100
AcDbEntity
  8
AM_6
100
AcDbText
 10
9.75
 20
-1.6965
 30
0.0
 40
0.5
  1
2-1/4
100
AcDbAttributeDefinition
  3

  2
SS
 70
     8
280
     0
  0
ATTDEF
  5
7A
330
6E
100
AcDbEntity
  8
AM_6
100
AcDbText
 10
9.75
 20
-2.1965
 30
0.0
 40
0.5
  1
131820
100
AcDbAttributeDefinition
  3

  2
PN
 70
     8
280
     0
  0
ATTDEF
  5
7B
330
6E
100
AcDbEntity
  8
AM_6
100
AcDbText
 10
9.75
 20
-2.6965
 30
0.0
 40
0.5
  1
P2B-SXR-204
100
AcDbAttributeDefinition
  3

  2
DESCRIPTION
 70
     8
280
     0
  0
ATTDEF
  5
7C
330
6E
100
AcDbEntity
  8
AM_6
100
AcDbText
 10
9.75
 20
-3.1965
 30
0.0
 40
0.5
  1
RE-LUBE
100
AcDbAttributeDefinition
  3

  2
LF
 70
     8
280
     0
  0
ATTDEF
  5
7D
330
6E
100
AcDbEntity
  8
AM_6
100
AcDbText
 10
9.75
 20
-3.6965
 30
0.0
 40
0.5
  1
11.6
100
AcDbAttributeDefinition
  3

  2
WEIGHT
 70
     8
280
     0
  0
ATTDEF
  5
7E
330
6E
100
AcDbEntity
  8
AM_6
100
AcDbText
 10
9.75
 20
-4.1965
 30
0.0
 40
0.5
  1
2.74
100
AcDbAttributeDefinition
  3

  2
A
 70
     8
280
     0
  0
ATTDEF
  5
7F
330
6E
100
AcDbEntity
  8
AM_6
100
AcDbText
 10
9.75
 20
-4.6965
 30
0.0
 40
0.5
  1
9.50
100
AcDbAttributeDefinition
  3

  2
B
 70
     8
280
     0
  0
ATTDEF
  5
80
330
6E
100
AcDbEntity
  8
AM_6
100
AcDbText
 10
9.75
 20
-5.1965
 30
0.0
 40
0.5
  1
2.37
100
AcDbAttributeDefinition
  3

  2
C
 70
     8
280
     0
  0
ATTDEF
  5
81
330
6E
100
AcDbEntity
  8
AM_6
100
AcDbText
 10
9.75
 20
-5.6965
 30
0.0
 40
0.5
  1
6.88
100
AcDbAttributeDefinition
  3

  2
DMIN
 70
     8
280
     0
  0
ATTDEF
  5
82
330
6E
100
AcDbEntity
  8
AM_6
100
AcDbText
 10
9.75
 20
-6.1965
 30
0.0
 40
0.5
  1
7.94
100
AcDbAttributeDefinition
  3

  2
DMAX
 70
     8
280
     0
  0
ATTDEF
  5
83
330
6E
100
AcDbEntity
  8
AM_6
100
AcDbText
 10
9.75
 20
-6.6965
 30
0.0
 40
0.5
  1
5/8
100
AcDbAttributeDefinition
  3

  2
F
 70
     8
280
     0
  0
ATTDEF
  5
84
330
6E
100
AcDbEntity
  8
AM_6
100
AcDbText
 10
9.75
 20
-7.1965
 30
0.0
 40
0.5
  1
1.21
100
AcDbAttributeDefinition
  3

  2
G
 70
     8
280
     0
  0
ATTDEF
  5
85
330
6E
100
AcDbEntity
  8
AM_6
100
AcDbText
 10
9.75
 20
-7.6965
 30
0.0
 40
0.5
  1
0.88
100
AcDbAttributeDefinition
  3

  2
H
 70
     8
280
     0
  0
ATTDEF
  5
86
330
6E
100
AcDbEntity
  8
AM_6
100
AcDbText
 10
9.75
 20
-8.1965
 30
0.0
 40
0.5
  1
5.40
100
AcDbAttributeDefinition
  3

  2
J
 70
     8
280
     0
  0
ATTDEF
  5
87
330
6E
100
AcDbEntity
  8
AM_6
100
AcDbText
 10
9.75
 20
-8.6965
 30
0.0
 40
0.5
  1
3.31
100
AcDbAttributeDefinition
  3

  2
L
 70
     8
280
     0
  0
ATTDEF
  5
88
330
6E
100
AcDbEntity
  8
AM_6
100
AcDbText
 10
9.75
 20
-9.1965
 30
0.0
 40
0.5
  1
2.75
100
AcDbAttributeDefinition
  3

  2
M
 70
     8
280
     0
  0
ATTDEF
  5
89
330
6E
100
AcDbEntity
  8
AM_6
100
AcDbText
 10
9.75
 20
-9.6965
 30
0.0
 40
0.5
  1
0.90
100
AcDbAttributeDefinition
  3

  2
R
 70
     8
280
     0
  0
ATTDEF
  5
8A
330
6E
100
AcDbEntity
  8
AM_6
100
AcDbText
 10
9.75
 20
-10.1965
 30
0.0
 40
0.5
  1
1.84
100
AcDbAttributeDefinition
  3

  2
S
 70
     8
280
     0
  0
ATTDEF
  5
8B
330
6E
100
AcDbEntity
  8
AM_6
100
AcDbText
 10
9.75
 20
-10.6965
 30
0.0
 40
0.5
  1
4.25
100
AcDbAttributeDefinition
  3

  2
U
 70
     8
280
     0
  0
ATTDEF
  5
8C
330
6E
100
AcDbEntity
  8
AM_6
100
AcDbText
 10
9.75
 20
-11.1965
 30
0.0
 40
0.5
  1
8.50
100
AcDbAttributeDefinition
  3

  2
V
 70
     8
280
     0
  0
ATTDEF
  5
8D
330
6E
100
AcDbEntity
  8
AM_6
100
AcDbText
 10
9.75
 20
-11.6965
 30
0.0
 40
0.5
  1
0.88
100
AcDbAttributeDefinition
  3

  2
W
 70
     8
280
     0
  0
ATTDEF
  5
8E
330
6E
100
AcDbEntity
  8
AM_6
100
AcDbText
 10
9.75
 20
-12.1965
 30
0.0
 40
0.5
  1
0.12
100
AcDbAttributeDefinition
  3

  2
X
 70
     8
280
     0
  0
ATTDEF
  5
8F
330
6E
100
AcDbEntity
  8
AM_6
100
AcDbText
 10
9.75
 20
-12.6965
 30
0.0
 40
0.5
  1
baldor
100
AcDbAttributeDefinition
  3

  2
COMPANY
 70
     8
280
     0
  0
INSERT
  5
91
330
6E
100
AcDbEntity
  8
0
100
AcDbBlockReference
  2
2_405015E_Inch_0_in_131820_4
 10
0.0
 20
0.0
 30
0.0
  0
INSERT
  5
D7
330
6E
100
AcDbEntity
  8
0
100
AcDbBlockReference
  2
3_131928_0_in_131820_4
 10
0.0
 20
0.0
 30
0.0
  0
INSERT
  5
13B
330
6E
100
AcDbEntity
  8
0
100
AcDbBlockReference
  2
4_131820H_0_in_131820_4
 10
0.0
 20
0.0
 30
0.0
  0
ENDBLK
  5
71
330
6E
100
AcDbEntity
  8
0
100
AcDbBlockEnd
  0
BLOCK
  5
92
330
90
100
AcDbEntity
  8
0
100
AcDbBlockBegin
  2
2_405015E_Inch_0_in_131820_4
 70
     2
 10
0.0
 20
0.0
 30
0.0
  3
2_405015E_Inch_0_in_131820_4
  1

  0
ATTDEF
  5
94
330
90
100
AcDbEntity
  8
AM_6
100
AcDbText
 10
7.211602253824271
 20
0.2187500000000001
 30
0.0
 40
0.5
  1
405015E -Inch
100
AcDbAttributeDefinition
  3

  2
NN
 70
     8
280
     0
  0
ATTDEF
  5
95
330
90
100
AcDbEntity
  8
AM_6
100
AcDbText
 10
7.211602253824271
 20
-0.2812499999999999
 30
0.0
 40
0.5
  1
Grease Fitting
100
AcDbAttributeDefinition
  3

  2
NT
 70
     8
280
     0
  0
ATTDEF
  5
96
330
90
100
AcDbEntity
  8
AM_6
100
AcDbText
 10
7.211602253824271
 20
-0.7812499999999999
 30
0.0
 40
0.5
  1
405015E-Inch
100
AcDbAttributeDefinition
  3

  2
NB
 70
     8
280
     0
  0
ATTDEF
  5
97
330
90
100
AcDbEntity
  8
AM_6
100
AcDbText
 10
7.211602253824271
 20
-1.28125
 30
0.0
 40
0.5
  1
$MN.-Inch
100
AcDbAttributeDefinition
  3

  2
NBSYN
 70
     8
280
     0
  0
ATTDEF
  5
98
330
90
100
AcDbEntity
  8
AM_6
100
AcDbText
 10
7.211602253824271
 20
-1.78125
 30
0.0
 40
0.5
  1
405015E
100
AcDbAttributeDefinition
  3

  2
LINA
 70
     8
280
     0
  0
ATTDEF
  5
99
330
90
100
AcDbEntity
  8
AM_6
100
AcDbText
 10
7.211602253824271
 20
-2.28125
 30
0.0
 40
0.5
  1
405015E
100
AcDbAttributeDefinition
  3

  2
MN
 70
     8
280
     0
  0
ATTDEF
  5
9A
330
90
100
AcDbEntity
  8
AM_6
100
AcDbText
 10
7.211602253824271
 20
-2.78125
 30
0.0
 40
0.5
  1
1/8 x 27PTF
100
AcDbAttributeDefinition
  3

  2
T
 70
     8
280
     0
  0
ATTDEF
  5
9B
330
90
100
AcDbEntity
  8
AM_6
100
AcDbText
 10
7.211602253824271
 20
-3.28125
 30
0.0
 40
0.5
  1
baldor
100
AcDbAttributeDefinition
  3

  2
COMPANY
 70
     8
280
     0
  0
LWPOLYLINE
  5
9E
330
90
100
AcDbEntity
  8
AM_9
100
AcDbPolyline
 90
        3
 70
     0
 43
0.0
 10
2.007789440452806
 20
0.1093750000000001
 10
2.031807894620608
 20
0.0546875000000001
 10
2.058853358456852
 20
0.0000000000000001
  0
LWPOLYLINE
  5
9F
330
90
100
AcDbEntity
  8
AM_9
100
AcDbPolyline
 90
        3
 70
     0
 43
0.0
 10
2.058853358456852
 20
0.0000000000000001
 10
2.03192322986299
 20
-0.0544416102741495
 10
2.007789440452806
 20
-0.1093749999999999
  0
ELLIPSE
  5
A0
330
90
100
AcDbEntity
  8
AM_9
100
AcDbEllipse
 10
1.686449673129916
 20
0.0000000000000001
 30
0.0
 11
9.913691727296317E-18
 21
0.161902872472269
 31
0.0
210
0.0
220
0.0
230
1.0
 40
0.7071067811865478
 41
0.0
 42
6.283185307179586
  0
LWPOLYLINE
  5
A1
330
90
100
AcDbEntity
  8
AM_9
100
AcDbPolyline
 90
        3
 70
     0
 43
0.0
 10
2.116740514106385
 20
0.0000000000000001
 10
2.099219254051204
 20
0.0544416102741497
 10
2.078500118571461
 20
0.109375
  0
LWPOLYLINE
  5
A2
330
90
100
AcDbEntity
  8
AM_9
100
AcDbPolyline
 90
        3
 70
     0
 43
0.0
 10
2.078500118571461
 20
-0.1093749999999999
 10
2.099133821173143
 20
-0.0546874999999999
 10
2.116740514106385
 20
0.0000000000000001
  0
LWPOLYLINE
  5
A3
330
90
100
AcDbEntity
  8
AM_9
100
AcDbPolyline
 90
        3
 70
     0
 43
0.0
 10
2.007789440452806
 20
-0.1093749999999999
 10
1.987155737851123
 20
-0.1640624999999999
 10
1.969549044917882
 20
-0.2187499999999999
  0
LINE
  5
A4
330
90
100
AcDbEntity
  8
AM_9
100
AcDbLine
 10
2.116740514106385
 20
0.0000000000000001
 30
0.0
 11
2.058853358456852
 21
0.0000000000000001
 31
0.0
  0
LWPOLYLINE
  5
A5
330
90
100
AcDbEntity
  8
AM_9
100
AcDbPolyline
 90
        3
 70
     0
 43
0.0
 10
1.969549044917882
 20
0.2187500000000001
 10
1.987070304973062
 20
0.1643083897258505
 10
2.007789440452806
 20
0.1093750000000001
  0
LINE
  5
A6
330
90
100
AcDbEntity
  8
AM_9
100
AcDbLine
 10
2.068370813515742
 20
-0.1333751635128597
 30
0.0
 11
2.078500118571461
 21
-0.1093749999999999
 31
0.0
  0
LINE
  5
A7
330
90
100
AcDbEntity
  8
AM_9
100
AcDbLine
 10
2.078500118571461
 20
0.109375
 30
0.0
 11
2.068811324644261
 21
0.1323628995476237
 31
0.0
  0
LINE
  5
A8
330
90
100
AcDbEntity
  8
AM_9
100
AcDbLine
 10
1.708021834578343
 20
-0.1985206121313387
 30
0.0
 11
1.86928071456791
 21
-0.2056511541665242
 31
0.0
  0
LINE
  5
A9
330
90
100
AcDbEntity
  8
AM_9
100
AcDbLine
 10
1.86928071456791
 20
0.2056511541665244
 30
0.0
 11
1.708021834578343
 21
0.1985206121313389
 31
0.0
  0
ELLIPSE
  5
AA
330
90
100
AcDbEntity
  8
AM_9
100
AcDbEllipse
 10
1.944543648262953
 20
-0.0000000000000495
 30
0.0
 11
-4.018372309703886E-17
 21
-0.2187500000000889
 31
0.0
210
0.0
220
0.0
230
1.0
 40
0.7071067811865511
 41
0.9156936017150628
 42
2.225899051875091
  0
LINE
  5
AB
330
90
100
AcDbEntity
  8
AM_9
100
AcDbLine
 10
2.050609665440987
 20
0.0948683298050516
 30
0.0
 11
2.031995799011922
 21
0.1073548910028991
 31
0.0
  0
LINE
  5
AC
330
90
100
AcDbEntity
  8
AM_9
100
AcDbLine
 10
2.031995799011922
 20
-0.1073548910028988
 30
0.0
 11
2.050609665440987
 21
-0.0948683298050513
 31
0.0
  0
ELLIPSE
  5
AD
330
90
100
AcDbEntity
  8
AM_9
100
AcDbEllipse
 10
2.018789860287594
 20
-0.0000000000000006
 30
0.0
 11
-1.928818708657055E-17
 21
-0.1049999999999986
 31
0.0
210
0.0
220
0.0
230
1.0
 40
0.7071067811865506
 41
0.0
 42
3.141592653589793
  0
ELLIPSE
  5
AE
330
90
100
AcDbEntity
  8
AM_9
100
AcDbEllipse
 10
1.944543648263009
 20
-0.0000000000000008
 30
0.0
 11
-3.926523799766167E-17
 21
-0.2137499999999981
 31
0.0
210
0.0
220
0.0
230
1.0
 40
0.7071067811865392
 41
0.903655218840357
 42
2.237937434749444
  0
LINE
  5
AF
330
90
100
AcDbEntity
  8
AM_9
100
AcDbLine
 10
2.020108851170131
 20
-0.1049999999999999
 30
0.0
 11
2.040003063723189
 21
-0.1049999999999999
 31
0.0
  0
LINE
  5
B0
330
90
100
AcDbEntity
  8
AM_9
100
AcDbLine
 10
2.040003063723189
 20
0.1050000000000001
 30
0.0
 11
2.020108851170131
 21
0.1050000000000001
 31
0.0
  0
ELLIPSE
  5
B1
330
90
100
AcDbEntity
  8
AM_9
100
AcDbEllipse
 10
2.040003063723189
 20
0.0000000000000002
 30
0.0
 11
-1.928818708657084E-17
 21
-0.1050000000000001
 31
0.0
210
0.0
220
0.0
230
1.0
 40
0.7071067811865445
 41
5.759586531581284
 42
9.948376736367681
  0
ELLIPSE
  5
B2
330
90
100
AcDbEntity
  8
AM_9
100
AcDbEllipse
 10
1.995987873912036
 20
0.0000000000000061
 30
0.0
 11
-2.182689656891653E-17
 21
-0.1188200907348049
 31
0.0
210
0.0
220
0.0
230
1.0
 40
0.7071067811866887
 41
0.3762206261002898
 42
2.765372027489466
  0
LINE
  5
B3
330
90
100
AcDbEntity
  8
AM_9
100
AcDbLine
 10
2.078893587231665
 20
0.0192743186691521
 30
0.0
 11
2.077880747040674
 21
0.0279874918769155
 31
0.0
  0
LINE
  5
B4
330
90
100
AcDbEntity
  8
AM_9
100
AcDbLine
 10
2.077880747040674
 20
-0.0279874918769152
 30
0.0
 11
2.078893587231665
 21
-0.0192743186691519
 31
0.0
  0
ELLIPSE
  5
B5
330
90
100
AcDbEntity
  8
AM_9
100
AcDbEllipse
 10
1.957496570670382
 20
0.0000000000000013
 30
0.0
 11
-3.169399141454496E-17
 21
-0.1725340532830177
 31
0.0
210
0.0
220
0.0
230
1.0
 40
0.7071067811865537
 41
0.7772913431420614
 42
2.364301310447723
  0
ELLIPSE
  5
B6
330
90
100
AcDbEntity
  8
AM_9
100
AcDbEllipse
 10
2.082429470594382
 20
-0.0000000000000001
 30
0.0
 11
-2.479909768273395E-17
 21
-0.1350000000000003
 31
0.0
210
0.0
220
0.0
230
1.0
 40
0.7071067811865466
 41
0.4159140521025462
 42
2.725678601487247
  0
ELLIPSE
  5
B7
330
90
100
AcDbEntity
  8
AM_9
100
AcDbEllipse
 10
1.873832970144351
 20
0.0000000000000003
 30
0.0
 11
-3.779601035290906E-17
 21
-0.2057518972230694
 31
0.0
210
0.0
220
0.0
230
1.0
 40
0.707106781186548
 41
0.0
 42
6.283185307179586
  0
ELLIPSE
  5
B8
330
90
100
AcDbEntity
  8
AM_9
100
AcDbEllipse
 10
1.712410924871369
 20
0.0000000000000002
 30
0.0
 11
-3.648546613377884E-17
 21
-0.1986176267812153
 31
0.0
210
0.0
220
0.0
230
1.0
 40
0.7071067811865492
 41
0.0
 42
6.283185307179586
  0
ELLIPSE
  5
B9
330
90
100
AcDbEntity
  8
AM_9
100
AcDbEllipse
 10
1.873832970144351
 20
0.0
 30
0.0
 11
-4.018372309702253E-17
 21
-0.2187500000000001
 31
0.0
210
0.0
220
0.0
230
1.0
 40
0.707106781186548
 41
0.0
 42
6.283185307179586
  0
LWPOLYLINE
  5
BB
330
90
100
AcDbEntity
  8
AM_4
100
AcDbPolyline
 90
        3
 70
     0
 43
0.0
 10
2.027436200567414
 20
-0.2187499999999999
 10
2.054366329161276
 20
-0.1643083897258503
 10
2.068370813515742
 20
-0.1333751635128597
  0
LWPOLYLINE
  5
BC
330
90
100
AcDbEntity
  8
AM_4
100
AcDbPolyline
 90
        3
 70
     0
 43
0.0
 10
2.068811324644261
 20
0.1323628995476237
 10
2.054481664403658
 20
0.1640625000000001
 10
2.027436200567414
 20
0.2187500000000001
  0
ELLIPSE
  5
BD
330
90
100
AcDbEntity
  8
AM_4
100
AcDbEllipse
 10
1.944543648263005
 20
-0.0000000000000003
 30
0.0
 11
-4.018372309702260E-17
 21
-0.2187500000000004
 31
0.0
210
0.0
220
0.0
230
1.0
 40
0.7071067811865468
 41
2.225899051875114
 42
7.198878908894267
  0
ELLIPSE
  5
BE
330
90
100
AcDbEntity
  8
AM_4
100
AcDbEllipse
 10
1.995987873911987
 20
0.0000000000000001
 30
0.0
 11
-2.182689656893357E-17
 21
-0.1188200907348977
 31
0.0
210
0.0
220
0.0
230
1.0
 40
0.7071067811865457
 41
2.765372027488873
 42
6.659405933280507
  0
ELLIPSE
  5
BF
330
90
100
AcDbEntity
  8
AM_4
100
AcDbEllipse
 10
1.944543648263005
 20
0.0000000000000001
 30
0.0
 11
-3.926523799766204E-17
 21
-0.2137500000000002
 31
0.0
210
0.0
220
0.0
230
1.0
 40
0.707106781186547
 41
2.237937434749433
 42
7.186840526019948
  0
LINE
  5
C0
330
90
100
AcDbEntity
  8
AM_4
100
AcDbLine
 10
2.018789860287593
 20
-0.1049999999999999
 30
0.0
 11
2.020108851170131
 21
-0.1049999999999999
 31
0.0
  0
LINE
  5
C1
330
90
100
AcDbEntity
  8
AM_4
100
AcDbLine
 10
2.020108851170131
 20
0.1050000000000001
 30
0.0
 11
2.018789860287593
 21
0.1050000000000001
 31
0.0
  0
ELLIPSE
  5
C2
330
90
100
AcDbEntity
  8
AM_4
100
AcDbEllipse
 10
2.018789860287593
 20
0.0000000000000001
 30
0.0
 11
-1.928818708657087E-17
 21
-0.1050000000000003
 31
0.0
210
0.0
220
0.0
230
1.0
 40
0.7071067811865476
 41
3.141592653589793
 42
6.283185307179586
  0
ELLIPSE
  5
C3
330
90
100
AcDbEntity
  8
AM_4
100
AcDbEllipse
 10
1.957496570670384
 20
0.0000000000000001
 30
0.0
 11
-3.169399141454452E-17
 21
-0.1725340532830152
 31
0.0
210
0.0
220
0.0
230
1.0
 40
0.7071067811865469
 41
2.364301310447736
 42
7.060476650321645
  0
LINE
  5
C4
330
90
100
AcDbEntity
  8
AM_4
100
AcDbLine
 10
2.027436200567414
 20
-0.2187499999999999
 30
0.0
 11
1.790940417839942
 21
-0.2187499999999999
 31
0.0
  0
LWPOLYLINE
  5
C5
330
90
100
AcDbEntity
  8
AM_4
100
AcDbPolyline
 90
        3
 70
     0
 43
0.0
 10
1.81058717795455
 20
-0.1093749999999999
 10
1.831220880556233
 20
-0.1640624999999999
 10
1.848827573489474
 20
-0.2187499999999999
  0
LWPOLYLINE
  5
C6
330
90
100
AcDbEntity
  8
AM_4
100
AcDbPolyline
 90
        3
 70
     0
 43
0.0
 10
1.759523259950504
 20
0.0000000000000001
 10
1.786453388544366
 20
-0.0544416102741495
 10
1.81058717795455
 20
-0.1093749999999999
  0
LWPOLYLINE
  5
C7
330
90
100
AcDbEntity
  8
AM_4
100
AcDbPolyline
 90
        3
 70
     0
 43
0.0
 10
1.739876499835896
 20
-0.1093749999999999
 10
1.719242797234213
 20
-0.0546874999999999
 10
1.701636104300972
 20
0.0000000000000001
  0
LWPOLYLINE
  5
C8
330
90
100
AcDbEntity
  8
AM_4
100
AcDbPolyline
 90
        3
 70
     0
 43
0.0
 10
1.790940417839942
 20
-0.2187499999999999
 10
1.76401028924608
 20
-0.1643083897258503
 10
1.739876499835896
 20
-0.1093749999999999
  0
LINE
  5
C9
330
90
100
AcDbEntity
  8
AM_4
100
AcDbLine
 10
1.759523259950504
 20
0.0000000000000001
 30
0.0
 11
1.701636104300972
 21
0.0000000000000001
 31
0.0
  0
LWPOLYLINE
  5
CA
330
90
100
AcDbEntity
  8
AM_4
100
AcDbPolyline
 90
        3
 70
     0
 43
0.0
 10
1.81058717795455
 20
0.109375
 10
1.786568723786748
 20
0.0546875000000001
 10
1.759523259950504
 20
0.0000000000000001
  0
LWPOLYLINE
  5
CB
330
90
100
AcDbEntity
  8
AM_4
100
AcDbPolyline
 90
        3
 70
     0
 43
0.0
 10
1.848827573489474
 20
0.2187500000000001
 10
1.831306313434294
 20
0.1643083897258505
 10
1.81058717795455
 20
0.109375
  0
LINE
  5
CC
330
90
100
AcDbEntity
  8
AM_4
100
AcDbLine
 10
2.027436200567414
 20
0.2187500000000001
 30
0.0
 11
1.790940417839942
 21
0.2187500000000001
 31
0.0
  0
LWPOLYLINE
  5
CD
330
90
100
AcDbEntity
  8
AM_4
100
AcDbPolyline
 90
        3
 70
     0
 43
0.0
 10
1.739876499835896
 20
0.1093750000000001
 10
1.763894954003698
 20
0.1640625000000001
 10
1.790940417839942
 20
0.2187500000000001
  0
LWPOLYLINE
  5
CE
330
90
100
AcDbEntity
  8
AM_4
100
AcDbPolyline
 90
        3
 70
     0
 43
0.0
 10
1.701636104300972
 20
0.0000000000000001
 10
1.719157364356153
 20
0.0544416102741497
 10
1.739876499835896
 20
0.1093750000000001
  0
LINE
  5
CF
330
90
100
AcDbEntity
  8
AM_4
100
AcDbLine
 10
2.002879957710896
 20
-0.0909326673973659
 30
0.0
 11
2.03469976286429
 21
-0.1169134295108991
 31
0.0
  0
LINE
  5
D0
330
90
100
AcDbEntity
  8
AM_4
100
AcDbLine
 10
2.03469976286429
 20
0.1169134295108993
 30
0.0
 11
2.002879957710896
 21
0.0909326673973662
 31
0.0
  0
ELLIPSE
  5
D1
330
90
100
AcDbEntity
  8
AM_4
100
AcDbEllipse
 10
2.082429470594382
 20
0.0000000000000001
 30
0.0
 11
-2.479909768273392E-17
 21
-0.1350000000000001
 31
0.0
210
0.0
220
0.0
230
1.0
 40
0.7071067811865475
 41
2.725678601487248
 42
6.699099359282132
  0
ELLIPSE
  5
D2
330
90
100
AcDbEntity
  8
AM_4
100
AcDbEllipse
 10
2.040003063723189
 20
0.0000000000000003
 30
0.0
 11
-1.928818708657081E-17
 21
-0.105
 31
0.0
210
0.0
220
0.0
230
1.0
 40
0.7071067811865497
 41
3.665191429188091
 42
5.759586531581288
  0
LINE
  5
D3
330
90
100
AcDbEntity
  8
AM_4
100
AcDbLine
 10
2.16833203045308
 20
0.0939243440009288
 30
0.0
 11
2.120997577943191
 21
0.1234908992236336
 31
0.0
  0
LINE
  5
D4
330
90
100
AcDbEntity
  8
AM_4
100
AcDbLine
 10
2.120997577943191
 20
-0.1234908992236333
 30
0.0
 11
2.16833203045308
 21
-0.0939243440009286
 31
0.0
  0
ELLIPSE
  5
D5
330
90
100
AcDbEntity
  8
AM_4
100
AcDbEllipse
 10
2.138998013089306
 20
0.0000000000000005
 30
0.0
 11
-1.886162459184644E-17
 21
-0.1026779019331867
 31
0.0
210
0.0
220
0.0
230
1.0
 40
0.7071067811865559
 41
0.0
 42
6.283185307179586
  0
ENDBLK
  5
93
330
90
100
AcDbEntity
  8
0
100
AcDbBlockEnd
  0
BLOCK
  5
D8
330
D6
100
AcDbEntity
  8
0
100
AcDbBlockBegin
  2
3_131928_0_in_131820_4
 70
     2
 10
0.0
 20
0.0
 30
0.0
  3
3_131928_0_in_131820_4
  1

  0
ATTDEF
  5
DA
330
D6
100
AcDbEntity
  8
AM_6
100
AcDbText
 10
7.3174925
 20
0.8999999999999999
 30
0.0
 40
0.5
  1
Eccentric Collar Insert Inch Bore
100
AcDbAttributeDefinition
  3

  2
NN
 70
     8
280
     0
  0
ATTDEF
  5
DB
330
D6
100
AcDbEntity
  8
AM_6
100
AcDbText
 10
7.3174925
 20
0.3999999999999999
 30
0.0
 40
0.5
  1
SXR Normal Duty Bearing Inserts
100
AcDbAttributeDefinition
  3

  2
NT
 70
     8
280
     0
  0
ATTDEF
  5
DC
330
D6
100
AcDbEntity
  8
AM_6
100
AcDbText
 10
7.3174925
 20
-0.1000000000000001
 30
0.0
 40
0.5
  1
131928
100
AcDbAttributeDefinition
  3

  2
NB
 70
     8
280
     0
  0
ATTDEF
  5
DD
330
D6
100
AcDbEntity
  8
AM_6
100
AcDbText
 10
7.3174925
 20
-0.6000000000000001
 30
0.0
 40
0.5
  1
$PN.
100
AcDbAttributeDefinition
  3

  2
NBSYN
 70
     8
280
     0
  0
ATTDEF
  5
DE
330
D6
100
AcDbEntity
  8
AM_6
100
AcDbText
 10
7.3174925
 20
-1.1
 30
0.0
 40
0.5
  1
131928
100
AcDbAttributeDefinition
  3

  2
LINA
 70
     8
280
     0
  0
ATTDEF
  5
DF
330
D6
100
AcDbEntity
  8
AM_6
100
AcDbText
 10
7.3174925
 20
-1.6
 30
0.0
 40
0.5
  1
212
100
AcDbAttributeDefinition
  3

  2
SERIES
 70
     8
280
     0
  0
ATTDEF
  5
E0
330
D6
100
AcDbEntity
  8
AM_6
100
AcDbText
 10
7.3174925
 20
-2.1
 30
0.0
 40
0.5
  1
2-1/4
100
AcDbAttributeDefinition
  3

  2
SS
 70
     8
280
     0
  0
ATTDEF
  5
E1
330
D6
100
AcDbEntity
  8
AM_6
100
AcDbText
 10
7.3174925
 20
-2.6
 30
0.0
 40
0.5
  1
131928
100
AcDbAttributeDefinition
  3

  2
PN
 70
     8
280
     0
  0
ATTDEF
  5
E2
330
D6
100
AcDbEntity
  8
AM_6
100
AcDbText
 10
7.3174925
 20
-3.1
 30
0.0
 40
0.5
  1
INS-SXR-204
100
AcDbAttributeDefinition
  3

  2
DESCRIPTION
 70
     8
280
     0
  0
ATTDEF
  5
E3
330
D6
100
AcDbEntity
  8
AM_6
100
AcDbText
 10
7.3174925
 20
-3.6
 30
0.0
 40
0.5
  1
3.8
100
AcDbAttributeDefinition
  3

  2
WEIGHT
 70
     8
280
     0
  0
ATTDEF
  5
E4
330
D6
100
AcDbEntity
  8
AM_6
100
AcDbText
 10
7.3174925
 20
-4.1
 30
0.0
 40
0.5
  1
2.74
100
AcDbAttributeDefinition
  3

  2
A
 70
     8
280
     0
  0
ATTDEF
  5
E5
330
D6
100
AcDbEntity
  8
AM_6
100
AcDbText
 10
7.3174925
 20
-4.6
 30
0.0
 40
0.5
  1
1.02
100
AcDbAttributeDefinition
  3

  2
C
 70
     8
280
     0
  0
ATTDEF
  5
E6
330
D6
100
AcDbEntity
  8
AM_6
100
AcDbText
 10
7.3174925
 20
-5.1
 30
0.0
 40
0.5
  1
4.3307
100
AcDbAttributeDefinition
  3

  2
D
 70
     8
280
     0
  0
ATTDEF
  5
E7
330
D6
100
AcDbEntity
  8
AM_6
100
AcDbText
 10
7.3174925
 20
-5.6
 30
0.0
 40
0.5
  1
0.25
100
AcDbAttributeDefinition
  3

  2
J
 70
     8
280
     0
  0
ATTDEF
  5
E8
330
D6
100
AcDbEntity
  8
AM_6
100
AcDbText
 10
7.3174925
 20
-6.1
 30
0.0
 40
0.5
  1
3.31
100
AcDbAttributeDefinition
  3

  2
L
 70
     8
280
     0
  0
ATTDEF
  5
E9
330
D6
100
AcDbEntity
  8
AM_6
100
AcDbText
 10
7.3174925
 20
-6.6
 30
0.0
 40
0.5
  1
7/16-20
100
AcDbAttributeDefinition
  3

  2
N
 70
     8
280
     0
  0
ATTDEF
  5
EA
330
D6
100
AcDbEntity
  8
AM_6
100
AcDbText
 10
7.3174925
 20
-7.1
 30
0.0
 40
0.5
  1
0.90
100
AcDbAttributeDefinition
  3

  2
W
 70
     8
280
     0
  0
ATTDEF
  5
EB
330
D6
100
AcDbEntity
  8
AM_6
100
AcDbText
 10
7.3174925
 20
-7.6
 30
0.0
 40
0.5
  1
1.84
100
AcDbAttributeDefinition
  3

  2
Y
 70
     8
280
     0
  0
ATTDEF
  5
EC
330
D6
100
AcDbEntity
  8
AM_6
100
AcDbText
 10
7.3174925
 20
-8.1
 30
0.0
 40
0.5
  1
2.97
100
AcDbAttributeDefinition
  3

  2
Z
 70
     8
280
     0
  0
ATTDEF
  5
ED
330
D6
100
AcDbEntity
  8
AM_6
100
AcDbText
 10
7.3174925
 20
-8.6
 30
0.0
 40
0.5
  1
baldor
100
AcDbAttributeDefinition
  3

  2
COMPANY
 70
     8
280
     0
  0
LINE
  5
EE
330
D6
100
AcDbEntity
  8
AM_9
100
AcDbLine
 10
2.132016666666666
 20
0.3958333333333334
 30
0.0
 11
2.128916517938007
 21
0.3958333333333334
 31
0.0
  0
ARC
  5
EF
330
D6
100
AcDbEntity
  8
AM_9
100
AcDbCircle
 10
2.132016666666666
 20
0.2499999999999999
 30
0.0
 40
0.1458333333333334
100
AcDbArc
 50
282.1391656330896
 51
90.0
  0
LINE
  5
F0
330
D6
100
AcDbEntity
  8
AM_9
100
AcDbLine
 10
2.132016666666666
 20
0.3958333333333334
 30
0.0
 11
2.132016666666666
 21
0.3689563888889776
 31
0.0
  0
LINE
  5
F1
330
D6
100
AcDbEntity
  8
AM_9
100
AcDbLine
 10
1.125
 20
-1.169325021663795
 30
0.0
 11
1.125
 21
0.8795999999999998
 31
0.0
  0
LINE
  5
F2
330
D6
100
AcDbEntity
  8
AM_9
100
AcDbLine
 10
-1.125
 20
0.8795999999999998
 30
0.0
 11
-1.125
 21
-1.169325021663795
 31
0.0
  0
LINE
  5
F3
330
D6
100
AcDbEntity
  8
AM_9
100
AcDbLine
 10
1.125
 20
-1.8196
 30
0.0
 11
1.125
 21
-1.198174978336205
 31
0.0
  0
LINE
  5
F4
330
D6
100
AcDbEntity
  8
AM_9
100
AcDbLine
 10
-1.125
 20
-1.198174978336205
 30
0.0
 11
-1.125
 21
-1.8196
 31
0.0
  0
LINE
  5
F5
330
D6
100
AcDbEntity
  8
AM_9
100
AcDbLine
 10
-1.125
 20
-1.169325021663795
 30
0.0
 11
1.125
 21
-1.169325021663795
 31
0.0
  0
LINE
  5
F6
330
D6
100
AcDbEntity
  8
AM_9
100
AcDbLine
 10
-1.125
 20
-1.169325021663795
 30
0.0
 11
-1.139424978336206
 21
-1.183750000000001
 31
0.0
  0
LINE
  5
F7
330
D6
100
AcDbEntity
  8
AM_9
100
AcDbLine
 10
1.139424978336206
 20
-1.183750000000001
 30
0.0
 11
1.125
 21
-1.169325021663795
 31
0.0
  0
LINE
  5
F8
330
D6
100
AcDbEntity
  8
AM_9
100
AcDbLine
 10
-1.139424978336206
 20
-1.183750000000001
 30
0.0
 11
1.139424978336206
 21
-1.183750000000001
 31
0.0
  0
LINE
  5
F9
330
D6
100
AcDbEntity
  8
AM_9
100
AcDbLine
 10
-1.125
 20
-1.198174978336205
 30
0.0
 11
1.125
 21
-1.198174978336205
 31
0.0
  0
LINE
  5
FA
330
D6
100
AcDbEntity
  8
AM_9
100
AcDbLine
 10
1.125
 20
-1.198174978336205
 30
0.0
 11
1.139424978336206
 21
-1.183750000000001
 31
0.0
  0
LINE
  5
FB
330
D6
100
AcDbEntity
  8
AM_9
100
AcDbLine
 10
-1.139424978336206
 20
-1.183750000000001
 30
0.0
 11
-1.125
 21
-1.198174978336205
 31
0.0
  0
LINE
  5
FC
330
D6
100
AcDbEntity
  8
AM_9
100
AcDbLine
 10
1.125
 20
0.8795999999999998
 30
0.0
 11
1.1454
 21
0.8999999999999999
 31
0.0
  0
LINE
  5
FD
330
D6
100
AcDbEntity
  8
AM_9
100
AcDbLine
 10
-1.1454
 20
0.8999999999999999
 30
0.0
 11
-1.125
 21
0.8795999999999998
 31
0.0
  0
LINE
  5
FE
330
D6
100
AcDbEntity
  8
AM_9
100
AcDbLine
 10
-1.125
 20
-1.8196
 30
0.0
 11
1.125
 21
-1.8196
 31
0.0
  0
LINE
  5
FF
330
D6
100
AcDbEntity
  8
AM_9
100
AcDbLine
 10
-1.125
 20
-1.8196
 30
0.0
 11
-1.1454
 21
-1.84
 31
0.0
  0
LINE
  5
100
330
D6
100
AcDbEntity
  8
AM_9
100
AcDbLine
 10
1.1454
 20
-1.84
 30
0.0
 11
1.125
 21
-1.8196
 31
0.0
  0
LINE
  5
101
330
D6
100
AcDbEntity
  8
AM_9
100
AcDbLine
 10
1.485
 20
0.51
 30
0.0
 11
1.485
 21
0.7332951207908547
 31
0.0
  0
LINE
  5
102
330
D6
100
AcDbEntity
  8
AM_9
100
AcDbLine
 10
-1.485
 20
0.7332951207908547
 30
0.0
 11
-1.485
 21
0.51
 31
0.0
  0
LINE
  5
103
330
D6
100
AcDbEntity
  8
AM_9
100
AcDbLine
 10
1.485
 20
-0.7332951207908546
 30
0.0
 11
1.485
 21
-0.51
 31
0.0
  0
LINE
  5
104
330
D6
100
AcDbEntity
  8
AM_9
100
AcDbLine
 10
-1.485
 20
-0.51
 30
0.0
 11
-1.485
 21
-0.7332951207908546
 31
0.0
  0
LINE
  5
105
330
D6
100
AcDbEntity
  8
AM_9
100
AcDbLine
 10
2.062238095238095
 20
-0.2999999999999999
 30
0.0
 11
2.062238095238095
 21
-0.2
 31
0.0
  0
LINE
  5
106
330
D6
100
AcDbEntity
  8
AM_9
100
AcDbLine
 10
-2.062238095238095
 20
-0.2
 30
0.0
 11
-2.062238095238095
 21
-0.2999999999999999
 31
0.0
  0
LINE
  5
107
330
D6
100
AcDbEntity
  8
AM_9
100
AcDbLine
 10
-2.072091711894047
 20
0.51
 30
0.0
 11
2.072091711893195
 21
0.51
 31
0.0
  0
ARC
  5
108
330
D6
100
AcDbEntity
  8
AM_9
100
AcDbCircle
 10
2.072091711894046
 20
0.4691999999999998
 30
0.0
 40
0.0408000000000005
100
AcDbArc
 50
12.75877764880966
 51
90.0
  0
ARC
  5
109
330
D6
100
AcDbEntity
  8
AM_9
100
AcDbCircle
 10
-2.072091711894046
 20
0.4691999999999998
 30
0.0
 40
0.0408000000000002
100
AcDbArc
 50
90.0
 51
167.2412223511904
  0
LINE
  5
10A
330
D6
100
AcDbEntity
  8
AM_9
100
AcDbLine
 10
-2.072091711894046
 20
-0.51
 30
0.0
 11
2.072091711893194
 21
-0.51
 31
0.0
  0
ARC
  5
10B
330
D6
100
AcDbEntity
  8
AM_9
100
AcDbCircle
 10
2.072091711894046
 20
-0.4691999999999993
 30
0.0
 40
0.0408000000000007
100
AcDbArc
 50
270.0
 51
347.2412274165245
  0
ARC
  5
10C
330
D6
100
AcDbEntity
  8
AM_9
100
AcDbCircle
 10
-2.072091711894046
 20
-0.4691999999999992
 30
0.0
 40
0.0408000000000009
100
AcDbArc
 50
192.7587725834757
 51
270.0
  0
LINE
  5
10D
330
D6
100
AcDbEntity
  8
AM_9
100
AcDbLine
 10
-2.111884299428008
 20
-0.4782105481160722
 30
0.0
 11
2.11188429942791
 21
-0.4782105481160722
 31
0.0
  0
LINE
  5
10E
330
D6
100
AcDbEntity
  8
AM_9
100
AcDbLine
 10
-2.144467444961569
 20
-0.2999999999999999
 30
0.0
 11
2.144467444961472
 21
-0.2999999999999999
 31
0.0
  0
ARC
  5
10F
330
D6
100
AcDbEntity
  8
AM_9
100
AcDbCircle
 10
-0.0000000001078546
 20
0.0000000000196998
 30
0.0
 40
2.165350000109447
100
AcDbArc
 50
347.2412274166473
 51
352.0362972590142
  0
ARC
  5
110
330
D6
100
AcDbEntity
  8
AM_9
100
AcDbCircle
 10
0.0000000001078519
 20
0.0000000000197004
 30
0.0
 40
2.165350000109445
100
AcDbArc
 50
187.9637027409857
 51
192.7587725833528
  0
LINE
  5
111
330
D6
100
AcDbEntity
  8
AM_9
100
AcDbLine
 10
-2.156093834344878
 20
-0.1999999999999998
 30
0.0
 11
2.156093834344883
 21
-0.1999999999999998
 31
0.0
  0
LINE
  5
112
330
D6
100
AcDbEntity
  8
AM_9
100
AcDbLine
 10
-2.111884298631414
 20
0.4782105516340062
 30
0.0
 11
2.111884298631419
 21
0.4782105516340062
 31
0.0
  0
LINE
  5
113
330
D6
100
AcDbEntity
  8
AM_9
100
AcDbLine
 10
2.128862746804259
 20
0.3958333333159196
 30
0.0
 11
2.162683505729767
 21
0.1074275409029205
 31
0.0
  0
ARC
  5
114
330
D6
100
AcDbEntity
  8
AM_9
100
AcDbCircle
 10
0.0000000000010352
 20
0.0000000000000176
 30
0.0
 40
2.165349999998976
100
AcDbArc
 50
354.7003893480556
 51
2.843730806601743
  0
ARC
  5
115
330
D6
100
AcDbEntity
  8
AM_9
100
AcDbCircle
 10
0.0000000000148832
 20
0.0000000000029288
 30
0.0
 40
2.165349999984842
100
AcDbArc
 50
10.52078523184316
 51
12.75877267892757
  0
ARC
  5
116
330
D6
100
AcDbEntity
  8
AM_9
100
AcDbCircle
 10
-0.0000000000004254
 20
0.0000000000000281
 30
0.0
 40
2.165349999999584
100
AcDbArc
 50
167.2412273210821
 51
185.2996106519431
  0
LINE
  5
119
330
D6
100
AcDbEntity
  8
AM_7
100
AcDbLine
 10
1.4453575
 20
0.25
 30
0.0
 11
2.3174925
 21
0.25
 31
0.0
  0
LINE
  5
11A
330
D6
100
AcDbEntity
  8
AM_4
100
AcDbLine
 10
1.414285714285714
 20
-1.09625
 30
0.0
 11
1.414285714285714
 21
-1.0525
 31
0.0
  0
LINE
  5
11B
330
D6
100
AcDbEntity
  8
AM_4
100
AcDbLine
 10
-1.414285714285714
 20
-1.0525
 30
0.0
 11
-1.414285714285714
 21
-1.09625
 31
0.0
  0
LINE
  5
11C
330
D6
100
AcDbEntity
  8
AM_4
100
AcDbLine
 10
-1.4646
 20
-1.0525
 30
0.0
 11
1.4646
 21
-1.0525
 31
0.0
  0
LINE
  5
11D
330
D6
100
AcDbEntity
  8
AM_4
100
AcDbLine
 10
1.4646
 20
-1.0525
 30
0.0
 11
1.485
 21
-1.0321
 31
0.0
  0
LINE
  5
11E
330
D6
100
AcDbEntity
  8
AM_4
100
AcDbLine
 10
-1.485
 20
-1.0321
 30
0.0
 11
-1.4646
 21
-1.0525
 31
0.0
  0
LINE
  5
11F
330
D6
100
AcDbEntity
  8
AM_4
100
AcDbLine
 10
-1.4646
 20
0.8999999999999999
 30
0.0
 11
1.4646
 21
0.8999999999999999
 31
0.0
  0
LINE
  5
120
330
D6
100
AcDbEntity
  8
AM_4
100
AcDbLine
 10
-1.4646
 20
0.8999999999999999
 30
0.0
 11
-1.485
 21
0.8796
 31
0.0
  0
LINE
  5
121
330
D6
100
AcDbEntity
  8
AM_4
100
AcDbLine
 10
1.485
 20
0.8796
 30
0.0
 11
1.4646
 21
0.8999999999999999
 31
0.0
  0
LINE
  5
122
330
D6
100
AcDbEntity
  8
AM_4
100
AcDbLine
 10
-1.485
 20
0.8796
 30
0.0
 11
1.485
 21
0.8796
 31
0.0
  0
LINE
  5
123
330
D6
100
AcDbEntity
  8
AM_4
100
AcDbLine
 10
1.485
 20
0.7332951207908547
 30
0.0
 11
1.485
 21
0.8796
 31
0.0
  0
LINE
  5
124
330
D6
100
AcDbEntity
  8
AM_4
100
AcDbLine
 10
-1.485
 20
0.8796
 30
0.0
 11
-1.485
 21
0.7332951207908547
 31
0.0
  0
LINE
  5
125
330
D6
100
AcDbEntity
  8
AM_4
100
AcDbLine
 10
-1.485
 20
-1.0321
 30
0.0
 11
1.485
 21
-1.0321
 31
0.0
  0
LINE
  5
126
330
D6
100
AcDbEntity
  8
AM_4
100
AcDbLine
 10
1.485
 20
-1.0321
 30
0.0
 11
1.485
 21
-0.7332951207908546
 31
0.0
  0
LINE
  5
127
330
D6
100
AcDbEntity
  8
AM_4
100
AcDbLine
 10
-1.485
 20
-0.7332951207908546
 30
0.0
 11
-1.485
 21
-1.0321
 31
0.0
  0
LINE
  5
128
330
D6
100
AcDbEntity
  8
AM_4
100
AcDbLine
 10
-1.6003125
 20
-1.84
 30
0.0
 11
1.600312499996697
 21
-1.84
 31
0.0
  0
ARC
  5
129
330
D6
100
AcDbEntity
  8
AM_4
100
AcDbCircle
 10
1.6003125
 20
-1.7853125
 30
0.0
 40
0.0546875000000004
100
AcDbArc
 50
270.0
 51
0.0000008537736463
  0
ARC
  5
12A
330
D6
100
AcDbEntity
  8
AM_4
100
AcDbCircle
 10
-1.6003125
 20
-1.7853125
 30
0.0
 40
0.0546875000000004
100
AcDbArc
 50
179.9999991462263
 51
270.0
  0
ARC
  5
12B
330
D6
100
AcDbEntity
  8
AM_4
100
AcDbCircle
 10
0.0
 20
-1.511875000000001
 30
0.0
 40
0.2018499999999997
100
AcDbArc
 50
234.4298581937088
 51
305.5701418062912
  0
LINE
  5
12C
330
D6
100
AcDbEntity
  8
AM_4
100
AcDbLine
 10
-1.6003125
 20
-1.09625
 30
0.0
 11
1.600312499996697
 21
-1.09625
 31
0.0
  0
ARC
  5
12D
330
D6
100
AcDbEntity
  8
AM_4
100
AcDbCircle
 10
1.6003125
 20
-1.150937500000001
 30
0.0
 40
0.0546875000000004
100
AcDbArc
 50
0.0000008537736463
 51
90.0
  0
ARC
  5
12E
330
D6
100
AcDbEntity
  8
AM_4
100
AcDbCircle
 10
-1.6003125
 20
-1.150937500000001
 30
0.0
 40
0.0546875000000004
100
AcDbArc
 50
90.0
 51
179.9999991462263
  0
ARC
  5
12F
330
D6
100
AcDbEntity
  8
AM_4
100
AcDbCircle
 10
0.0000000000000007
 20
-1.511875000000002
 30
0.0
 40
0.2018500000000017
100
AcDbArc
 50
54.42985819370925
 51
125.570141806291
  0
LINE
  5
130
330
D6
100
AcDbEntity
  8
AM_4
100
AcDbLine
 10
-1.655
 20
-1.785312500000001
 30
0.0
 11
1.655
 21
-1.785312500000001
 31
0.0
  0
LWPOLYLINE
  5
131
330
D6
100
AcDbEntity
  8
AM_4
100
AcDbPolyline
 90
       12
 70
     0
 43
0.0
 10
-0.1174159764519259
 20
-1.676060599167043
 10
-0.1433211736063893
 20
-1.653982007700062
 10
-0.1651786884930487
 20
-1.62788975495693
 10
-0.1823139700928079
 20
-1.598458992729889
 10
-0.1943006428454694
 20
-1.566562134591578
 10
-0.200700636327432
 20
-1.533188652354308
 10
-0.2014521097204019
 20
-1.499207325027886
 10
-0.1964993741868563
 20
-1.465795849713998
 10
-0.1860885615523704
 20
-1.4336799249673
 10
-0.1704216719168027
 20
-1.403745513104857
 10
-0.1500220069052469
 20
-1.376831229524935
 10
-0.1174159764519259
 20
-1.347689400832958
  0
LWPOLYLINE
  5
132
330
D6
100
AcDbEntity
  8
AM_4
100
AcDbPolyline
 90
       10
 70
     0
 43
0.0
 10
-0.1174159764519259
 20
-1.347689400832958
 10
-0.0962095265954936
 20
-1.332870192054398
 10
-0.0727531179742889
 20
-1.320839083815424
 10
-0.042312208960081
 20
-1.31079924924409
 10
-0.0095601501340622
 20
-1.306104212360737
 10
0.021065131941774
 20
-1.30706917040529
 10
0.051972054247293
 20
-1.313361430854755
 10
0.0803076017757983
 20
-1.324270166462973
 10
0.1072039921340635
 20
-1.340027337423961
 10
0.1174159764519266
 20
-1.347689400832957
  0
LWPOLYLINE
  5
133
330
D6
100
AcDbEntity
  8
AM_4
100
AcDbPolyline
 90
       12
 70
     0
 43
0.0
 10
0.1174159764519259
 20
-1.347689400832958
 10
0.1433211736063893
 20
-1.369767992299939
 10
0.1651786884930487
 20
-1.395860245043071
 10
0.1823139700928079
 20
-1.425291007270112
 10
0.1943006428454694
 20
-1.457187865408422
 10
0.200700636327432
 20
-1.490561347645692
 10
0.2014521097204019
 20
-1.524542674972115
 10
0.1964993741868563
 20
-1.557954150286002
 10
0.1860885615523704
 20
-1.590070075032701
 10
0.1704216719168027
 20
-1.620004486895144
 10
0.1500220069052469
 20
-1.646918770475065
 10
0.1174159764519259
 20
-1.676060599167043
  0
LWPOLYLINE
  5
134
330
D6
100
AcDbEntity
  8
AM_4
100
AcDbPolyline
 90
       10
 70
     0
 43
0.0
 10
0.1174159764519259
 20
-1.676060599167043
 10
0.0962095265954936
 20
-1.690879807945603
 10
0.0727531179742889
 20
-1.702910916184577
 10
0.042312208960081
 20
-1.712950750755911
 10
0.0095601501340622
 20
-1.717645787639264
 10
-0.021065131941774
 20
-1.71668082959471
 10
-0.051972054247293
 20
-1.710388569145246
 10
-0.0803076017757983
 20
-1.699479833537028
 10
-0.1072039921340635
 20
-1.68372266257604
 10
-0.1174159764519259
 20
-1.676060599167043
  0
LINE
  5
135
330
D6
100
AcDbEntity
  8
AM_4
100
AcDbLine
 10
-1.655
 20
-1.150937500000001
 30
0.0
 11
1.655
 21
-1.150937500000001
 31
0.0
  0
LINE
  5
136
330
D6
100
AcDbEntity
  8
AM_4
100
AcDbLine
 10
1.655
 20
-1.785312500000001
 30
0.0
 11
1.655
 21
-1.150937500000001
 31
0.0
  0
LINE
  5
137
330
D6
100
AcDbEntity
  8
AM_4
100
AcDbLine
 10
-1.655
 20
-1.150937500000001
 30
0.0
 11
-1.655
 21
-1.785312500000001
 31
0.0
  0
ARC
  5
139
330
D6
100
AcDbEntity
  8
AM_5
100
AcDbCircle
 10
0.0000000000000001
 20
-1.511875
 30
0.0
 40
0.2187499999999999
100
AcDbArc
 50
75.00000000000001
 51
15.00000000000002
  0
ENDBLK
  5
D9
330
D6
100
AcDbEntity
  8
0
100
AcDbBlockEnd
  0
BLOCK
  5
13C
330
13A
100
AcDbEntity
  8
0
100
AcDbBlockBegin
  2
4_131820H_0_in_131820_4
 70
     2
 10
0.0
 20
0.0
 30
0.0
  3
4_131820H_0_in_131820_4
  1

  0
ATTDEF
  5
13E
330
13A
100
AcDbEntity
  8
AM_6
100
AcDbText
 10
9.75
 20
1.3035
 30
0.0
 40
0.5
  1
P2B-SXR -I-Housing
100
AcDbAttributeDefinition
  3

  2
NN
 70
     8
280
     0
  0
ATTDEF
  5
13F
330
13A
100
AcDbEntity
  8
AM_6
100
AcDbText
 10
9.75
 20
0.8035000000000001
 30
0.0
 40
0.5
  1
Eccentric Collar Pillow Block Bearings -(Normal Duty)
100
AcDbAttributeDefinition
  3

  2
NT
 70
     8
280
     0
  0
ATTDEF
  5
140
330
13A
100
AcDbEntity
  8
AM_6
100
AcDbText
 10
9.75
 20
0.3035000000000001
 30
0.0
 40
0.5
  1
131820H
100
AcDbAttributeDefinition
  3

  2
NB
 70
     8
280
     0
  0
ATTDEF
  5
141
330
13A
100
AcDbEntity
  8
AM_6
100
AcDbText
 10
9.75
 20
-0.1964999999999999
 30
0.0
 40
0.5
  1
$PN.H
100
AcDbAttributeDefinition
  3

  2
NBSYN
 70
     8
280
     0
  0
ATTDEF
  5
142
330
13A
100
AcDbEntity
  8
AM_6
100
AcDbText
 10
9.75
 20
-0.6964999999999999
 30
0.0
 40
0.5
  1
131820
100
AcDbAttributeDefinition
  3

  2
LINA
 70
     8
280
     0
  0
ATTDEF
  5
143
330
13A
100
AcDbEntity
  8
AM_6
100
AcDbText
 10
9.75
 20
-1.1965
 30
0.0
 40
0.5
  1
212
100
AcDbAttributeDefinition
  3

  2
SERIES
 70
     8
280
     0
  0
ATTDEF
  5
144
330
13A
100
AcDbEntity
  8
AM_6
100
AcDbText
 10
9.75
 20
-1.6965
 30
0.0
 40
0.5
  1
2-1/4
100
AcDbAttributeDefinition
  3

  2
SS
 70
     8
280
     0
  0
ATTDEF
  5
145
330
13A
100
AcDbEntity
  8
AM_6
100
AcDbText
 10
9.75
 20
-2.1965
 30
0.0
 40
0.5
  1
131820
100
AcDbAttributeDefinition
  3

  2
PN
 70
     8
280
     0
  0
ATTDEF
  5
146
330
13A
100
AcDbEntity
  8
AM_6
100
AcDbText
 10
9.75
 20
-2.6965
 30
0.0
 40
0.5
  1
P2B-SXR-204
100
AcDbAttributeDefinition
  3

  2
DESCRIPTION
 70
     8
280
     0
  0
ATTDEF
  5
147
330
13A
100
AcDbEntity
  8
AM_6
100
AcDbText
 10
9.75
 20
-3.1965
 30
0.0
 40
0.5
  1
RE-LUBE
100
AcDbAttributeDefinition
  3

  2
LF
 70
     8
280
     0
  0
ATTDEF
  5
148
330
13A
100
AcDbEntity
  8
AM_6
100
AcDbText
 10
9.75
 20
-3.6965
 30
0.0
 40
0.5
  1
11.6
100
AcDbAttributeDefinition
  3

  2
WEIGHT
 70
     8
280
     0
  0
ATTDEF
  5
149
330
13A
100
AcDbEntity
  8
AM_6
100
AcDbText
 10
9.75
 20
-4.1965
 30
0.0
 40
0.5
  1
2.74
100
AcDbAttributeDefinition
  3

  2
A
 70
     8
280
     0
  0
ATTDEF
  5
14A
330
13A
100
AcDbEntity
  8
AM_6
100
AcDbText
 10
9.75
 20
-4.6965
 30
0.0
 40
0.5
  1
9.50
100
AcDbAttributeDefinition
  3

  2
B
 70
     8
280
     0
  0
ATTDEF
  5
14B
330
13A
100
AcDbEntity
  8
AM_6
100
AcDbText
 10
9.75
 20
-5.1965
 30
0.0
 40
0.5
  1
2.37
100
AcDbAttributeDefinition
  3

  2
C
 70
     8
280
     0
  0
ATTDEF
  5
14C
330
13A
100
AcDbEntity
  8
AM_6
100
AcDbText
 10
9.75
 20
-5.6965
 30
0.0
 40
0.5
  1
6.88
100
AcDbAttributeDefinition
  3

  2
DMIN
 70
     8
280
     0
  0
ATTDEF
  5
14D
330
13A
100
AcDbEntity
  8
AM_6
100
AcDbText
 10
9.75
 20
-6.1965
 30
0.0
 40
0.5
  1
7.94
100
AcDbAttributeDefinition
  3

  2
DMAX
 70
     8
280
     0
  0
ATTDEF
  5
14E
330
13A
100
AcDbEntity
  8
AM_6
100
AcDbText
 10
9.75
 20
-6.6965
 30
0.0
 40
0.5
  1
5/8
100
AcDbAttributeDefinition
  3

  2
F
 70
     8
280
     0
  0
ATTDEF
  5
14F
330
13A
100
AcDbEntity
  8
AM_6
100
AcDbText
 10
9.75
 20
-7.1965
 30
0.0
 40
0.5
  1
1.21
100
AcDbAttributeDefinition
  3

  2
G
 70
     8
280
     0
  0
ATTDEF
  5
150
330
13A
100
AcDbEntity
  8
AM_6
100
AcDbText
 10
9.75
 20
-7.6965
 30
0.0
 40
0.5
  1
0.88
100
AcDbAttributeDefinition
  3

  2
H
 70
     8
280
     0
  0
ATTDEF
  5
151
330
13A
100
AcDbEntity
  8
AM_6
100
AcDbText
 10
9.75
 20
-8.1965
 30
0.0
 40
0.5
  1
5.40
100
AcDbAttributeDefinition
  3

  2
J
 70
     8
280
     0
  0
ATTDEF
  5
152
330
13A
100
AcDbEntity
  8
AM_6
100
AcDbText
 10
9.75
 20
-8.6965
 30
0.0
 40
0.5
  1
3.31
100
AcDbAttributeDefinition
  3

  2
L
 70
     8
280
     0
  0
ATTDEF
  5
153
330
13A
100
AcDbEntity
  8
AM_6
100
AcDbText
 10
9.75
 20
-9.1965
 30
0.0
 40
0.5
  1
2.75
100
AcDbAttributeDefinition
  3

  2
M
 70
     8
280
     0
  0
ATTDEF
  5
154
330
13A
100
AcDbEntity
  8
AM_6
100
AcDbText
 10
9.75
 20
-9.6965
 30
0.0
 40
0.5
  1
0.90
100
AcDbAttributeDefinition
  3

  2
R
 70
     8
280
     0
  0
ATTDEF
  5
155
330
13A
100
AcDbEntity
  8
AM_6
100
AcDbText
 10
9.75
 20
-10.1965
 30
0.0
 40
0.5
  1
1.84
100
AcDbAttributeDefinition
  3

  2
S
 70
     8
280
     0
  0
ATTDEF
  5
156
330
13A
100
AcDbEntity
  8
AM_6
100
AcDbText
 10
9.75
 20
-10.6965
 30
0.0
 40
0.5
  1
4.25
100
AcDbAttributeDefinition
  3

  2
U
 70
     8
280
     0
  0
ATTDEF
  5
157
330
13A
100
AcDbEntity
  8
AM_6
100
AcDbText
 10
9.75
 20
-11.1965
 30
0.0
 40
0.5
  1
8.50
100
AcDbAttributeDefinition
  3

  2
V
 70
     8
280
     0
  0
ATTDEF
  5
158
330
13A
100
AcDbEntity
  8
AM_6
100
AcDbText
 10
9.75
 20
-11.6965
 30
0.0
 40
0.5
  1
0.88
100
AcDbAttributeDefinition
  3

  2
W
 70
     8
280
     0
  0
ATTDEF
  5
159
330
13A
100
AcDbEntity
  8
AM_6
100
AcDbText
 10
9.75
 20
-12.1965
 30
0.0
 40
0.5
  1
0.12
100
AcDbAttributeDefinition
  3

  2
X
 70
     8
280
     0
  0
ATTDEF
  5
15A
330
13A
100
AcDbEntity
  8
AM_6
100
AcDbText
 10
9.75
 20
-12.6965
 30
0.0
 40
0.5
  1
6955
100
AcDbAttributeDefinition
  3

  2
CAPS
 70
     8
280
     0
  0
ATTDEF
  5
15B
330
13A
100
AcDbEntity
  8
AM_6
100
AcDbText
 10
9.75
 20
-13.1965
 30
0.0
 40
0.5
  1
11791
100
AcDbAttributeDefinition
  3

  2
CAPD
 70
     8
280
     0
  0
ATTDEF
  5
15C
330
13A
100
AcDbEntity
  8
AM_6
100
AcDbText
 10
9.75
 20
-13.6965
 30
0.0
 40
0.5
  1
baldor
100
AcDbAttributeDefinition
  3

  2
COMPANY
 70
     8
280
     0
  0
LINE
  5
15D
330
13A
100
AcDbEntity
  8
AM_9
100
AcDbLine
 10
2.27785
 20
-0.3555000000000001
 30
0.0
 11
2.27785
 21
0.9579999999999964
 31
0.0
  0
LINE
  5
15E
330
13A
100
AcDbEntity
  8
AM_9
100
AcDbLine
 10
2.189849999999999
 20
0.5925
 30
0.0
 11
2.189849999999999
 21
0.9480000000000001
 31
0.0
  0
LINE
  5
15F
330
13A
100
AcDbEntity
  8
AM_9
100
AcDbLine
 10
-2.27785
 20
-0.948000000000001
 30
0.0
 11
-2.27785
 21
-0.5925000000000001
 31
0.0
  0
LINE
  5
160
330
13A
100
AcDbEntity
  8
AM_9
100
AcDbLine
 10
-2.18985
 20
-0.9480000000000003
 30
0.0
 11
-2.18985
 21
-0.5925000000000001
 31
0.0
  0
LINE
  5
161
330
13A
100
AcDbEntity
  8
AM_9
100
AcDbLine
 10
2.27785
 20
-0.9480000000000003
 30
0.0
 11
2.27785
 21
-0.5925000000000001
 31
0.0
  0
LINE
  5
162
330
13A
100
AcDbEntity
  8
AM_9
100
AcDbLine
 10
2.189849999999999
 20
-0.9480000000000003
 30
0.0
 11
2.189849999999999
 21
-0.5925000000000001
 31
0.0
  0
LINE
  5
163
330
13A
100
AcDbEntity
  8
AM_9
100
AcDbLine
 10
-2.27785
 20
-0.3555000000000001
 30
0.0
 11
-2.27785
 21
0.9579999999999997
 31
0.0
  0
LINE
  5
164
330
13A
100
AcDbEntity
  8
AM_9
100
AcDbLine
 10
-2.18985
 20
0.5925
 30
0.0
 11
-2.189849999999999
 21
0.948
 31
0.0
  0
LINE
  5
165
330
13A
100
AcDbEntity
  8
AM_9
100
AcDbLine
 10
4.134
 20
-0.5925000000000001
 30
0.0
 11
4.134
 21
-0.2978321675037804
 31
0.0
  0
LINE
  5
166
330
13A
100
AcDbEntity
  8
AM_9
100
AcDbLine
 10
4.31
 20
-0.5925000000000001
 30
0.0
 11
4.31
 21
0.5924999999999999
 31
0.0
  0
LINE
  5
167
330
13A
100
AcDbEntity
  8
AM_9
100
AcDbLine
 10
4.134
 20
0.2978321675037803
 30
0.0
 11
4.134
 21
0.5924999999999999
 31
0.0
  0
LINE
  5
168
330
13A
100
AcDbEntity
  8
AM_9
100
AcDbLine
 10
-4.134
 20
-0.5925000000000001
 30
0.0
 11
-4.134
 21
-0.2978321675037804
 31
0.0
  0
LINE
  5
169
330
13A
100
AcDbEntity
  8
AM_9
100
AcDbLine
 10
-4.31
 20
-0.5925000000000001
 30
0.0
 11
-4.31
 21
0.5924999999999999
 31
0.0
  0
LINE
  5
16A
330
13A
100
AcDbEntity
  8
AM_9
100
AcDbLine
 10
-4.134
 20
0.2978321675037809
 30
0.0
 11
-4.134
 21
0.5924999999999999
 31
0.0
  0
LINE
  5
16B
330
13A
100
AcDbEntity
  8
AM_9
100
AcDbLine
 10
2.97385419787691
 20
-0.5925000000000001
 30
0.0
 11
2.97385419787691
 21
0.5924999999999999
 31
0.0
  0
LINE
  5
16C
330
13A
100
AcDbEntity
  8
AM_9
100
AcDbLine
 10
-2.973854197876903
 20
-0.5925000000000001
 30
0.0
 11
-2.973854197876903
 21
0.5924999999999999
 31
0.0
  0
LINE
  5
16D
330
13A
100
AcDbEntity
  8
AM_9
100
AcDbLine
 10
-2.746093438186691
 20
-0.5925000000000001
 30
0.0
 11
-2.746093438186691
 21
0.5924999999999999
 31
0.0
  0
LINE
  5
16E
330
13A
100
AcDbEntity
  8
AM_9
100
AcDbLine
 10
2.746093438186691
 20
-0.5925000000000001
 30
0.0
 11
2.746093438186691
 21
0.5924999999999999
 31
0.0
  0
LINE
  5
16F
330
13A
100
AcDbEntity
  8
AM_9
100
AcDbLine
 10
1.424672426350403
 20
-0.5925000000000001
 30
0.0
 11
1.424672426350403
 21
0.5924999999999999
 31
0.0
  0
LINE
  5
170
330
13A
100
AcDbEntity
  8
AM_9
100
AcDbLine
 10
-1.424672442943482
 20
-0.5925000000000001
 30
0.0
 11
-1.424672442943482
 21
0.5924999999999999
 31
0.0
  0
LINE
  5
171
330
13A
100
AcDbEntity
  8
AM_9
100
AcDbLine
 10
-1.776088205469584
 20
-0.5925000000000001
 30
0.0
 11
-1.776088205469584
 21
0.5924999999999999
 31
0.0
  0
LINE
  5
172
330
13A
100
AcDbEntity
  8
AM_9
100
AcDbLine
 10
1.776088205469583
 20
-0.5925000000000001
 30
0.0
 11
1.776088205469583
 21
0.5924999999999999
 31
0.0
  0
LINE
  5
173
330
13A
100
AcDbEntity
  8
AM_9
100
AcDbLine
 10
4.31
 20
-0.5925000000000001
 30
0.0
 11
-4.31
 21
-0.5925000000000001
 31
0.0
  0
LINE
  5
174
330
13A
100
AcDbEntity
  8
AM_9
100
AcDbLine
 10
4.31
 20
0.5924999999999999
 30
0.0
 11
-4.31
 21
0.5924999999999999
 31
0.0
  0
LINE
  5
175
330
13A
100
AcDbEntity
  8
AM_9
100
AcDbLine
 10
2.27785
 20
-0.3555000000000001
 30
0.0
 11
1.850166376978027
 21
-0.3555
 31
0.0
  0
LINE
  5
176
330
13A
100
AcDbEntity
  8
AM_9
100
AcDbLine
 10
1.980650302930833
 20
-0.3555
 30
0.0
 11
1.980650302930833
 21
0.7924032079646021
 31
0.0
  0
LINE
  5
177
330
13A
100
AcDbEntity
  8
AM_9
100
AcDbLine
 10
-1.850166376978027
 20
-0.3555
 30
0.0
 11
-2.27785
 21
-0.3555000000000001
 31
0.0
  0
LINE
  5
178
330
13A
100
AcDbEntity
  8
AM_9
100
AcDbLine
 10
-1.980650302930833
 20
-0.3555
 30
0.0
 11
-1.980650302930833
 21
0.7924032079646021
 31
0.0
  0
LINE
  5
179
330
13A
100
AcDbEntity
  8
AM_9
100
AcDbLine
 10
1.485
 20
-0.9480000000000003
 30
0.0
 11
-1.485
 21
-0.9480000000000003
 31
0.0
  0
LINE
  5
17A
330
13A
100
AcDbEntity
  8
AM_9
100
AcDbLine
 10
-1.850166376978027
 20
-0.3555
 30
0.0
 11
-1.850166376978027
 21
0.7924032079646016
 31
0.0
  0
LINE
  5
17B
330
13A
100
AcDbEntity
  8
AM_9
100
AcDbLine
 10
1.850166376978027
 20
0.7924032079646016
 30
0.0
 11
1.850166376978027
 21
-0.3555
 31
0.0
  0
LINE
  5
17C
330
13A
100
AcDbEntity
  8
AM_9
100
AcDbLine
 10
2.16535
 20
-0.9398727876106193
 30
0.0
 11
2.16535
 21
-0.3555000000000001
 31
0.0
  0
LINE
  5
17D
330
13A
100
AcDbEntity
  8
AM_9
100
AcDbLine
 10
-2.16535
 20
-0.3555000000000001
 30
0.0
 11
-2.16535
 21
-0.9398727876106193
 31
0.0
  0
LINE
  5
17E
330
13A
100
AcDbEntity
  8
AM_7
100
AcDbLine
 10
-4.313
 20
-0.8800000000000002
 30
0.0
 11
-4.187
 21
-0.8800000000000002
 31
0.0
  0
LINE
  5
17F
330
13A
100
AcDbEntity
  8
AM_7
100
AcDbLine
 10
-4.25
 20
-0.9430000000000003
 30
0.0
 11
-4.25
 21
-0.8170000000000002
 31
0.0
  0
LINE
  5
180
330
13A
100
AcDbEntity
  8
AM_7
100
AcDbLine
 10
4.187
 20
-0.8800000000000002
 30
0.0
 11
4.313
 21
-0.8800000000000002
 31
0.0
  0
LINE
  5
181
330
13A
100
AcDbEntity
  8
AM_7
100
AcDbLine
 10
4.25
 20
-0.9430000000000003
 30
0.0
 11
4.25
 21
-0.8170000000000002
 31
0.0
  0
LINE
  5
182
330
13A
100
AcDbEntity
  8
AM_7
100
AcDbLine
 10
0.0
 20
1.3035
 30
0.0
 11
0.0
 21
-1.977
 31
0.0
  0
LINE
  5
183
330
13A
100
AcDbEntity
  8
AM_7
100
AcDbLine
 10
-4.327000000000001
 20
0.0000000000000002
 30
0.0
 11
-3.083
 21
0.0000000000000004
 31
0.0
  0
LINE
  5
184
330
13A
100
AcDbEntity
  8
AM_7
100
AcDbLine
 10
-3.44
 20
-0.3569999999999994
 30
0.0
 11
-3.44
 21
0.3570000000000003
 31
0.0
  0
LINE
  5
185
330
13A
100
AcDbEntity
  8
AM_7
100
AcDbLine
 10
3.083
 20
-0.0000000000000002
 30
0.0
 11
4.327000000000001
 21
0.0
 31
0.0
  0
LINE
  5
186
330
13A
100
AcDbEntity
  8
AM_7
100
AcDbLine
 10
3.44
 20
-0.3570000000000001
 30
0.0
 11
3.44
 21
0.3569999999999997
 31
0.0
  0
LINE
  5
187
330
13A
100
AcDbEntity
  8
AM_7
100
AcDbLine
 10
-3.970000000000001
 20
-0.3569999999999997
 30
0.0
 11
-3.970000000000001
 21
0.3570000000000001
 31
0.0
  0
LINE
  5
188
330
13A
100
AcDbEntity
  8
AM_7
100
AcDbLine
 10
3.970000000000001
 20
-0.3569999999999999
 30
0.0
 11
3.970000000000001
 21
0.3569999999999999
 31
0.0
  0
LINE
  5
189
330
13A
100
AcDbEntity
  8
AM_4
100
AcDbLine
 10
-4.75
 20
-1.185
 30
0.0
 11
-4.75
 21
1.185
 31
0.0
  0
LINE
  5
18A
330
13A
100
AcDbEntity
  8
AM_4
100
AcDbLine
 10
4.574000000000001
 20
-1.185
 30
0.0
 11
4.574000000000001
 21
-0.9119999999999991
 31
0.0
  0
LINE
  5
18B
330
13A
100
AcDbEntity
  8
AM_4
100
AcDbLine
 10
4.75
 20
-1.185
 30
0.0
 11
4.75
 21
1.185
 31
0.0
  0
LINE
  5
18C
330
13A
100
AcDbEntity
  8
AM_4
100
AcDbLine
 10
4.574000000000001
 20
0.9119999999999995
 30
0.0
 11
4.574000000000001
 21
1.185
 31
0.0
  0
LINE
  5
18D
330
13A
100
AcDbEntity
  8
AM_4
100
AcDbLine
 10
-4.574
 20
-1.185
 30
0.0
 11
-4.574
 21
-0.9120000000000001
 31
0.0
  0
LINE
  5
18E
330
13A
100
AcDbEntity
  8
AM_4
100
AcDbLine
 10
-4.574
 20
0.911999999999999
 30
0.0
 11
-4.574
 21
1.185
 31
0.0
  0
LINE
  5
18F
330
13A
100
AcDbEntity
  8
AM_4
100
AcDbLine
 10
-3.656091903500923
 20
-1.185
 30
0.0
 11
-3.656091903500923
 21
-1.0
 31
0.0
  0
LINE
  5
190
330
13A
100
AcDbEntity
  8
AM_4
100
AcDbLine
 10
-3.656091903500923
 20
0.9999999999999993
 30
0.0
 11
-3.656091903500923
 21
1.185
 31
0.0
  0
LINE
  5
191
330
13A
100
AcDbEntity
  8
AM_4
100
AcDbLine
 10
3.656091903500923
 20
-1.185
 30
0.0
 11
3.656091903500923
 21
-1.0
 31
0.0
  0
LINE
  5
192
330
13A
100
AcDbEntity
  8
AM_4
100
AcDbLine
 10
3.656091903500923
 20
0.9999999999999999
 30
0.0
 11
3.656091903500923
 21
1.185
 31
0.0
  0
CIRCLE
  5
193
330
13A
100
AcDbEntity
  8
AM_4
100
AcDbCircle
 10
-4.25
 20
-0.8800000000000002
 30
0.0
 40
0.06
  0
ARC
  5
194
330
13A
100
AcDbEntity
  8
AM_4
100
AcDbCircle
 10
-3.970000000000001
 20
0.0000000000000002
 30
0.0
 40
0.34
100
AcDbArc
 50
90.0
 51
270.0
  0
LINE
  5
195
330
13A
100
AcDbEntity
  8
AM_4
100
AcDbLine
 10
-3.970000000000001
 20
0.3400000000000002
 30
0.0
 11
-3.44
 21
0.3400000000000004
 31
0.0
  0
ARC
  5
196
330
13A
100
AcDbEntity
  8
AM_4
100
AcDbCircle
 10
-3.44
 20
0.0000000000000004
 30
0.0
 40
0.34
100
AcDbArc
 50
270.0
 51
90.0
  0
LINE
  5
197
330
13A
100
AcDbEntity
  8
AM_4
100
AcDbLine
 10
-3.44
 20
-0.3399999999999995
 30
0.0
 11
-3.970000000000001
 21
-0.3399999999999996
 31
0.0
  0
ARC
  5
198
330
13A
100
AcDbEntity
  8
AM_4
100
AcDbCircle
 10
-4.31
 20
-0.5599999999999995
 30
0.0
 40
0.4400000000000004
100
AcDbArc
 50
180.0
 51
270.0
  0
LINE
  5
199
330
13A
100
AcDbEntity
  8
AM_4
100
AcDbLine
 10
-4.31
 20
-1.0
 30
0.0
 11
-3.44
 21
-0.9999999999999997
 31
0.0
  0
LINE
  5
19A
330
13A
100
AcDbEntity
  8
AM_4
100
AcDbLine
 10
-3.439999999999999
 20
0.9999999999999999
 30
0.0
 11
-4.309999999999998
 21
0.9999999999999999
 31
0.0
  0
ARC
  5
19B
330
13A
100
AcDbEntity
  8
AM_4
100
AcDbCircle
 10
-4.309999999999998
 20
0.5599999999999983
 30
0.0
 40
0.4400000000000016
100
AcDbArc
 50
90.0
 51
179.9999991462263
  0
CIRCLE
  5
19C
330
13A
100
AcDbEntity
  8
AM_4
100
AcDbCircle
 10
4.25
 20
-0.8800000000000002
 30
0.0
 40
0.06
  0
ARC
  5
19D
330
13A
100
AcDbEntity
  8
AM_4
100
AcDbCircle
 10
3.44
 20
-0.0000000000000002
 30
0.0
 40
0.34
100
AcDbArc
 50
90.0
 51
270.0
  0
LINE
  5
19E
330
13A
100
AcDbEntity
  8
AM_4
100
AcDbLine
 10
3.44
 20
0.3399999999999997
 30
0.0
 11
3.970000000000001
 21
0.3399999999999999
 31
0.0
  0
ARC
  5
19F
330
13A
100
AcDbEntity
  8
AM_4
100
AcDbCircle
 10
3.970000000000001
 20
-0.0000000000000001
 30
0.0
 40
0.3399999999999999
100
AcDbArc
 50
270.0
 51
90.0
  0
LINE
  5
1A0
330
13A
100
AcDbEntity
  8
AM_4
100
AcDbLine
 10
3.970000000000001
 20
-0.34
 30
0.0
 11
3.44
 21
-0.3400000000000002
 31
0.0
  0
ARC
  5
1A1
330
13A
100
AcDbEntity
  8
AM_4
100
AcDbCircle
 10
4.31
 20
0.5599999999999993
 30
0.0
 40
0.4400000000000004
100
AcDbArc
 50
0.0
 51
90.0
  0
LINE
  5
1A2
330
13A
100
AcDbEntity
  8
AM_4
100
AcDbLine
 10
4.31
 20
0.9999999999999997
 30
0.0
 11
3.44
 21
0.9999999999999999
 31
0.0
  0
LINE
  5
1A3
330
13A
100
AcDbEntity
  8
AM_4
100
AcDbLine
 10
3.44
 20
-1.0
 30
0.0
 11
4.31
 21
-1.0
 31
0.0
  0
ARC
  5
1A4
330
13A
100
AcDbEntity
  8
AM_4
100
AcDbCircle
 10
4.309999999999999
 20
-0.5600000000000002
 30
0.0
 40
0.4400000000000001
100
AcDbArc
 50
270.0
 51
0.0
  0
LWPOLYLINE
  5
1A5
330
13A
100
AcDbEntity
  8
AM_4
100
AcDbPolyline
 90
       15
 70
     0
 43
0.0
 10
3.44
 20
1.0
 10
3.352844257252342
 20
0.9961946980917457
 10
3.266351822333069
 20
0.9848077530122084
 10
3.18118095489748
 20
0.9659258262890686
 10
3.097979856674332
 20
0.9396926207859089
 10
3.017381738259301
 20
0.9063077870366503
 10
2.94
 20
0.8660254037844392
 10
2.866423563648954
 20
0.8191520442889924
 10
2.797212390313461
 20
0.7660444431189787
 10
2.732893218813453
 20
0.7071067811865483
 10
2.673955556881023
 20
0.6427876096865401
 10
2.620847955711008
 20
0.573576436351047
 10
2.573974596215562
 20
0.5000000000000012
 10
2.53369221296335
 20
0.4226182617407008
 10
2.507480884108996
 20
0.3611206148890704
  0
LINE
  5
1A6
330
13A
100
AcDbEntity
  8
AM_4
100
AcDbLine
 10
3.489557324028024
 20
0.9999999999999999
 30
0.0
 11
3.489557324028024
 21
1.185
 31
0.0
  0
LWPOLYLINE
  5
1A7
330
13A
100
AcDbEntity
  8
AM_4
100
AcDbPolyline
 90
       15
 70
     0
 43
0.0
 10
2.507480884108996
 20
-0.3611206148890703
 10
2.542503136292328
 20
-0.4410208380959929
 10
2.584355881531898
 20
-0.5175646264293421
 10
2.632720595165055
 20
-0.5901694354414981
 10
2.687229192517637
 20
-0.6582826986958962
 10
2.747466830250602
 20
-0.7213860331312575
 10
2.81297506356832
 20
-0.7789991842696937
 10
2.883255335260291
 20
-0.8306836812432697
 10
2.957772770022552
 20
-0.8760461738220641
 10
3.035960245181704
 20
-0.9147414260469303
 10
3.117222706840896
 20
-0.9464749436836047
 10
3.200941698599288
 20
-0.971005215501651
 10
3.286480068378688
 20
-0.9881455513207502
 10
3.373186817535596
 20
-0.9977655028357012
 10
3.44
 20
-1.000000000000001
  0
LINE
  5
1A8
330
13A
100
AcDbEntity
  8
AM_4
100
AcDbLine
 10
3.489557324028024
 20
-1.185
 30
0.0
 11
3.489557324028024
 21
-1.0
 31
0.0
  0
LWPOLYLINE
  5
1A9
330
13A
100
AcDbEntity
  8
AM_4
100
AcDbPolyline
 90
       15
 70
     0
 43
0.0
 10
-2.507480884108996
 20
0.3611206148890698
 10
-2.542503136292327
 20
0.4410208380959923
 10
-2.584355881531897
 20
0.5175646264293415
 10
-2.632720595165053
 20
0.5901694354414976
 10
-2.687229192517636
 20
0.6582826986958955
 10
-2.747466830250601
 20
0.7213860331312568
 10
-2.812975063568319
 20
0.7789991842696932
 10
-2.883255335260291
 20
0.8306836812432694
 10
-2.957772770022551
 20
0.8760461738220637
 10
-3.035960245181702
 20
0.9147414260469299
 10
-3.117222706840896
 20
0.9464749436836045
 10
-3.200941698599287
 20
0.9710052155016504
 10
-3.286480068378688
 20
0.9881455513207497
 10
-3.373186817535595
 20
0.9977655028357008
 10
-3.439999999999999
 20
1.0
  0
LINE
  5
1AA
330
13A
100
AcDbEntity
  8
AM_4
100
AcDbLine
 10
-3.489557324028023
 20
0.9999999999999993
 30
0.0
 11
-3.489557324028023
 21
1.185
 31
0.0
  0
LWPOLYLINE
  5
1AB
330
13A
100
AcDbEntity
  8
AM_4
100
AcDbPolyline
 90
       15
 70
     0
 43
0.0
 10
-3.439999999999999
 20
-0.9999999999999997
 10
-3.352844257252341
 20
-0.9961946980917451
 10
-3.266351822333069
 20
-0.9848077530122076
 10
-3.181180954897478
 20
-0.9659258262890679
 10
-3.097979856674331
 20
-0.9396926207859078
 10
-3.0173817382593
 20
-0.9063077870366494
 10
-2.94
 20
-0.8660254037844382
 10
-2.866423563648953
 20
-0.8191520442889912
 10
-2.797212390313461
 20
-0.7660444431189776
 10
-2.732893218813452
 20
-0.7071067811865471
 10
-2.673955556881022
 20
-0.6427876096865391
 10
-2.620847955711008
 20
-0.5735764363510459
 10
-2.573974596215561
 20
-0.4999999999999998
 10
-2.53369221296335
 20
-0.4226182617406994
 10
-2.507480884108996
 20
-0.3611206148890691
  0
LINE
  5
1AC
330
13A
100
AcDbEntity
  8
AM_4
100
AcDbLine
 10
-3.489557324028023
 20
-1.185
 30
0.0
 11
-3.489557324028023
 21
-1.0
 31
0.0
  0
LINE
  5
1AD
330
13A
100
AcDbEntity
  8
AM_4
100
AcDbLine
 10
1.980650302930832
 20
0.7924032079646021
 30
0.0
 11
1.980650302930832
 21
0.948
 31
0.0
  0
LWPOLYLINE
  5
1AE
330
13A
100
AcDbEntity
  8
AM_4
100
AcDbPolyline
 90
        5
 70
     0
 43
0.0
 10
2.267850000000001
 20
0.9480000000000004
 10
2.269634579158881
 20
0.948160524545154
 10
2.272677991839759
 20
0.9492426890659736
 10
2.275021019393147
 20
0.9510303170184649
 10
2.275934748903911
 20
0.9521146932823593
  0
LINE
  5
1AF
330
13A
100
AcDbEntity
  8
AM_4
100
AcDbLine
 10
2.27785
 20
0.9398727876106197
 30
0.0
 11
2.275934748903911
 21
0.9521146932823593
 31
0.0
  0
LINE
  5
1B0
330
13A
100
AcDbEntity
  8
AM_4
100
AcDbLine
 10
2.267850000000001
 20
0.9480000000000004
 30
0.0
 11
-2.26785
 21
0.9480000000000001
 31
0.0
  0
LWPOLYLINE
  5
1B1
330
13A
100
AcDbEntity
  8
AM_4
100
AcDbPolyline
 90
        5
 70
     0
 43
0.0
 10
-2.275934748903911
 20
0.9521146932823589
 10
-2.275388549202185
 20
0.9514295908859314
 10
-2.273180466250969
 20
0.9495391413232842
 10
-2.270766884165045
 20
0.9484348660873092
 10
-2.26785
 20
0.9480000000000001
  0
LINE
  5
1B2
330
13A
100
AcDbEntity
  8
AM_4
100
AcDbLine
 10
-1.980650302930833
 20
0.7924032079646021
 30
0.0
 11
-1.980650302930833
 21
0.948
 31
0.0
  0
LWPOLYLINE
  5
1B3
330
13A
100
AcDbEntity
  8
AM_4
100
AcDbPolyline
 90
        7
 70
     0
 43
0.0
 10
-2.27785
 20
0.9398727876106197
 10
-2.269182093048282
 20
0.913848967399111
 10
-2.243244340198858
 20
0.8880232041730244
 10
-2.200234143412554
 20
0.8625920475845322
 10
-2.140478836257182
 20
0.8377490440910254
 10
-2.064433192701433
 20
0.8136832639497047
 10
-1.980650302930833
 20
0.7924032079646021
  0
LINE
  5
1B4
330
13A
100
AcDbEntity
  8
AM_4
100
AcDbLine
 10
-1.485
 20
-0.9480000000000003
 30
0.0
 11
-2.277850000000002
 21
-0.9480000000000015
 31
0.0
  0
LINE
  5
1B5
330
13A
100
AcDbEntity
  8
AM_4
100
AcDbLine
 10
2.277850000000002
 20
-0.9480000000000001
 30
0.0
 11
1.485
 21
-0.9480000000000003
 31
0.0
  0
LINE
  5
1B6
330
13A
100
AcDbEntity
  8
AM_4
100
AcDbLine
 10
1.850166376978027
 20
0.7924032079646011
 30
0.0
 11
1.850166376978027
 21
0.948
 31
0.0
  0
LINE
  5
1B7
330
13A
100
AcDbEntity
  8
AM_4
100
AcDbLine
 10
-1.850166376978027
 20
0.948
 30
0.0
 11
-1.850166376978027
 21
0.7924032079646011
 31
0.0
  0
LWPOLYLINE
  5
1B8
330
13A
100
AcDbEntity
  8
AM_4
100
AcDbPolyline
 90
       37
 70
     0
 43
0.0
 10
2.16535
 20
-0.9398727876106193
 10
2.157110189512961
 20
-0.9151342494737842
 10
2.132453467984985
 20
-0.890583986549708
 10
2.091567487955035
 20
-0.8664088411630972
 10
2.034763416418767
 20
-0.8427928007676958
 10
1.962473566659811
 20
-0.8199155976906677
 10
1.875248108084635
 20
-0.7979513412610619
 10
1.77375087910117
 20
-0.7770671927326888
 10
1.658754334907681
 20
-0.7574220930860425
 10
1.531133668642293
 20
-0.7391655533914696
 10
1.39186015063475
 20
-0.7224365169396461
 10
1.24199373645274
 20
-0.7073623017992384
 10
1.082675000000003
 20
-0.6940576318495252
 10
0.9151164530602266
 20
-0.6826237636624032
 10
0.7405933173502401
 20
-0.6731477158787346
 10
0.5604338193127469
 20
-0.6657016069439472
 10
0.3760090815110915
 20
-0.6603421062431185
 10
0.1887226875586458
 20
-0.6571100028127367
 10
0.0000000000000044
 20
-0.6560298949115042
 10
-0.1887226875586371
 20
-0.6571100028127365
 10
-0.3760090815110829
 20
-0.6603421062431184
 10
-0.5604338193127385
 20
-0.665701606943947
 10
-0.7405933173502318
 20
-0.6731477158787342
 10
-0.9151164530602187
 20
-0.6826237636624026
 10
-1.082674999999995
 20
-0.6940576318495247
 10
-1.241993736452733
 20
-0.7073623017992376
 10
-1.391860150634743
 20
-0.7224365169396453
 10
-1.531133668642286
 20
-0.7391655533914688
 10
-1.658754334907675
 20
-0.7574220930860416
 10
-1.773750879101164
 20
-0.7770671927326878
 10
-1.875248108084631
 20
-0.7979513412610609
 10
-1.962473566659807
 20
-0.8199155976906666
 10
-2.034763416418764
 20
-0.8427928007676947
 10
-2.091567487955032
 20
-0.8664088411630961
 10
-2.132453467984984
 20
-0.8905839865497069
 10
-2.157110189512961
 20
-0.9151342494737831
 10
-2.16535
 20
-0.9398727876106183
  0
LINE
  5
1B9
330
13A
100
AcDbEntity
  8
AM_4
100
AcDbLine
 10
-2.16535
 20
-0.9398727876106193
 30
0.0
 11
-2.164462201679669
 21
-0.9480000000000001
 31
0.0
  0
LINE
  5
1BA
330
13A
100
AcDbEntity
  8
AM_4
100
AcDbLine
 10
-2.507480884108996
 20
-0.8274885786296254
 30
0.0
 11
-2.507480884108996
 21
-0.3611206148890693
 31
0.0
  0
LINE
  5
1BB
330
13A
100
AcDbEntity
  8
AM_4
100
AcDbLine
 10
2.507480884108996
 20
-0.8274885786296253
 30
0.0
 11
2.507480884108996
 21
-0.3611206148890701
 31
0.0
  0
LWPOLYLINE
  5
1BC
330
13A
100
AcDbEntity
  8
AM_4
100
AcDbPolyline
 90
       22
 70
     0
 43
0.0
 10
2.507480884108996
 20
0.36112061488907
 10
2.496352101091342
 20
0.3309514366816386
 10
2.485586318500329
 20
0.2984870592944426
 10
2.475156667525586
 20
0.2628221098057576
 10
2.465584423351715
 20
0.2247538297453259
 10
2.458912810502537
 20
0.1935612497248841
 10
2.453057874270931
 20
0.1610752633441477
 10
2.448035123967951
 20
0.1264983486430004
 10
2.444140368120522
 20
0.0909043100896326
 10
2.441540551309796
 20
0.0554433766576274
 10
2.44019057631857
 20
0.0195222006394335
 10
2.440162313908712
 20
-0.0178538467755253
 10
2.441517405553797
 20
-0.0550682175849211
 10
2.443818003796991
 20
-0.0872841734912143
 10
2.447096063047306
 20
-0.1189191825730439
 10
2.451402997375017
 20
-0.1505780554197397
 10
2.456568028079033
 20
-0.1812775678445603
 10
2.464192557004401
 20
-0.218625216456494
 10
2.472810619416179
 20
-0.2540564938864689
 10
2.482483629314275
 20
-0.2883776407146582
 10
2.492759243985452
 20
-0.3205229323230859
 10
2.507480884108996
 20
-0.3611206148890709
  0
LINE
  5
1BD
330
13A
100
AcDbEntity
  8
AM_4
100
AcDbLine
 10
2.507480884108996
 20
0.36112061488907
 30
0.0
 11
2.507480884108996
 21
0.8274885786296253
 31
0.0
  0
LINE
  5
1BE
330
13A
100
AcDbEntity
  8
AM_4
100
AcDbLine
 10
-2.507480884108996
 20
0.3611206148890693
 30
0.0
 11
-2.507480884108996
 21
0.8274885786296253
 31
0.0
  0
LWPOLYLINE
  5
1BF
330
13A
100
AcDbEntity
  8
AM_4
100
AcDbPolyline
 90
       22
 70
     0
 43
0.0
 10
-2.507480884108996
 20
-0.3611206148890693
 10
-2.496352101091342
 20
-0.3309514366816372
 10
-2.485586318500328
 20
-0.2984870592944407
 10
-2.475156667525586
 20
-0.2628221098057558
 10
-2.465584423351715
 20
-0.2247538297453243
 10
-2.458912810502537
 20
-0.1935612497248823
 10
-2.453057874270931
 20
-0.161075263344146
 10
-2.448035123967951
 20
-0.1264983486429989
 10
-2.444140368120522
 20
-0.0909043100896315
 10
-2.441540551309796
 20
-0.0554433766576264
 10
-2.44019057631857
 20
-0.0195222006394325
 10
-2.440162313908712
 20
0.0178538467755263
 10
-2.441517405553797
 20
0.0550682175849221
 10
-2.443818003796991
 20
0.0872841734912152
 10
-2.447096063047306
 20
0.1189191825730446
 10
-2.451402997375017
 20
0.1505780554197405
 10
-2.456568028079033
 20
0.181277567844561
 10
-2.464192557004401
 20
0.2186252164564949
 10
-2.47281061941618
 20
0.2540564938864699
 10
-2.482483629314276
 20
0.2883776407146591
 10
-2.492759243985453
 20
0.3205229323230867
 10
-2.507480884108996
 20
0.3611206148890707
  0
LINE
  5
1C0
330
13A
100
AcDbEntity
  8
AM_4
100
AcDbLine
 10
-1.980650302930833
 20
0.7924032079646021
 30
0.0
 11
-1.850166376978027
 21
0.7924032079646016
 31
0.0
  0
LINE
  5
1C1
330
13A
100
AcDbEntity
  8
AM_4
100
AcDbLine
 10
-2.275934748903912
 20
0.952114693282359
 30
0.0
 11
-2.27785
 21
0.9398727876106197
 31
0.0
  0
LWPOLYLINE
  5
1C2
330
13A
100
AcDbEntity
  8
AM_4
100
AcDbPolyline
 90
        9
 70
     0
 43
0.0
 10
-2.27785
 20
0.9579999999999997
 10
-2.277811946980917
 20
0.9571284425725233
 10
-2.277698077530122
 20
0.9562635182233306
 10
-2.277509258262891
 20
0.9554118095489746
 10
-2.277246926207859
 20
0.9545797985667431
 10
-2.276913077870367
 20
0.9537738173825929
 10
-2.276510254037845
 20
0.953
 10
-2.27604152044289
 20
0.9522642356364895
 10
-2.275934748903911
 20
0.9521146932823589
  0
LINE
  5
1C3
330
13A
100
AcDbEntity
  8
AM_4
100
AcDbLine
 10
-2.27785
 20
0.9579999999999997
 30
0.0
 11
-2.27785
 21
1.185
 31
0.0
  0
LINE
  5
1C4
330
13A
100
AcDbEntity
  8
AM_4
100
AcDbLine
 10
-4.75
 20
1.185
 30
0.0
 11
-2.27785
 21
1.185
 31
0.0
  0
LINE
  5
1C5
330
13A
100
AcDbEntity
  8
AM_4
100
AcDbLine
 10
-2.507480884108996
 20
0.8274885786296253
 30
0.0
 11
-3.44
 21
1.185
 31
0.0
  0
LWPOLYLINE
  5
1C6
330
13A
100
AcDbEntity
  8
AM_4
100
AcDbPolyline
 90
       30
 70
     0
 43
0.0
 10
2.507480884108996
 20
0.8274885786296253
 10
2.423216664400263
 20
0.7992689435151281
 10
2.320510302697218
 20
0.7721193885531199
 10
2.200143456428216
 20
0.746246538250211
 10
2.063032189972855
 20
0.7218473006196608
 10
1.910220002858906
 20
0.6991073685925002
 10
1.742869888100827
 20
0.6781998067822022
 10
1.56225548112069
 20
0.6592837343584744
 10
1.369751366613574
 20
0.6425031140542978
 10
1.16682261712804
 20
0.6279856565226031
 10
0.955013642979402
 20
0.6158418483810868
 10
0.7359364383546874
 20
0.6061641113423376
 10
0.5112583130635224
 20
0.5990260988287981
 10
0.2826892033037344
 20
0.5944821354257459
 10
0.0519686580143971
 20
0.5925668034383985
 10
-0.1791474001419635
 20
0.5932946796996884
 10
-0.4089000384110859
 20
0.5966602246317637
 10
-0.6355407004873063
 20
0.6026378244055198
 10
-0.8573445140828513
 20
0.6111819858773049
 10
-1.072623418247454
 20
0.6222276828192128
 10
-1.279739010531466
 20
0.6356908508079416
 10
-1.477115016217792
 20
0.6514690270058139
 10
-1.663249284724269
 20
0.6694421299648408
 10
-1.836725221876617
 20
0.6894733735190476
 10
-1.996222571045472
 20
0.7114103078097912
 10
-2.140527461096529
 20
0.7350859795212363
 10
-2.268541644682821
 20
0.760320202495897
 10
-2.379290856570181
 20
0.7869209290600959
 10
-2.471932228383943
 20
0.8146857116227215
 10
-2.507480884108996
 20
0.8274885786296253
  0
LINE
  5
1C7
330
13A
100
AcDbEntity
  8
AM_4
100
AcDbLine
 10
3.44
 20
1.185
 30
0.0
 11
2.507480884108996
 21
0.8274885786296253
 31
0.0
  0
LINE
  5
1C8
330
13A
100
AcDbEntity
  8
AM_4
100
AcDbLine
 10
2.27785
 20
1.185
 30
0.0
 11
4.75
 21
1.185
 31
0.0
  0
LINE
  5
1C9
330
13A
100
AcDbEntity
  8
AM_4
100
AcDbLine
 10
2.27785
 20
1.185
 30
0.0
 11
2.27785
 21
0.9579999999999929
 31
0.0
  0
LWPOLYLINE
  5
1CA
330
13A
100
AcDbEntity
  8
AM_4
100
AcDbPolyline
 90
        9
 70
     0
 43
0.0
 10
2.275934748903911
 20
0.9521146932823593
 10
2.276416922271753
 20
0.9528417209468912
 10
2.276833896188258
 20
0.9536080062296713
 10
2.277182497230145
 20
0.954407717237002
 10
2.277460072332995
 20
0.9552347676852387
 10
2.277664508982671
 20
0.9560828632210838
 10
2.277794251292826
 20
0.9569455493254152
 10
2.277848311846139
 20
0.9578162604360748
 10
2.27785
 20
0.9579999999999858
  0
LWPOLYLINE
  5
1CB
330
13A
100
AcDbEntity
  8
AM_4
100
AcDbPolyline
 90
        7
 70
     0
 43
0.0
 10
1.980650302930833
 20
0.792403207964602
 10
2.071163541144621
 20
0.8155927682868016
 10
2.145913974207559
 20
0.8397281745983829
 10
2.204332706188494
 20
0.8646257418839579
 10
2.245975135262855
 20
0.8900959846229213
 10
2.270524337401
 20
0.9159450588886765
 10
2.27785
 20
0.9398727876106197
  0
LINE
  5
1CC
330
13A
100
AcDbEntity
  8
AM_4
100
AcDbLine
 10
1.850166376978027
 20
0.7924032079646016
 30
0.0
 11
1.980650302930833
 21
0.7924032079646021
 31
0.0
  0
LWPOLYLINE
  5
1CD
330
13A
100
AcDbEntity
  8
AM_4
100
AcDbPolyline
 90
       25
 70
     0
 43
0.0
 10
-1.850166376978028
 20
0.7924032079646018
 10
-1.74507572474201
 20
0.7718267237530542
 10
-1.626703992535173
 20
0.7525291715564502
 10
-1.495952060714418
 20
0.7346574173991867
 10
-1.353815030431075
 20
0.7183474761216606
 10
-1.201374650310286
 20
0.7037234762252057
 10
-1.03979108369079
 20
0.6908967151792467
 10
-0.8702940790813833
 20
0.6799648123803531
 10
-0.6941736110322355
 20
0.6710109662096883
 10
-0.5127700626496458
 20
0.6641033208430908
 10
-0.327464024471263
 20
0.659294447632751
 10
-0.13966578733847
 20
0.6566209450074764
 10
0.0491953907684769
 20
0.6561031599365504
 10
0.2376821622466866
 20
0.65774503307701
 10
0.4243600289537856
 20
0.6615340687828664
 10
0.607808259604955
 20
0.6674414302045153
 10
0.7866307023958693
 20
0.6754221587545759
 10
0.9594664105609465
 20
0.6854155162698864
 10
1.124999999999997
 20
0.6973454472656011
 10
1.281971660145474
 20
0.7111211577633535
 10
1.429186741881592
 20
0.726637806288254
 10
1.565524849545442
 20
0.7437773017758198
 10
1.689948367814503
 20
0.7624092023162801
 10
1.801510358585771
 20
0.7823917078962729
 10
1.850166376978027
 20
0.7924032079646015
  0
LINE
  5
1CE
330
13A
100
AcDbEntity
  8
AM_4
100
AcDbLine
 10
2.277850000000002
 20
-0.9480000000000001
 30
0.0
 11
2.277850000000002
 21
-1.185
 31
0.0
  0
LINE
  5
1CF
330
13A
100
AcDbEntity
  8
AM_4
100
AcDbLine
 10
2.277850000000002
 20
-1.185
 30
0.0
 11
4.75
 21
-1.185
 31
0.0
  0
LINE
  5
1D0
330
13A
100
AcDbEntity
  8
AM_4
100
AcDbLine
 10
2.507480884108996
 20
-0.8274885786296253
 30
0.0
 11
3.44
 21
-1.185
 31
0.0
  0
LWPOLYLINE
  5
1D1
330
13A
100
AcDbEntity
  8
AM_4
100
AcDbPolyline
 90
       30
 70
     0
 43
0.0
 10
-2.507480884108996
 20
-0.8274885786296253
 10
-2.423216664400263
 20
-0.7992689435151281
 10
-2.320510302697218
 20
-0.7721193885531199
 10
-2.200143456428217
 20
-0.746246538250211
 10
-2.063032189972856
 20
-0.7218473006196608
 10
-1.910220002858907
 20
-0.6991073685925001
 10
-1.742869888100828
 20
-0.6781998067822022
 10
-1.562255481120691
 20
-0.6592837343584742
 10
-1.369751366613575
 20
-0.6425031140542977
 10
-1.16682261712804
 20
-0.6279856565226027
 10
-0.9550136429794029
 20
-0.6158418483810865
 10
-0.7359364383546882
 20
-0.6061641113423374
 10
-0.5112583130635233
 20
-0.5990260988287979
 10
-0.2826892033037353
 20
-0.5944821354257457
 10
-0.051968658014398
 20
-0.5925668034383982
 10
0.1791474001419625
 20
-0.5932946796996881
 10
0.408900038411085
 20
-0.5966602246317634
 10
0.6355407004873055
 20
-0.6026378244055195
 10
0.8573445140828504
 20
-0.6111819858773045
 10
1.072623418247453
 20
-0.6222276828192125
 10
1.279739010531465
 20
-0.6356908508079412
 10
1.477115016217792
 20
-0.6514690270058137
 10
1.663249284724268
 20
-0.6694421299648404
 10
1.836725221876616
 20
-0.6894733735190471
 10
1.996222571045472
 20
-0.7114103078097908
 10
2.140527461096528
 20
-0.7350859795212359
 10
2.26854164468282
 20
-0.7603202024958965
 10
2.37929085657018
 20
-0.7869209290600954
 10
2.471932228383942
 20
-0.814685711622721
 10
2.507480884108996
 20
-0.8274885786296252
  0
LINE
  5
1D2
330
13A
100
AcDbEntity
  8
AM_4
100
AcDbLine
 10
-3.44
 20
-1.185
 30
0.0
 11
-2.507480884108996
 21
-0.8274885786296254
 31
0.0
  0
LINE
  5
1D3
330
13A
100
AcDbEntity
  8
AM_4
100
AcDbLine
 10
-4.75
 20
-1.185
 30
0.0
 11
-2.277850000000002
 21
-1.185
 31
0.0
  0
LINE
  5
1D4
330
13A
100
AcDbEntity
  8
AM_4
100
AcDbLine
 10
-2.277850000000002
 20
-1.185
 30
0.0
 11
-2.277850000000002
 21
-0.9480000000000015
 31
0.0
  0
LINE
  5
1D5
330
13A
100
AcDbEntity
  8
AM_4
100
AcDbLine
 10
2.164462201679669
 20
-0.9480000000000001
 30
0.0
 11
2.16535
 21
-0.9398727876106193
 31
0.0
  0
ENDBLK
  5
13D
330
13A
100
AcDbEntity
  8
0
100
AcDbBlockEnd
  0
ENDSEC
  0
SECTION
  2
ENTITIES
  0
INSERT
  5
6F
330
1F
100
AcDbEntity
  8
0
100
AcDbBlockReference
  2
1_131820_4
 10
0.0
 20
0.0
 30
0.0
  0
POINT
  5
1D7
330
1F
100
AcDbEntity
  8
ConnectionPoints
100
AcDbPoint
 10
0.0
 20
0.0
 30
0.0
  0
POINT
  5
1D8
330
1F
100
AcDbEntity
  8
ConnectionPoints
100
AcDbPoint
 10
0.0
 20
-1.84
 30
0.0000000000000001
  0
POINT
  5
1D9
330
1F
100
AcDbEntity
  8
ConnectionPoints
100
AcDbPoint
 10
1.873832970144351
 20
0.0000000000000001
 30
1.873832970144352
  0
POINT
  5
1DA
330
1F
100
AcDbEntity
  8
ConnectionPoints
100
AcDbPoint
 10
1.873832970144351
 20
0.0000000000000001
 30
1.873832970144352
  0
POINT
  5
1DB
330
1F
100
AcDbEntity
  8
ConnectionPoints
100
AcDbPoint
 10
0.0
 20
-1.84
 30
0.0000000000000001
  0
ENDSEC
  0
SECTION
  2
OBJECTS
  0
DICTIONARY
  5
C
330
0
100
AcDbDictionary
281
     1
  3
ACAD_DETAILVIEWSTYLE
350
1E3
  3
ACAD_GROUP
350
D
  3
ACAD_LAYOUT
350
1A
  3
ACAD_MATERIAL
350
43
  3
ACAD_MLEADERSTYLE
350
6B
  3
ACAD_MLINESTYLE
350
17
  3
ACAD_PLOTSETTINGS
350
19
  3
ACAD_PLOTSTYLENAME
350
E
  3
ACAD_SCALELIST
350
47
  3
ACAD_SECTIONVIEWSTYLE
350
1E4
  3
ACAD_TABLESTYLE
350
69
  3
ACAD_VISUALSTYLE
350
2A
  3
ACDB_RECOMPOSE_DATA
350
1E0
  3
AcDbVariableDictionary
350
1DC
  0
SUN
  5
6D
330
29
100
AcDbSun
 90
        1
290
     0
 63
     7
421
 16777215
 40
1.0
291
     1
 91
  2455826
 92
 54000000
292
     0
 70
     2
 71
   256
280
     1
  0
DICTIONARY
  5
1E3
102
{ACAD_REACTORS
330
C
102
}
330
C
100
AcDbDictionary
281
     1
  0
DICTIONARY
  5
D
102
{ACAD_REACTORS
330
C
102
}
330
C
100
AcDbDictionary
281
     1
  0
DICTIONARY
  5
1A
102
{ACAD_REACTORS
330
C
102
}
330
C
100
AcDbDictionary
281
     1
  3
Layout1
350
1E
  3
Layout2
350
26
  3
Model
350
22
  0
DICTIONARY
  5
43
102
{ACAD_REACTORS
330
C
102
}
330
C
100
AcDbDictionary
281
     1
  3
ByBlock
350
45
  3
ByLayer
350
44
  3
Global
350
46
  0
DICTIONARY
  5
6B
102
{ACAD_REACTORS
330
C
102
}
330
C
100
AcDbDictionary
281
     1
  3
Standard
350
6C
  0
DICTIONARY
  5
17
102
{ACAD_REACTORS
330
C
102
}
330
C
100
AcDbDictionary
281
     1
  3
Standard
350
18
  0
DICTIONARY
  5
19
102
{ACAD_REACTORS
330
C
102
}
330
C
100
AcDbDictionary
281
     1
  0
ACDBDICTIONARYWDFLT
  5
E
102
{ACAD_REACTORS
330
C
102
}
330
C
100
AcDbDictionary
281
     1
  3
Normal
350
F
100
AcDbDictionaryWithDefault
340
F
  0
DICTIONARY
  5
47
102
{ACAD_REACTORS
330
C
102
}
330
C
100
AcDbDictionary
281
     1
  3
A0
350
48
  3
A1
350
49
  3
A2
350
4A
  3
A3
350
4B
  3
A4
350
4C
  3
A5
350
4D
  3
A6
350
4E
  3
A7
350
4F
  3
A8
350
50
  3
A9
350
51
  3
B0
350
52
  3
B1
350
53
  3
B2
350
54
  3
B3
350
55
  3
B4
350
56
  3
B5
350
57
  3
B6
350
58
  3
B7
350
59
  3
B8
350
5A
  3
B9
350
5B
  3
C0
350
5C
  3
C1
350
5D
  3
C2
350
5E
  3
C3
350
5F
  3
C4
350
60
  3
C5
350
61
  3
C6
350
62
  3
C7
350
63
  3
C8
350
64
  3
C9
350
65
  3
D0
350
66
  3
D1
350
67
  3
D2
350
68
  0
DICTIONARY
  5
1E4
102
{ACAD_REACTORS
330
C
102
}
330
C
100
AcDbDictionary
281
     1
  0
DICTIONARY
  5
69
102
{ACAD_REACTORS
330
C
102
}
330
C
100
AcDbDictionary
281
     1
  3
Standard
350
6A
  0
DICTIONARY
  5
2A
102
{ACAD_REACTORS
330
C
102
}
330
C
100
AcDbDictionary
281
     1
  3
2dWireframe
350
2F
  3
Basic
350
32
  3
Brighten
350
36
  3
ColorChange
350
3A
  3
Conceptual
350
34
  3
Dim
350
35
  3
EdgeColorOff
350
3D
  3
Facepattern
350
39
  3
Flat
350
2B
  3
FlatWithEdges
350
2C
  3
Gouraud
350
2D
  3
GouraudWithEdges
350
2E
  3
Hidden
350
31
  3
JitterOff
350
3B
  3
Linepattern
350
38
  3
OverhangOff
350
3C
  3
Realistic
350
33
  3
Shaded
350
42
  3
Shaded with edges
350
41
  3
Shades of Gray
350
3E
  3
Sketchy
350
3F
  3
Thicken
350
37
  3
Wireframe
350
30
  3
X-Ray
350
40
  0
XRECORD
  5
1E0
102
{ACAD_REACTORS
330
C
102
}
330
C
100
AcDbXrecord
280
     1
 90
        1
330
6A
  0
DICTIONARY
  5
1DC
102
{ACAD_REACTORS
330
C
102
}
330
C
100
AcDbDictionary
281
     1
  3
CANNOSCALE
350
1DD
  3
CMLEADERSTYLE
350
1E2
  3
CTABLESTYLE
350
1E1
  0
LAYOUT
  5
1E
102
{ACAD_REACTORS
330
1A
102
}
330
1A
100
AcDbPlotSettings
  1

  2
none_device
  4

  6

 40
0.0
 41
0.0
 42
0.0
 43
0.0
 44
0.0
 45
0.0
 46
0.0
 47
0.0
 48
0.0
 49
0.0
140
0.0
141
0.0
142
1.0
143
1.0
 70
   688
 72
     0
 73
     0
 74
     5
  7

 75
    16
 76
     0
 77
     2
 78
   300
147
1.0
148
0.0
149
0.0
100
AcDbLayout
  1
Layout1
 70
     1
 71
     1
 10
0.0
 20
0.0
 11
12.0
 21
9.0
 12
0.0
 22
0.0
 32
0.0
 14
1.000000000000000E+20
 24
1.000000000000000E+20
 34
1.000000000000000E+20
 15
-1.000000000000000E+20
 25
-1.000000000000000E+20
 35
-1.000000000000000E+20
146
0.0
 13
0.0
 23
0.0
 33
0.0
 16
1.0
 26
0.0
 36
0.0
 17
0.0
 27
1.0
 37
0.0
 76
     0
330
1B
  0
LAYOUT
  5
26
102
{ACAD_REACTORS
330
1A
102
}
330
1A
100
AcDbPlotSettings
  1

  2
none_device
  4

  6

 40
0.0
 41
0.0
 42
0.0
 43
0.0
 44
0.0
 45
0.0
 46
0.0
 47
0.0
 48
0.0
 49
0.0
140
0.0
141
0.0
142
1.0
143
1.0
 70
   688
 72
     0
 73
     0
 74
     5
  7

 75
    16
 76
     0
 77
     2
 78
   300
147
1.0
148
0.0
149
0.0
100
AcDbLayout
  1
Layout2
 70
     1
 71
     2
 10
0.0
 20
0.0
 11
0.0
 21
0.0
 12
0.0
 22
0.0
 32
0.0
 14
0.0
 24
0.0
 34
0.0
 15
0.0
 25
0.0
 35
0.0
146
0.0
 13
0.0
 23
0.0
 33
0.0
 16
1.0
 26
0.0
 36
0.0
 17
0.0
 27
1.0
 37
0.0
 76
     0
330
23
  0
LAYOUT
  5
22
102
{ACAD_REACTORS
330
1A
102
}
330
1A
100
AcDbPlotSettings
  1

  2
none_device
  4
Letter_(8.50_x_11.00_Inches)
  6

 40
6.35
 41
6.35
 42
6.35000508
 43
6.35000508
 44
215.9
 45
279.4
 46
0.0
 47
0.0
 48
0.0
 49
0.0
140
0.0
141
0.0
142
1.0
143
1.0
 70
  1712
 72
     0
 73
     0
 74
     0
  7

 75
     0
 76
     0
 77
     2
 78
   300
147
1.0
148
0.0
149
0.0
100
AcDbLayout
  1
Model
 70
     1
 71
     0
 10
0.0
 20
0.0
 11
12.0
 21
9.0
 12
0.0
 22
0.0
 32
0.0
 14
1.000000000000000E+20
 24
1.000000000000000E+20
 34
1.000000000000000E+20
 15
-1.000000000000000E+20
 25
-1.000000000000000E+20
 35
-1.000000000000000E+20
146
0.0
 13
0.0
 23
0.0
 33
0.0
 16
1.0
 26
0.0
 36
0.0
 17
0.0
 27
1.0
 37
0.0
 76
     0
330
1F
331
29
  0
MATERIAL
  5
45
102
{ACAD_REACTORS
330
43
102
}
330
43
100
AcDbMaterial
  1
ByBlock
 72
     1
 94
      127
  0
MATERIAL
  5
44
102
{ACAD_REACTORS
330
43
102
}
330
43
100
AcDbMaterial
  1
ByLayer
 72
     1
 94
      127
  0
MATERIAL
  5
46
102
{ACAD_REACTORS
330
43
102
}
330
43
100
AcDbMaterial
  1
Global
 72
     1
 94
      127
  0
MLEADERSTYLE
  5
6C
102
{ACAD_REACTORS
330
6B
102
}
330
6B
100
AcDbMLeaderStyle
179
     2
170
     2
171
     1
172
     0
 90
        2
 40
0.0
 41
0.0
173
     1
 91
-1056964608
340
14
 92
       -2
290
     1
 42
0.09
291
     1
 43
0.36
  3
Standard
341
0
 44
0.18
300

342
11
174
     1
178
     6
175
     1
176
     0
 93
-1056964608
 45
0.18
292
     0
297
     0
 46
0.18
343
0
 94
-1056964608
 47
1.0
 49
1.0
140
1.0
293
     1
141
0.0
294
     1
177
     0
142
1.0
295
     0
296
     0
143
0.125
271
     0
272
     9
273
     9
298
     0
  0
MLINESTYLE
  5
18
102
{ACAD_REACTORS
330
17
102
}
330
17
100
AcDbMlineStyle
  2
Standard
 70
     0
  3

 62
   256
 51
90.0
 52
90.0
 71
     2
 49
0.5
 62
   256
  6
BYLAYER
 49
-0.5
 62
   256
  6
BYLAYER
  0
ACDBPLACEHOLDER
  5
F
102
{ACAD_REACTORS
330
E
102
}
330
E
  0
SCALE
  5
48
102
{ACAD_REACTORS
330
47
102
}
330
47
100
AcDbScale
 70
     0
300
1:1
140
1.0
141
1.0
290
     1
  0
SCALE
  5
49
102
{ACAD_REACTORS
330
47
102
}
330
47
100
AcDbScale
 70
     0
300
1:2
140
1.0
141
2.0
290
     0
  0
SCALE
  5
4A
102
{ACAD_REACTORS
330
47
102
}
330
47
100
AcDbScale
 70
     0
300
1:4
140
1.0
141
4.0
290
     0
  0
SCALE
  5
4B
102
{ACAD_REACTORS
330
47
102
}
330
47
100
AcDbScale
 70
     0
300
1:5
140
1.0
141
5.0
290
     0
  0
SCALE
  5
4C
102
{ACAD_REACTORS
330
47
102
}
330
47
100
AcDbScale
 70
     0
300
1:8
140
1.0
141
8.0
290
     0
  0
SCALE
  5
4D
102
{ACAD_REACTORS
330
47
102
}
330
47
100
AcDbScale
 70
     0
300
1:10
140
1.0
141
10.0
290
     0
  0
SCALE
  5
4E
102
{ACAD_REACTORS
330
47
102
}
330
47
100
AcDbScale
 70
     0
300
1:16
140
1.0
141
16.0
290
     0
  0
SCALE
  5
4F
102
{ACAD_REACTORS
330
47
102
}
330
47
100
AcDbScale
 70
     0
300
1:20
140
1.0
141
20.0
290
     0
  0
SCALE
  5
50
102
{ACAD_REACTORS
330
47
102
}
330
47
100
AcDbScale
 70
     0
300
1:30
140
1.0
141
30.0
290
     0
  0
SCALE
  5
51
102
{ACAD_REACTORS
330
47
102
}
330
47
100
AcDbScale
 70
     0
300
1:40
140
1.0
141
40.0
290
     0
  0
SCALE
  5
52
102
{ACAD_REACTORS
330
47
102
}
330
47
100
AcDbScale
 70
     0
300
1:50
140
1.0
141
50.0
290
     0
  0
SCALE
  5
53
102
{ACAD_REACTORS
330
47
102
}
330
47
100
AcDbScale
 70
     0
300
1:100
140
1.0
141
100.0
290
     0
  0
SCALE
  5
54
102
{ACAD_REACTORS
330
47
102
}
330
47
100
AcDbScale
 70
     0
300
2:1
140
2.0
141
1.0
290
     0
  0
SCALE
  5
55
102
{ACAD_REACTORS
330
47
102
}
330
47
100
AcDbScale
 70
     0
300
4:1
140
4.0
141
1.0
290
     0
  0
SCALE
  5
56
102
{ACAD_REACTORS
330
47
102
}
330
47
100
AcDbScale
 70
     0
300
8:1
140
8.0
141
1.0
290
     0
  0
SCALE
  5
57
102
{ACAD_REACTORS
330
47
102
}
330
47
100
AcDbScale
 70
     0
300
10:1
140
10.0
141
1.0
290
     0
  0
SCALE
  5
58
102
{ACAD_REACTORS
330
47
102
}
330
47
100
AcDbScale
 70
     0
300
100:1
140
100.0
141
1.0
290
     0
  0
SCALE
  5
59
102
{ACAD_REACTORS
330
47
102
}
330
47
100
AcDbScale
 70
     0
300
1/128" = 1'-0"
140
0.0078125
141
12.0
290
     0
  0
SCALE
  5
5A
102
{ACAD_REACTORS
330
47
102
}
330
47
100
AcDbScale
 70
     0
300
1/64" = 1'-0"
140
0.015625
141
12.0
290
     0
  0
SCALE
  5
5B
102
{ACAD_REACTORS
330
47
102
}
330
47
100
AcDbScale
 70
     0
300
1/32" = 1'-0"
140
0.03125
141
12.0
290
     0
  0
SCALE
  5
5C
102
{ACAD_REACTORS
330
47
102
}
330
47
100
AcDbScale
 70
     0
300
1/16" = 1'-0"
140
0.0625
141
12.0
290
     0
  0
SCALE
  5
5D
102
{ACAD_REACTORS
330
47
102
}
330
47
100
AcDbScale
 70
     0
300
3/32" = 1'-0"
140
0.09375
141
12.0
290
     0
  0
SCALE
  5
5E
102
{ACAD_REACTORS
330
47
102
}
330
47
100
AcDbScale
 70
     0
300
1/8" = 1'-0"
140
0.125
141
12.0
290
     0
  0
SCALE
  5
5F
102
{ACAD_REACTORS
330
47
102
}
330
47
100
AcDbScale
 70
     0
300
3/16" = 1'-0"
140
0.1875
141
12.0
290
     0
  0
SCALE
  5
60
102
{ACAD_REACTORS
330
47
102
}
330
47
100
AcDbScale
 70
     0
300
1/4" = 1'-0"
140
0.25
141
12.0
290
     0
  0
SCALE
  5
61
102
{ACAD_REACTORS
330
47
102
}
330
47
100
AcDbScale
 70
     0
300
3/8" = 1'-0"
140
0.375
141
12.0
290
     0
  0
SCALE
  5
62
102
{ACAD_REACTORS
330
47
102
}
330
47
100
AcDbScale
 70
     0
300
1/2" = 1'-0"
140
0.5
141
12.0
290
     0
  0
SCALE
  5
63
102
{ACAD_REACTORS
330
47
102
}
330
47
100
AcDbScale
 70
     0
300
3/4" = 1'-0"
140
0.75
141
12.0
290
     0
  0
SCALE
  5
64
102
{ACAD_REACTORS
330
47
102
}
330
47
100
AcDbScale
 70
     0
300
1" = 1'-0"
140
1.0
141
12.0
290
     0
  0
SCALE
  5
65
102
{ACAD_REACTORS
330
47
102
}
330
47
100
AcDbScale
 70
     0
300
1-1/2" = 1'-0"
140
1.5
141
12.0
290
     0
  0
SCALE
  5
66
102
{ACAD_REACTORS
330
47
102
}
330
47
100
AcDbScale
 70
     0
300
3" = 1'-0"
140
3.0
141
12.0
290
     0
  0
SCALE
  5
67
102
{ACAD_REACTORS
330
47
102
}
330
47
100
AcDbScale
 70
     0
300
6" = 1'-0"
140
6.0
141
12.0
290
     0
  0
SCALE
  5
68
102
{ACAD_REACTORS
330
47
102
}
330
47
100
AcDbScale
 70
     0
300
1'-0" = 1'-0"
140
12.0
141
12.0
290
     0
  0
TABLESTYLE
  5
6A
102
{ACAD_REACTORS
330
69
102
}
102
{ACAD_XDICTIONARY
360
1DE
102
}
330
69
100
AcDbTableStyle
  3
Standard
 70
     0
 71
     0
 40
0.06
 41
0.06
280
     0
281
     0
  7
Standard
140
0.18
170
     2
 62
     0
 63
   257
283
     0
 90
        4
 91
        0
  1

274
    -2
284
     1
 64
     0
275
    -2
285
     1
 65
     0
276
    -2
286
     1
 66
     0
277
    -2
287
     1
 67
     0
278
    -2
288
     1
 68
     0
279
    -2
289
     1
 69
     0
  7
Standard
140
0.25
170
     5
 62
     0
 63
   257
283
     0
 90
        4
 91
        0
  1

274
    -2
284
     1
 64
     0
275
    -2
285
     1
 65
     0
276
    -2
286
     1
 66
     0
277
    -2
287
     1
 67
     0
278
    -2
288
     1
 68
     0
279
    -2
289
     1
 69
     0
  7
Standard
140
0.18
170
     5
 62
     0
 63
   257
283
     0
 90
        4
 91
        0
  1

274
    -2
284
     1
 64
     0
275
    -2
285
     1
 65
     0
276
    -2
286
     1
 66
     0
277
    -2
287
     1
 67
     0
278
    -2
288
     1
 68
     0
279
    -2
289
     1
 69
     0
  0
VISUALSTYLE
  5
2F
102
{ACAD_REACTORS
330
2A
102
}
330
2A
100
AcDbVisualStyle
  2
2dWireframe
 70
     4
177
     3
291
     0
 70
    58
 90
        0
176
     1
 90
        2
176
     1
 90
        0
176
     1
 90
        0
176
     1
 40
0.6
176
     1
 40
30.0
176
     1
 62
     7
420
 16777215
176
     1
 90
        1
176
     1
 90
        4
176
     1
 62
     7
176
     1
 62
   257
176
     1
 90
        1
176
     1
 90
        1
176
     1
 40
1.0
176
     1
 90
        0
176
     1
 62
   257
176
     1
 40
1.0
176
     1
 90
        1
176
     1
 90
        6
176
     1
 90
        2
176
     1
 62
     7
176
     1
 90
        5
176
     1
 90
        0
176
     1
 90
        0
176
     1
290
     0
176
     1
 90
        1
176
     1
 40
0.0
176
     1
 90
        0
176
     1
290
     1
176
     1
290
     1
176
     1
290
     0
176
     1
290
     0
176
     1
290
     0
176
     1
290
     0
176
     1
290
     0
176
     1
290
     0
176
     1
290
     0
176
     1
 90
       50
176
     1
 40
0.0
176
     1
 40
1.0
176
     1
 90
        0
176
     1
 62
    18
420
        0
176
     1
 90
       50
176
     1
 90
        3
176
     1
 62
     5
420
      255
176
     1
290
     0
176
     1
 90
       50
176
     1
 90
       50
176
     1
 90
       50
176
     1
290
     0
176
     1
 90
       50
176
     1
 62
   256
176
     0
 40
1.0
176
     0
 90
        2
176
     1
  1
strokes_ogs.tif
176
     1
290
     0
176
     1
 40
1.0
176
     1
 40
1.0
176
     1
  0
VISUALSTYLE
  5
32
102
{ACAD_REACTORS
330
2A
102
}
330
2A
100
AcDbVisualStyle
  2
Basic
 70
     7
177
     3
291
     1
 70
    58
 90
        1
176
     1
 90
        0
176
     1
 90
        1
176
     1
 90
        0
176
     1
 40
0.6
176
     1
 40
30.0
176
     1
 62
     7
420
 16777215
176
     1
 90
        0
176
     1
 90
        4
176
     1
 62
     7
176
     1
 62
   257
176
     1
 90
        1
176
     1
 90
        1
176
     1
 40
1.0
176
     1
 90
        8
176
     1
 62
     7
176
     1
 40
1.0
176
     1
 90
        1
176
     1
 90
        6
176
     1
 90
        2
176
     1
 62
     7
176
     1
 90
        5
176
     1
 90
        0
176
     1
 90
        0
176
     1
290
     0
176
     1
 90
        1
176
     1
 40
0.0
176
     1
 90
        0
176
     1
290
     0
176
     1
290
     1
176
     1
290
     1
176
     1
290
     0
176
     1
290
     0
176
     1
290
     0
176
     1
290
     0
176
     1
290
     0
176
     1
290
     0
176
     1
 90
       50
176
     1
 40
0.0
176
     1
 40
1.0
176
     1
 90
        0
176
     1
 62
    18
420
        0
176
     1
 90
       50
176
     1
 90
        3
176
     1
 62
     5
420
      255
176
     1
290
     0
176
     1
 90
       50
176
     1
 90
       50
176
     1
 90
       50
176
     1
290
     0
176
     1
 90
       50
176
     1
 62
   256
176
     0
 40
1.0
176
     0
 90
        2
176
     1
  1
strokes_ogs.tif
176
     1
290
     0
176
     1
 40
1.0
176
     1
 40
1.0
176
     1
  0
VISUALSTYLE
  5
36
102
{ACAD_REACTORS
330
2A
102
}
330
2A
100
AcDbVisualStyle
  2
Brighten
 70
    12
177
     3
291
     1
 70
    58
 90
        2
176
     1
 90
        2
176
     1
 90
        0
176
     1
 90
        0
176
     1
 40
0.6
176
     1
 40
30.0
176
     1
 62
     7
420
 16777215
176
     1
 90
        1
176
     1
 90
        4
176
     1
 62
     7
176
     1
 62
   257
176
     1
 90
        1
176
     1
 90
        1
176
     1
 40
1.0
176
     1
 90
        8
176
     1
 62
     7
176
     1
 40
1.0
176
     1
 90
        1
176
     1
 90
        6
176
     1
 90
        2
176
     1
 62
     7
176
     1
 90
        5
176
     1
 90
        0
176
     1
 90
        0
176
     1
290
     0
176
     1
 90
        1
176
     1
 40
50.0
176
     1
 90
        0
176
     1
290
     0
176
     1
290
     1
176
     1
290
     1
176
     1
290
     0
176
     1
290
     0
176
     1
290
     0
176
     1
290
     0
176
     1
290
     0
176
     1
290
     0
176
     1
 90
       50
176
     1
 40
0.0
176
     1
 40
1.0
176
     1
 90
        0
176
     1
 62
    18
420
        0
176
     1
 90
       50
176
     1
 90
        3
176
     1
 62
     5
420
      255
176
     1
290
     0
176
     1
 90
       50
176
     1
 90
       50
176
     1
 90
       50
176
     1
290
     0
176
     1
 90
       50
176
     1
 62
   256
176
     0
 40
1.0
176
     0
 90
        2
176
     1
  1
strokes_ogs.tif
176
     1
290
     0
176
     1
 40
1.0
176
     1
 40
1.0
176
     1
  0
VISUALSTYLE
  5
3A
102
{ACAD_REACTORS
330
2A
102
}
330
2A
100
AcDbVisualStyle
  2
ColorChange
 70
    16
177
     3
291
     1
 70
    58
 90
        2
176
     1
 90
        2
176
     1
 90
        3
176
     1
 90
        0
176
     1
 40
0.6
176
     1
 40
30.0
176
     1
 62
     8
420
  8421504
176
     1
 90
        1
176
     1
 90
        4
176
     1
 62
     7
176
     1
 62
   257
176
     1
 90
        1
176
     1
 90
        1
176
     1
 40
1.0
176
     1
 90
        8
176
     1
 62
     8
420
  8421504
176
     1
 40
1.0
176
     1
 90
        1
176
     1
 90
        6
176
     1
 90
        2
176
     1
 62
     7
176
     1
 90
        5
176
     1
 90
        0
176
     1
 90
        0
176
     1
290
     0
176
     1
 90
        1
176
     1
 40
0.0
176
     1
 90
        0
176
     1
290
     0
176
     1
290
     1
176
     1
290
     1
176
     1
290
     0
176
     1
290
     0
176
     1
290
     0
176
     1
290
     0
176
     1
290
     0
176
     1
290
     0
176
     1
 90
       50
176
     1
 40
0.0
176
     1
 40
1.0
176
     1
 90
        0
176
     1
 62
    18
420
        0
176
     1
 90
       50
176
     1
 90
        3
176
     1
 62
     5
420
      255
176
     1
290
     0
176
     1
 90
       50
176
     1
 90
       50
176
     1
 90
       50
176
     1
290
     0
176
     1
 90
       50
176
     1
 62
   256
176
     0
 40
1.0
176
     0
 90
        2
176
     1
  1
strokes_ogs.tif
176
     1
290
     0
176
     1
 40
1.0
176
     1
 40
1.0
176
     1
  0
VISUALSTYLE
  5
34
102
{ACAD_REACTORS
330
2A
102
}
330
2A
100
AcDbVisualStyle
  2
Conceptual
 70
     9
177
     3
291
     0
 70
    58
 90
        3
176
     1
 90
        2
176
     1
 90
        0
176
     1
 90
        0
176
     1
 40
0.6
176
     1
 40
30.0
176
     1
 62
     7
420
 16777215
176
     1
 90
        2
176
     1
 90
        2
176
     1
 62
     7
176
     1
 62
   257
176
     1
 90
        1
176
     1
 90
        1
176
     1
 40
179.0
176
     1
 90
        8
176
     1
 62
     7
176
     1
 40
1.0
176
     1
 90
        1
176
     1
 90
        6
176
     1
 90
        2
176
     1
 62
     7
176
     1
 90
        3
176
     1
 90
        0
176
     1
 90
        0
176
     1
290
     0
176
     1
 90
        1
176
     1
 40
0.0
176
     1
 90
        0
176
     1
290
     0
176
     1
290
     1
176
     1
290
     1
176
     1
290
     0
176
     1
290
     0
176
     1
290
     0
176
     1
290
     0
176
     1
290
     0
176
     1
290
     0
176
     1
 90
       50
176
     1
 40
0.0
176
     1
 40
1.0
176
     1
 90
        0
176
     1
 62
    18
420
        0
176
     1
 90
       50
176
     1
 90
        3
176
     1
 62
     5
420
      255
176
     1
290
     0
176
     1
 90
       50
176
     1
 90
       50
176
     1
 90
       50
176
     1
290
     0
176
     1
 90
       50
176
     1
 62
   256
176
     0
 40
1.0
176
     0
 90
        2
176
     1
  1
strokes_ogs.tif
176
     1
290
     0
176
     1
 40
1.0
176
     1
 40
1.0
176
     1
  0
VISUALSTYLE
  5
35
102
{ACAD_REACTORS
330
2A
102
}
330
2A
100
AcDbVisualStyle
  2
Dim
 70
    11
177
     3
291
     1
 70
    58
 90
        2
176
     1
 90
        2
176
     1
 90
        0
176
     1
 90
        0
176
     1
 40
0.6
176
     1
 40
30.0
176
     1
 62
     7
420
 16777215
176
     1
 90
        1
176
     1
 90
        4
176
     1
 62
     7
176
     1
 62
   257
176
     1
 90
        1
176
     1
 90
        1
176
     1
 40
1.0
176
     1
 90
        8
176
     1
 62
     7
176
     1
 40
1.0
176
     1
 90
        1
176
     1
 90
        6
176
     1
 90
        2
176
     1
 62
     7
176
     1
 90
        5
176
     1
 90
        0
176
     1
 90
        0
176
     1
290
     0
176
     1
 90
        1
176
     1
 40
-50.0
176
     1
 90
        0
176
     1
290
     0
176
     1
290
     1
176
     1
290
     1
176
     1
290
     0
176
     1
290
     0
176
     1
290
     0
176
     1
290
     0
176
     1
290
     0
176
     1
290
     0
176
     1
 90
       50
176
     1
 40
0.0
176
     1
 40
1.0
176
     1
 90
        0
176
     1
 62
    18
420
        0
176
     1
 90
       50
176
     1
 90
        3
176
     1
 62
     5
420
      255
176
     1
290
     0
176
     1
 90
       50
176
     1
 90
       50
176
     1
 90
       50
176
     1
290
     0
176
     1
 90
       50
176
     1
 62
   256
176
     0
 40
1.0
176
     0
 90
        2
176
     1
  1
strokes_ogs.tif
176
     1
290
     0
176
     1
 40
1.0
176
     1
 40
1.0
176
     1
  0
VISUALSTYLE
  5
3D
102
{ACAD_REACTORS
330
2A
102
}
330
2A
100
AcDbVisualStyle
  2
EdgeColorOff
 70
    22
177
     3
291
     1
 70
    58
 90
        2
176
     0
 90
        2
176
     0
 90
        0
176
     0
 90
        0
176
     0
 40
0.6
176
     0
 40
30.0
176
     0
 62
     7
420
 16777215
176
     0
 90
        1
176
     0
 90
        4
176
     0
 62
     7
176
     0
 62
   257
176
     0
 90
        1
176
     0
 90
        1
176
     0
 40
1.0
176
     0
 90
        8
176
     2
 62
     7
176
     0
 40
1.0
176
     0
 90
        1
176
     0
 90
        6
176
     0
 90
        2
176
     0
 62
     7
176
     0
 90
        5
176
     0
 90
        0
176
     0
 90
        0
176
     0
290
     0
176
     0
 90
        1
176
     0
 40
0.0
176
     0
 90
        0
176
     0
290
     0
176
     0
290
     1
176
     0
290
     1
176
     0
290
     0
176
     0
290
     0
176
     0
290
     0
176
     0
290
     0
176
     0
290
     0
176
     0
290
     0
176
     0
 90
       50
176
     0
 40
0.0
176
     0
 40
1.0
176
     0
 90
        0
176
     0
 62
    18
420
        0
176
     0
 90
       50
176
     0
 90
        3
176
     0
 62
     5
420
      255
176
     0
290
     0
176
     0
 90
       50
176
     0
 90
       50
176
     0
 90
       50
176
     0
290
     0
176
     0
 90
       50
176
     0
 62
   256
176
     0
 40
1.0
176
     0
 90
        2
176
     0
  1
strokes_ogs.tif
176
     0
290
     0
176
     0
 40
1.0
176
     0
 40
1.0
176
     0
  0
VISUALSTYLE
  5
39
102
{ACAD_REACTORS
330
2A
102
}
330
2A
100
AcDbVisualStyle
  2
Facepattern
 70
    15
177
     3
291
     1
 70
    58
 90
        2
176
     1
 90
        2
176
     1
 90
        0
176
     1
 90
        0
176
     1
 40
0.6
176
     1
 40
30.0
176
     1
 62
     7
420
 16777215
176
     1
 90
        1
176
     1
 90
        4
176
     1
 62
     7
176
     1
 62
   257
176
     1
 90
        1
176
     1
 90
        1
176
     1
 40
1.0
176
     1
 90
        8
176
     1
 62
     7
176
     1
 40
1.0
176
     1
 90
        1
176
     1
 90
        6
176
     1
 90
        2
176
     1
 62
     7
176
     1
 90
        5
176
     1
 90
        0
176
     1
 90
        0
176
     1
290
     0
176
     1
 90
        1
176
     1
 40
0.0
176
     1
 90
        0
176
     1
290
     0
176
     1
290
     1
176
     1
290
     1
176
     1
290
     0
176
     1
290
     0
176
     1
290
     0
176
     1
290
     0
176
     1
290
     0
176
     1
290
     0
176
     1
 90
       50
176
     1
 40
0.0
176
     1
 40
1.0
176
     1
 90
        0
176
     1
 62
    18
420
        0
176
     1
 90
       50
176
     1
 90
        3
176
     1
 62
     5
420
      255
176
     1
290
     0
176
     1
 90
       50
176
     1
 90
       50
176
     1
 90
       50
176
     1
290
     0
176
     1
 90
       50
176
     1
 62
   256
176
     0
 40
1.0
176
     0
 90
        2
176
     1
  1
strokes_ogs.tif
176
     1
290
     0
176
     1
 40
1.0
176
     1
 40
1.0
176
     1
  0
VISUALSTYLE
  5
2B
102
{ACAD_REACTORS
330
2A
102
}
330
2A
100
AcDbVisualStyle
  2
Flat
 70
     0
177
     3
291
     1
 70
    58
 90
        2
176
     1
 90
        1
176
     1
 90
        1
176
     1
 90
        2
176
     1
 40
0.6
176
     1
 40
30.0
176
     1
 62
     7
420
 16777215
176
     1
 90
        0
176
     1
 90
        0
176
     1
 62
     7
176
     1
 62
   257
176
     1
 90
        1
176
     1
 90
        1
176
     1
 40
1.0
176
     1
 90
        8
176
     1
 62
     7
176
     1
 40
1.0
176
     1
 90
        1
176
     1
 90
        6
176
     1
 90
        2
176
     1
 62
     7
176
     1
 90
        5
176
     1
 90
        0
176
     1
 90
        0
176
     1
290
     0
176
     1
 90
       13
176
     1
 40
0.0
176
     1
 90
        0
176
     1
290
     0
176
     1
290
     1
176
     1
290
     1
176
     1
290
     0
176
     1
290
     0
176
     1
290
     0
176
     1
290
     0
176
     1
290
     0
176
     1
290
     0
176
     1
 90
       50
176
     1
 40
0.0
176
     1
 40
1.0
176
     1
 90
        0
176
     1
 62
    18
420
        0
176
     1
 90
       50
176
     1
 90
        3
176
     1
 62
     5
420
      255
176
     1
290
     0
176
     1
 90
       50
176
     1
 90
       50
176
     1
 90
       50
176
     1
290
     0
176
     1
 90
       50
176
     1
 62
   256
176
     0
 40
1.0
176
     0
 90
        2
176
     1
  1
strokes_ogs.tif
176
     1
290
     0
176
     1
 40
1.0
176
     1
 40
1.0
176
     1
  0
VISUALSTYLE
  5
2C
102
{ACAD_REACTORS
330
2A
102
}
330
2A
100
AcDbVisualStyle
  2
FlatWithEdges
 70
     1
177
     3
291
     1
 70
    58
 90
        2
176
     1
 90
        1
176
     1
 90
        1
176
     1
 90
        2
176
     1
 40
0.6
176
     1
 40
30.0
176
     1
 62
     7
420
 16777215
176
     1
 90
        1
176
     1
 90
        0
176
     1
 62
     7
176
     1
 62
   257
176
     1
 90
        1
176
     1
 90
        1
176
     1
 40
1.0
176
     1
 90
        0
176
     1
 62
   257
176
     1
 40
1.0
176
     1
 90
        1
176
     1
 90
        6
176
     1
 90
        2
176
     1
 62
     7
176
     1
 90
        5
176
     1
 90
        0
176
     1
 90
        0
176
     1
290
     0
176
     1
 90
       13
176
     1
 40
0.0
176
     1
 90
        0
176
     1
290
     0
176
     1
290
     1
176
     1
290
     1
176
     1
290
     0
176
     1
290
     0
176
     1
290
     0
176
     1
290
     0
176
     1
290
     0
176
     1
290
     0
176
     1
 90
       50
176
     1
 40
0.0
176
     1
 40
1.0
176
     1
 90
        0
176
     1
 62
    18
420
        0
176
     1
 90
       50
176
     1
 90
        3
176
     1
 62
     5
420
      255
176
     1
290
     0
176
     1
 90
       50
176
     1
 90
       50
176
     1
 90
       50
176
     1
290
     0
176
     1
 90
       50
176
     1
 62
   256
176
     0
 40
1.0
176
     0
 90
        2
176
     1
  1
strokes_ogs.tif
176
     1
290
     0
176
     1
 40
1.0
176
     1
 40
1.0
176
     1
  0
VISUALSTYLE
  5
2D
102
{ACAD_REACTORS
330
2A
102
}
330
2A
100
AcDbVisualStyle
  2
Gouraud
 70
     2
177
     3
291
     1
 70
    58
 90
        2
176
     1
 90
        2
176
     1
 90
        1
176
     1
 90
        2
176
     1
 40
0.6
176
     1
 40
30.0
176
     1
 62
     7
420
 16777215
176
     1
 90
        0
176
     1
 90
        0
176
     1
 62
     7
176
     1
 62
   257
176
     1
 90
        1
176
     1
 90
        1
176
     1
 40
1.0
176
     1
 90
        0
176
     1
 62
     7
176
     1
 40
1.0
176
     1
 90
        1
176
     1
 90
        6
176
     1
 90
        2
176
     1
 62
     7
176
     1
 90
        5
176
     1
 90
        0
176
     1
 90
        0
176
     1
290
     0
176
     1
 90
       13
176
     1
 40
0.0
176
     1
 90
        0
176
     1
290
     0
176
     1
290
     1
176
     1
290
     1
176
     1
290
     0
176
     1
290
     0
176
     1
290
     0
176
     1
290
     0
176
     1
290
     0
176
     1
290
     0
176
     1
 90
       50
176
     1
 40
0.0
176
     1
 40
1.0
176
     1
 90
        0
176
     1
 62
    18
420
        0
176
     1
 90
       50
176
     1
 90
        3
176
     1
 62
     5
420
      255
176
     1
290
     0
176
     1
 90
       50
176
     1
 90
       50
176
     1
 90
       50
176
     1
290
     0
176
     1
 90
       50
176
     1
 62
   256
176
     0
 40
1.0
176
     0
 90
        2
176
     1
  1
strokes_ogs.tif
176
     1
290
     0
176
     1
 40
1.0
176
     1
 40
1.0
176
     1
  0
VISUALSTYLE
  5
2E
102
{ACAD_REACTORS
330
2A
102
}
330
2A
100
AcDbVisualStyle
  2
GouraudWithEdges
 70
     3
177
     3
291
     1
 70
    58
 90
        2
176
     1
 90
        2
176
     1
 90
        1
176
     1
 90
        2
176
     1
 40
0.6
176
     1
 40
30.0
176
     1
 62
     7
420
 16777215
176
     1
 90
        1
176
     1
 90
        0
176
     1
 62
     7
176
     1
 62
   257
176
     1
 90
        1
176
     1
 90
        1
176
     1
 40
1.0
176
     1
 90
        0
176
     1
 62
   257
176
     1
 40
1.0
176
     1
 90
        1
176
     1
 90
        6
176
     1
 90
        2
176
     1
 62
     7
176
     1
 90
        5
176
     1
 90
        0
176
     1
 90
        0
176
     1
290
     0
176
     1
 90
       13
176
     1
 40
0.0
176
     1
 90
        0
176
     1
290
     0
176
     1
290
     1
176
     1
290
     1
176
     1
290
     0
176
     1
290
     0
176
     1
290
     0
176
     1
290
     0
176
     1
290
     0
176
     1
290
     0
176
     1
 90
       50
176
     1
 40
0.0
176
     1
 40
1.0
176
     1
 90
        0
176
     1
 62
    18
420
        0
176
     1
 90
       50
176
     1
 90
        3
176
     1
 62
     5
420
      255
176
     1
290
     0
176
     1
 90
       50
176
     1
 90
       50
176
     1
 90
       50
176
     1
290
     0
176
     1
 90
       50
176
     1
 62
   256
176
     0
 40
1.0
176
     0
 90
        2
176
     1
  1
strokes_ogs.tif
176
     1
290
     0
176
     1
 40
1.0
176
     1
 40
1.0
176
     1
  0
VISUALSTYLE
  5
31
102
{ACAD_REACTORS
330
2A
102
}
330
2A
100
AcDbVisualStyle
  2
Hidden
 70
     6
177
     3
291
     0
 70
    58
 90
        1
176
     1
 90
        2
176
     1
 90
        2
176
     1
 90
        0
176
     1
 40
0.6
176
     1
 40
30.0
176
     1
 62
     7
420
 16777215
176
     1
 90
        2
176
     1
 90
        2
176
     1
 62
     7
176
     1
 62
   257
176
     1
 90
        2
176
     1
 90
        1
176
     1
 40
40.0
176
     1
 90
        0
176
     1
 62
   257
176
     1
 40
1.0
176
     1
 90
        1
176
     1
 90
        6
176
     1
 90
        2
176
     1
 62
     7
176
     1
 90
        3
176
     1
 90
        0
176
     1
 90
        0
176
     1
290
     0
176
     1
 90
        1
176
     1
 40
0.0
176
     1
 90
        0
176
     1
290
     0
176
     1
290
     1
176
     1
290
     1
176
     1
290
     0
176
     1
290
     0
176
     1
290
     0
176
     1
290
     0
176
     1
290
     0
176
     1
290
     0
176
     1
 90
       50
176
     1
 40
0.0
176
     1
 40
1.0
176
     1
 90
        0
176
     1
 62
    18
420
        0
176
     1
 90
       50
176
     1
 90
        3
176
     1
 62
     5
420
      255
176
     1
290
     0
176
     1
 90
       50
176
     1
 90
       50
176
     1
 90
       50
176
     1
290
     0
176
     1
 90
       50
176
     1
 62
   256
176
     0
 40
1.0
176
     0
 90
        2
176
     1
  1
strokes_ogs.tif
176
     1
290
     0
176
     1
 40
1.0
176
     1
 40
1.0
176
     1
  0
VISUALSTYLE
  5
3B
102
{ACAD_REACTORS
330
2A
102
}
330
2A
100
AcDbVisualStyle
  2
JitterOff
 70
    20
177
     3
291
     1
 70
    58
 90
        2
176
     0
 90
        2
176
     0
 90
        0
176
     0
 90
        0
176
     0
 40
0.6
176
     0
 40
30.0
176
     0
 62
     7
420
 16777215
176
     0
 90
        1
176
     0
 90
        4
176
     0
 62
     7
176
     0
 62
   257
176
     0
 90
        1
176
     0
 90
        1
176
     0
 40
1.0
176
     0
 90
       10
176
     2
 62
     7
176
     0
 40
1.0
176
     0
 90
        1
176
     0
 90
        6
176
     0
 90
        2
176
     0
 62
     7
176
     0
 90
        5
176
     0
 90
        0
176
     0
 90
        0
176
     0
290
     0
176
     0
 90
        1
176
     0
 40
0.0
176
     0
 90
        0
176
     0
290
     0
176
     0
290
     1
176
     0
290
     1
176
     0
290
     0
176
     0
290
     0
176
     0
290
     0
176
     0
290
     0
176
     0
290
     0
176
     0
290
     0
176
     0
 90
       50
176
     0
 40
0.0
176
     0
 40
1.0
176
     0
 90
        0
176
     0
 62
    18
420
        0
176
     0
 90
       50
176
     0
 90
        3
176
     0
 62
     5
420
      255
176
     0
290
     0
176
     0
 90
       50
176
     0
 90
       50
176
     0
 90
       50
176
     0
290
     0
176
     0
 90
       50
176
     0
 62
   256
176
     0
 40
1.0
176
     0
 90
        2
176
     0
  1
strokes_ogs.tif
176
     0
290
     0
176
     0
 40
1.0
176
     0
 40
1.0
176
     0
  0
VISUALSTYLE
  5
38
102
{ACAD_REACTORS
330
2A
102
}
330
2A
100
AcDbVisualStyle
  2
Linepattern
 70
    14
177
     3
291
     1
 70
    58
 90
        2
176
     1
 90
        2
176
     1
 90
        0
176
     1
 90
        0
176
     1
 40
0.6
176
     1
 40
30.0
176
     1
 62
     7
420
 16777215
176
     1
 90
        1
176
     1
 90
        4
176
     1
 62
     7
176
     1
 62
   257
176
     1
 90
        7
176
     1
 90
        7
176
     1
 40
1.0
176
     1
 90
        8
176
     1
 62
     7
176
     1
 40
1.0
176
     1
 90
        1
176
     1
 90
        6
176
     1
 90
        2
176
     1
 62
     7
176
     1
 90
        5
176
     1
 90
        0
176
     1
 90
        0
176
     1
290
     0
176
     1
 90
        1
176
     1
 40
0.0
176
     1
 90
        0
176
     1
290
     0
176
     1
290
     1
176
     1
290
     1
176
     1
290
     0
176
     1
290
     0
176
     1
290
     0
176
     1
290
     0
176
     1
290
     0
176
     1
290
     0
176
     1
 90
       50
176
     1
 40
0.0
176
     1
 40
1.0
176
     1
 90
        0
176
     1
 62
    18
420
        0
176
     1
 90
       50
176
     1
 90
        3
176
     1
 62
     5
420
      255
176
     1
290
     0
176
     1
 90
       50
176
     1
 90
       50
176
     1
 90
       50
176
     1
290
     0
176
     1
 90
       50
176
     1
 62
   256
176
     0
 40
1.0
176
     0
 90
        2
176
     1
  1
strokes_ogs.tif
176
     1
290
     0
176
     1
 40
1.0
176
     1
 40
1.0
176
     1
  0
VISUALSTYLE
  5
3C
102
{ACAD_REACTORS
330
2A
102
}
330
2A
100
AcDbVisualStyle
  2
OverhangOff
 70
    21
177
     3
291
     1
 70
    58
 90
        2
176
     0
 90
        2
176
     0
 90
        0
176
     0
 90
        0
176
     0
 40
0.6
176
     0
 40
30.0
176
     0
 62
     7
420
 16777215
176
     0
 90
        1
176
     0
 90
        4
176
     0
 62
     7
176
     0
 62
   257
176
     0
 90
        1
176
     0
 90
        1
176
     0
 40
1.0
176
     0
 90
        9
176
     2
 62
     7
176
     0
 40
1.0
176
     0
 90
        1
176
     0
 90
        6
176
     0
 90
        2
176
     0
 62
     7
176
     0
 90
        5
176
     0
 90
        0
176
     0
 90
        0
176
     0
290
     0
176
     0
 90
        1
176
     0
 40
0.0
176
     0
 90
        0
176
     0
290
     0
176
     0
290
     1
176
     0
290
     1
176
     0
290
     0
176
     0
290
     0
176
     0
290
     0
176
     0
290
     0
176
     0
290
     0
176
     0
290
     0
176
     0
 90
       50
176
     0
 40
0.0
176
     0
 40
1.0
176
     0
 90
        0
176
     0
 62
    18
420
        0
176
     0
 90
       50
176
     0
 90
        3
176
     0
 62
     5
420
      255
176
     0
290
     0
176
     0
 90
       50
176
     0
 90
       50
176
     0
 90
       50
176
     0
290
     0
176
     0
 90
       50
176
     0
 62
   256
176
     0
 40
1.0
176
     0
 90
        2
176
     0
  1
strokes_ogs.tif
176
     0
290
     0
176
     0
 40
1.0
176
     0
 40
1.0
176
     0
  0
VISUALSTYLE
  5
33
102
{ACAD_REACTORS
330
2A
102
}
330
2A
100
AcDbVisualStyle
  2
Realistic
 70
     8
177
     3
291
     0
 70
    58
 90
        2
176
     1
 90
        3
176
     1
 90
        0
176
     1
 90
        2
176
     1
 40
0.6
176
     1
 40
30.0
176
     1
 62
     7
420
 16777215
176
     1
 90
        0
176
     1
 90
        0
176
     1
 62
     7
176
     1
 62
   257
176
     1
 90
        1
176
     1
 90
        1
176
     1
 40
1.0
176
     1
 90
        8
176
     1
 62
   257
176
     1
 40
1.0
176
     1
 90
        1
176
     1
 90
        6
176
     1
 90
        2
176
     1
 62
     7
176
     1
 90
        3
176
     1
 90
        0
176
     1
 90
        0
176
     1
290
     0
176
     1
 90
       13
176
     1
 40
0.0
176
     1
 90
        0
176
     1
290
     0
176
     1
290
     1
176
     1
290
     1
176
     1
290
     0
176
     1
290
     0
176
     1
290
     0
176
     1
290
     0
176
     1
290
     0
176
     1
290
     0
176
     1
 90
       50
176
     1
 40
0.0
176
     1
 40
1.0
176
     1
 90
        0
176
     1
 62
    18
420
        0
176
     1
 90
       50
176
     1
 90
        3
176
     1
 62
     5
420
      255
176
     1
290
     0
176
     1
 90
       50
176
     1
 90
       50
176
     1
 90
       50
176
     1
290
     0
176
     1
 90
       50
176
     1
 62
   256
176
     0
 40
1.0
176
     0
 90
        2
176
     1
  1
strokes_ogs.tif
176
     1
290
     0
176
     1
 40
1.0
176
     1
 40
1.0
176
     1
  0
VISUALSTYLE
  5
42
102
{ACAD_REACTORS
330
2A
102
}
330
2A
100
AcDbVisualStyle
  2
Shaded
 70
    27
177
     3
291
     0
 70
    58
 90
        2
176
     1
 90
        2
176
     1
 90
        1
176
     1
 90
        2
176
     1
 40
0.6
176
     1
 40
30.0
176
     1
 62
     7
420
 16777215
176
     1
 90
        0
176
     1
 90
        4
176
     1
 62
     7
176
     1
 62
   257
176
     1
 90
        1
176
     1
 90
        1
176
     1
 40
1.0
176
     1
 90
        8
176
     1
 62
   257
176
     1
 40
1.0
176
     1
 90
        1
176
     1
 90
        6
176
     1
 90
        2
176
     1
 62
     8
420
  7895160
176
     1
 90
        3
176
     1
 90
        0
176
     1
 90
        0
176
     1
290
     0
176
     1
 90
        5
176
     1
 40
0.0
176
     1
 90
        0
176
     1
290
     0
176
     1
290
     1
176
     1
290
     1
176
     1
290
     0
176
     1
290
     0
176
     1
290
     0
176
     1
290
     0
176
     1
290
     0
176
     1
290
     0
176
     1
 90
       50
176
     1
 40
0.0
176
     1
 40
1.0
176
     1
 90
        0
176
     1
 62
    18
420
        0
176
     1
 90
       50
176
     1
 90
        3
176
     1
 62
     5
420
      255
176
     1
290
     0
176
     1
 90
       50
176
     1
 90
       50
176
     1
 90
       50
176
     1
290
     0
176
     1
 90
       50
176
     1
 62
   256
176
     0
 40
1.0
176
     0
 90
        2
176
     1
  1
strokes_ogs.tif
176
     1
290
     0
176
     1
 40
1.0
176
     1
 40
1.0
176
     1
  0
VISUALSTYLE
  5
41
102
{ACAD_REACTORS
330
2A
102
}
330
2A
100
AcDbVisualStyle
  2
Shaded with edges
 70
    26
177
     3
291
     0
 70
    58
 90
        2
176
     1
 90
        2
176
     1
 90
        1
176
     1
 90
        2
176
     1
 40
0.6
176
     1
 40
30.0
176
     1
 62
     7
420
 16777215
176
     1
 90
        1
176
     1
 90
       10
176
     1
 62
     7
176
     1
 62
   257
176
     1
 90
        2
176
     1
 90
        1
176
     1
 40
1.0
176
     1
 90
        8
176
     1
 62
   257
176
     1
 40
1.0
176
     1
 90
        1
176
     1
 90
        6
176
     1
 90
        2
176
     1
 62
     7
176
     1
 90
        3
176
     1
 90
        0
176
     1
 90
        0
176
     1
290
     0
176
     1
 90
        5
176
     1
 40
0.0
176
     1
 90
        0
176
     1
290
     0
176
     1
290
     1
176
     1
290
     1
176
     1
290
     0
176
     1
290
     0
176
     1
290
     0
176
     1
290
     0
176
     1
290
     0
176
     1
290
     0
176
     1
 90
       50
176
     1
 40
0.0
176
     1
 40
1.0
176
     1
 90
        0
176
     1
 62
    18
420
        0
176
     1
 90
       50
176
     1
 90
        3
176
     1
 62
     5
420
      255
176
     1
290
     0
176
     1
 90
       50
176
     1
 90
       50
176
     1
 90
       50
176
     1
290
     0
176
     1
 90
       50
176
     1
 62
   256
176
     0
 40
1.0
176
     0
 90
        2
176
     1
  1
strokes_ogs.tif
176
     1
290
     0
176
     1
 40
1.0
176
     1
 40
1.0
176
     1
  0
VISUALSTYLE
  5
3E
102
{ACAD_REACTORS
330
2A
102
}
330
2A
100
AcDbVisualStyle
  2
Shades of Gray
 70
    23
177
     3
291
     0
 70
    58
 90
        2
176
     1
 90
        2
176
     1
 90
        3
176
     1
 90
        0
176
     1
 40
0.6
176
     1
 40
30.0
176
     1
 62
     7
420
 16777215
176
     1
 90
        2
176
     1
 90
        2
176
     1
 62
     7
176
     1
 62
     7
176
     1
 90
        1
176
     1
 90
        1
176
     1
 40
40.0
176
     1
 90
        8
176
     1
 62
     7
176
     1
 40
1.0
176
     1
 90
        1
176
     1
 90
        6
176
     1
 90
        2
176
     1
 62
     7
176
     1
 90
        3
176
     1
 90
        0
176
     1
 90
        0
176
     1
290
     0
176
     1
 90
        1
176
     1
 40
0.0
176
     1
 90
        0
176
     1
290
     0
176
     1
290
     1
176
     1
290
     1
176
     1
290
     0
176
     1
290
     0
176
     1
290
     0
176
     1
290
     0
176
     1
290
     0
176
     1
290
     0
176
     1
 90
       50
176
     1
 40
0.0
176
     1
 40
1.0
176
     1
 90
        0
176
     1
 62
    18
420
        0
176
     1
 90
       50
176
     1
 90
        3
176
     1
 62
     5
420
      255
176
     1
290
     0
176
     1
 90
       50
176
     1
 90
       50
176
     1
 90
       50
176
     1
290
     0
176
     1
 90
       50
176
     1
 62
   256
176
     0
 40
1.0
176
     0
 90
        2
176
     1
  1
strokes_ogs.tif
176
     1
290
     0
176
     1
 40
1.0
176
     1
 40
1.0
176
     1
  0
VISUALSTYLE
  5
3F
102
{ACAD_REACTORS
330
2A
102
}
330
2A
100
AcDbVisualStyle
  2
Sketchy
 70
    24
177
     3
291
     0
 70
    58
 90
        1
176
     1
 90
        2
176
     1
 90
        2
176
     1
 90
        0
176
     1
 40
0.6
176
     1
 40
30.0
176
     1
 62
     7
420
 16777215
176
     1
 90
        2
176
     1
 90
        2
176
     1
 62
     7
176
     1
 62
     7
176
     1
 90
        1
176
     1
 90
        1
176
     1
 40
40.0
176
     1
 90
       11
176
     1
 62
     7
176
     1
 40
1.0
176
     1
 90
        1
176
     1
 90
        6
176
     1
 90
        2
176
     1
 62
     7
176
     1
 90
        6
176
     1
 90
        0
176
     1
 90
        0
176
     1
290
     0
176
     1
 90
        1
176
     1
 40
0.0
176
     1
 90
        0
176
     1
290
     0
176
     1
290
     1
176
     1
290
     1
176
     1
290
     0
176
     1
290
     0
176
     1
290
     0
176
     1
290
     0
176
     1
290
     0
176
     1
290
     0
176
     1
 90
       50
176
     1
 40
0.0
176
     1
 40
1.0
176
     1
 90
        0
176
     1
 62
    18
420
        0
176
     1
 90
       50
176
     1
 90
        3
176
     1
 62
     5
420
      255
176
     1
290
     0
176
     1
 90
       50
176
     1
 90
       50
176
     1
 90
       50
176
     1
290
     0
176
     1
 90
       50
176
     1
 62
   256
176
     0
 40
1.0
176
     0
 90
        2
176
     1
  1
strokes_ogs.tif
176
     1
290
     0
176
     1
 40
1.0
176
     1
 40
1.0
176
     1
  0
VISUALSTYLE
  5
37
102
{ACAD_REACTORS
330
2A
102
}
330
2A
100
AcDbVisualStyle
  2
Thicken
 70
    13
177
     3
291
     1
 70
    58
 90
        2
176
     1
 90
        2
176
     1
 90
        0
176
     1
 90
        0
176
     1
 40
0.6
176
     1
 40
30.0
176
     1
 62
     7
420
 16777215
176
     1
 90
        1
176
     1
 90
        4
176
     1
 62
     7
176
     1
 62
   257
176
     1
 90
        1
176
     1
 90
        1
176
     1
 40
1.0
176
     1
 90
       12
176
     1
 62
     7
176
     1
 40
1.0
176
     1
 90
        1
176
     1
 90
        6
176
     1
 90
        2
176
     1
 62
     7
176
     1
 90
        5
176
     1
 90
        0
176
     1
 90
        0
176
     1
290
     0
176
     1
 90
        1
176
     1
 40
0.0
176
     1
 90
        0
176
     1
290
     0
176
     1
290
     1
176
     1
290
     1
176
     1
290
     0
176
     1
290
     0
176
     1
290
     0
176
     1
290
     0
176
     1
290
     0
176
     1
290
     0
176
     1
 90
       50
176
     1
 40
0.0
176
     1
 40
1.0
176
     1
 90
        0
176
     1
 62
    18
420
        0
176
     1
 90
       50
176
     1
 90
        3
176
     1
 62
     5
420
      255
176
     1
290
     0
176
     1
 90
       50
176
     1
 90
       50
176
     1
 90
       50
176
     1
290
     0
176
     1
 90
       50
176
     1
 62
   256
176
     0
 40
1.0
176
     0
 90
        2
176
     1
  1
strokes_ogs.tif
176
     1
290
     0
176
     1
 40
1.0
176
     1
 40
1.0
176
     1
  0
VISUALSTYLE
  5
30
102
{ACAD_REACTORS
330
2A
102
}
330
2A
100
AcDbVisualStyle
  2
Wireframe
 70
     5
177
     3
291
     0
 70
    58
 90
        0
176
     1
 90
        2
176
     1
 90
        0
176
     1
 90
        0
176
     1
 40
0.6
176
     1
 40
30.0
176
     1
 62
     7
420
 16777215
176
     1
 90
        1
176
     1
 90
        4
176
     1
 62
     7
176
     1
 62
   257
176
     1
 90
        1
176
     1
 90
        1
176
     1
 40
1.0
176
     1
 90
        0
176
     1
 62
   257
176
     1
 40
1.0
176
     1
 90
        1
176
     1
 90
        6
176
     1
 90
        2
176
     1
 62
     7
176
     1
 90
        3
176
     1
 90
        0
176
     1
 90
        0
176
     1
290
     0
176
     1
 90
        1
176
     1
 40
0.0
176
     1
 90
        0
176
     1
290
     0
176
     1
290
     1
176
     1
290
     1
176
     1
290
     0
176
     1
290
     0
176
     1
290
     0
176
     1
290
     0
176
     1
290
     0
176
     1
290
     0
176
     1
 90
       50
176
     1
 40
0.0
176
     1
 40
1.0
176
     1
 90
        0
176
     1
 62
    18
420
        0
176
     1
 90
       50
176
     1
 90
        3
176
     1
 62
     5
420
      255
176
     1
290
     0
176
     1
 90
       50
176
     1
 90
       50
176
     1
 90
       50
176
     1
290
     0
176
     1
 90
       50
176
     1
 62
   256
176
     0
 40
1.0
176
     0
 90
        2
176
     1
  1
strokes_ogs.tif
176
     1
290
     0
176
     1
 40
1.0
176
     1
 40
1.0
176
     1
  0
VISUALSTYLE
  5
40
102
{ACAD_REACTORS
330
2A
102
}
330
2A
100
AcDbVisualStyle
  2
X-Ray
 70
    25
177
     3
291
     0
 70
    58
 90
        2
176
     1
 90
        2
176
     1
 90
        1
176
     1
 90
        1
176
     1
 40
0.5
176
     1
 40
30.0
176
     1
 62
     7
420
 16777215
176
     1
 90
        1
176
     1
 90
        0
176
     1
 62
     7
176
     1
 62
   257
176
     1
 90
        1
176
     1
 90
        1
176
     1
 40
1.0
176
     1
 90
        8
176
     1
 62
     7
176
     1
 40
1.0
176
     1
 90
        1
176
     1
 90
        6
176
     1
 90
        2
176
     1
 62
     7
176
     1
 90
        3
176
     1
 90
        0
176
     1
 90
        0
176
     1
290
     0
176
     1
 90
       13
176
     1
 40
0.0
176
     1
 90
        0
176
     1
290
     0
176
     1
290
     1
176
     1
290
     1
176
     1
290
     0
176
     1
290
     0
176
     1
290
     0
176
     1
290
     0
176
     1
290
     0
176
     1
290
     0
176
     1
 90
       50
176
     1
 40
0.0
176
     1
 40
1.0
176
     1
 90
        0
176
     1
 62
    18
420
        0
176
     1
 90
       50
176
     1
 90
        3
176
     1
 62
     5
420
      255
176
     1
290
     0
176
     1
 90
       50
176
     1
 90
       50
176
     1
 90
       50
176
     1
290
     0
176
     1
 90
       50
176
     1
 62
   256
176
     0
 40
1.0
176
     0
 90
        2
176
     1
  1
strokes_ogs.tif
176
     1
290
     0
176
     1
 40
1.0
176
     1
 40
1.0
176
     1
  0
DICTIONARYVAR
  5
1DD
102
{ACAD_REACTORS
330
1DC
102
}
330
1DC
100
DictionaryVariables
280
     0
  1
1:1
  0
DICTIONARYVAR
  5
1E2
102
{ACAD_REACTORS
330
1DC
102
}
330
1DC
100
DictionaryVariables
280
     0
  1
Standard
  0
DICTIONARYVAR
  5
1E1
102
{ACAD_REACTORS
330
1DC
102
}
330
1DC
100
DictionaryVariables
280
     0
  1
Standard
  0
DICTIONARY
  5
1DE
330
6A
100
AcDbDictionary
280
     1
281
     1
  3
ACAD_ROUNDTRIP_2008_TABLESTYLE_CELLSTYLEMAP
360
1DF
  0
CELLSTYLEMAP
  5
1DF
102
{ACAD_REACTORS
330
1DE
102
}
330
1DE
100
AcDbCellStyleMap
 90
        3
300
CELLSTYLE
  1
TABLEFORMAT_BEGIN
 90
        5
170
     1
 91
        0
 92
    32768
 62
   257
 93
        1
300
CONTENTFORMAT
  1
CONTENTFORMAT_BEGIN
 90
        0
 91
        0
 92
        4
 93
        0
300

 40
0.0
140
1.0
 94
        5
 62
     0
340
11
144
0.25
309
CONTENTFORMAT_END
171
     1
301
MARGIN
  1
CELLMARGIN_BEGIN
 40
0.06
 40
0.06
 40
0.06
 40
0.06
 40
0.06
 40
0.06
309
CELLMARGIN_END
 94
        6
 95
        1
302
GRIDFORMAT
  1
GRIDFORMAT_BEGIN
 90
        0
 91
        1
 62
     0
 92
       -2
340
14
 93
        0
 40
0.045
309
GRIDFORMAT_END
 95
        2
302
GRIDFORMAT
  1
GRIDFORMAT_BEGIN
 90
        0
 91
        1
 62
     0
 92
       -2
340
14
 93
        0
 40
0.045
309
GRIDFORMAT_END
 95
        4
302
GRIDFORMAT
  1
GRIDFORMAT_BEGIN
 90
        0
 91
        1
 62
     0
 92
       -2
340
14
 93
        0
 40
0.045
309
GRIDFORMAT_END
 95
        8
302
GRIDFORMAT
  1
GRIDFORMAT_BEGIN
 90
        0
 91
        1
 62
     0
 92
       -2
340
14
 93
        0
 40
0.045
309
GRIDFORMAT_END
 95
       16
302
GRIDFORMAT
  1
GRIDFORMAT_BEGIN
 90
        0
 91
        1
 62
     0
 92
       -2
340
14
 93
        0
 40
0.045
309
GRIDFORMAT_END
 95
       32
302
GRIDFORMAT
  1
GRIDFORMAT_BEGIN
 90
        0
 91
        1
 62
     0
 92
       -2
340
14
 93
        0
 40
0.045
309
GRIDFORMAT_END
309
TABLEFORMAT_END
  1
CELLSTYLE_BEGIN
 90
        1
 91
        1
300
_TITLE
309
CELLSTYLE_END
300
CELLSTYLE
  1
TABLEFORMAT_BEGIN
 90
        5
170
     1
 91
        0
 92
        0
 62
   257
 93
        1
300
CONTENTFORMAT
  1
CONTENTFORMAT_BEGIN
 90
        0
 91
        0
 92
        4
 93
        0
300

 40
0.0
140
1.0
 94
        5
 62
     0
340
11
144
0.18
309
CONTENTFORMAT_END
171
     1
301
MARGIN
  1
CELLMARGIN_BEGIN
 40
0.06
 40
0.06
 40
0.06
 40
0.06
 40
0.06
 40
0.06
309
CELLMARGIN_END
 94
        6
 95
        1
302
GRIDFORMAT
  1
GRIDFORMAT_BEGIN
 90
        0
 91
        1
 62
     0
 92
       -2
340
14
 93
        0
 40
0.045
309
GRIDFORMAT_END
 95
        2
302
GRIDFORMAT
  1
GRIDFORMAT_BEGIN
 90
        0
 91
        1
 62
     0
 92
       -2
340
14
 93
        0
 40
0.045
309
GRIDFORMAT_END
 95
        4
302
GRIDFORMAT
  1
GRIDFORMAT_BEGIN
 90
        0
 91
        1
 62
     0
 92
       -2
340
14
 93
        0
 40
0.045
309
GRIDFORMAT_END
 95
        8
302
GRIDFORMAT
  1
GRIDFORMAT_BEGIN
 90
        0
 91
        1
 62
     0
 92
       -2
340
14
 93
        0
 40
0.045
309
GRIDFORMAT_END
 95
       16
302
GRIDFORMAT
  1
GRIDFORMAT_BEGIN
 90
        0
 91
        1
 62
     0
 92
       -2
340
14
 93
        0
 40
0.045
309
GRIDFORMAT_END
 95
       32
302
GRIDFORMAT
  1
GRIDFORMAT_BEGIN
 90
        0
 91
        1
 62
     0
 92
       -2
340
14
 93
        0
 40
0.045
309
GRIDFORMAT_END
309
TABLEFORMAT_END
  1
CELLSTYLE_BEGIN
 90
        2
 91
        1
300
_HEADER
309
CELLSTYLE_END
300
CELLSTYLE
  1
TABLEFORMAT_BEGIN
 90
        5
170
     1
 91
        0
 92
        0
 62
   257
 93
        1
300
CONTENTFORMAT
  1
CONTENTFORMAT_BEGIN
 90
        0
 91
        0
 92
        4
 93
        0
300

 40
0.0
140
1.0
 94
        2
 62
     0
340
11
144
0.18
309
CONTENTFORMAT_END
171
     1
301
MARGIN
  1
CELLMARGIN_BEGIN
 40
0.06
 40
0.06
 40
0.06
 40
0.06
 40
0.06
 40
0.06
309
CELLMARGIN_END
 94
        6
 95
        1
302
GRIDFORMAT
  1
GRIDFORMAT_BEGIN
 90
        0
 91
        1
 62
     0
 92
       -2
340
14
 93
        0
 40
0.045
309
GRIDFORMAT_END
 95
        2
302
GRIDFORMAT
  1
GRIDFORMAT_BEGIN
 90
        0
 91
        1
 62
     0
 92
       -2
340
14
 93
        0
 40
0.045
309
GRIDFORMAT_END
 95
        4
302
GRIDFORMAT
  1
GRIDFORMAT_BEGIN
 90
        0
 91
        1
 62
     0
 92
       -2
340
14
 93
        0
 40
0.045
309
GRIDFORMAT_END
 95
        8
302
GRIDFORMAT
  1
GRIDFORMAT_BEGIN
 90
        0
 91
        1
 62
     0
 92
       -2
340
14
 93
        0
 40
0.045
309
GRIDFORMAT_END
 95
       16
302
GRIDFORMAT
  1
GRIDFORMAT_BEGIN
 90
        0
 91
        1
 62
     0
 92
       -2
340
14
 93
        0
 40
0.045
309
GRIDFORMAT_END
 95
       32
302
GRIDFORMAT
  1
GRIDFORMAT_BEGIN
 90
        0
 91
        1
 62
     0
 92
       -2
340
14
 93
        0
 40
0.045
309
GRIDFORMAT_END
309
TABLEFORMAT_END
  1
CELLSTYLE_BEGIN
 90
        3
 91
        2
300
_DATA
309
CELLSTYLE_END
  0
ENDSEC
  0
EOF