0
SECTION
  2
HEADER
  9
$ACADVER
  1
AC1027
  9
$ACADMAINTVER
 70
     8
  9
$DWGCODEPAGE
  3
ANSI_1252
  9
$REQUIREDVERSIONS
160
                 0
  9
$COMMENTS
  1
File was created by Cadenas
  9
$CUSTOMPROPERTYTAG
  1
NN
  9
$CUSTOMPROPERTY
  1
Eccentric Collar Two-Bolt Pillow Block Inch Bore
  9
$CUSTOMPROPERTYTAG
  1
NT
  9
$CUSTOMPROPERTY
  1
Eccentric Collar Pillow Block Bearings -(Normal Duty)
  9
$CUSTOMPROPERTYTAG
  1
NB
  9
$CUSTOMPROPERTY
  1
131820
  9
$CUSTOMPROPERTYTAG
  1
NBSYN
  9
$CUSTOMPROPERTY
  1
$PN.
  9
$CUSTOMPROPERTYTAG
  1
LINA
  9
$CUSTOMPROPERTY
  1
131820
  9
$CUSTOMPROPERTYTAG
  1
SERIES
  9
$CUSTOMPROPERTY
  1
212
  9
$CUSTOMPROPERTYTAG
  1
SS
  9
$CUSTOMPROPERTY
  1
2-1/4
  9
$CUSTOMPROPERTYTAG
  1
PN
  9
$CUSTOMPROPERTY
  1
131820
  9
$CUSTOMPROPERTYTAG
  1
DESCRIPTION
  9
$CUSTOMPROPERTY
  1
P2B-SXR-204
  9
$CUSTOMPROPERTYTAG
  1
LF
  9
$CUSTOMPROPERTY
  1
RE-LUBE
  9
$CUSTOMPROPERTYTAG
  1
WEIGHT
  9
$CUSTOMPROPERTY
  1
11.6
  9
$CUSTOMPROPERTYTAG
  1
A
  9
$CUSTOMPROPERTY
  1
2.74
  9
$CUSTOMPROPERTYTAG
  1
B
  9
$CUSTOMPROPERTY
  1
9.50
  9
$CUSTOMPROPERTYTAG
  1
C
  9
$CUSTOMPROPERTY
  1
2.37
  9
$CUSTOMPROPERTYTAG
  1
DMIN
  9
$CUSTOMPROPERTY
  1
6.88
  9
$CUSTOMPROPERTYTAG
  1
DMAX
  9
$CUSTOMPROPERTY
  1
7.94
  9
$CUSTOMPROPERTYTAG
  1
F
  9
$CUSTOMPROPERTY
  1
5/8
  9
$CUSTOMPROPERTYTAG
  1
G
  9
$CUSTOMPROPERTY
  1
1.21
  9
$CUSTOMPROPERTYTAG
  1
H
  9
$CUSTOMPROPERTY
  1
0.88
  9
$CUSTOMPROPERTYTAG
  1
J
  9
$CUSTOMPROPERTY
  1
5.40
  9
$CUSTOMPROPERTYTAG
  1
L
  9
$CUSTOMPROPERTY
  1
3.31
  9
$CUSTOMPROPERTYTAG
  1
M
  9
$CUSTOMPROPERTY
  1
2.75
  9
$CUSTOMPROPERTYTAG
  1
R
  9
$CUSTOMPROPERTY
  1
0.90
  9
$CUSTOMPROPERTYTAG
  1
S
  9
$CUSTOMPROPERTY
  1
1.84
  9
$CUSTOMPROPERTYTAG
  1
U
  9
$CUSTOMPROPERTY
  1
4.25
  9
$CUSTOMPROPERTYTAG
  1
V
  9
$CUSTOMPROPERTY
  1
8.50
  9
$CUSTOMPROPERTYTAG
  1
W
  9
$CUSTOMPROPERTY
  1
0.88
  9
$CUSTOMPROPERTYTAG
  1
X
  9
$CUSTOMPROPERTY
  1
0.12
  9
$CUSTOMPROPERTYTAG
  1
COMPANY
  9
$CUSTOMPROPERTY
  1
baldor
  9
$INSBASE
 10
0.0
 20
0.0
 30
0.0
  9
$EXTMIN
 10
1.000000000000000E+20
 20
1.000000000000000E+20
 30
1.000000000000000E+20
  9
$EXTMAX
 10
-1.000000000000000E+20
 20
-1.000000000000000E+20
 30
-1.000000000000000E+20
  9
$LIMMIN
 10
0.0
 20
0.0
  9
$LIMMAX
 10
12.0
 20
9.0
  9
$ORTHOMODE
 70
     0
  9
$REGENMODE
 70
     1
  9
$FILLMODE
 70
     1
  9
$QTEXTMODE
 70
     0
  9
$MIRRTEXT
 70
     1
  9
$LTSCALE
 40
1.0
  9
$ATTMODE
 70
     1
  9
$TEXTSIZE
 40
0.2
  9
$TRACEWID
 40
0.05
  9
$TEXTSTYLE
  7
Standard
  9
$CLAYER
  8
0
  9
$CELTYPE
  6
ByLayer
  9
$CECOLOR
 62
   256
  9
$CELTSCALE
 40
1.0
  9
$DISPSILH
 70
     0
  9
$DIMSCALE
 40
1.0
  9
$DIMASZ
 40
0.18
  9
$DIMEXO
 40
0.0625
  9
$DIMDLI
 40
0.38
  9
$DIMRND
 40
0.0
  9
$DIMDLE
 40
0.0
  9
$DIMEXE
 40
0.18
  9
$DIMTP
 40
0.0
  9
$DIMTM
 40
0.0
  9
$DIMTXT
 40
0.18
  9
$DIMCEN
 40
0.09
  9
$DIMTSZ
 40
0.0
  9
$DIMTOL
 70
     0
  9
$DIMLIM
 70
     0
  9
$DIMTIH
 70
     1
  9
$DIMTOH
 70
     1
  9
$DIMSE1
 70
     0
  9
$DIMSE2
 70
     0
  9
$DIMTAD
 70
     0
  9
$DIMZIN
 70
     0
  9
$DIMBLK
  1

  9
$DIMASO
 70
     1
  9
$DIMSHO
 70
     1
  9
$DIMPOST
  1

  9
$DIMAPOST
  1

  9
$DIMALT
 70
     0
  9
$DIMALTD
 70
     2
  9
$DIMALTF
 40
25.4
  9
$DIMLFAC
 40
1.0
  9
$DIMTOFL
 70
     0
  9
$DIMTVP
 40
0.0
  9
$DIMTIX
 70
     0
  9
$DIMSOXD
 70
     0
  9
$DIMSAH
 70
     0
  9
$DIMBLK1
  1

  9
$DIMBLK2
  1

  9
$DIMSTYLE
  2
Standard
  9
$DIMCLRD
 70
     0
  9
$DIMCLRE
 70
     0
  9
$DIMCLRT
 70
     0
  9
$DIMTFAC
 40
1.0
  9
$DIMGAP
 40
0.09
  9
$DIMJUST
 70
     0
  9
$DIMSD1
 70
     0
  9
$DIMSD2
 70
     0
  9
$DIMTOLJ
 70
     1
  9
$DIMTZIN
 70
     0
  9
$DIMALTZ
 70
     0
  9
$DIMALTTZ
 70
     0
  9
$DIMUPT
 70
     0
  9
$DIMDEC
 70
     4
  9
$DIMTDEC
 70
     4
  9
$DIMALTU
 70
     2
  9
$DIMALTTD
 70
     2
  9
$DIMTXSTY
  7
Standard
  9
$DIMAUNIT
 70
     0
  9
$DIMADEC
 70
     0
  9
$DIMALTRND
 40
0.0
  9
$DIMAZIN
 70
     0
  9
$DIMDSEP
 70
    46
  9
$DIMATFIT
 70
     3
  9
$DIMFRAC
 70
     0
  9
$DIMLDRBLK
  1

  9
$DIMLUNIT
 70
     2
  9
$DIMLWD
 70
    -2
  9
$DIMLWE
 70
    -2
  9
$DIMTMOVE
 70
     0
  9
$DIMFXL
 40
1.0
  9
$DIMFXLON
 70
     0
  9
$DIMJOGANG
 40
0.7853981633974483
  9
$DIMTFILL
 70
     0
  9
$DIMTFILLCLR
 70
     0
  9
$DIMARCSYM
 70
     0
  9
$DIMLTYPE
  6

  9
$DIMLTEX1
  6

  9
$DIMLTEX2
  6

  9
$DIMTXTDIRECTION
 70
     0
  9
$LUNITS
 70
     2
  9
$LUPREC
 70
     4
  9
$SKETCHINC
 40
0.1
  9
$FILLETRAD
 40
0.5
  9
$AUNITS
 70
     0
  9
$AUPREC
 70
     0
  9
$MENU
  1
.
  9
$ELEVATION
 40
0.0
  9
$PELEVATION
 40
0.0
  9
$THICKNESS
 40
0.0
  9
$LIMCHECK
 70
     0
  9
$CHAMFERA
 40
0.0
  9
$CHAMFERB
 40
0.0
  9
$CHAMFERC
 40
0.0
  9
$CHAMFERD
 40
0.0
  9
$SKPOLY
 70
     0
  9
$TDCREATE
 40
2458168.975802165
  9
$TDUCREATE
 40
2458168.934135498
  9
$TDUPDATE
 40
2458168.975802165
  9
$TDUUPDATE
 40
2458168.934135498
  9
$TDINDWG
 40
0.0000000116
  9
$TDUSRTIMER
 40
0.0000000116
  9
$USRTIMER
 70
     1
  9
$ANGBASE
 50
0.0
  9
$ANGDIR
 70
     0
  9
$PDMODE
 70
     0
  9
$PDSIZE
 40
0.0
  9
$PLINEWID
 40
0.0
  9
$SPLFRAME
 70
     0
  9
$SPLINETYPE
 70
     6
  9
$SPLINESEGS
 70
     8
  9
$HANDSEED
  5
1C2
  9
$SURFTAB1
 70
     6
  9
$SURFTAB2
 70
     6
  9
$SURFTYPE
 70
     6
  9
$SURFU
 70
     6
  9
$SURFV
 70
     6
  9
$UCSBASE
  2

  9
$UCSNAME
  2

  9
$UCSORG
 10
0.0
 20
0.0
 30
0.0
  9
$UCSXDIR
 10
1.0
 20
0.0
 30
0.0
  9
$UCSYDIR
 10
0.0
 20
1.0
 30
0.0
  9
$UCSORTHOREF
  2

  9
$UCSORTHOVIEW
 70
     0
  9
$UCSORGTOP
 10
0.0
 20
0.0
 30
0.0
  9
$UCSORGBOTTOM
 10
0.0
 20
0.0
 30
0.0
  9
$UCSORGLEFT
 10
0.0
 20
0.0
 30
0.0
  9
$UCSORGRIGHT
 10
0.0
 20
0.0
 30
0.0
  9
$UCSORGFRONT
 10
0.0
 20
0.0
 30
0.0
  9
$UCSORGBACK
 10
0.0
 20
0.0
 30
0.0
  9
$PUCSBASE
  2

  9
$PUCSNAME
  2

  9
$PUCSORG
 10
0.0
 20
0.0
 30
0.0
  9
$PUCSXDIR
 10
1.0
 20
0.0
 30
0.0
  9
$PUCSYDIR
 10
0.0
 20
1.0
 30
0.0
  9
$PUCSORTHOREF
  2

  9
$PUCSORTHOVIEW
 70
     0
  9
$PUCSORGTOP
 10
0.0
 20
0.0
 30
0.0
  9
$PUCSORGBOTTOM
 10
0.0
 20
0.0
 30
0.0
  9
$PUCSORGLEFT
 10
0.0
 20
0.0
 30
0.0
  9
$PUCSORGRIGHT
 10
0.0
 20
0.0
 30
0.0
  9
$PUCSORGFRONT
 10
0.0
 20
0.0
 30
0.0
  9
$PUCSORGBACK
 10
0.0
 20
0.0
 30
0.0
  9
$USERI1
 70
     0
  9
$USERI2
 70
     0
  9
$USERI3
 70
     0
  9
$USERI4
 70
     0
  9
$USERI5
 70
     0
  9
$USERR1
 40
0.0
  9
$USERR2
 40
0.0
  9
$USERR3
 40
0.0
  9
$USERR4
 40
0.0
  9
$USERR5
 40
0.0
  9
$WORLDVIEW
 70
     1
  9
$SHADEDGE
 70
     3
  9
$SHADEDIF
 70
    70
  9
$TILEMODE
 70
     1
  9
$MAXACTVP
 70
    64
  9
$PINSBASE
 10
0.0
 20
0.0
 30
0.0
  9
$PLIMCHECK
 70
     0
  9
$PEXTMIN
 10
1.000000000000000E+20
 20
1.000000000000000E+20
 30
1.000000000000000E+20
  9
$PEXTMAX
 10
-1.000000000000000E+20
 20
-1.000000000000000E+20
 30
-1.000000000000000E+20
  9
$PLIMMIN
 10
0.0
 20
0.0
  9
$PLIMMAX
 10
12.0
 20
9.0
  9
$UNITMODE
 70
     0
  9
$VISRETAIN
 70
     1
  9
$PLINEGEN
 70
     0
  9
$PSLTSCALE
 70
     1
  9
$TREEDEPTH
 70
  3020
  9
$CMLSTYLE
  2
Standard
  9
$CMLJUST
 70
     0
  9
$CMLSCALE
 40
1.0
  9
$PROXYGRAPHICS
 70
     1
  9
$MEASUREMENT
 70
     0
  9
$CELWEIGHT
370
    -1
  9
$ENDCAPS
280
     0
  9
$JOINSTYLE
280
     0
  9
$LWDISPLAY
290
     0
  9
$INSUNITS
 70
     1
  9
$HYPERLINKBASE
  1

  9
$STYLESHEET
  1

  9
$XEDIT
290
     1
  9
$CEPSNTYPE
380
     0
  9
$PSTYLEMODE
290
     1
  9
$FINGERPRINTGUID
  2
{6DA2D822-76FA-4F55-9713-42EECB39B3D4}
  9
$VERSIONGUID
  2
{FAEB1C32-E019-11D5-929B-00C0DF256EC4}
  9
$EXTNAMES
290
     1
  9
$PSVPSCALE
 40
0.0
  9
$OLESTARTUP
290
     0
  9
$SORTENTS
280
   127
  9
$INDEXCTL
280
     0
  9
$HIDETEXT
280
     1
  9
$XCLIPFRAME
280
     2
  9
$HALOGAP
280
     0
  9
$OBSCOLOR
 70
   257
  9
$OBSLTYPE
280
     0
  9
$INTERSECTIONDISPLAY
280
     0
  9
$INTERSECTIONCOLOR
 70
   257
  9
$DIMASSOC
280
     2
  9
$PROJECTNAME
  1

  9
$CAMERADISPLAY
290
     0
  9
$LENSLENGTH
 40
50.0
  9
$CAMERAHEIGHT
 40
0.0
  9
$STEPSPERSEC
 40
2.0
  9
$STEPSIZE
 40
6.0
  9
$3DDWFPREC
 40
2.0
  9
$PSOLWIDTH
 40
0.25
  9
$PSOLHEIGHT
 40
4.0
  9
$LOFTANG1
 40
1.570796326794897
  9
$LOFTANG2
 40
1.570796326794897
  9
$LOFTMAG1
 40
0.0
  9
$LOFTMAG2
 40
0.0
  9
$LOFTPARAM
 70
     7
  9
$LOFTNORMALS
280
     1
  9
$LATITUDE
 40
37.795
  9
$LONGITUDE
 40
-122.394
  9
$NORTHDIRECTION
 40
0.0
  9
$TIMEZONE
 70
 -8000
  9
$LIGHTGLYPHDISPLAY
280
     1
  9
$TILEMODELIGHTSYNCH
280
     1
  9
$CMATERIAL
347
44
  9
$SOLIDHIST
280
     0
  9
$SHOWHIST
280
     1
  9
$DWFFRAME
280
     2
  9
$DGNFRAME
280
     2
  9
$REALWORLDSCALE
290
     1
  9
$INTERFERECOLOR
 62
   256
  9
$CSHADOW
280
     0
  9
$SHADOWPLANELOCATION
 40
0.0
  0
ENDSEC
  0
SECTION
  2
CLASSES
  0
CLASS
  1
ACDBDICTIONARYWDFLT
  2
AcDbDictionaryWithDefault
  3
ObjectDBX Classes
 90
        0
 91
        4
280
     0
281
     0
  0
CLASS
  1
VISUALSTYLE
  2
AcDbVisualStyle
  3
ObjectDBX Classes
 90
     4095
 91
        4
280
     0
281
     0
  0
CLASS
  1
MATERIAL
  2
AcDbMaterial
  3
ObjectDBX Classes
 90
     1153
 91
        4
280
     0
281
     0
  0
CLASS
  1
SCALE
  2
AcDbScale
  3
ObjectDBX Classes
 90
     1153
 91
        4
280
     0
281
     0
  0
CLASS
  1
TABLESTYLE
  2
AcDbTableStyle
  3
ObjectDBX Classes
 90
     4095
 91
        4
280
     0
281
     0
  0
CLASS
  1
MLEADERSTYLE
  2
AcDbMLeaderStyle
  3
ACDB_MLEADERSTYLE_CLASS
 90
     4095
 91
        4
280
     0
281
     0
  0
CLASS
  1
SUN
  2
AcDbSun
  3
SCENEOE
 90
     1153
 91
        4
280
     0
281
     0
  0
CLASS
  1
DICTIONARYVAR
  2
AcDbDictionaryVar
  3
ObjectDBX Classes
 90
        0
 91
        4
280
     0
281
     0
  0
CLASS
  1
CELLSTYLEMAP
  2
AcDbCellStyleMap
  3
ObjectDBX Classes
 90
     1152
 91
        4
280
     0
281
     0
  0
ENDSEC
  0
SECTION
  2
TABLES
  0
TABLE
  2
VPORT
  5
8
330
0
100
AcDbSymbolTable
 70
     1
  0
VPORT
  5
29
330
8
100
AcDbSymbolTableRecord
100
AcDbViewportTableRecord
  2
*Active
 70
     0
 10
0.0
 20
0.0
 11
1.0
 21
1.0
 12
-0.3367500000000003
 22
-0.0499999999999989
 13
0.0
 23
0.0
 14
0.5
 24
0.5
 15
0.5
 25
0.5
 16
0.0
 26
0.0
 36
1.0
 17
0.0
 27
0.0
 37
0.0
 40
5.508000000000003
 41
0.6074999999999997
 42
50.0
 43
0.0
 44
0.0
 50
0.0
 51
0.0
 71
     0
 72
   100
 73
     1
 74
     3
 75
     0
 76
     0
 77
     0
 78
     0
281
     0
 65
     1
110
0.0
120
0.0
130
0.0
111
1.0
121
0.0
131
0.0
112
0.0
122
1.0
132
0.0
 79
     0
146
0.0
348
2F
 60
     3
 61
     5
292
     1
282
     1
141
0.0
142
0.0
 63
   250
361
6D
  0
ENDTAB
  0
TABLE
  2
LTYPE
  5
5
330
0
100
AcDbSymbolTable
 70
     3
  0
LTYPE
  5
14
330
5
100
AcDbSymbolTableRecord
100
AcDbLinetypeTableRecord
  2
ByBlock
 70
     0
  3

 72
    65
 73
     0
 40
0.0
  0
LTYPE
  5
15
330
5
100
AcDbSymbolTableRecord
100
AcDbLinetypeTableRecord
  2
ByLayer
 70
     0
  3

 72
    65
 73
     0
 40
0.0
  0
LTYPE
  5
16
330
5
100
AcDbSymbolTableRecord
100
AcDbLinetypeTableRecord
  2
Continuous
 70
     0
  3
Solid line
 72
    65
 73
     0
 40
0.0
  0
LTYPE
  5
9C
330
5
100
AcDbSymbolTableRecord
100
AcDbLinetypeTableRecord
  2
Dashed
 70
     0
  3

 72
    65
 73
     2
 40
2.0
 49
1.0
 74
     0
 49
-1.0
 74
     0
  0
LTYPE
  5
13F
330
5
100
AcDbSymbolTableRecord
100
AcDbLinetypeTableRecord
  2
Center
 70
     0
  3

 72
    65
 73
     4
 40
1.5
 49
0.45
 74
     0
 49
-0.5
 74
     0
 49
0.05
 74
     0
 49
-0.5
 74
     0
  0
ENDTAB
  0
TABLE
  2
LAYER
  5
2
330
0
100
AcDbSymbolTable
 70
     7
  0
LAYER
  5
10
330
2
100
AcDbSymbolTableRecord
100
AcDbLayerTableRecord
  2
0
 70
     0
 62
     7
  6
Continuous
370
    -3
390
F
347
46
348
0
  0
LAYER
  5
72
330
2
100
AcDbSymbolTableRecord
100
AcDbLayerTableRecord
  2
AM_6
 70
     0
 62
    -2
  6
Continuous
370
    35
390
F
347
46
348
0
  0
LAYER
  5
9D
330
2
100
AcDbSymbolTableRecord
100
AcDbLayerTableRecord
  2
AM_9
 70
     0
 62
     6
  6
Dashed
370
    25
390
F
347
46
348
0
  0
LAYER
  5
C4
330
2
100
AcDbSymbolTableRecord
100
AcDbLayerTableRecord
  2
AM_4
 70
     0
 62
     7
  6
Continuous
370
    50
390
F
347
46
348
0
  0
LAYER
  5
13C
330
2
100
AcDbSymbolTableRecord
100
AcDbLayerTableRecord
  2
AM_5
 70
     0
 62
     3
  6
Continuous
370
    25
390
F
347
46
348
0
  0
LAYER
  5
140
330
2
100
AcDbSymbolTableRecord
100
AcDbLayerTableRecord
  2
AM_7
 70
     0
 62
     7
  6
Center
370
    25
390
F
347
46
348
0
  0
LAYER
  5
1B3
330
2
100
AcDbSymbolTableRecord
100
AcDbLayerTableRecord
  2
ConnectionPoints
 70
     0
 62
     7
  6
Continuous
370
    50
390
F
347
46
348
0
  0
ENDTAB
  0
TABLE
  2
STYLE
  5
3
330
0
100
AcDbSymbolTable
 70
     1
  0
STYLE
  5
11
330
3
100
AcDbSymbolTableRecord
100
AcDbTextStyleTableRecord
  2
Standard
 70
     0
 40
0.0
 41
1.0
 50
0.0
 71
     0
 42
0.2
  3
txt
  4

  0
ENDTAB
  0
TABLE
  2
VIEW
  5
6
330
0
100
AcDbSymbolTable
 70
     0
  0
ENDTAB
  0
TABLE
  2
UCS
  5
7
330
0
100
AcDbSymbolTable
 70
     0
  0
ENDTAB
  0
TABLE
  2
APPID
  5
9
330
0
100
AcDbSymbolTable
 70
     1
  0
APPID
  5
12
330
9
100
AcDbSymbolTableRecord
100
AcDbRegAppTableRecord
  2
ACAD
 70
     0
  0
ENDTAB
  0
TABLE
  2
DIMSTYLE
  5
A
330
0
100
AcDbSymbolTable
 70
     1
100
AcDbDimStyleTable
  0
DIMSTYLE
105
27
330
A
100
AcDbSymbolTableRecord
100
AcDbDimStyleTableRecord
  2
Standard
 70
     0
178
     0
340
11
  0
ENDTAB
  0
TABLE
  2
BLOCK_RECORD
  5
1
330
0
100
AcDbSymbolTable
 70
     5
  0
BLOCK_RECORD
  5
1F
330
1
100
AcDbSymbolTableRecord
100
AcDbBlockTableRecord
  2
*Model_Space
340
22
 70
     0
280
     1
281
     0
  0
BLOCK_RECORD
  5
1B
330
1
100
AcDbSymbolTableRecord
100
AcDbBlockTableRecord
  2
*Paper_Space
340
1E
 70
     0
280
     1
281
     0
  0
BLOCK_RECORD
  5
23
330
1
100
AcDbSymbolTableRecord
100
AcDbBlockTableRecord
  2
*Paper_Space0
340
26
 70
     0
280
     1
281
     0
  0
BLOCK_RECORD
  5
6E
330
1
100
AcDbSymbolTableRecord
100
AcDbBlockTableRecord
  2
1_131820_2
340
0
102
{BLKREFS
331
6F
102
}
 70
     0
280
     1
281
     0
  0
BLOCK_RECORD
  5
90
330
1
100
AcDbSymbolTableRecord
100
AcDbBlockTableRecord
  2
2_405015E_Inch_0_in_131820_2
340
0
102
{BLKREFS
331
91
102
}
 70
     0
280
     1
281
     0
  0
BLOCK_RECORD
  5
E7
330
1
100
AcDbSymbolTableRecord
100
AcDbBlockTableRecord
  2
3_131928_0_in_131820_2
340
0
102
{BLKREFS
331
E8
102
}
 70
     0
280
     1
281
     0
  0
BLOCK_RECORD
  5
158
330
1
100
AcDbSymbolTableRecord
100
AcDbBlockTableRecord
  2
4_131820H_0_in_131820_2
340
0
102
{BLKREFS
331
159
102
}
 70
     0
280
     1
281
     0
  0
ENDTAB
  0
ENDSEC
  0
SECTION
  2
BLOCKS
  0
BLOCK
  5
20
330
1F
100
AcDbEntity
  8
0
100
AcDbBlockBegin
  2
*Model_Space
 70
     0
 10
0.0
 20
0.0
 30
0.0
  3
*Model_Space
  1

  0
ENDBLK
  5
21
330
1F
100
AcDbEntity
  8
0
100
AcDbBlockEnd
  0
BLOCK
  5
1C
330
1B
100
AcDbEntity
 67
     1
  8
0
100
AcDbBlockBegin
  2
*Paper_Space
 70
     0
 10
0.0
 20
0.0
 30
0.0
  3
*Paper_Space
  1

  0
ENDBLK
  5
1D
330
1B
100
AcDbEntity
 67
     1
  8
0
100
AcDbBlockEnd
  0
BLOCK
  5
24
330
23
100
AcDbEntity
  8
0
100
AcDbBlockBegin
  2
*Paper_Space0
 70
     0
 10
0.0
 20
0.0
 30
0.0
  3
*Paper_Space0
  1

  0
ENDBLK
  5
25
330
23
100
AcDbEntity
  8
0
100
AcDbBlockEnd
  0
BLOCK
  5
70
330
6E
100
AcDbEntity
  8
0
100
AcDbBlockBegin
  2
1_131820_2
 70
     2
 10
0.0
 20
0.0
 30
0.0
  3
1_131820_2
  1

  0
ATTDEF
  5
73
330
6E
100
AcDbEntity
  8
AM_6
100
AcDbText
 10
6.3035
 20
2.650000000000003
 30
0.0
 40
0.5
  1
Eccentric Collar Two-Bolt Pillow Block Inch Bore
100
AcDbAttributeDefinition
  3

  2
NN
 70
     8
280
     0
  0
ATTDEF
  5
74
330
6E
100
AcDbEntity
  8
AM_6
100
AcDbText
 10
6.3035
 20
2.150000000000003
 30
0.0
 40
0.5
  1
Eccentric Collar Pillow Block Bearings -(Normal Duty)
100
AcDbAttributeDefinition
  3

  2
NT
 70
     8
280
     0
  0
ATTDEF
  5
75
330
6E
100
AcDbEntity
  8
AM_6
100
AcDbText
 10
6.3035
 20
1.650000000000003
 30
0.0
 40
0.5
  1
131820
100
AcDbAttributeDefinition
  3

  2
NB
 70
     8
280
     0
  0
ATTDEF
  5
76
330
6E
100
AcDbEntity
  8
AM_6
100
AcDbText
 10
6.3035
 20
1.150000000000003
 30
0.0
 40
0.5
  1
$PN.
100
AcDbAttributeDefinition
  3

  2
NBSYN
 70
     8
280
     0
  0
ATTDEF
  5
77
330
6E
100
AcDbEntity
  8
AM_6
100
AcDbText
 10
6.3035
 20
0.6500000000000026
 30
0.0
 40
0.5
  1
131820
100
AcDbAttributeDefinition
  3

  2
LINA
 70
     8
280
     0
  0
ATTDEF
  5
78
330
6E
100
AcDbEntity
  8
AM_6
100
AcDbText
 10
6.3035
 20
0.1500000000000026
 30
0.0
 40
0.5
  1
212
100
AcDbAttributeDefinition
  3

  2
SERIES
 70
     8
280
     0
  0
ATTDEF
  5
79
330
6E
100
AcDbEntity
  8
AM_6
100
AcDbText
 10
6.3035
 20
-0.3499999999999974
 30
0.0
 40
0.5
  1
2-1/4
100
AcDbAttributeDefinition
  3

  2
SS
 70
     8
280
     0
  0
ATTDEF
  5
7A
330
6E
100
AcDbEntity
  8
AM_6
100
AcDbText
 10
6.3035
 20
-0.8499999999999974
 30
0.0
 40
0.5
  1
131820
100
AcDbAttributeDefinition
  3

  2
PN
 70
     8
280
     0
  0
ATTDEF
  5
7B
330
6E
100
AcDbEntity
  8
AM_6
100
AcDbText
 10
6.3035
 20
-1.349999999999997
 30
0.0
 40
0.5
  1
P2B-SXR-204
100
AcDbAttributeDefinition
  3

  2
DESCRIPTION
 70
     8
280
     0
  0
ATTDEF
  5
7C
330
6E
100
AcDbEntity
  8
AM_6
100
AcDbText
 10
6.3035
 20
-1.849999999999997
 30
0.0
 40
0.5
  1
RE-LUBE
100
AcDbAttributeDefinition
  3

  2
LF
 70
     8
280
     0
  0
ATTDEF
  5
7D
330
6E
100
AcDbEntity
  8
AM_6
100
AcDbText
 10
6.3035
 20
-2.349999999999997
 30
0.0
 40
0.5
  1
11.6
100
AcDbAttributeDefinition
  3

  2
WEIGHT
 70
     8
280
     0
  0
ATTDEF
  5
7E
330
6E
100
AcDbEntity
  8
AM_6
100
AcDbText
 10
6.3035
 20
-2.849999999999997
 30
0.0
 40
0.5
  1
2.74
100
AcDbAttributeDefinition
  3

  2
A
 70
     8
280
     0
  0
ATTDEF
  5
7F
330
6E
100
AcDbEntity
  8
AM_6
100
AcDbText
 10
6.3035
 20
-3.349999999999997
 30
0.0
 40
0.5
  1
9.50
100
AcDbAttributeDefinition
  3

  2
B
 70
     8
280
     0
  0
ATTDEF
  5
80
330
6E
100
AcDbEntity
  8
AM_6
100
AcDbText
 10
6.3035
 20
-3.849999999999997
 30
0.0
 40
0.5
  1
2.37
100
AcDbAttributeDefinition
  3

  2
C
 70
     8
280
     0
  0
ATTDEF
  5
81
330
6E
100
AcDbEntity
  8
AM_6
100
AcDbText
 10
6.3035
 20
-4.349999999999998
 30
0.0
 40
0.5
  1
6.88
100
AcDbAttributeDefinition
  3

  2
DMIN
 70
     8
280
     0
  0
ATTDEF
  5
82
330
6E
100
AcDbEntity
  8
AM_6
100
AcDbText
 10
6.3035
 20
-4.849999999999998
 30
0.0
 40
0.5
  1
7.94
100
AcDbAttributeDefinition
  3

  2
DMAX
 70
     8
280
     0
  0
ATTDEF
  5
83
330
6E
100
AcDbEntity
  8
AM_6
100
AcDbText
 10
6.3035
 20
-5.349999999999998
 30
0.0
 40
0.5
  1
5/8
100
AcDbAttributeDefinition
  3

  2
F
 70
     8
280
     0
  0
ATTDEF
  5
84
330
6E
100
AcDbEntity
  8
AM_6
100
AcDbText
 10
6.3035
 20
-5.849999999999998
 30
0.0
 40
0.5
  1
1.21
100
AcDbAttributeDefinition
  3

  2
G
 70
     8
280
     0
  0
ATTDEF
  5
85
330
6E
100
AcDbEntity
  8
AM_6
100
AcDbText
 10
6.3035
 20
-6.349999999999998
 30
0.0
 40
0.5
  1
0.88
100
AcDbAttributeDefinition
  3

  2
H
 70
     8
280
     0
  0
ATTDEF
  5
86
330
6E
100
AcDbEntity
  8
AM_6
100
AcDbText
 10
6.3035
 20
-6.849999999999998
 30
0.0
 40
0.5
  1
5.40
100
AcDbAttributeDefinition
  3

  2
J
 70
     8
280
     0
  0
ATTDEF
  5
87
330
6E
100
AcDbEntity
  8
AM_6
100
AcDbText
 10
6.3035
 20
-7.349999999999998
 30
0.0
 40
0.5
  1
3.31
100
AcDbAttributeDefinition
  3

  2
L
 70
     8
280
     0
  0
ATTDEF
  5
88
330
6E
100
AcDbEntity
  8
AM_6
100
AcDbText
 10
6.3035
 20
-7.849999999999998
 30
0.0
 40
0.5
  1
2.75
100
AcDbAttributeDefinition
  3

  2
M
 70
     8
280
     0
  0
ATTDEF
  5
89
330
6E
100
AcDbEntity
  8
AM_6
100
AcDbText
 10
6.3035
 20
-8.349999999999998
 30
0.0
 40
0.5
  1
0.90
100
AcDbAttributeDefinition
  3

  2
R
 70
     8
280
     0
  0
ATTDEF
  5
8A
330
6E
100
AcDbEntity
  8
AM_6
100
AcDbText
 10
6.3035
 20
-8.849999999999998
 30
0.0
 40
0.5
  1
1.84
100
AcDbAttributeDefinition
  3

  2
S
 70
     8
280
     0
  0
ATTDEF
  5
8B
330
6E
100
AcDbEntity
  8
AM_6
100
AcDbText
 10
6.3035
 20
-9.349999999999998
 30
0.0
 40
0.5
  1
4.25
100
AcDbAttributeDefinition
  3

  2
U
 70
     8
280
     0
  0
ATTDEF
  5
8C
330
6E
100
AcDbEntity
  8
AM_6
100
AcDbText
 10
6.3035
 20
-9.849999999999998
 30
0.0
 40
0.5
  1
8.50
100
AcDbAttributeDefinition
  3

  2
V
 70
     8
280
     0
  0
ATTDEF
  5
8D
330
6E
100
AcDbEntity
  8
AM_6
100
AcDbText
 10
6.3035
 20
-10.35
 30
0.0
 40
0.5
  1
0.88
100
AcDbAttributeDefinition
  3

  2
W
 70
     8
280
     0
  0
ATTDEF
  5
8E
330
6E
100
AcDbEntity
  8
AM_6
100
AcDbText
 10
6.3035
 20
-10.85
 30
0.0
 40
0.5
  1
0.12
100
AcDbAttributeDefinition
  3

  2
X
 70
     8
280
     0
  0
ATTDEF
  5
8F
330
6E
100
AcDbEntity
  8
AM_6
100
AcDbText
 10
6.3035
 20
-11.35
 30
0.0
 40
0.5
  1
baldor
100
AcDbAttributeDefinition
  3

  2
COMPANY
 70
     8
280
     0
  0
INSERT
  5
91
330
6E
100
AcDbEntity
  8
0
100
AcDbBlockReference
  2
2_405015E_Inch_0_in_131820_2
 10
0.0
 20
0.0
 30
0.0
  0
INSERT
  5
E8
330
6E
100
AcDbEntity
  8
0
100
AcDbBlockReference
  2
3_131928_0_in_131820_2
 10
0.0
 20
0.0
 30
0.0
  0
INSERT
  5
159
330
6E
100
AcDbEntity
  8
0
100
AcDbBlockReference
  2
4_131820H_0_in_131820_2
 10
0.0
 20
0.0
 30
0.0
  0
ENDBLK
  5
71
330
6E
100
AcDbEntity
  8
0
100
AcDbBlockEnd
  0
BLOCK
  5
92
330
90
100
AcDbEntity
  8
0
100
AcDbBlockBegin
  2
2_405015E_Inch_0_in_131820_2
 70
     2
 10
0.0
 20
0.0
 30
0.0
  3
2_405015E_Inch_0_in_131820_2
  1

  0
ATTDEF
  5
94
330
90
100
AcDbEntity
  8
AM_6
100
AcDbText
 10
5.218750000000002
 20
2.211602253824271
 30
0.0
 40
0.5
  1
405015E -Inch
100
AcDbAttributeDefinition
  3

  2
NN
 70
     8
280
     0
  0
ATTDEF
  5
95
330
90
100
AcDbEntity
  8
AM_6
100
AcDbText
 10
5.218750000000002
 20
1.711602253824271
 30
0.0
 40
0.5
  1
Grease Fitting
100
AcDbAttributeDefinition
  3

  2
NT
 70
     8
280
     0
  0
ATTDEF
  5
96
330
90
100
AcDbEntity
  8
AM_6
100
AcDbText
 10
5.218750000000002
 20
1.211602253824271
 30
0.0
 40
0.5
  1
405015E-Inch
100
AcDbAttributeDefinition
  3

  2
NB
 70
     8
280
     0
  0
ATTDEF
  5
97
330
90
100
AcDbEntity
  8
AM_6
100
AcDbText
 10
5.218750000000002
 20
0.711602253824271
 30
0.0
 40
0.5
  1
$MN.-Inch
100
AcDbAttributeDefinition
  3

  2
NBSYN
 70
     8
280
     0
  0
ATTDEF
  5
98
330
90
100
AcDbEntity
  8
AM_6
100
AcDbText
 10
5.218750000000002
 20
0.211602253824271
 30
0.0
 40
0.5
  1
405015E
100
AcDbAttributeDefinition
  3

  2
LINA
 70
     8
280
     0
  0
ATTDEF
  5
99
330
90
100
AcDbEntity
  8
AM_6
100
AcDbText
 10
5.218750000000002
 20
-0.288397746175729
 30
0.0
 40
0.5
  1
405015E
100
AcDbAttributeDefinition
  3

  2
MN
 70
     8
280
     0
  0
ATTDEF
  5
9A
330
90
100
AcDbEntity
  8
AM_6
100
AcDbText
 10
5.218750000000002
 20
-0.788397746175729
 30
0.0
 40
0.5
  1
1/8 x 27PTF
100
AcDbAttributeDefinition
  3

  2
T
 70
     8
280
     0
  0
ATTDEF
  5
9B
330
90
100
AcDbEntity
  8
AM_6
100
AcDbText
 10
5.218750000000002
 20
-1.288397746175729
 30
0.0
 40
0.5
  1
baldor
100
AcDbAttributeDefinition
  3

  2
COMPANY
 70
     8
280
     0
  0
LWPOLYLINE
  5
9E
330
90
100
AcDbEntity
  8
AM_9
100
AcDbPolyline
 90
        3
 70
     0
 43
0.0
 10
0.0000000000000001
 20
2.058853358456853
 10
0.0544416102741497
 20
2.03192322986299
 10
0.1093750000000001
 20
2.007789440452806
  0
LWPOLYLINE
  5
9F
330
90
100
AcDbEntity
  8
AM_9
100
AcDbPolyline
 90
        3
 70
     0
 43
0.0
 10
-0.1093749999999999
 20
2.007789440452806
 10
-0.0546874999999999
 20
2.031807894620609
 10
0.0000000000000001
 20
2.058853358456853
  0
ELLIPSE
  5
A0
330
90
100
AcDbEntity
  8
AM_9
100
AcDbEllipse
 10
0.0000000000000001
 20
1.686449673129916
 30
0.0
 11
-0.161902872472269
 21
1.982738345459263E-17
 31
0.0
210
0.0
220
0.0
230
1.0
 40
0.7071067811865478
 41
0.0
 42
6.283185307179586
  0
LWPOLYLINE
  5
A1
330
90
100
AcDbEntity
  8
AM_9
100
AcDbPolyline
 90
        3
 70
     0
 43
0.0
 10
0.109375
 20
2.078500118571462
 10
0.0546875
 20
2.099133821173144
 10
0.0000000000000001
 20
2.116740514106385
  0
LWPOLYLINE
  5
A2
330
90
100
AcDbEntity
  8
AM_9
100
AcDbPolyline
 90
        3
 70
     0
 43
0.0
 10
0.0000000000000001
 20
2.116740514106385
 10
-0.0544416102741495
 20
2.099219254051205
 10
-0.1093749999999999
 20
2.078500118571462
  0
LWPOLYLINE
  5
A3
330
90
100
AcDbEntity
  8
AM_9
100
AcDbPolyline
 90
        3
 70
     0
 43
0.0
 10
-0.2187499999999999
 20
1.969549044917883
 10
-0.1643083897258503
 20
1.987070304973063
 10
-0.1093749999999999
 20
2.007789440452806
  0
LINE
  5
A4
330
90
100
AcDbEntity
  8
AM_9
100
AcDbLine
 10
0.0000000000000001
 20
2.116740514106385
 30
0.0
 11
0.0000000000000001
 21
2.058853358456853
 31
0.0
  0
LWPOLYLINE
  5
A5
330
90
100
AcDbEntity
  8
AM_9
100
AcDbPolyline
 90
        3
 70
     0
 43
0.0
 10
0.1093750000000001
 20
2.007789440452806
 10
0.1640625000000001
 20
1.987155737851124
 10
0.2187500000000001
 20
1.969549044917883
  0
LINE
  5
A6
330
90
100
AcDbEntity
  8
AM_9
100
AcDbLine
 10
0.1325008823086766
 20
2.068751346208881
 30
0.0
 11
0.109375
 21
2.078500118571462
 31
0.0
  0
LINE
  5
A7
330
90
100
AcDbEntity
  8
AM_9
100
AcDbLine
 10
-0.1093749999999999
 20
2.078500118571462
 30
0.0
 11
-0.1328887090641434
 21
2.068582650276499
 31
0.0
  0
ELLIPSE
  5
A8
330
90
100
AcDbEntity
  8
AM_9
100
AcDbEllipse
 10
0.0
 20
1.873832970144351
 30
0.0
 11
0.2057518972230697
 21
0.0
 31
0.0
210
0.0
220
0.0
230
1.0
 40
0.7071067811865471
 41
4.71238898038469
 42
9.456034611736142
  0
LINE
  5
A9
330
90
100
AcDbEntity
  8
AM_9
100
AcDbLine
 10
0.1985206121313389
 20
1.708021834578343
 30
0.0
 11
0.2056511541665244
 21
1.86928071456791
 31
0.0
  0
LINE
  5
AA
330
90
100
AcDbEntity
  8
AM_9
100
AcDbLine
 10
-0.2056511541665242
 20
1.86928071456791
 30
0.0
 11
-0.1985206121313387
 21
1.708021834578343
 31
0.0
  0
ELLIPSE
  5
AB
330
90
100
AcDbEntity
  8
AM_9
100
AcDbEllipse
 10
0.0000000000000003
 20
1.873832970144351
 30
0.0
 11
0.2057518972230697
 21
0.0
 31
0.0
210
0.0
220
0.0
230
1.0
 40
0.707106781186547
 41
3.172849304556555
 42
4.71238898038469
  0
ELLIPSE
  5
AC
330
90
100
AcDbEntity
  8
AM_9
100
AcDbEllipse
 10
-0.0000000000000007
 20
1.873832970144352
 30
0.0
 11
0.2187500000000008
 21
0.0
 31
0.0
210
0.0
220
0.0
230
1.0
 40
0.7071067811865475
 41
4.188790204786395
 42
6.283185307179586
  0
ELLIPSE
  5
AD
330
90
100
AcDbEntity
  8
AM_9
100
AcDbEllipse
 10
0.000000000000001
 20
1.873832970144352
 30
0.0
 11
0.2187500000000009
 21
0.0
 31
0.0
210
0.0
220
0.0
230
1.0
 40
0.7071067811865462
 41
0.0
 42
4.18879020478639
  0
ELLIPSE
  5
AE
330
90
100
AcDbEntity
  8
AM_9
100
AcDbEllipse
 10
0.0000000000000342
 20
1.944543648263074
 30
0.0
 11
0.2187500000000596
 21
0.0
 31
0.0
210
0.0
220
0.0
230
1.0
 40
0.7071067811861605
 41
-4.188790204786272
 42
-4.05728625530441
  0
ELLIPSE
  5
AF
330
90
100
AcDbEntity
  8
AM_9
100
AcDbEllipse
 10
-0.0000000000000378
 20
1.944543648263069
 30
0.0
 11
0.2187500000000673
 21
0.0
 31
0.0
210
0.0
220
0.0
230
1.0
 40
0.7071067811861611
 41
0.915693601714624
 42
2.094395102393012
  0
LINE
  5
B0
330
90
100
AcDbEntity
  8
AM_9
100
AcDbLine
 10
-0.0948683298050513
 20
2.050609665440988
 30
0.0
 11
-0.1073548910028989
 21
2.031995799011923
 31
0.0
  0
LINE
  5
B1
330
90
100
AcDbEntity
  8
AM_9
100
AcDbLine
 10
0.1073548910028991
 20
2.031995799011923
 30
0.0
 11
0.0948683298050516
 21
2.050609665440988
 31
0.0
  0
ELLIPSE
  5
B2
330
90
100
AcDbEntity
  8
AM_9
100
AcDbEllipse
 10
0.0000000000000001
 20
2.018789860287594
 30
0.0
 11
0.1049999999999996
 21
0.0
 31
0.0
210
0.0
220
0.0
230
1.0
 40
0.7071067811865477
 41
0.0
 42
2.698681609516159
  0
ELLIPSE
  5
B3
330
90
100
AcDbEntity
  8
AM_9
100
AcDbEllipse
 10
-0.0000000000000036
 20
2.018789860287603
 30
0.0
 11
0.1049999999999963
 21
0.0
 31
0.0
210
0.0
220
0.0
230
1.0
 40
0.7071067811865281
 41
2.698681609516242
 42
3.141592653589793
  0
ELLIPSE
  5
B4
330
90
100
AcDbEntity
  8
AM_9
100
AcDbEllipse
 10
0.000000000000001
 20
1.99598787391199
 30
0.0
 11
0.1188200907348962
 21
0.0
 31
0.0
210
0.0
220
0.0
230
1.0
 40
0.707106781186547
 41
0.4429110440736315
 42
1.407862057867268
  0
ELLIPSE
  5
B5
330
90
100
AcDbEntity
  8
AM_9
100
AcDbEllipse
 10
-0.0000000000000914
 20
1.995987873912117
 30
0.0
 11
0.1188200907347978
 21
1.770557325106827E-9
 31
0.0
210
0.0
220
0.0
230
1.0
 40
0.7071067811862503
 41
-3.584503716800658
 42
-3.517813299340806
  0
ELLIPSE
  5
B6
330
90
100
AcDbEntity
  8
AM_9
100
AcDbEllipse
 10
0.0000000000000001
 20
1.944543648263006
 30
0.0
 11
0.21375
 21
3.185123205184937E-9
 31
0.0
210
0.0
220
0.0
230
1.0
 40
0.7071067811865497
 41
0.9036552042697483
 42
2.23793742017882
  0
LINE
  5
B7
330
90
100
AcDbEntity
  8
AM_9
100
AcDbLine
 10
0.1050000000000001
 20
2.020108851170132
 30
0.0
 11
0.1050000000000001
 21
2.04000306372319
 31
0.0
  0
LINE
  5
B8
330
90
100
AcDbEntity
  8
AM_9
100
AcDbLine
 10
-0.1049999999999999
 20
2.04000306372319
 30
0.0
 11
-0.1049999999999999
 21
2.020108851170132
 31
0.0
  0
ELLIPSE
  5
B9
330
90
100
AcDbEntity
  8
AM_9
100
AcDbEllipse
 10
0.0000000000000001
 20
2.04000306372319
 30
0.0
 11
0.1050000000000003
 21
0.0
 31
0.0
210
0.0
220
0.0
230
1.0
 40
0.7071067811865474
 41
5.759586531581287
 42
9.42477796076938
  0
ELLIPSE
  5
BA
330
90
100
AcDbEntity
  8
AM_9
100
AcDbEllipse
 10
0.0000000000000046
 20
2.040003063723197
 30
0.0
 11
0.1050000000000045
 21
0.0
 31
0.0
210
0.0
220
0.0
230
1.0
 40
0.7071067811865654
 41
3.141592653589793
 42
3.665191429188143
  0
ELLIPSE
  5
BB
330
90
100
AcDbEntity
  8
AM_9
100
AcDbEllipse
 10
0.000000000000102
 20
1.99598787391212
 30
0.0
 11
0.1188200907347864
 21
0.0
 31
0.0
210
0.0
220
0.0
230
1.0
 40
0.7071067811862528
 41
0.3762206260999204
 42
0.4429110440727552
  0
ELLIPSE
  5
BC
330
90
100
AcDbEntity
  8
AM_9
100
AcDbEllipse
 10
0.0000000000000002
 20
1.957496570670384
 30
0.0
 11
0.1725340532830153
 21
0.0
 31
0.0
210
0.0
220
0.0
230
1.0
 40
0.7071067811865583
 41
0.7772913431421635
 42
1.407862057867263
  0
LINE
  5
BD
330
90
100
AcDbEntity
  8
AM_9
100
AcDbLine
 10
-0.0192743186691526
 20
2.078893587231666
 30
0.0
 11
-0.0279874918769163
 21
2.077880747040675
 31
0.0
  0
LINE
  5
BE
330
90
100
AcDbEntity
  8
AM_9
100
AcDbLine
 10
0.0279874918769166
 20
2.077880747040675
 30
0.0
 11
0.0192743186691529
 21
2.078893587231666
 31
0.0
  0
ELLIPSE
  5
BF
330
90
100
AcDbEntity
  8
AM_9
100
AcDbEllipse
 10
0.0000000000000001
 20
1.995987873911987
 30
0.0
 11
0.1188200907348873
 21
0.0
 31
0.0
210
0.0
220
0.0
230
1.0
 40
0.7071067811866185
 41
1.407862057867248
 42
1.733730595722544
  0
ELLIPSE
  5
C0
330
90
100
AcDbEntity
  8
AM_9
100
AcDbEllipse
 10
-0.0000000000000007
 20
1.995987873911989
 30
0.0
 11
0.1188200907348963
 21
0.0
 31
0.0
210
0.0
220
0.0
230
1.0
 40
0.7071067811865445
 41
1.733730595722523
 42
2.698681609516158
  0
ELLIPSE
  5
C1
330
90
100
AcDbEntity
  8
AM_9
100
AcDbEllipse
 10
0.0000000000000001
 20
1.957496570670383
 30
0.0
 11
0.1725340532830195
 21
0.0
 31
0.0
210
0.0
220
0.0
230
1.0
 40
0.7071067811865475
 41
1.407862057867267
 42
2.364301310447617
  0
ELLIPSE
  5
C2
330
90
100
AcDbEntity
  8
AM_9
100
AcDbEllipse
 10
0.0000000000000001
 20
2.082429470594383
 30
0.0
 11
0.1350000000000005
 21
0.0
 31
0.0
210
0.0
220
0.0
230
1.0
 40
0.707106781186549
 41
0.4159140521025488
 42
2.725678601487244
  0
ELLIPSE
  5
C3
330
90
100
AcDbEntity
  8
AM_9
100
AcDbEllipse
 10
-0.0000000000000001
 20
1.712410924871371
 30
0.0
 11
0.1986176267812158
 21
2.959633272606370E-9
 31
0.0
210
0.0
220
0.0
230
1.0
 40
0.7071067811865486
 41
0.0
 42
6.283185307179586
  0
LWPOLYLINE
  5
C5
330
90
100
AcDbEntity
  8
AM_4
100
AcDbPolyline
 90
        3
 70
     0
 43
0.0
 10
0.2187500000000001
 20
2.027436200567415
 10
0.1643083897258505
 20
2.054366329161277
 10
0.1325008823086766
 20
2.068751346208881
  0
LWPOLYLINE
  5
C6
330
90
100
AcDbEntity
  8
AM_4
100
AcDbPolyline
 90
        3
 70
     0
 43
0.0
 10
-0.1328887090641434
 20
2.068582650276499
 10
-0.1640624999999999
 20
2.054481664403659
 10
-0.2187499999999999
 20
2.027436200567415
  0
ELLIPSE
  5
C7
330
90
100
AcDbEntity
  8
AM_4
100
AcDbEllipse
 10
0.0000000000000006
 20
1.944543648263007
 30
0.0
 11
0.2187500000000006
 21
0.0
 31
0.0
210
0.0
220
0.0
230
1.0
 40
0.7071067811865442
 41
2.225899051875049
 42
3.141592653589793
  0
ELLIPSE
  5
C8
330
90
100
AcDbEntity
  8
AM_4
100
AcDbEllipse
 10
0.0000000000000002
 20
1.944543648263006
 30
0.0
 11
0.2187500000000001
 21
0.0
 31
0.0
210
0.0
220
0.0
230
1.0
 40
0.7071067811865437
 41
3.141592653589793
 42
5.235987755982988
  0
ELLIPSE
  5
C9
330
90
100
AcDbEntity
  8
AM_4
100
AcDbEllipse
 10
0.0
 20
1.944543648263005
 30
0.0
 11
0.21875
 21
0.0
 31
0.0
210
0.0
220
0.0
230
1.0
 40
0.707106781186545
 41
5.23598775598299
 42
6.283185307179586
  0
ELLIPSE
  5
CA
330
90
100
AcDbEntity
  8
AM_4
100
AcDbEllipse
 10
-0.0000000000000005
 20
1.944543648263007
 30
0.0
 11
0.2187500000000006
 21
0.0
 31
0.0
210
0.0
220
0.0
230
1.0
 40
0.7071067811865461
 41
0.0
 42
0.9156936017147408
  0
ELLIPSE
  5
CB
330
90
100
AcDbEntity
  8
AM_4
100
AcDbEllipse
 10
-0.0000000000000001
 20
1.995987873911988
 30
0.0
 11
0.1188200907348972
 21
1.770557325108309E-9
 31
0.0
210
0.0
220
0.0
230
1.0
 40
0.7071067811865461
 41
2.765372007837782
 42
4.71238896984798
  0
ELLIPSE
  5
CC
330
90
100
AcDbEntity
  8
AM_4
100
AcDbEllipse
 10
-0.0000000000000001
 20
1.944543648263006
 30
0.0
 11
0.2137499999999999
 21
0.0
 31
0.0
210
0.0
220
0.0
230
1.0
 40
0.7071067811865459
 41
2.23793743474943
 42
4.71238898038469
  0
ELLIPSE
  5
CD
330
90
100
AcDbEntity
  8
AM_4
100
AcDbEllipse
 10
0.0000000000000002
 20
1.944543648263006
 30
0.0
 11
0.2137499999999999
 21
3.185123205184936E-9
 31
0.0
210
0.0
220
0.0
230
1.0
 40
0.7071067811865468
 41
4.712388969847977
 42
7.186840511449336
  0
ELLIPSE
  5
CE
330
90
100
AcDbEntity
  8
AM_4
100
AcDbEllipse
 10
0.0000000000000002
 20
2.018789860287594
 30
0.0
 11
0.1049999999999998
 21
0.0
 31
0.0
210
0.0
220
0.0
230
1.0
 40
0.7071067811865464
 41
3.141592653589793
 42
6.283185307179586
  0
LINE
  5
CF
330
90
100
AcDbEntity
  8
AM_4
100
AcDbLine
 10
0.1050000000000001
 20
2.018789860287594
 30
0.0
 11
0.1050000000000001
 21
2.020108851170132
 31
0.0
  0
LINE
  5
D0
330
90
100
AcDbEntity
  8
AM_4
100
AcDbLine
 10
-0.1049999999999999
 20
2.020108851170132
 30
0.0
 11
-0.1049999999999999
 21
2.018789860287594
 31
0.0
  0
ELLIPSE
  5
D1
330
90
100
AcDbEntity
  8
AM_4
100
AcDbEllipse
 10
0.0000000000000003
 20
1.995987873911988
 30
0.0
 11
0.1188200907348973
 21
1.770557325108309E-9
 31
0.0
210
0.0
220
0.0
230
1.0
 40
0.7071067811865441
 41
4.712388969847977
 42
6.659405913629421
  0
ELLIPSE
  5
D2
330
90
100
AcDbEntity
  8
AM_4
100
AcDbEllipse
 10
0.0000000000000001
 20
1.957496570670386
 30
0.0
 11
0.1725340532830154
 21
0.0
 31
0.0
210
0.0
220
0.0
230
1.0
 40
0.7071067811865475
 41
4.71238898038469
 42
7.060476650321747
  0
ELLIPSE
  5
D3
330
90
100
AcDbEntity
  8
AM_4
100
AcDbEllipse
 10
0.0000000000000001
 20
1.957496570670386
 30
0.0
 11
0.1725340532830154
 21
0.0
 31
0.0
210
0.0
220
0.0
230
1.0
 40
0.7071067811865477
 41
2.364301310447633
 42
4.71238898038469
  0
LWPOLYLINE
  5
D4
330
90
100
AcDbEntity
  8
AM_4
100
AcDbPolyline
 90
        3
 70
     0
 43
0.0
 10
-0.1093749999999999
 20
1.810587177954551
 10
-0.0546874999999999
 20
1.786568723786749
 10
0.0000000000000001
 20
1.759523259950505
  0
LWPOLYLINE
  5
D5
330
90
100
AcDbEntity
  8
AM_4
100
AcDbPolyline
 90
        3
 70
     0
 43
0.0
 10
-0.2187499999999999
 20
1.848827573489475
 10
-0.1643083897258503
 20
1.831306313434294
 10
-0.1093749999999999
 20
1.810587177954551
  0
LINE
  5
D6
330
90
100
AcDbEntity
  8
AM_4
100
AcDbLine
 10
-0.2187499999999999
 20
2.027436200567415
 30
0.0
 11
-0.2187499999999999
 21
1.790940417839943
 31
0.0
  0
LWPOLYLINE
  5
D7
330
90
100
AcDbEntity
  8
AM_4
100
AcDbPolyline
 90
        3
 70
     0
 43
0.0
 10
-0.1093749999999999
 20
1.739876499835897
 10
-0.1640624999999999
 20
1.763894954003699
 10
-0.2187499999999999
 20
1.790940417839943
  0
LWPOLYLINE
  5
D8
330
90
100
AcDbEntity
  8
AM_4
100
AcDbPolyline
 90
        3
 70
     0
 43
0.0
 10
0.0000000000000001
 20
1.701636104300973
 10
-0.0544416102741495
 20
1.719157364356154
 10
-0.1093749999999999
 20
1.739876499835897
  0
LINE
  5
D9
330
90
100
AcDbEntity
  8
AM_4
100
AcDbLine
 10
0.2187500000000001
 20
2.027436200567415
 30
0.0
 11
0.2187500000000001
 21
1.790940417839943
 31
0.0
  0
LWPOLYLINE
  5
DA
330
90
100
AcDbEntity
  8
AM_4
100
AcDbPolyline
 90
        3
 70
     0
 43
0.0
 10
0.109375
 20
1.810587177954551
 10
0.1640625000000001
 20
1.831220880556234
 10
0.2187500000000001
 20
1.848827573489475
  0
LWPOLYLINE
  5
DB
330
90
100
AcDbEntity
  8
AM_4
100
AcDbPolyline
 90
        3
 70
     0
 43
0.0
 10
0.0000000000000001
 20
1.759523259950505
 10
0.0544416102741497
 20
1.786453388544367
 10
0.109375
 20
1.810587177954551
  0
LINE
  5
DC
330
90
100
AcDbEntity
  8
AM_4
100
AcDbLine
 10
0.0000000000000001
 20
1.759523259950505
 30
0.0
 11
0.0000000000000001
 21
1.701636104300973
 31
0.0
  0
LWPOLYLINE
  5
DD
330
90
100
AcDbEntity
  8
AM_4
100
AcDbPolyline
 90
        3
 70
     0
 43
0.0
 10
0.1093750000000001
 20
1.739876499835897
 10
0.0546875000000001
 20
1.719242797234213
 10
0.0000000000000001
 20
1.701636104300973
  0
LWPOLYLINE
  5
DE
330
90
100
AcDbEntity
  8
AM_4
100
AcDbPolyline
 90
        3
 70
     0
 43
0.0
 10
0.2187500000000001
 20
1.790940417839943
 10
0.1643083897258505
 20
1.76401028924608
 10
0.1093750000000001
 20
1.739876499835897
  0
ELLIPSE
  5
DF
330
90
100
AcDbEntity
  8
AM_4
100
AcDbEllipse
 10
0.0000000000000004
 20
2.04000306372319
 30
0.0
 11
0.1049999999999998
 21
0.0
 31
0.0
210
0.0
220
0.0
230
1.0
 40
0.7071067811865465
 41
4.71238898038469
 42
5.75958653158129
  0
LINE
  5
E0
330
90
100
AcDbEntity
  8
AM_4
100
AcDbLine
 10
0.0909326673973662
 20
2.002879957710896
 30
0.0
 11
0.1169134295108994
 21
2.034699762864291
 31
0.0
  0
LINE
  5
E1
330
90
100
AcDbEntity
  8
AM_4
100
AcDbLine
 10
-0.1169134295108991
 20
2.034699762864291
 30
0.0
 11
-0.0909326673973659
 21
2.002879957710896
 31
0.0
  0
ELLIPSE
  5
E2
330
90
100
AcDbEntity
  8
AM_4
100
AcDbEllipse
 10
0.0000000000000007
 20
2.082429470594383
 30
0.0
 11
0.1350000000000009
 21
0.0
 31
0.0
210
0.0
220
0.0
230
1.0
 40
0.7071067811865434
 41
2.725678601487248
 42
6.699099359282137
  0
ELLIPSE
  5
E3
330
90
100
AcDbEntity
  8
AM_4
100
AcDbEllipse
 10
-0.0000000000000002
 20
2.04000306372319
 30
0.0
 11
0.1049999999999998
 21
1.564621925354001E-9
 31
0.0
210
0.0
220
0.0
230
1.0
 40
0.7071067811865465
 41
3.665191410748843
 42
4.712388969847981
  0
LINE
  5
E4
330
90
100
AcDbEntity
  8
AM_4
100
AcDbLine
 10
-0.0939243440009286
 20
2.168332030453081
 30
0.0
 11
-0.1234908992236334
 21
2.120997577943192
 31
0.0
  0
LINE
  5
E5
330
90
100
AcDbEntity
  8
AM_4
100
AcDbLine
 10
0.1234908992236336
 20
2.120997577943192
 30
0.0
 11
0.0939243440009289
 21
2.168332030453081
 31
0.0
  0
ELLIPSE
  5
E6
330
90
100
AcDbEntity
  8
AM_4
100
AcDbEllipse
 10
0.0000000000000001
 20
2.138998013089307
 30
0.0
 11
0.1026779019331876
 21
0.0
 31
0.0
210
0.0
220
0.0
230
1.0
 40
0.7071067811865458
 41
0.0
 42
6.283185307179586
  0
ENDBLK
  5
93
330
90
100
AcDbEntity
  8
0
100
AcDbBlockEnd
  0
BLOCK
  5
E9
330
E7
100
AcDbEntity
  8
0
100
AcDbBlockBegin
  2
3_131928_0_in_131820_2
 70
     2
 10
0.0
 20
0.0
 30
0.0
  3
3_131928_0_in_131820_2
  1

  0
ATTDEF
  5
EB
330
E7
100
AcDbEntity
  8
AM_6
100
AcDbText
 10
5.9
 20
2.165146763475032
 30
0.0
 40
0.5
  1
Eccentric Collar Insert Inch Bore
100
AcDbAttributeDefinition
  3

  2
NN
 70
     8
280
     0
  0
ATTDEF
  5
EC
330
E7
100
AcDbEntity
  8
AM_6
100
AcDbText
 10
5.9
 20
1.665146763475032
 30
0.0
 40
0.5
  1
SXR Normal Duty Bearing Inserts
100
AcDbAttributeDefinition
  3

  2
NT
 70
     8
280
     0
  0
ATTDEF
  5
ED
330
E7
100
AcDbEntity
  8
AM_6
100
AcDbText
 10
5.9
 20
1.165146763475032
 30
0.0
 40
0.5
  1
131928
100
AcDbAttributeDefinition
  3

  2
NB
 70
     8
280
     0
  0
ATTDEF
  5
EE
330
E7
100
AcDbEntity
  8
AM_6
100
AcDbText
 10
5.9
 20
0.6651467634750317
 30
0.0
 40
0.5
  1
$PN.
100
AcDbAttributeDefinition
  3

  2
NBSYN
 70
     8
280
     0
  0
ATTDEF
  5
EF
330
E7
100
AcDbEntity
  8
AM_6
100
AcDbText
 10
5.9
 20
0.1651467634750317
 30
0.0
 40
0.5
  1
131928
100
AcDbAttributeDefinition
  3

  2
LINA
 70
     8
280
     0
  0
ATTDEF
  5
F0
330
E7
100
AcDbEntity
  8
AM_6
100
AcDbText
 10
5.9
 20
-0.3348532365249683
 30
0.0
 40
0.5
  1
212
100
AcDbAttributeDefinition
  3

  2
SERIES
 70
     8
280
     0
  0
ATTDEF
  5
F1
330
E7
100
AcDbEntity
  8
AM_6
100
AcDbText
 10
5.9
 20
-0.8348532365249683
 30
0.0
 40
0.5
  1
2-1/4
100
AcDbAttributeDefinition
  3

  2
SS
 70
     8
280
     0
  0
ATTDEF
  5
F2
330
E7
100
AcDbEntity
  8
AM_6
100
AcDbText
 10
5.9
 20
-1.334853236524968
 30
0.0
 40
0.5
  1
131928
100
AcDbAttributeDefinition
  3

  2
PN
 70
     8
280
     0
  0
ATTDEF
  5
F3
330
E7
100
AcDbEntity
  8
AM_6
100
AcDbText
 10
5.9
 20
-1.834853236524968
 30
0.0
 40
0.5
  1
INS-SXR-204
100
AcDbAttributeDefinition
  3

  2
DESCRIPTION
 70
     8
280
     0
  0
ATTDEF
  5
F4
330
E7
100
AcDbEntity
  8
AM_6
100
AcDbText
 10
5.9
 20
-2.334853236524968
 30
0.0
 40
0.5
  1
3.8
100
AcDbAttributeDefinition
  3

  2
WEIGHT
 70
     8
280
     0
  0
ATTDEF
  5
F5
330
E7
100
AcDbEntity
  8
AM_6
100
AcDbText
 10
5.9
 20
-2.834853236524968
 30
0.0
 40
0.5
  1
2.74
100
AcDbAttributeDefinition
  3

  2
A
 70
     8
280
     0
  0
ATTDEF
  5
F6
330
E7
100
AcDbEntity
  8
AM_6
100
AcDbText
 10
5.9
 20
-3.334853236524968
 30
0.0
 40
0.5
  1
1.02
100
AcDbAttributeDefinition
  3

  2
C
 70
     8
280
     0
  0
ATTDEF
  5
F7
330
E7
100
AcDbEntity
  8
AM_6
100
AcDbText
 10
5.9
 20
-3.834853236524968
 30
0.0
 40
0.5
  1
4.3307
100
AcDbAttributeDefinition
  3

  2
D
 70
     8
280
     0
  0
ATTDEF
  5
F8
330
E7
100
AcDbEntity
  8
AM_6
100
AcDbText
 10
5.9
 20
-4.334853236524968
 30
0.0
 40
0.5
  1
0.25
100
AcDbAttributeDefinition
  3

  2
J
 70
     8
280
     0
  0
ATTDEF
  5
F9
330
E7
100
AcDbEntity
  8
AM_6
100
AcDbText
 10
5.9
 20
-4.834853236524968
 30
0.0
 40
0.5
  1
3.31
100
AcDbAttributeDefinition
  3

  2
L
 70
     8
280
     0
  0
ATTDEF
  5
FA
330
E7
100
AcDbEntity
  8
AM_6
100
AcDbText
 10
5.9
 20
-5.334853236524968
 30
0.0
 40
0.5
  1
7/16-20
100
AcDbAttributeDefinition
  3

  2
N
 70
     8
280
     0
  0
ATTDEF
  5
FB
330
E7
100
AcDbEntity
  8
AM_6
100
AcDbText
 10
5.9
 20
-5.834853236524968
 30
0.0
 40
0.5
  1
0.90
100
AcDbAttributeDefinition
  3

  2
W
 70
     8
280
     0
  0
ATTDEF
  5
FC
330
E7
100
AcDbEntity
  8
AM_6
100
AcDbText
 10
5.9
 20
-6.334853236524968
 30
0.0
 40
0.5
  1
1.84
100
AcDbAttributeDefinition
  3

  2
Y
 70
     8
280
     0
  0
ATTDEF
  5
FD
330
E7
100
AcDbEntity
  8
AM_6
100
AcDbText
 10
5.9
 20
-6.834853236524968
 30
0.0
 40
0.5
  1
2.97
100
AcDbAttributeDefinition
  3

  2
Z
 70
     8
280
     0
  0
ATTDEF
  5
FE
330
E7
100
AcDbEntity
  8
AM_6
100
AcDbText
 10
5.9
 20
-7.334853236524968
 30
0.0
 40
0.5
  1
baldor
100
AcDbAttributeDefinition
  3

  2
COMPANY
 70
     8
280
     0
  0
LINE
  5
FF
330
E7
100
AcDbEntity
  8
AM_9
100
AcDbLine
 10
-1.310025
 20
1.65082963641735
 30
0.0
 11
-1.305854636417351
 21
1.655
 31
0.0
  0
LINE
  5
100
330
E7
100
AcDbEntity
  8
AM_9
100
AcDbLine
 10
-1.71789536358265
 20
1.655
 30
0.0
 11
-1.713725
 21
1.65082963641735
 31
0.0
  0
LINE
  5
101
330
E7
100
AcDbEntity
  8
AM_9
100
AcDbLine
 10
-1.347689400832957
 20
1.65082963641735
 30
0.0
 11
-1.310025
 21
1.65082963641735
 31
0.0
  0
LINE
  5
102
330
E7
100
AcDbEntity
  8
AM_9
100
AcDbLine
 10
-1.310025
 20
1.125
 30
0.0
 11
-1.310025
 21
1.65082963641735
 31
0.0
  0
LINE
  5
103
330
E7
100
AcDbEntity
  8
AM_9
100
AcDbLine
 10
-1.713725
 20
1.65082963641735
 30
0.0
 11
-1.713725
 21
1.125
 31
0.0
  0
LINE
  5
104
330
E7
100
AcDbEntity
  8
AM_9
100
AcDbLine
 10
-1.713725
 20
1.65082963641735
 30
0.0
 11
-1.676060599167043
 21
1.65082963641735
 31
0.0
  0
LWPOLYLINE
  5
105
330
E7
100
AcDbEntity
  8
AM_9
100
AcDbPolyline
 90
       20
 70
     0
 43
0.0
 10
-1.713725
 20
1.125
 10
-1.710991612703312
 20
1.124512784700308
 10
-1.702556499673573
 20
1.123049870583565
 10
-1.689149329472224
 20
1.120851357401965
 10
-1.670402583072401
 20
1.118039611147466
 10
-1.647620256690727
 20
1.115037377047976
 10
-1.62030523062117
 20
1.112042576708536
 10
-1.590490731782214
 20
1.109532338773257
 10
-1.55746853420799
 20
1.107682421934001
 10
-1.524424513420108
 20
1.106814829945408
 10
-1.490035572376958
 20
1.106959140212005
 10
-1.457629772618434
 20
1.108072254951669
 10
-1.425849315386719
 20
1.110081977113935
 10
-1.397153598404022
 20
1.112673616782633
 10
-1.370893999051623
 20
1.115686882654989
 10
-1.34891492144461
 20
1.118676702493969
 10
-1.330991048552005
 20
1.121427920729389
 10
-1.318626318528604
 20
1.123488598246744
 10
-1.311499475503529
 20
1.124736381698946
 10
-1.310025000001088
 20
1.124999999999805
  0
LINE
  5
106
330
E7
100
AcDbEntity
  8
AM_9
100
AcDbLine
 10
-1.8196
 20
-1.125
 30
0.0
 11
-1.198174978336205
 21
-1.125
 31
0.0
  0
LINE
  5
107
330
E7
100
AcDbEntity
  8
AM_9
100
AcDbLine
 10
-1.198174978336205
 20
1.125
 30
0.0
 11
-1.310025
 21
1.125
 31
0.0
  0
LINE
  5
108
330
E7
100
AcDbEntity
  8
AM_9
100
AcDbLine
 10
-1.713725000000001
 20
1.125
 30
0.0
 11
-1.8196
 21
1.125
 31
0.0
  0
LINE
  5
109
330
E7
100
AcDbEntity
  8
AM_9
100
AcDbLine
 10
-1.169325021663795
 20
-1.125
 30
0.0
 11
-0.3554999999999999
 21
-1.125
 31
0.0
  0
LINE
  5
10A
330
E7
100
AcDbEntity
  8
AM_9
100
AcDbLine
 10
-0.3554999999999996
 20
1.125
 30
0.0
 11
-1.169325021663795
 21
1.125
 31
0.0
  0
LINE
  5
10B
330
E7
100
AcDbEntity
  8
AM_9
100
AcDbLine
 10
0.8795999999999998
 20
1.125
 30
0.0
 11
0.7924032079646021
 21
1.125
 31
0.0
  0
LINE
  5
10C
330
E7
100
AcDbEntity
  8
AM_9
100
AcDbLine
 10
-1.198174978336205
 20
-1.125
 30
0.0
 11
-1.183750000000001
 21
-1.139424978336206
 31
0.0
  0
LINE
  5
10D
330
E7
100
AcDbEntity
  8
AM_9
100
AcDbLine
 10
-1.183750000000001
 20
1.139424978336206
 30
0.0
 11
-1.198174978336205
 21
1.125
 31
0.0
  0
LINE
  5
10E
330
E7
100
AcDbEntity
  8
AM_9
100
AcDbLine
 10
-1.198174978336205
 20
1.125
 30
0.0
 11
-1.198174978336205
 21
-1.125
 31
0.0
  0
LINE
  5
10F
330
E7
100
AcDbEntity
  8
AM_9
100
AcDbLine
 10
-1.169325021663795
 20
1.125
 30
0.0
 11
-1.183750000000001
 21
1.139424978336206
 31
0.0
  0
LINE
  5
110
330
E7
100
AcDbEntity
  8
AM_9
100
AcDbLine
 10
-1.183750000000001
 20
-1.139424978336206
 30
0.0
 11
-1.169325021663795
 21
-1.125
 31
0.0
  0
LINE
  5
111
330
E7
100
AcDbEntity
  8
AM_9
100
AcDbLine
 10
-1.169325021663795
 20
1.125
 30
0.0
 11
-1.169325021663795
 21
-1.125
 31
0.0
  0
LINE
  5
112
330
E7
100
AcDbEntity
  8
AM_9
100
AcDbLine
 10
-1.183750000000001
 20
1.139424978336206
 30
0.0
 11
-1.183750000000001
 21
-1.139424978336206
 31
0.0
  0
LINE
  5
113
330
E7
100
AcDbEntity
  8
AM_9
100
AcDbLine
 10
0.8795999999999998
 20
-1.125
 30
0.0
 11
0.8999999999999999
 21
-1.1454
 31
0.0
  0
LINE
  5
114
330
E7
100
AcDbEntity
  8
AM_9
100
AcDbLine
 10
0.8999999999999999
 20
1.1454
 30
0.0
 11
0.8795999999999998
 21
1.125
 31
0.0
  0
LINE
  5
115
330
E7
100
AcDbEntity
  8
AM_9
100
AcDbLine
 10
-1.8196
 20
1.125
 30
0.0
 11
-1.84
 21
1.1454
 31
0.0
  0
LINE
  5
116
330
E7
100
AcDbEntity
  8
AM_9
100
AcDbLine
 10
-1.84
 20
-1.1454
 30
0.0
 11
-1.8196
 21
-1.125
 31
0.0
  0
LINE
  5
117
330
E7
100
AcDbEntity
  8
AM_9
100
AcDbLine
 10
-1.8196
 20
1.125
 30
0.0
 11
-1.8196
 21
-1.125
 31
0.0
  0
LINE
  5
118
330
E7
100
AcDbEntity
  8
AM_9
100
AcDbLine
 10
-1.09625
 20
-1.414285714285714
 30
0.0
 11
-1.0525
 21
-1.414285714285714
 31
0.0
  0
LINE
  5
119
330
E7
100
AcDbEntity
  8
AM_9
100
AcDbLine
 10
-1.0525
 20
-1.4646
 30
0.0
 11
-1.0321
 21
-1.485
 31
0.0
  0
LINE
  5
11A
330
E7
100
AcDbEntity
  8
AM_9
100
AcDbLine
 10
-1.0525
 20
-0.8591983122362905
 30
0.0
 11
-1.0525
 21
-1.4646
 31
0.0
  0
LINE
  5
11B
330
E7
100
AcDbEntity
  8
AM_9
100
AcDbLine
 10
0.8796
 20
-1.485
 30
0.0
 11
0.8999999999999999
 21
-1.4646
 31
0.0
  0
LINE
  5
11C
330
E7
100
AcDbEntity
  8
AM_9
100
AcDbLine
 10
0.9000000000000001
 20
0.3041772151898751
 30
0.0
 11
0.8999999999999999
 21
-1.4646
 31
0.0
  0
LINE
  5
11D
330
E7
100
AcDbEntity
  8
AM_9
100
AcDbLine
 10
-1.0321
 20
-1.485
 30
0.0
 11
-0.51
 21
-1.485
 31
0.0
  0
LINE
  5
11E
330
E7
100
AcDbEntity
  8
AM_9
100
AcDbLine
 10
-0.51
 20
1.485
 30
0.0
 11
-0.7452129424778761
 21
1.485
 31
0.0
  0
LINE
  5
11F
330
E7
100
AcDbEntity
  8
AM_9
100
AcDbLine
 10
-1.0321
 20
-0.7035729957805953
 30
0.0
 11
-1.0321
 21
-1.485
 31
0.0
  0
LINE
  5
120
330
E7
100
AcDbEntity
  8
AM_9
100
AcDbLine
 10
0.51
 20
-1.485
 30
0.0
 11
0.8796
 21
-1.485
 31
0.0
  0
LINE
  5
121
330
E7
100
AcDbEntity
  8
AM_9
100
AcDbLine
 10
0.7452129424778762
 20
1.485
 30
0.0
 11
0.51
 21
1.485
 31
0.0
  0
LINE
  5
122
330
E7
100
AcDbEntity
  8
AM_9
100
AcDbLine
 10
0.8796000000000003
 20
0.4598025316455685
 30
0.0
 11
0.8796
 21
-1.485
 31
0.0
  0
LINE
  5
123
330
E7
100
AcDbEntity
  8
AM_9
100
AcDbLine
 10
-1.09625
 20
-1.192953586497892
 30
0.0
 11
-1.09625
 21
-1.6003125
 31
0.0
  0
ARC
  5
124
330
E7
100
AcDbEntity
  8
AM_9
100
AcDbCircle
 10
-1.150937500000001
 20
-1.6003125
 30
0.0
 40
0.0546875000000004
100
AcDbArc
 50
270.0
 51
0.0000008537736463
  0
LINE
  5
125
330
E7
100
AcDbEntity
  8
AM_9
100
AcDbLine
 10
-1.156816924778761
 20
-1.655
 30
0.0
 11
-1.150937500000001
 21
-1.655
 31
0.0
  0
LINE
  5
126
330
E7
100
AcDbEntity
  8
AM_9
100
AcDbLine
 10
-1.150937500000001
 20
-1.610147679324904
 30
0.0
 11
-1.150937500000001
 21
-1.655
 31
0.0
  0
LINE
  5
127
330
E7
100
AcDbEntity
  8
AM_9
100
AcDbLine
 10
-0.2999999999999999
 20
-2.062238095238095
 30
0.0
 11
-0.2
 21
-2.062238095238095
 31
0.0
  0
LINE
  5
128
330
E7
100
AcDbEntity
  8
AM_9
100
AcDbLine
 10
-0.2
 20
2.062238095238095
 30
0.0
 11
-0.2999999999999999
 21
2.062238095238095
 31
0.0
  0
LINE
  5
129
330
E7
100
AcDbEntity
  8
AM_9
100
AcDbLine
 10
0.51
 20
2.072091711894047
 30
0.0
 11
0.51
 21
-2.072091711894047
 31
0.0
  0
ARC
  5
12A
330
E7
100
AcDbEntity
  8
AM_9
100
AcDbCircle
 10
0.4691999999999998
 20
-2.072091711894046
 30
0.0
 40
0.0408000000000005
100
AcDbArc
 50
282.7587776488096
 51
0.0
  0
ARC
  5
12B
330
E7
100
AcDbEntity
  8
AM_9
100
AcDbCircle
 10
0.4691999999999998
 20
2.072091711894046
 30
0.0
 40
0.0408000000000002
100
AcDbArc
 50
0.0
 51
77.24122235119039
  0
LINE
  5
12C
330
E7
100
AcDbEntity
  8
AM_9
100
AcDbLine
 10
-0.51
 20
2.072091711894046
 30
0.0
 11
-0.51
 21
-2.072091711894046
 31
0.0
  0
ARC
  5
12D
330
E7
100
AcDbEntity
  8
AM_9
100
AcDbCircle
 10
-0.4691999999999993
 20
-2.072091711894046
 30
0.0
 40
0.0408000000000007
100
AcDbArc
 50
180.0
 51
257.2412274165244
  0
ARC
  5
12E
330
E7
100
AcDbEntity
  8
AM_9
100
AcDbCircle
 10
-0.4691999999999993
 20
2.072091711894046
 30
0.0
 40
0.0408000000000009
100
AcDbArc
 50
102.7587725834756
 51
180.0
  0
ARC
  5
12F
330
E7
100
AcDbEntity
  8
AM_9
100
AcDbCircle
 10
-0.0000000000000491
 20
0.0000000000002576
 30
0.0
 40
2.165349999999738
100
AcDbArc
 50
97.9637027408641
 51
102.7587725834743
  0
ARC
  5
130
330
E7
100
AcDbEntity
  8
AM_9
100
AcDbCircle
 10
0.0000000000394022
 20
0.000000000215683
 30
0.0
 40
2.165350000218869
100
AcDbArc
 50
257.2412274167684
 51
262.036297258893
  0
LINE
  5
131
330
E7
100
AcDbEntity
  8
AM_9
100
AcDbLine
 10
-0.4782105481160722
 20
2.111884299428008
 30
0.0
 11
-0.4782105481160722
 21
-2.111884299427813
 31
0.0
  0
LINE
  5
132
330
E7
100
AcDbEntity
  8
AM_9
100
AcDbLine
 10
-0.2999999999999999
 20
2.144467444961569
 30
0.0
 11
-0.2999999999999999
 21
-2.144467444961375
 31
0.0
  0
LWPOLYLINE
  5
133
330
E7
100
AcDbEntity
  8
AM_9
100
AcDbPolyline
 90
        4
 70
     0
 43
0.0
 10
0.3953194475931074
 20
-0.012231895288356
 10
0.3922544229506224
 20
-0.0320432300310198
 10
0.3849346730022767
 20
-0.0553172227509643
 10
0.3689563888889849
 20
-0.0843607648946109
  0
LWPOLYLINE
  5
134
330
E7
100
AcDbEntity
  8
AM_9
100
AcDbPolyline
 90
        4
 70
     0
 43
0.0
 10
0.3943968746432161
 20
0.0204182199121886
 10
0.3948708463729055
 20
0.016597297608426
 10
0.3956209845372832
 20
-0.0078670180820635
 10
0.3953194475931074
 20
-0.012231895288356
  0
LWPOLYLINE
  5
135
330
E7
100
AcDbEntity
  8
AM_9
100
AcDbPolyline
 90
        4
 70
     0
 43
0.0
 10
0.3689563888889777
 20
0.084360764894621
 10
0.3813317062160465
 20
0.0633649779810566
 10
0.390070322625952
 20
0.0405914502151976
 10
0.3943968746432161
 20
0.0204182199121886
  0
ARC
  5
136
330
E7
100
AcDbEntity
  8
AM_9
100
AcDbCircle
 10
0.0000000000000023
 20
0.000000000000024
 30
0.0
 40
2.165349999999976
100
AcDbArc
 50
77.24122732108373
 51
95.29961065194145
  0
ARC
  5
137
330
E7
100
AcDbEntity
  8
AM_9
100
AcDbCircle
 10
0.0000000000000586
 20
-0.0000000000008762
 30
0.0
 40
2.165349999999143
100
AcDbArc
 50
264.7003893480551
 51
282.7587726789198
  0
LINE
  5
138
330
E7
100
AcDbEntity
  8
AM_9
100
AcDbLine
 10
-0.1999999999999998
 20
2.156093834344878
 30
0.0
 11
-0.1999999999999998
 21
-2.156093834344889
 31
0.0
  0
LINE
  5
139
330
E7
100
AcDbEntity
  8
AM_9
100
AcDbLine
 10
0.4782105516340062
 20
2.111884298631414
 30
0.0
 11
0.4782105516340062
 21
-2.111884298631425
 31
0.0
  0
ELLIPSE
  5
13A
330
E7
100
AcDbEntity
  8
AM_9
100
AcDbEllipse
 10
0.2516134510123275
 20
0.0000000000000001
 30
0.0
 11
-2.666799353686854E-17
 21
-0.1451737951733557
 31
0.0
210
0.0
220
0.0
230
1.0
 40
0.9931951557595718
 41
2.190878302928522
 42
7.23389965784094
  0
ARC
  5
13B
330
E7
100
AcDbEntity
  8
AM_9
100
AcDbCircle
 10
0.249999999999999
 20
0.0
 30
0.0
 40
0.1458333333333345
100
AcDbArc
 50
324.6567295409753
 51
35.34327045902959
  0
LINE
  5
13D
330
E7
100
AcDbEntity
  8
AM_5
100
AcDbLine
 10
-1.293125000000001
 20
1.125
 30
0.0
 11
-1.293125000000001
 21
1.655
 31
0.0
  0
LINE
  5
13E
330
E7
100
AcDbEntity
  8
AM_5
100
AcDbLine
 10
-1.730625
 20
1.125
 30
0.0
 11
-1.730625
 21
1.655
 31
0.0
  0
LINE
  5
141
330
E7
100
AcDbEntity
  8
AM_7
100
AcDbLine
 10
-1.511875
 20
1.697302232041312
 30
0.0
 11
-1.511875
 21
1.046705128314135
 31
0.0
  0
LINE
  5
142
330
E7
100
AcDbEntity
  8
AM_4
100
AcDbLine
 10
-1.0525
 20
1.414285714285714
 30
0.0
 11
-1.09625
 21
1.414285714285714
 31
0.0
  0
LINE
  5
143
330
E7
100
AcDbEntity
  8
AM_4
100
AcDbLine
 10
-1.0321
 20
1.485
 30
0.0
 11
-1.0525
 21
1.4646
 31
0.0
  0
LINE
  5
144
330
E7
100
AcDbEntity
  8
AM_4
100
AcDbLine
 10
-1.0525
 20
1.4646
 30
0.0
 11
-1.0525
 21
-0.8591983122362905
 31
0.0
  0
LINE
  5
145
330
E7
100
AcDbEntity
  8
AM_4
100
AcDbLine
 10
0.8999999999999999
 20
1.4646
 30
0.0
 11
0.8796
 21
1.485
 31
0.0
  0
LINE
  5
146
330
E7
100
AcDbEntity
  8
AM_4
100
AcDbLine
 10
0.8999999999999999
 20
1.4646
 30
0.0
 11
0.9000000000000001
 21
0.3041772151898751
 31
0.0
  0
LINE
  5
147
330
E7
100
AcDbEntity
  8
AM_4
100
AcDbLine
 10
-0.7452129424778761
 20
1.485
 30
0.0
 11
-1.0321
 21
1.485
 31
0.0
  0
LINE
  5
148
330
E7
100
AcDbEntity
  8
AM_4
100
AcDbLine
 10
-1.0321
 20
1.485
 30
0.0
 11
-1.0321
 21
-0.7035729957805953
 31
0.0
  0
LINE
  5
149
330
E7
100
AcDbEntity
  8
AM_4
100
AcDbLine
 10
0.8796
 20
1.485
 30
0.0
 11
0.7452129424778762
 21
1.485
 31
0.0
  0
LINE
  5
14A
330
E7
100
AcDbEntity
  8
AM_4
100
AcDbLine
 10
0.8796
 20
1.485
 30
0.0
 11
0.8796000000000003
 21
0.4598025316455685
 31
0.0
  0
LINE
  5
14B
330
E7
100
AcDbEntity
  8
AM_4
100
AcDbLine
 10
-1.84
 20
1.6003125
 30
0.0
 11
-1.84
 21
-1.6003125
 31
0.0
  0
ARC
  5
14C
330
E7
100
AcDbEntity
  8
AM_4
100
AcDbCircle
 10
-1.7853125
 20
-1.6003125
 30
0.0
 40
0.0546875000000004
100
AcDbArc
 50
179.9999991462263
 51
270.0
  0
ARC
  5
14D
330
E7
100
AcDbEntity
  8
AM_4
100
AcDbCircle
 10
-1.7853125
 20
1.6003125
 30
0.0
 40
0.0546875000000004
100
AcDbArc
 50
90.0
 51
179.9999991462263
  0
LINE
  5
14E
330
E7
100
AcDbEntity
  8
AM_4
100
AcDbLine
 10
-1.09625
 20
1.6003125
 30
0.0
 11
-1.09625
 21
-1.192953586497892
 31
0.0
  0
ARC
  5
14F
330
E7
100
AcDbEntity
  8
AM_4
100
AcDbCircle
 10
-1.150937500000001
 20
1.6003125
 30
0.0
 40
0.0546875000000004
100
AcDbArc
 50
0.0000008537736463
 51
90.0
  0
LWPOLYLINE
  5
150
330
E7
100
AcDbEntity
  8
AM_4
100
AcDbPolyline
 90
       12
 70
     0
 43
0.0
 10
-1.347689400832958
 20
1.65082963641735
 10
-1.369767992299939
 20
1.648781348093119
 10
-1.395860245043071
 20
1.646736469769136
 10
-1.425291007270112
 20
1.644928606471082
 10
-1.457187865408422
 20
1.64355476336806
 10
-1.490561347645692
 20
1.642787919191796
 10
-1.524542674972115
 20
1.642693534256831
 10
-1.557954150286002
 20
1.643295362230287
 10
-1.590070075032701
 20
1.644504803051475
 10
-1.620004486895144
 20
1.646202407499794
 10
-1.646918770475065
 20
1.64818639645039
 10
-1.676060599167043
 20
1.65082963641735
  0
LINE
  5
151
330
E7
100
AcDbEntity
  8
AM_4
100
AcDbLine
 10
-1.676060599167043
 20
1.65082963641735
 30
0.0
 11
-1.717895363582537
 21
1.654999999999988
 31
0.0
  0
LINE
  5
152
330
E7
100
AcDbEntity
  8
AM_4
100
AcDbLine
 10
-1.785312500000001
 20
-1.655
 30
0.0
 11
-1.156816924778761
 21
-1.655
 31
0.0
  0
LINE
  5
153
330
E7
100
AcDbEntity
  8
AM_4
100
AcDbLine
 10
-1.150937500000001
 20
1.655
 30
0.0
 11
-1.305854636417351
 21
1.655
 31
0.0
  0
LINE
  5
154
330
E7
100
AcDbEntity
  8
AM_4
100
AcDbLine
 10
-1.71789536358265
 20
1.655
 30
0.0
 11
-1.785312500000001
 21
1.655
 31
0.0
  0
LINE
  5
155
330
E7
100
AcDbEntity
  8
AM_4
100
AcDbLine
 10
-1.785312500000001
 20
1.655
 30
0.0
 11
-1.785312500000001
 21
-1.655
 31
0.0
  0
LINE
  5
156
330
E7
100
AcDbEntity
  8
AM_4
100
AcDbLine
 10
-1.305854636417464
 20
1.654999999999988
 30
0.0
 11
-1.347689400832957
 21
1.65082963641735
 31
0.0
  0
LINE
  5
157
330
E7
100
AcDbEntity
  8
AM_4
100
AcDbLine
 10
-1.150937500000001
 20
1.655
 30
0.0
 11
-1.150937500000001
 21
-1.610147679324904
 31
0.0
  0
ENDBLK
  5
EA
330
E7
100
AcDbEntity
  8
0
100
AcDbBlockEnd
  0
BLOCK
  5
15A
330
158
100
AcDbEntity
  8
0
100
AcDbBlockBegin
  2
4_131820H_0_in_131820_2
 70
     2
 10
0.0
 20
0.0
 30
0.0
  3
4_131820H_0_in_131820_2
  1

  0
ATTDEF
  5
15C
330
158
100
AcDbEntity
  8
AM_6
100
AcDbText
 10
6.3035
 20
2.650000000000003
 30
0.0
 40
0.5
  1
P2B-SXR -I-Housing
100
AcDbAttributeDefinition
  3

  2
NN
 70
     8
280
     0
  0
ATTDEF
  5
15D
330
158
100
AcDbEntity
  8
AM_6
100
AcDbText
 10
6.3035
 20
2.150000000000003
 30
0.0
 40
0.5
  1
Eccentric Collar Pillow Block Bearings -(Normal Duty)
100
AcDbAttributeDefinition
  3

  2
NT
 70
     8
280
     0
  0
ATTDEF
  5
15E
330
158
100
AcDbEntity
  8
AM_6
100
AcDbText
 10
6.3035
 20
1.650000000000003
 30
0.0
 40
0.5
  1
131820H
100
AcDbAttributeDefinition
  3

  2
NB
 70
     8
280
     0
  0
ATTDEF
  5
15F
330
158
100
AcDbEntity
  8
AM_6
100
AcDbText
 10
6.3035
 20
1.150000000000003
 30
0.0
 40
0.5
  1
$PN.H
100
AcDbAttributeDefinition
  3

  2
NBSYN
 70
     8
280
     0
  0
ATTDEF
  5
160
330
158
100
AcDbEntity
  8
AM_6
100
AcDbText
 10
6.3035
 20
0.6500000000000026
 30
0.0
 40
0.5
  1
131820
100
AcDbAttributeDefinition
  3

  2
LINA
 70
     8
280
     0
  0
ATTDEF
  5
161
330
158
100
AcDbEntity
  8
AM_6
100
AcDbText
 10
6.3035
 20
0.1500000000000026
 30
0.0
 40
0.5
  1
212
100
AcDbAttributeDefinition
  3

  2
SERIES
 70
     8
280
     0
  0
ATTDEF
  5
162
330
158
100
AcDbEntity
  8
AM_6
100
AcDbText
 10
6.3035
 20
-0.3499999999999974
 30
0.0
 40
0.5
  1
2-1/4
100
AcDbAttributeDefinition
  3

  2
SS
 70
     8
280
     0
  0
ATTDEF
  5
163
330
158
100
AcDbEntity
  8
AM_6
100
AcDbText
 10
6.3035
 20
-0.8499999999999974
 30
0.0
 40
0.5
  1
131820
100
AcDbAttributeDefinition
  3

  2
PN
 70
     8
280
     0
  0
ATTDEF
  5
164
330
158
100
AcDbEntity
  8
AM_6
100
AcDbText
 10
6.3035
 20
-1.349999999999997
 30
0.0
 40
0.5
  1
P2B-SXR-204
100
AcDbAttributeDefinition
  3

  2
DESCRIPTION
 70
     8
280
     0
  0
ATTDEF
  5
165
330
158
100
AcDbEntity
  8
AM_6
100
AcDbText
 10
6.3035
 20
-1.849999999999997
 30
0.0
 40
0.5
  1
RE-LUBE
100
AcDbAttributeDefinition
  3

  2
LF
 70
     8
280
     0
  0
ATTDEF
  5
166
330
158
100
AcDbEntity
  8
AM_6
100
AcDbText
 10
6.3035
 20
-2.349999999999997
 30
0.0
 40
0.5
  1
11.6
100
AcDbAttributeDefinition
  3

  2
WEIGHT
 70
     8
280
     0
  0
ATTDEF
  5
167
330
158
100
AcDbEntity
  8
AM_6
100
AcDbText
 10
6.3035
 20
-2.849999999999997
 30
0.0
 40
0.5
  1
2.74
100
AcDbAttributeDefinition
  3

  2
A
 70
     8
280
     0
  0
ATTDEF
  5
168
330
158
100
AcDbEntity
  8
AM_6
100
AcDbText
 10
6.3035
 20
-3.349999999999997
 30
0.0
 40
0.5
  1
9.50
100
AcDbAttributeDefinition
  3

  2
B
 70
     8
280
     0
  0
ATTDEF
  5
169
330
158
100
AcDbEntity
  8
AM_6
100
AcDbText
 10
6.3035
 20
-3.849999999999997
 30
0.0
 40
0.5
  1
2.37
100
AcDbAttributeDefinition
  3

  2
C
 70
     8
280
     0
  0
ATTDEF
  5
16A
330
158
100
AcDbEntity
  8
AM_6
100
AcDbText
 10
6.3035
 20
-4.349999999999998
 30
0.0
 40
0.5
  1
6.88
100
AcDbAttributeDefinition
  3

  2
DMIN
 70
     8
280
     0
  0
ATTDEF
  5
16B
330
158
100
AcDbEntity
  8
AM_6
100
AcDbText
 10
6.3035
 20
-4.849999999999998
 30
0.0
 40
0.5
  1
7.94
100
AcDbAttributeDefinition
  3

  2
DMAX
 70
     8
280
     0
  0
ATTDEF
  5
16C
330
158
100
AcDbEntity
  8
AM_6
100
AcDbText
 10
6.3035
 20
-5.349999999999998
 30
0.0
 40
0.5
  1
5/8
100
AcDbAttributeDefinition
  3

  2
F
 70
     8
280
     0
  0
ATTDEF
  5
16D
330
158
100
AcDbEntity
  8
AM_6
100
AcDbText
 10
6.3035
 20
-5.849999999999998
 30
0.0
 40
0.5
  1
1.21
100
AcDbAttributeDefinition
  3

  2
G
 70
     8
280
     0
  0
ATTDEF
  5
16E
330
158
100
AcDbEntity
  8
AM_6
100
AcDbText
 10
6.3035
 20
-6.349999999999998
 30
0.0
 40
0.5
  1
0.88
100
AcDbAttributeDefinition
  3

  2
H
 70
     8
280
     0
  0
ATTDEF
  5
16F
330
158
100
AcDbEntity
  8
AM_6
100
AcDbText
 10
6.3035
 20
-6.849999999999998
 30
0.0
 40
0.5
  1
5.40
100
AcDbAttributeDefinition
  3

  2
J
 70
     8
280
     0
  0
ATTDEF
  5
170
330
158
100
AcDbEntity
  8
AM_6
100
AcDbText
 10
6.3035
 20
-7.349999999999998
 30
0.0
 40
0.5
  1
3.31
100
AcDbAttributeDefinition
  3

  2
L
 70
     8
280
     0
  0
ATTDEF
  5
171
330
158
100
AcDbEntity
  8
AM_6
100
AcDbText
 10
6.3035
 20
-7.849999999999998
 30
0.0
 40
0.5
  1
2.75
100
AcDbAttributeDefinition
  3

  2
M
 70
     8
280
     0
  0
ATTDEF
  5
172
330
158
100
AcDbEntity
  8
AM_6
100
AcDbText
 10
6.3035
 20
-8.349999999999998
 30
0.0
 40
0.5
  1
0.90
100
AcDbAttributeDefinition
  3

  2
R
 70
     8
280
     0
  0
ATTDEF
  5
173
330
158
100
AcDbEntity
  8
AM_6
100
AcDbText
 10
6.3035
 20
-8.849999999999998
 30
0.0
 40
0.5
  1
1.84
100
AcDbAttributeDefinition
  3

  2
S
 70
     8
280
     0
  0
ATTDEF
  5
174
330
158
100
AcDbEntity
  8
AM_6
100
AcDbText
 10
6.3035
 20
-9.349999999999998
 30
0.0
 40
0.5
  1
4.25
100
AcDbAttributeDefinition
  3

  2
U
 70
     8
280
     0
  0
ATTDEF
  5
175
330
158
100
AcDbEntity
  8
AM_6
100
AcDbText
 10
6.3035
 20
-9.849999999999998
 30
0.0
 40
0.5
  1
8.50
100
AcDbAttributeDefinition
  3

  2
V
 70
     8
280
     0
  0
ATTDEF
  5
176
330
158
100
AcDbEntity
  8
AM_6
100
AcDbText
 10
6.3035
 20
-10.35
 30
0.0
 40
0.5
  1
0.88
100
AcDbAttributeDefinition
  3

  2
W
 70
     8
280
     0
  0
ATTDEF
  5
177
330
158
100
AcDbEntity
  8
AM_6
100
AcDbText
 10
6.3035
 20
-10.85
 30
0.0
 40
0.5
  1
0.12
100
AcDbAttributeDefinition
  3

  2
X
 70
     8
280
     0
  0
ATTDEF
  5
178
330
158
100
AcDbEntity
  8
AM_6
100
AcDbText
 10
6.3035
 20
-11.35
 30
0.0
 40
0.5
  1
6955
100
AcDbAttributeDefinition
  3

  2
CAPS
 70
     8
280
     0
  0
ATTDEF
  5
179
330
158
100
AcDbEntity
  8
AM_6
100
AcDbText
 10
6.3035
 20
-11.85
 30
0.0
 40
0.5
  1
11791
100
AcDbAttributeDefinition
  3

  2
CAPD
 70
     8
280
     0
  0
ATTDEF
  5
17A
330
158
100
AcDbEntity
  8
AM_6
100
AcDbText
 10
6.3035
 20
-12.35
 30
0.0
 40
0.5
  1
baldor
100
AcDbAttributeDefinition
  3

  2
COMPANY
 70
     8
280
     0
  0
LINE
  5
17B
330
158
100
AcDbEntity
  8
AM_9
100
AcDbLine
 10
-0.5925
 20
-2.639
 30
0.0
 11
0.5925
 21
-2.639
 31
0.0
  0
LINE
  5
17C
330
158
100
AcDbEntity
  8
AM_9
100
AcDbLine
 10
-0.5924999999999999
 20
-2.166769275040534
 30
0.0
 11
0.5925000000000001
 21
-2.166769275040534
 31
0.0
  0
LINE
  5
17D
330
158
100
AcDbEntity
  8
AM_9
100
AcDbLine
 10
-0.5924999999999999
 20
-2.221402592416974
 30
0.0
 11
0.5925000000000001
 21
-2.221402592416974
 31
0.0
  0
LINE
  5
17E
330
158
100
AcDbEntity
  8
AM_9
100
AcDbLine
 10
0.5925000000000001
 20
-2.151776638607724
 30
0.0
 11
-0.5924999999999999
 21
-2.151776638607724
 31
0.0
  0
LINE
  5
17F
330
158
100
AcDbEntity
  8
AM_9
100
AcDbLine
 10
-0.3554999999999999
 20
-1.125
 30
0.0
 11
0.9480000000000003
 21
-1.125
 31
0.0
  0
LINE
  5
180
330
158
100
AcDbEntity
  8
AM_9
100
AcDbLine
 10
-0.3554999999999999
 20
1.125
 30
0.0
 11
0.7924032079646021
 21
1.125
 31
0.0
  0
LINE
  5
181
330
158
100
AcDbEntity
  8
AM_9
100
AcDbLine
 10
-0.9480000000000001
 20
-2.16535
 30
0.0
 11
0.9480000000000001
 21
-2.16535
 31
0.0
  0
LINE
  5
182
330
158
100
AcDbEntity
  8
AM_9
100
AcDbLine
 10
0.6560298949115042
 20
2.16535
 30
0.0
 11
-0.6560298949115045
 21
2.16535
 31
0.0
  0
LINE
  5
183
330
158
100
AcDbEntity
  8
AM_9
100
AcDbLine
 10
-0.3554999999999999
 20
-1.125
 30
0.0
 11
-0.3554999999999999
 21
1.125
 31
0.0
  0
LINE
  5
184
330
158
100
AcDbEntity
  8
AM_9
100
AcDbLine
 10
-0.948
 20
-2.728
 30
0.0
 11
-0.5924999999999999
 21
-2.728000000000001
 31
0.0
  0
LINE
  5
185
330
158
100
AcDbEntity
  8
AM_9
100
AcDbLine
 10
-0.948
 20
-2.64
 30
0.0
 11
-0.5924999999999999
 21
-2.64
 31
0.0
  0
LINE
  5
186
330
158
100
AcDbEntity
  8
AM_9
100
AcDbLine
 10
0.5925000000000004
 20
-2.728000000000001
 30
0.0
 11
0.9579999999999967
 21
-2.728
 31
0.0
  0
LINE
  5
187
330
158
100
AcDbEntity
  8
AM_9
100
AcDbLine
 10
0.5925000000000004
 20
-2.64
 30
0.0
 11
0.9480000000000004
 21
-2.64
 31
0.0
  0
LINE
  5
188
330
158
100
AcDbEntity
  8
AM_9
100
AcDbLine
 10
0.9579999999999931
 20
-0.1382869198311147
 30
0.0
 11
0.9579999999999967
 21
-2.728
 31
0.0
  0
LINE
  5
189
330
158
100
AcDbEntity
  8
AM_9
100
AcDbLine
 10
0.9480000000000005
 20
-0.2132064726972354
 30
0.0
 11
0.9480000000000004
 21
-2.687256902425075
 31
0.0
  0
LWPOLYLINE
  5
18A
330
158
100
AcDbEntity
  8
AM_9
100
AcDbPolyline
 90
        5
 70
     0
 43
0.0
 10
0.9480000000000005
 20
-0.2132064726972354
 10
0.9481605245451542
 20
-0.1932860563679883
 10
0.9492426890659738
 20
-0.1534124111902313
 10
0.951030317018465
 20
-0.1134900163863017
 10
0.9521146932823594
 20
-0.0933897276561416
  0
LWPOLYLINE
  5
18B
330
158
100
AcDbEntity
  8
AM_9
100
AcDbPolyline
 90
        4
 70
     0
 43
0.0
 10
0.9579999999999967
 20
-2.728
 10
0.9578810853600201
 20
-2.727647236643672
 10
0.9502900191003352
 20
-2.702980460151485
 10
0.9480000000000005
 20
-2.687256902425076
  0
LINE
  5
18C
330
158
100
AcDbEntity
  8
AM_9
100
AcDbLine
 10
-0.948
 20
-0.0620000000000017
 30
0.0
 11
-0.948
 21
-2.728
 31
0.0
  0
LINE
  5
18D
330
158
100
AcDbEntity
  8
AM_9
100
AcDbLine
 10
-0.5924999999999999
 20
-2.426681393801046
 30
0.0
 11
0.5925000000000001
 21
-2.426681393801046
 31
0.0
  0
LINE
  5
18E
330
158
100
AcDbEntity
  8
AM_9
100
AcDbLine
 10
-0.9399999999999998
 20
-1.9325
 30
0.0
 11
-0.8199999999999997
 21
-1.9325
 31
0.0
  0
LINE
  5
18F
330
158
100
AcDbEntity
  8
AM_9
100
AcDbLine
 10
-0.8199999999999997
 20
-1.9325
 30
0.0
 11
-0.8199999999999997
 21
-1.87
 31
0.0
  0
LINE
  5
190
330
158
100
AcDbEntity
  8
AM_9
100
AcDbLine
 10
-0.9399999999999998
 20
-1.87
 30
0.0
 11
-0.9399999999999998
 21
-1.9325
 31
0.0
  0
LINE
  5
191
330
158
100
AcDbEntity
  8
AM_9
100
AcDbLine
 10
-0.5924999999999998
 20
-2.632666666666667
 30
0.0
 11
0.5925000000000004
 21
-2.632666666666667
 31
0.0
  0
LINE
  5
192
330
158
100
AcDbEntity
  8
AM_9
100
AcDbLine
 10
0.5925000000000004
 20
-2.75
 30
0.0
 11
0.5925000000000001
 21
-2.151776638607724
 31
0.0
  0
LINE
  5
193
330
158
100
AcDbEntity
  8
AM_9
100
AcDbLine
 10
-0.5924999999999998
 20
-2.75
 30
0.0
 11
-0.5924999999999999
 21
-2.151776638607724
 31
0.0
  0
LINE
  5
194
330
158
100
AcDbEntity
  8
AM_9
100
AcDbLine
 10
-0.5924999999999998
 20
-2.456666666666667
 30
0.0
 11
0.5925000000000004
 21
-2.456666666666667
 31
0.0
  0
LWPOLYLINE
  5
195
330
158
100
AcDbEntity
  8
AM_9
100
AcDbPolyline
 90
       12
 70
     0
 43
0.0
 10
0.2978321675037807
 20
-2.456666666666667
 10
0.278157707799062
 20
-2.459512243496044
 10
0.254860898252566
 20
-2.467592967698371
 10
0.2220910094067807
 20
-2.483519481171995
 10
0.185759732224558
 20
-2.504639815142756
 10
0.1597222283820761
 20
-2.521131779483408
 10
0.1330417426935451
 20
-2.538816305003758
 10
0.105123296711374
 20
-2.557922327236529
 10
0.0768372957698487
 20
-2.577722581533991
 10
0.0389882571293929
 20
-2.604658796870663
 10
0.000593973755517
 20
-2.632239316402101
 10
0.0000000000000006
 20
-2.632666666666666
  0
LWPOLYLINE
  5
196
330
158
100
AcDbEntity
  8
AM_9
100
AcDbPolyline
 90
       11
 70
     0
 43
0.0
 10
0.0000000000000003
 20
-2.632666666666667
 10
-0.0005939737555159
 20
-2.632239316402101
 10
-0.0388227014850506
 20
-2.604776593289473
 10
-0.0768372957698476
 20
-2.577722581533991
 10
-0.1139485187707404
 20
-2.551815875740607
 10
-0.1504462666153529
 20
-2.527190283712585
 10
-0.1857597322245574
 20
-2.504639815142756
 10
-0.2216242430030563
 20
-2.483763483468657
 10
-0.2548608982525655
 20
-2.467592967698371
 10
-0.2778130250812174
 20
-2.459610426927103
 10
-0.2978321675037801
 20
-2.456666666666667
  0
LINE
  5
197
330
158
100
AcDbEntity
  8
AM_9
100
AcDbLine
 10
-0.3399999999999996
 20
-1.87
 30
0.0
 11
-0.3399999999999996
 21
-2.456666666666666
 31
0.0
  0
LINE
  5
198
330
158
100
AcDbEntity
  8
AM_9
100
AcDbLine
 10
0.3400000000000002
 20
-1.87
 30
0.0
 11
0.3400000000000002
 21
-2.456666666666667
 31
0.0
  0
LINE
  5
199
330
158
100
AcDbEntity
  8
AM_7
100
AcDbLine
 10
1.3035
 20
0.0
 30
0.0
 11
-1.977
 21
0.0
 31
0.0
  0
LINE
  5
19A
330
158
100
AcDbEntity
  8
AM_7
100
AcDbLine
 10
-0.8800000000000003
 20
-1.866875
 30
0.0
 11
-0.8800000000000003
 21
-1.935625
 31
0.0
  0
LINE
  5
19B
330
158
100
AcDbEntity
  8
AM_4
100
AcDbLine
 10
1.185
 20
-1.870000000000002
 30
0.0
 11
0.5924999999999996
 21
2.650000000000003
 31
0.0
  0
LINE
  5
19C
330
158
100
AcDbEntity
  8
AM_4
100
AcDbLine
 10
0.5924999999999995
 20
2.650000000000002
 30
0.0
 11
-0.5924999999999998
 21
2.650000000000002
 31
0.0
  0
LINE
  5
19D
330
158
100
AcDbEntity
  8
AM_4
100
AcDbLine
 10
-0.5924999999999996
 20
2.650000000000003
 30
0.0
 11
-1.185
 21
-1.870000000000002
 31
0.0
  0
LWPOLYLINE
  5
19E
330
158
100
AcDbEntity
  8
AM_4
100
AcDbPolyline
 90
       22
 70
     0
 43
0.0
 10
0.36112061488907
 20
0.857344514082857
 10
0.3309514366816386
 20
0.8892258398926622
 10
0.2984870592944427
 20
0.9188909909689992
 10
0.2628221098057577
 20
0.9466237449411381
 10
0.224753829745326
 20
0.9712844337913549
 10
0.1935612497248841
 20
0.9880524638990575
 10
0.1610752633441478
 20
1.002500406721807
 10
0.1264983486430005
 20
1.014704570266513
 10
0.0909043100896327
 20
1.02404973557132
 10
0.0554433766576275
 20
1.030234027713079
 10
0.0195222006394335
 20
1.033426316311933
 10
-0.0178538467755252
 20
1.03349456477072
 10
-0.055068217584921
 20
1.030287706603289
 10
-0.0872841734912143
 20
1.024819441331371
 10
-0.1189191825730438
 20
1.01696649808063
 10
-0.1505780554197396
 20
1.006540551566714
 10
-0.1812775678445602
 20
0.9938679607573107
 10
-0.2186252164564939
 20
0.9748097269954729
 10
-0.2540564938864689
 20
0.9527369209296841
 10
-0.288377640714658
 20
0.9272390300173273
 10
-0.3205229323230858
 20
0.8992504387127563
 10
-0.3611206148890709
 20
0.8573445140828578
  0
LINE
  5
19F
330
158
100
AcDbEntity
  8
AM_4
100
AcDbLine
 10
0.36112061488907
 20
0.8573445140828568
 30
0.0
 11
0.8274885786296254
 21
0.8573445140828574
 31
0.0
  0
LWPOLYLINE
  5
1A0
330
158
100
AcDbEntity
  8
AM_4
100
AcDbPolyline
 90
       15
 70
     0
 43
0.0
 10
1.0
 20
-1.87
 10
0.9961946980917461
 20
-1.615095051883713
 10
0.9848077530122086
 20
-1.362130084338408
 10
0.9659258262890688
 20
-1.113030313511526
 10
0.9396926207859091
 20
-0.8696915390696147
 10
0.9063077870366505
 20
-0.6339657160181459
 10
0.8660254037844393
 20
-0.407646860205686
 10
0.8191520442889925
 20
-0.1924573947800284
 10
0.7660444431189788
 20
0.0099649584919858
 10
0.7071067811865485
 20
0.1980796432759975
 10
0.6427876096865404
 20
0.370454993234049
 10
0.5735764363510473
 20
0.5257791278698768
 10
0.5000000000000013
 20
0.6628699367316255
 10
0.4226182617407008
 20
0.7806840759861642
 10
0.3611206148890704
 20
0.8573445140828574
  0
LINE
  5
1A1
330
158
100
AcDbEntity
  8
AM_4
100
AcDbLine
 10
-0.8274885786296252
 20
0.8573445140828566
 30
0.0
 11
-0.36112061488907
 21
0.857344514082857
 31
0.0
  0
LWPOLYLINE
  5
1A2
330
158
100
AcDbEntity
  8
AM_4
100
AcDbPolyline
 90
       15
 70
     0
 43
0.0
 10
-0.3611206148890703
 20
0.857344514082858
 10
-0.4410208380959928
 20
0.7549147131969313
 10
-0.5175646264293421
 20
0.632507726376737
 10
-0.590169435441498
 20
0.4910551447033376
 10
-0.6582826986958961
 20
0.3316335077346707
 10
-0.7213860331312574
 20
0.1554561103894843
 10
-0.7789991842696936
 20
-0.0361362309596035
 10
-0.8306836812432696
 20
-0.2416853829083075
 10
-0.876046173822064
 20
-0.4596269922963267
 10
-0.9147414260469302
 20
-0.688302391879477
 10
-0.9464749436836046
 20
-0.9259712237889485
 10
-0.9710052155016506
 20
-1.170824684705546
 10
-0.9881455513207499
 20
-1.420999291945133
 10
-0.9977655028357008
 20
-1.674591065687057
 10
-1.0
 20
-1.869999999999999
  0
LINE
  5
1A3
330
158
100
AcDbEntity
  8
AM_4
100
AcDbLine
 10
-1.185
 20
-2.014940616784371
 30
0.0
 11
-0.9999999999999997
 21
-2.014940616784371
 31
0.0
  0
LINE
  5
1A4
330
158
100
AcDbEntity
  8
AM_4
100
AcDbLine
 10
1.0
 20
-2.014940616784371
 30
0.0
 11
1.185
 21
-2.014940616784371
 31
0.0
  0
LINE
  5
1A5
330
158
100
AcDbEntity
  8
AM_4
100
AcDbLine
 10
-0.9999999999999997
 20
-1.87
 30
0.0
 11
-0.9999999999999997
 21
-2.134
 31
0.0
  0
LINE
  5
1A6
330
158
100
AcDbEntity
  8
AM_4
100
AcDbLine
 10
0.9119999999999998
 20
-2.134
 30
0.0
 11
1.185
 21
-2.134
 31
0.0
  0
LWPOLYLINE
  5
1A7
330
158
100
AcDbEntity
  8
AM_4
100
AcDbPolyline
 90
       13
 70
     0
 43
0.0
 10
-0.9119999999999989
 20
-2.134
 10
-0.8838355778615289
 20
-2.137291082100323
 10
-0.8520881557838701
 20
-2.146468961846271
 10
-0.8288886092326894
 20
-2.155490207151229
 10
-0.804902199584043
 20
-2.166247858850017
 10
-0.779609444194707
 20
-2.178765353315071
 10
-0.7537890062883984
 20
-2.192492152051353
 10
-0.717510499091019
 20
-2.212973626089375
 10
-0.6806561100172793
 20
-2.234817057044621
 10
-0.6423576031364363
 20
-2.258260892005258
 10
-0.6037896141861683
 20
-2.282356753579529
 10
-0.5607035184856136
 20
-2.30955505604142
 10
-0.5599999999999987
 20
-2.309999999999999
  0
LINE
  5
1A8
330
158
100
AcDbEntity
  8
AM_4
100
AcDbLine
 10
-1.185
 20
-2.134
 30
0.0
 11
-0.9119999999999988
 21
-2.134
 31
0.0
  0
LINE
  5
1A9
330
158
100
AcDbEntity
  8
AM_4
100
AcDbLine
 10
-1.185
 20
-2.75
 30
0.0
 11
-1.185
 21
-1.870000000000002
 31
0.0
  0
LINE
  5
1AA
330
158
100
AcDbEntity
  8
AM_4
100
AcDbLine
 10
1.185
 20
-2.75
 30
0.0
 11
1.185
 21
-1.870000000000002
 31
0.0
  0
LINE
  5
1AB
330
158
100
AcDbEntity
  8
AM_4
100
AcDbLine
 10
-1.185
 20
-2.75
 30
0.0
 11
1.185
 21
-2.75
 31
0.0
  0
LINE
  5
1AC
330
158
100
AcDbEntity
  8
AM_4
100
AcDbLine
 10
0.5600000000000003
 20
-2.309999999999999
 30
0.0
 11
1.185
 21
-2.31
 31
0.0
  0
LINE
  5
1AD
330
158
100
AcDbEntity
  8
AM_4
100
AcDbLine
 10
-0.5599999999999994
 20
-1.87
 30
0.0
 11
-0.5599999999999994
 21
-2.309999999999999
 31
0.0
  0
LINE
  5
1AE
330
158
100
AcDbEntity
  8
AM_4
100
AcDbLine
 10
-1.185
 20
-2.31
 30
0.0
 11
-0.5599999999999994
 21
-2.309999999999999
 31
0.0
  0
LINE
  5
1AF
330
158
100
AcDbEntity
  8
AM_4
100
AcDbLine
 10
0.5600000000000003
 20
-1.87
 30
0.0
 11
0.5600000000000003
 21
-2.309999999999999
 31
0.0
  0
LWPOLYLINE
  5
1B0
330
158
100
AcDbEntity
  8
AM_4
100
AcDbPolyline
 90
       13
 70
     0
 43
0.0
 10
0.5600000000000003
 20
-2.309999999999999
 10
0.5607035184856727
 20
-2.309555056041508
 10
0.6037896141861712
 20
-2.282356753579531
 10
0.6413420379698526
 20
-2.258890366763203
 10
0.6786427110892319
 20
-2.236033289044177
 10
0.7165170498768024
 20
-2.213550202497423
 10
0.7537890062883996
 20
-2.192492152051353
 10
0.7789595733894963
 20
-2.179100271039452
 10
0.8036320377235728
 20
-2.166850478845543
 10
0.828272068753775
 20
-2.155750191487618
 10
0.8520881557838713
 20
-2.146468961846271
 10
0.8830318520028232
 20
-2.137464293293717
 10
0.9119999999999995
 20
-2.134
  0
LINE
  5
1B1
330
158
100
AcDbEntity
  8
AM_4
100
AcDbLine
 10
1.0
 20
-1.87
 30
0.0
 11
1.0
 21
-2.134
 31
0.0
  0
LINE
  5
1B2
330
158
100
AcDbEntity
  8
AM_4
100
AcDbLine
 10
-0.9999999999999997
 20
-1.87
 30
0.0
 11
1.0
 21
-1.87
 31
0.0
  0
ENDBLK
  5
15B
330
158
100
AcDbEntity
  8
0
100
AcDbBlockEnd
  0
ENDSEC
  0
SECTION
  2
ENTITIES
  0
INSERT
  5
6F
330
1F
100
AcDbEntity
  8
0
100
AcDbBlockReference
  2
1_131820_2
 10
0.0
 20
0.0
 30
0.0
  0
POINT
  5
1B4
330
1F
100
AcDbEntity
  8
ConnectionPoints
100
AcDbPoint
 10
0.0
 20
0.0
 30
0.0
  0
POINT
  5
1B5
330
1F
100
AcDbEntity
  8
ConnectionPoints
100
AcDbPoint
 10
-1.84
 20
0.0
 30
0.0000000000000001
  0
POINT
  5
1B6
330
1F
100
AcDbEntity
  8
ConnectionPoints
100
AcDbPoint
 10
0.0000000000000001
 20
1.873832970144352
 30
1.873832970144351
  0
POINT
  5
1B7
330
1F
100
AcDbEntity
  8
ConnectionPoints
100
AcDbPoint
 10
0.0000000000000001
 20
1.873832970144352
 30
1.873832970144351
  0
POINT
  5
1B8
330
1F
100
AcDbEntity
  8
ConnectionPoints
100
AcDbPoint
 10
-1.84
 20
0.0
 30
0.0000000000000001
  0
ENDSEC
  0
SECTION
  2
OBJECTS
  0
DICTIONARY
  5
C
330
0
100
AcDbDictionary
281
     1
  3
ACAD_DETAILVIEWSTYLE
350
1C0
  3
ACAD_GROUP
350
D
  3
ACAD_LAYOUT
350
1A
  3
ACAD_MATERIAL
350
43
  3
ACAD_MLEADERSTYLE
350
6B
  3
ACAD_MLINESTYLE
350
17
  3
ACAD_PLOTSETTINGS
350
19
  3
ACAD_PLOTSTYLENAME
350
E
  3
ACAD_SCALELIST
350
47
  3
ACAD_SECTIONVIEWSTYLE
350
1C1
  3
ACAD_TABLESTYLE
350
69
  3
ACAD_VISUALSTYLE
350
2A
  3
ACDB_RECOMPOSE_DATA
350
1BD
  3
AcDbVariableDictionary
350
1B9
  0
SUN
  5
6D
330
29
100
AcDbSun
 90
        1
290
     0
 63
     7
421
 16777215
 40
1.0
291
     1
 91
  2455826
 92
 54000000
292
     0
 70
     2
 71
   256
280
     1
  0
DICTIONARY
  5
1C0
102
{ACAD_REACTORS
330
C
102
}
330
C
100
AcDbDictionary
281
     1
  0
DICTIONARY
  5
D
102
{ACAD_REACTORS
330
C
102
}
330
C
100
AcDbDictionary
281
     1
  0
DICTIONARY
  5
1A
102
{ACAD_REACTORS
330
C
102
}
330
C
100
AcDbDictionary
281
     1
  3
Layout1
350
1E
  3
Layout2
350
26
  3
Model
350
22
  0
DICTIONARY
  5
43
102
{ACAD_REACTORS
330
C
102
}
330
C
100
AcDbDictionary
281
     1
  3
ByBlock
350
45
  3
ByLayer
350
44
  3
Global
350
46
  0
DICTIONARY
  5
6B
102
{ACAD_REACTORS
330
C
102
}
330
C
100
AcDbDictionary
281
     1
  3
Standard
350
6C
  0
DICTIONARY
  5
17
102
{ACAD_REACTORS
330
C
102
}
330
C
100
AcDbDictionary
281
     1
  3
Standard
350
18
  0
DICTIONARY
  5
19
102
{ACAD_REACTORS
330
C
102
}
330
C
100
AcDbDictionary
281
     1
  0
ACDBDICTIONARYWDFLT
  5
E
102
{ACAD_REACTORS
330
C
102
}
330
C
100
AcDbDictionary
281
     1
  3
Normal
350
F
100
AcDbDictionaryWithDefault
340
F
  0
DICTIONARY
  5
47
102
{ACAD_REACTORS
330
C
102
}
330
C
100
AcDbDictionary
281
     1
  3
A0
350
48
  3
A1
350
49
  3
A2
350
4A
  3
A3
350
4B
  3
A4
350
4C
  3
A5
350
4D
  3
A6
350
4E
  3
A7
350
4F
  3
A8
350
50
  3
A9
350
51
  3
B0
350
52
  3
B1
350
53
  3
B2
350
54
  3
B3
350
55
  3
B4
350
56
  3
B5
350
57
  3
B6
350
58
  3
B7
350
59
  3
B8
350
5A
  3
B9
350
5B
  3
C0
350
5C
  3
C1
350
5D
  3
C2
350
5E
  3
C3
350
5F
  3
C4
350
60
  3
C5
350
61
  3
C6
350
62
  3
C7
350
63
  3
C8
350
64
  3
C9
350
65
  3
D0
350
66
  3
D1
350
67
  3
D2
350
68
  0
DICTIONARY
  5
1C1
102
{ACAD_REACTORS
330
C
102
}
330
C
100
AcDbDictionary
281
     1
  0
DICTIONARY
  5
69
102
{ACAD_REACTORS
330
C
102
}
330
C
100
AcDbDictionary
281
     1
  3
Standard
350
6A
  0
DICTIONARY
  5
2A
102
{ACAD_REACTORS
330
C
102
}
330
C
100
AcDbDictionary
281
     1
  3
2dWireframe
350
2F
  3
Basic
350
32
  3
Brighten
350
36
  3
ColorChange
350
3A
  3
Conceptual
350
34
  3
Dim
350
35
  3
EdgeColorOff
350
3D
  3
Facepattern
350
39
  3
Flat
350
2B
  3
FlatWithEdges
350
2C
  3
Gouraud
350
2D
  3
GouraudWithEdges
350
2E
  3
Hidden
350
31
  3
JitterOff
350
3B
  3
Linepattern
350
38
  3
OverhangOff
350
3C
  3
Realistic
350
33
  3
Shaded
350
42
  3
Shaded with edges
350
41
  3
Shades of Gray
350
3E
  3
Sketchy
350
3F
  3
Thicken
350
37
  3
Wireframe
350
30
  3
X-Ray
350
40
  0
XRECORD
  5
1BD
102
{ACAD_REACTORS
330
C
102
}
330
C
100
AcDbXrecord
280
     1
 90
        1
330
6A
  0
DICTIONARY
  5
1B9
102
{ACAD_REACTORS
330
C
102
}
330
C
100
AcDbDictionary
281
     1
  3
CANNOSCALE
350
1BA
  3
CMLEADERSTYLE
350
1BF
  3
CTABLESTYLE
350
1BE
  0
LAYOUT
  5
1E
102
{ACAD_REACTORS
330
1A
102
}
330
1A
100
AcDbPlotSettings
  1

  2
none_device
  4

  6

 40
0.0
 41
0.0
 42
0.0
 43
0.0
 44
0.0
 45
0.0
 46
0.0
 47
0.0
 48
0.0
 49
0.0
140
0.0
141
0.0
142
1.0
143
1.0
 70
   688
 72
     0
 73
     0
 74
     5
  7

 75
    16
 76
     0
 77
     2
 78
   300
147
1.0
148
0.0
149
0.0
100
AcDbLayout
  1
Layout1
 70
     1
 71
     1
 10
0.0
 20
0.0
 11
12.0
 21
9.0
 12
0.0
 22
0.0
 32
0.0
 14
1.000000000000000E+20
 24
1.000000000000000E+20
 34
1.000000000000000E+20
 15
-1.000000000000000E+20
 25
-1.000000000000000E+20
 35
-1.000000000000000E+20
146
0.0
 13
0.0
 23
0.0
 33
0.0
 16
1.0
 26
0.0
 36
0.0
 17
0.0
 27
1.0
 37
0.0
 76
     0
330
1B
  0
LAYOUT
  5
26
102
{ACAD_REACTORS
330
1A
102
}
330
1A
100
AcDbPlotSettings
  1

  2
none_device
  4

  6

 40
0.0
 41
0.0
 42
0.0
 43
0.0
 44
0.0
 45
0.0
 46
0.0
 47
0.0
 48
0.0
 49
0.0
140
0.0
141
0.0
142
1.0
143
1.0
 70
   688
 72
     0
 73
     0
 74
     5
  7

 75
    16
 76
     0
 77
     2
 78
   300
147
1.0
148
0.0
149
0.0
100
AcDbLayout
  1
Layout2
 70
     1
 71
     2
 10
0.0
 20
0.0
 11
0.0
 21
0.0
 12
0.0
 22
0.0
 32
0.0
 14
0.0
 24
0.0
 34
0.0
 15
0.0
 25
0.0
 35
0.0
146
0.0
 13
0.0
 23
0.0
 33
0.0
 16
1.0
 26
0.0
 36
0.0
 17
0.0
 27
1.0
 37
0.0
 76
     0
330
23
  0
LAYOUT
  5
22
102
{ACAD_REACTORS
330
1A
102
}
330
1A
100
AcDbPlotSettings
  1

  2
none_device
  4
Letter_(8.50_x_11.00_Inches)
  6

 40
6.35
 41
6.35
 42
6.35000508
 43
6.35000508
 44
215.9
 45
279.4
 46
0.0
 47
0.0
 48
0.0
 49
0.0
140
0.0
141
0.0
142
1.0
143
1.0
 70
  1712
 72
     0
 73
     0
 74
     0
  7

 75
     0
 76
     0
 77
     2
 78
   300
147
1.0
148
0.0
149
0.0
100
AcDbLayout
  1
Model
 70
     1
 71
     0
 10
0.0
 20
0.0
 11
12.0
 21
9.0
 12
0.0
 22
0.0
 32
0.0
 14
1.000000000000000E+20
 24
1.000000000000000E+20
 34
1.000000000000000E+20
 15
-1.000000000000000E+20
 25
-1.000000000000000E+20
 35
-1.000000000000000E+20
146
0.0
 13
0.0
 23
0.0
 33
0.0
 16
1.0
 26
0.0
 36
0.0
 17
0.0
 27
1.0
 37
0.0
 76
     0
330
1F
331
29
  0
MATERIAL
  5
45
102
{ACAD_REACTORS
330
43
102
}
330
43
100
AcDbMaterial
  1
ByBlock
 72
     1
 94
      127
  0
MATERIAL
  5
44
102
{ACAD_REACTORS
330
43
102
}
330
43
100
AcDbMaterial
  1
ByLayer
 72
     1
 94
      127
  0
MATERIAL
  5
46
102
{ACAD_REACTORS
330
43
102
}
330
43
100
AcDbMaterial
  1
Global
 72
     1
 94
      127
  0
MLEADERSTYLE
  5
6C
102
{ACAD_REACTORS
330
6B
102
}
330
6B
100
AcDbMLeaderStyle
179
     2
170
     2
171
     1
172
     0
 90
        2
 40
0.0
 41
0.0
173
     1
 91
-1056964608
340
14
 92
       -2
290
     1
 42
0.09
291
     1
 43
0.36
  3
Standard
341
0
 44
0.18
300

342
11
174
     1
178
     6
175
     1
176
     0
 93
-1056964608
 45
0.18
292
     0
297
     0
 46
0.18
343
0
 94
-1056964608
 47
1.0
 49
1.0
140
1.0
293
     1
141
0.0
294
     1
177
     0
142
1.0
295
     0
296
     0
143
0.125
271
     0
272
     9
273
     9
298
     0
  0
MLINESTYLE
  5
18
102
{ACAD_REACTORS
330
17
102
}
330
17
100
AcDbMlineStyle
  2
Standard
 70
     0
  3

 62
   256
 51
90.0
 52
90.0
 71
     2
 49
0.5
 62
   256
  6
BYLAYER
 49
-0.5
 62
   256
  6
BYLAYER
  0
ACDBPLACEHOLDER
  5
F
102
{ACAD_REACTORS
330
E
102
}
330
E
  0
SCALE
  5
48
102
{ACAD_REACTORS
330
47
102
}
330
47
100
AcDbScale
 70
     0
300
1:1
140
1.0
141
1.0
290
     1
  0
SCALE
  5
49
102
{ACAD_REACTORS
330
47
102
}
330
47
100
AcDbScale
 70
     0
300
1:2
140
1.0
141
2.0
290
     0
  0
SCALE
  5
4A
102
{ACAD_REACTORS
330
47
102
}
330
47
100
AcDbScale
 70
     0
300
1:4
140
1.0
141
4.0
290
     0
  0
SCALE
  5
4B
102
{ACAD_REACTORS
330
47
102
}
330
47
100
AcDbScale
 70
     0
300
1:5
140
1.0
141
5.0
290
     0
  0
SCALE
  5
4C
102
{ACAD_REACTORS
330
47
102
}
330
47
100
AcDbScale
 70
     0
300
1:8
140
1.0
141
8.0
290
     0
  0
SCALE
  5
4D
102
{ACAD_REACTORS
330
47
102
}
330
47
100
AcDbScale
 70
     0
300
1:10
140
1.0
141
10.0
290
     0
  0
SCALE
  5
4E
102
{ACAD_REACTORS
330
47
102
}
330
47
100
AcDbScale
 70
     0
300
1:16
140
1.0
141
16.0
290
     0
  0
SCALE
  5
4F
102
{ACAD_REACTORS
330
47
102
}
330
47
100
AcDbScale
 70
     0
300
1:20
140
1.0
141
20.0
290
     0
  0
SCALE
  5
50
102
{ACAD_REACTORS
330
47
102
}
330
47
100
AcDbScale
 70
     0
300
1:30
140
1.0
141
30.0
290
     0
  0
SCALE
  5
51
102
{ACAD_REACTORS
330
47
102
}
330
47
100
AcDbScale
 70
     0
300
1:40
140
1.0
141
40.0
290
     0
  0
SCALE
  5
52
102
{ACAD_REACTORS
330
47
102
}
330
47
100
AcDbScale
 70
     0
300
1:50
140
1.0
141
50.0
290
     0
  0
SCALE
  5
53
102
{ACAD_REACTORS
330
47
102
}
330
47
100
AcDbScale
 70
     0
300
1:100
140
1.0
141
100.0
290
     0
  0
SCALE
  5
54
102
{ACAD_REACTORS
330
47
102
}
330
47
100
AcDbScale
 70
     0
300
2:1
140
2.0
141
1.0
290
     0
  0
SCALE
  5
55
102
{ACAD_REACTORS
330
47
102
}
330
47
100
AcDbScale
 70
     0
300
4:1
140
4.0
141
1.0
290
     0
  0
SCALE
  5
56
102
{ACAD_REACTORS
330
47
102
}
330
47
100
AcDbScale
 70
     0
300
8:1
140
8.0
141
1.0
290
     0
  0
SCALE
  5
57
102
{ACAD_REACTORS
330
47
102
}
330
47
100
AcDbScale
 70
     0
300
10:1
140
10.0
141
1.0
290
     0
  0
SCALE
  5
58
102
{ACAD_REACTORS
330
47
102
}
330
47
100
AcDbScale
 70
     0
300
100:1
140
100.0
141
1.0
290
     0
  0
SCALE
  5
59
102
{ACAD_REACTORS
330
47
102
}
330
47
100
AcDbScale
 70
     0
300
1/128" = 1'-0"
140
0.0078125
141
12.0
290
     0
  0
SCALE
  5
5A
102
{ACAD_REACTORS
330
47
102
}
330
47
100
AcDbScale
 70
     0
300
1/64" = 1'-0"
140
0.015625
141
12.0
290
     0
  0
SCALE
  5
5B
102
{ACAD_REACTORS
330
47
102
}
330
47
100
AcDbScale
 70
     0
300
1/32" = 1'-0"
140
0.03125
141
12.0
290
     0
  0
SCALE
  5
5C
102
{ACAD_REACTORS
330
47
102
}
330
47
100
AcDbScale
 70
     0
300
1/16" = 1'-0"
140
0.0625
141
12.0
290
     0
  0
SCALE
  5
5D
102
{ACAD_REACTORS
330
47
102
}
330
47
100
AcDbScale
 70
     0
300
3/32" = 1'-0"
140
0.09375
141
12.0
290
     0
  0
SCALE
  5
5E
102
{ACAD_REACTORS
330
47
102
}
330
47
100
AcDbScale
 70
     0
300
1/8" = 1'-0"
140
0.125
141
12.0
290
     0
  0
SCALE
  5
5F
102
{ACAD_REACTORS
330
47
102
}
330
47
100
AcDbScale
 70
     0
300
3/16" = 1'-0"
140
0.1875
141
12.0
290
     0
  0
SCALE
  5
60
102
{ACAD_REACTORS
330
47
102
}
330
47
100
AcDbScale
 70
     0
300
1/4" = 1'-0"
140
0.25
141
12.0
290
     0
  0
SCALE
  5
61
102
{ACAD_REACTORS
330
47
102
}
330
47
100
AcDbScale
 70
     0
300
3/8" = 1'-0"
140
0.375
141
12.0
290
     0
  0
SCALE
  5
62
102
{ACAD_REACTORS
330
47
102
}
330
47
100
AcDbScale
 70
     0
300
1/2" = 1'-0"
140
0.5
141
12.0
290
     0
  0
SCALE
  5
63
102
{ACAD_REACTORS
330
47
102
}
330
47
100
AcDbScale
 70
     0
300
3/4" = 1'-0"
140
0.75
141
12.0
290
     0
  0
SCALE
  5
64
102
{ACAD_REACTORS
330
47
102
}
330
47
100
AcDbScale
 70
     0
300
1" = 1'-0"
140
1.0
141
12.0
290
     0
  0
SCALE
  5
65
102
{ACAD_REACTORS
330
47
102
}
330
47
100
AcDbScale
 70
     0
300
1-1/2" = 1'-0"
140
1.5
141
12.0
290
     0
  0
SCALE
  5
66
102
{ACAD_REACTORS
330
47
102
}
330
47
100
AcDbScale
 70
     0
300
3" = 1'-0"
140
3.0
141
12.0
290
     0
  0
SCALE
  5
67
102
{ACAD_REACTORS
330
47
102
}
330
47
100
AcDbScale
 70
     0
300
6" = 1'-0"
140
6.0
141
12.0
290
     0
  0
SCALE
  5
68
102
{ACAD_REACTORS
330
47
102
}
330
47
100
AcDbScale
 70
     0
300
1'-0" = 1'-0"
140
12.0
141
12.0
290
     0
  0
TABLESTYLE
  5
6A
102
{ACAD_REACTORS
330
69
102
}
102
{ACAD_XDICTIONARY
360
1BB
102
}
330
69
100
AcDbTableStyle
  3
Standard
 70
     0
 71
     0
 40
0.06
 41
0.06
280
     0
281
     0
  7
Standard
140
0.18
170
     2
 62
     0
 63
   257
283
     0
 90
        4
 91
        0
  1

274
    -2
284
     1
 64
     0
275
    -2
285
     1
 65
     0
276
    -2
286
     1
 66
     0
277
    -2
287
     1
 67
     0
278
    -2
288
     1
 68
     0
279
    -2
289
     1
 69
     0
  7
Standard
140
0.25
170
     5
 62
     0
 63
   257
283
     0
 90
        4
 91
        0
  1

274
    -2
284
     1
 64
     0
275
    -2
285
     1
 65
     0
276
    -2
286
     1
 66
     0
277
    -2
287
     1
 67
     0
278
    -2
288
     1
 68
     0
279
    -2
289
     1
 69
     0
  7
Standard
140
0.18
170
     5
 62
     0
 63
   257
283
     0
 90
        4
 91
        0
  1

274
    -2
284
     1
 64
     0
275
    -2
285
     1
 65
     0
276
    -2
286
     1
 66
     0
277
    -2
287
     1
 67
     0
278
    -2
288
     1
 68
     0
279
    -2
289
     1
 69
     0
  0
VISUALSTYLE
  5
2F
102
{ACAD_REACTORS
330
2A
102
}
330
2A
100
AcDbVisualStyle
  2
2dWireframe
 70
     4
177
     3
291
     0
 70
    58
 90
        0
176
     1
 90
        2
176
     1
 90
        0
176
     1
 90
        0
176
     1
 40
0.6
176
     1
 40
30.0
176
     1
 62
     7
420
 16777215
176
     1
 90
        1
176
     1
 90
        4
176
     1
 62
     7
176
     1
 62
   257
176
     1
 90
        1
176
     1
 90
        1
176
     1
 40
1.0
176
     1
 90
        0
176
     1
 62
   257
176
     1
 40
1.0
176
     1
 90
        1
176
     1
 90
        6
176
     1
 90
        2
176
     1
 62
     7
176
     1
 90
        5
176
     1
 90
        0
176
     1
 90
        0
176
     1
290
     0
176
     1
 90
        1
176
     1
 40
0.0
176
     1
 90
        0
176
     1
290
     1
176
     1
290
     1
176
     1
290
     0
176
     1
290
     0
176
     1
290
     0
176
     1
290
     0
176
     1
290
     0
176
     1
290
     0
176
     1
290
     0
176
     1
 90
       50
176
     1
 40
0.0
176
     1
 40
1.0
176
     1
 90
        0
176
     1
 62
    18
420
        0
176
     1
 90
       50
176
     1
 90
        3
176
     1
 62
     5
420
      255
176
     1
290
     0
176
     1
 90
       50
176
     1
 90
       50
176
     1
 90
       50
176
     1
290
     0
176
     1
 90
       50
176
     1
 62
   256
176
     0
 40
1.0
176
     0
 90
        2
176
     1
  1
strokes_ogs.tif
176
     1
290
     0
176
     1
 40
1.0
176
     1
 40
1.0
176
     1
  0
VISUALSTYLE
  5
32
102
{ACAD_REACTORS
330
2A
102
}
330
2A
100
AcDbVisualStyle
  2
Basic
 70
     7
177
     3
291
     1
 70
    58
 90
        1
176
     1
 90
        0
176
     1
 90
        1
176
     1
 90
        0
176
     1
 40
0.6
176
     1
 40
30.0
176
     1
 62
     7
420
 16777215
176
     1
 90
        0
176
     1
 90
        4
176
     1
 62
     7
176
     1
 62
   257
176
     1
 90
        1
176
     1
 90
        1
176
     1
 40
1.0
176
     1
 90
        8
176
     1
 62
     7
176
     1
 40
1.0
176
     1
 90
        1
176
     1
 90
        6
176
     1
 90
        2
176
     1
 62
     7
176
     1
 90
        5
176
     1
 90
        0
176
     1
 90
        0
176
     1
290
     0
176
     1
 90
        1
176
     1
 40
0.0
176
     1
 90
        0
176
     1
290
     0
176
     1
290
     1
176
     1
290
     1
176
     1
290
     0
176
     1
290
     0
176
     1
290
     0
176
     1
290
     0
176
     1
290
     0
176
     1
290
     0
176
     1
 90
       50
176
     1
 40
0.0
176
     1
 40
1.0
176
     1
 90
        0
176
     1
 62
    18
420
        0
176
     1
 90
       50
176
     1
 90
        3
176
     1
 62
     5
420
      255
176
     1
290
     0
176
     1
 90
       50
176
     1
 90
       50
176
     1
 90
       50
176
     1
290
     0
176
     1
 90
       50
176
     1
 62
   256
176
     0
 40
1.0
176
     0
 90
        2
176
     1
  1
strokes_ogs.tif
176
     1
290
     0
176
     1
 40
1.0
176
     1
 40
1.0
176
     1
  0
VISUALSTYLE
  5
36
102
{ACAD_REACTORS
330
2A
102
}
330
2A
100
AcDbVisualStyle
  2
Brighten
 70
    12
177
     3
291
     1
 70
    58
 90
        2
176
     1
 90
        2
176
     1
 90
        0
176
     1
 90
        0
176
     1
 40
0.6
176
     1
 40
30.0
176
     1
 62
     7
420
 16777215
176
     1
 90
        1
176
     1
 90
        4
176
     1
 62
     7
176
     1
 62
   257
176
     1
 90
        1
176
     1
 90
        1
176
     1
 40
1.0
176
     1
 90
        8
176
     1
 62
     7
176
     1
 40
1.0
176
     1
 90
        1
176
     1
 90
        6
176
     1
 90
        2
176
     1
 62
     7
176
     1
 90
        5
176
     1
 90
        0
176
     1
 90
        0
176
     1
290
     0
176
     1
 90
        1
176
     1
 40
50.0
176
     1
 90
        0
176
     1
290
     0
176
     1
290
     1
176
     1
290
     1
176
     1
290
     0
176
     1
290
     0
176
     1
290
     0
176
     1
290
     0
176
     1
290
     0
176
     1
290
     0
176
     1
 90
       50
176
     1
 40
0.0
176
     1
 40
1.0
176
     1
 90
        0
176
     1
 62
    18
420
        0
176
     1
 90
       50
176
     1
 90
        3
176
     1
 62
     5
420
      255
176
     1
290
     0
176
     1
 90
       50
176
     1
 90
       50
176
     1
 90
       50
176
     1
290
     0
176
     1
 90
       50
176
     1
 62
   256
176
     0
 40
1.0
176
     0
 90
        2
176
     1
  1
strokes_ogs.tif
176
     1
290
     0
176
     1
 40
1.0
176
     1
 40
1.0
176
     1
  0
VISUALSTYLE
  5
3A
102
{ACAD_REACTORS
330
2A
102
}
330
2A
100
AcDbVisualStyle
  2
ColorChange
 70
    16
177
     3
291
     1
 70
    58
 90
        2
176
     1
 90
        2
176
     1
 90
        3
176
     1
 90
        0
176
     1
 40
0.6
176
     1
 40
30.0
176
     1
 62
     8
420
  8421504
176
     1
 90
        1
176
     1
 90
        4
176
     1
 62
     7
176
     1
 62
   257
176
     1
 90
        1
176
     1
 90
        1
176
     1
 40
1.0
176
     1
 90
        8
176
     1
 62
     8
420
  8421504
176
     1
 40
1.0
176
     1
 90
        1
176
     1
 90
        6
176
     1
 90
        2
176
     1
 62
     7
176
     1
 90
        5
176
     1
 90
        0
176
     1
 90
        0
176
     1
290
     0
176
     1
 90
        1
176
     1
 40
0.0
176
     1
 90
        0
176
     1
290
     0
176
     1
290
     1
176
     1
290
     1
176
     1
290
     0
176
     1
290
     0
176
     1
290
     0
176
     1
290
     0
176
     1
290
     0
176
     1
290
     0
176
     1
 90
       50
176
     1
 40
0.0
176
     1
 40
1.0
176
     1
 90
        0
176
     1
 62
    18
420
        0
176
     1
 90
       50
176
     1
 90
        3
176
     1
 62
     5
420
      255
176
     1
290
     0
176
     1
 90
       50
176
     1
 90
       50
176
     1
 90
       50
176
     1
290
     0
176
     1
 90
       50
176
     1
 62
   256
176
     0
 40
1.0
176
     0
 90
        2
176
     1
  1
strokes_ogs.tif
176
     1
290
     0
176
     1
 40
1.0
176
     1
 40
1.0
176
     1
  0
VISUALSTYLE
  5
34
102
{ACAD_REACTORS
330
2A
102
}
330
2A
100
AcDbVisualStyle
  2
Conceptual
 70
     9
177
     3
291
     0
 70
    58
 90
        3
176
     1
 90
        2
176
     1
 90
        0
176
     1
 90
        0
176
     1
 40
0.6
176
     1
 40
30.0
176
     1
 62
     7
420
 16777215
176
     1
 90
        2
176
     1
 90
        2
176
     1
 62
     7
176
     1
 62
   257
176
     1
 90
        1
176
     1
 90
        1
176
     1
 40
179.0
176
     1
 90
        8
176
     1
 62
     7
176
     1
 40
1.0
176
     1
 90
        1
176
     1
 90
        6
176
     1
 90
        2
176
     1
 62
     7
176
     1
 90
        3
176
     1
 90
        0
176
     1
 90
        0
176
     1
290
     0
176
     1
 90
        1
176
     1
 40
0.0
176
     1
 90
        0
176
     1
290
     0
176
     1
290
     1
176
     1
290
     1
176
     1
290
     0
176
     1
290
     0
176
     1
290
     0
176
     1
290
     0
176
     1
290
     0
176
     1
290
     0
176
     1
 90
       50
176
     1
 40
0.0
176
     1
 40
1.0
176
     1
 90
        0
176
     1
 62
    18
420
        0
176
     1
 90
       50
176
     1
 90
        3
176
     1
 62
     5
420
      255
176
     1
290
     0
176
     1
 90
       50
176
     1
 90
       50
176
     1
 90
       50
176
     1
290
     0
176
     1
 90
       50
176
     1
 62
   256
176
     0
 40
1.0
176
     0
 90
        2
176
     1
  1
strokes_ogs.tif
176
     1
290
     0
176
     1
 40
1.0
176
     1
 40
1.0
176
     1
  0
VISUALSTYLE
  5
35
102
{ACAD_REACTORS
330
2A
102
}
330
2A
100
AcDbVisualStyle
  2
Dim
 70
    11
177
     3
291
     1
 70
    58
 90
        2
176
     1
 90
        2
176
     1
 90
        0
176
     1
 90
        0
176
     1
 40
0.6
176
     1
 40
30.0
176
     1
 62
     7
420
 16777215
176
     1
 90
        1
176
     1
 90
        4
176
     1
 62
     7
176
     1
 62
   257
176
     1
 90
        1
176
     1
 90
        1
176
     1
 40
1.0
176
     1
 90
        8
176
     1
 62
     7
176
     1
 40
1.0
176
     1
 90
        1
176
     1
 90
        6
176
     1
 90
        2
176
     1
 62
     7
176
     1
 90
        5
176
     1
 90
        0
176
     1
 90
        0
176
     1
290
     0
176
     1
 90
        1
176
     1
 40
-50.0
176
     1
 90
        0
176
     1
290
     0
176
     1
290
     1
176
     1
290
     1
176
     1
290
     0
176
     1
290
     0
176
     1
290
     0
176
     1
290
     0
176
     1
290
     0
176
     1
290
     0
176
     1
 90
       50
176
     1
 40
0.0
176
     1
 40
1.0
176
     1
 90
        0
176
     1
 62
    18
420
        0
176
     1
 90
       50
176
     1
 90
        3
176
     1
 62
     5
420
      255
176
     1
290
     0
176
     1
 90
       50
176
     1
 90
       50
176
     1
 90
       50
176
     1
290
     0
176
     1
 90
       50
176
     1
 62
   256
176
     0
 40
1.0
176
     0
 90
        2
176
     1
  1
strokes_ogs.tif
176
     1
290
     0
176
     1
 40
1.0
176
     1
 40
1.0
176
     1
  0
VISUALSTYLE
  5
3D
102
{ACAD_REACTORS
330
2A
102
}
330
2A
100
AcDbVisualStyle
  2
EdgeColorOff
 70
    22
177
     3
291
     1
 70
    58
 90
        2
176
     0
 90
        2
176
     0
 90
        0
176
     0
 90
        0
176
     0
 40
0.6
176
     0
 40
30.0
176
     0
 62
     7
420
 16777215
176
     0
 90
        1
176
     0
 90
        4
176
     0
 62
     7
176
     0
 62
   257
176
     0
 90
        1
176
     0
 90
        1
176
     0
 40
1.0
176
     0
 90
        8
176
     2
 62
     7
176
     0
 40
1.0
176
     0
 90
        1
176
     0
 90
        6
176
     0
 90
        2
176
     0
 62
     7
176
     0
 90
        5
176
     0
 90
        0
176
     0
 90
        0
176
     0
290
     0
176
     0
 90
        1
176
     0
 40
0.0
176
     0
 90
        0
176
     0
290
     0
176
     0
290
     1
176
     0
290
     1
176
     0
290
     0
176
     0
290
     0
176
     0
290
     0
176
     0
290
     0
176
     0
290
     0
176
     0
290
     0
176
     0
 90
       50
176
     0
 40
0.0
176
     0
 40
1.0
176
     0
 90
        0
176
     0
 62
    18
420
        0
176
     0
 90
       50
176
     0
 90
        3
176
     0
 62
     5
420
      255
176
     0
290
     0
176
     0
 90
       50
176
     0
 90
       50
176
     0
 90
       50
176
     0
290
     0
176
     0
 90
       50
176
     0
 62
   256
176
     0
 40
1.0
176
     0
 90
        2
176
     0
  1
strokes_ogs.tif
176
     0
290
     0
176
     0
 40
1.0
176
     0
 40
1.0
176
     0
  0
VISUALSTYLE
  5
39
102
{ACAD_REACTORS
330
2A
102
}
330
2A
100
AcDbVisualStyle
  2
Facepattern
 70
    15
177
     3
291
     1
 70
    58
 90
        2
176
     1
 90
        2
176
     1
 90
        0
176
     1
 90
        0
176
     1
 40
0.6
176
     1
 40
30.0
176
     1
 62
     7
420
 16777215
176
     1
 90
        1
176
     1
 90
        4
176
     1
 62
     7
176
     1
 62
   257
176
     1
 90
        1
176
     1
 90
        1
176
     1
 40
1.0
176
     1
 90
        8
176
     1
 62
     7
176
     1
 40
1.0
176
     1
 90
        1
176
     1
 90
        6
176
     1
 90
        2
176
     1
 62
     7
176
     1
 90
        5
176
     1
 90
        0
176
     1
 90
        0
176
     1
290
     0
176
     1
 90
        1
176
     1
 40
0.0
176
     1
 90
        0
176
     1
290
     0
176
     1
290
     1
176
     1
290
     1
176
     1
290
     0
176
     1
290
     0
176
     1
290
     0
176
     1
290
     0
176
     1
290
     0
176
     1
290
     0
176
     1
 90
       50
176
     1
 40
0.0
176
     1
 40
1.0
176
     1
 90
        0
176
     1
 62
    18
420
        0
176
     1
 90
       50
176
     1
 90
        3
176
     1
 62
     5
420
      255
176
     1
290
     0
176
     1
 90
       50
176
     1
 90
       50
176
     1
 90
       50
176
     1
290
     0
176
     1
 90
       50
176
     1
 62
   256
176
     0
 40
1.0
176
     0
 90
        2
176
     1
  1
strokes_ogs.tif
176
     1
290
     0
176
     1
 40
1.0
176
     1
 40
1.0
176
     1
  0
VISUALSTYLE
  5
2B
102
{ACAD_REACTORS
330
2A
102
}
330
2A
100
AcDbVisualStyle
  2
Flat
 70
     0
177
     3
291
     1
 70
    58
 90
        2
176
     1
 90
        1
176
     1
 90
        1
176
     1
 90
        2
176
     1
 40
0.6
176
     1
 40
30.0
176
     1
 62
     7
420
 16777215
176
     1
 90
        0
176
     1
 90
        0
176
     1
 62
     7
176
     1
 62
   257
176
     1
 90
        1
176
     1
 90
        1
176
     1
 40
1.0
176
     1
 90
        8
176
     1
 62
     7
176
     1
 40
1.0
176
     1
 90
        1
176
     1
 90
        6
176
     1
 90
        2
176
     1
 62
     7
176
     1
 90
        5
176
     1
 90
        0
176
     1
 90
        0
176
     1
290
     0
176
     1
 90
       13
176
     1
 40
0.0
176
     1
 90
        0
176
     1
290
     0
176
     1
290
     1
176
     1
290
     1
176
     1
290
     0
176
     1
290
     0
176
     1
290
     0
176
     1
290
     0
176
     1
290
     0
176
     1
290
     0
176
     1
 90
       50
176
     1
 40
0.0
176
     1
 40
1.0
176
     1
 90
        0
176
     1
 62
    18
420
        0
176
     1
 90
       50
176
     1
 90
        3
176
     1
 62
     5
420
      255
176
     1
290
     0
176
     1
 90
       50
176
     1
 90
       50
176
     1
 90
       50
176
     1
290
     0
176
     1
 90
       50
176
     1
 62
   256
176
     0
 40
1.0
176
     0
 90
        2
176
     1
  1
strokes_ogs.tif
176
     1
290
     0
176
     1
 40
1.0
176
     1
 40
1.0
176
     1
  0
VISUALSTYLE
  5
2C
102
{ACAD_REACTORS
330
2A
102
}
330
2A
100
AcDbVisualStyle
  2
FlatWithEdges
 70
     1
177
     3
291
     1
 70
    58
 90
        2
176
     1
 90
        1
176
     1
 90
        1
176
     1
 90
        2
176
     1
 40
0.6
176
     1
 40
30.0
176
     1
 62
     7
420
 16777215
176
     1
 90
        1
176
     1
 90
        0
176
     1
 62
     7
176
     1
 62
   257
176
     1
 90
        1
176
     1
 90
        1
176
     1
 40
1.0
176
     1
 90
        0
176
     1
 62
   257
176
     1
 40
1.0
176
     1
 90
        1
176
     1
 90
        6
176
     1
 90
        2
176
     1
 62
     7
176
     1
 90
        5
176
     1
 90
        0
176
     1
 90
        0
176
     1
290
     0
176
     1
 90
       13
176
     1
 40
0.0
176
     1
 90
        0
176
     1
290
     0
176
     1
290
     1
176
     1
290
     1
176
     1
290
     0
176
     1
290
     0
176
     1
290
     0
176
     1
290
     0
176
     1
290
     0
176
     1
290
     0
176
     1
 90
       50
176
     1
 40
0.0
176
     1
 40
1.0
176
     1
 90
        0
176
     1
 62
    18
420
        0
176
     1
 90
       50
176
     1
 90
        3
176
     1
 62
     5
420
      255
176
     1
290
     0
176
     1
 90
       50
176
     1
 90
       50
176
     1
 90
       50
176
     1
290
     0
176
     1
 90
       50
176
     1
 62
   256
176
     0
 40
1.0
176
     0
 90
        2
176
     1
  1
strokes_ogs.tif
176
     1
290
     0
176
     1
 40
1.0
176
     1
 40
1.0
176
     1
  0
VISUALSTYLE
  5
2D
102
{ACAD_REACTORS
330
2A
102
}
330
2A
100
AcDbVisualStyle
  2
Gouraud
 70
     2
177
     3
291
     1
 70
    58
 90
        2
176
     1
 90
        2
176
     1
 90
        1
176
     1
 90
        2
176
     1
 40
0.6
176
     1
 40
30.0
176
     1
 62
     7
420
 16777215
176
     1
 90
        0
176
     1
 90
        0
176
     1
 62
     7
176
     1
 62
   257
176
     1
 90
        1
176
     1
 90
        1
176
     1
 40
1.0
176
     1
 90
        0
176
     1
 62
     7
176
     1
 40
1.0
176
     1
 90
        1
176
     1
 90
        6
176
     1
 90
        2
176
     1
 62
     7
176
     1
 90
        5
176
     1
 90
        0
176
     1
 90
        0
176
     1
290
     0
176
     1
 90
       13
176
     1
 40
0.0
176
     1
 90
        0
176
     1
290
     0
176
     1
290
     1
176
     1
290
     1
176
     1
290
     0
176
     1
290
     0
176
     1
290
     0
176
     1
290
     0
176
     1
290
     0
176
     1
290
     0
176
     1
 90
       50
176
     1
 40
0.0
176
     1
 40
1.0
176
     1
 90
        0
176
     1
 62
    18
420
        0
176
     1
 90
       50
176
     1
 90
        3
176
     1
 62
     5
420
      255
176
     1
290
     0
176
     1
 90
       50
176
     1
 90
       50
176
     1
 90
       50
176
     1
290
     0
176
     1
 90
       50
176
     1
 62
   256
176
     0
 40
1.0
176
     0
 90
        2
176
     1
  1
strokes_ogs.tif
176
     1
290
     0
176
     1
 40
1.0
176
     1
 40
1.0
176
     1
  0
VISUALSTYLE
  5
2E
102
{ACAD_REACTORS
330
2A
102
}
330
2A
100
AcDbVisualStyle
  2
GouraudWithEdges
 70
     3
177
     3
291
     1
 70
    58
 90
        2
176
     1
 90
        2
176
     1
 90
        1
176
     1
 90
        2
176
     1
 40
0.6
176
     1
 40
30.0
176
     1
 62
     7
420
 16777215
176
     1
 90
        1
176
     1
 90
        0
176
     1
 62
     7
176
     1
 62
   257
176
     1
 90
        1
176
     1
 90
        1
176
     1
 40
1.0
176
     1
 90
        0
176
     1
 62
   257
176
     1
 40
1.0
176
     1
 90
        1
176
     1
 90
        6
176
     1
 90
        2
176
     1
 62
     7
176
     1
 90
        5
176
     1
 90
        0
176
     1
 90
        0
176
     1
290
     0
176
     1
 90
       13
176
     1
 40
0.0
176
     1
 90
        0
176
     1
290
     0
176
     1
290
     1
176
     1
290
     1
176
     1
290
     0
176
     1
290
     0
176
     1
290
     0
176
     1
290
     0
176
     1
290
     0
176
     1
290
     0
176
     1
 90
       50
176
     1
 40
0.0
176
     1
 40
1.0
176
     1
 90
        0
176
     1
 62
    18
420
        0
176
     1
 90
       50
176
     1
 90
        3
176
     1
 62
     5
420
      255
176
     1
290
     0
176
     1
 90
       50
176
     1
 90
       50
176
     1
 90
       50
176
     1
290
     0
176
     1
 90
       50
176
     1
 62
   256
176
     0
 40
1.0
176
     0
 90
        2
176
     1
  1
strokes_ogs.tif
176
     1
290
     0
176
     1
 40
1.0
176
     1
 40
1.0
176
     1
  0
VISUALSTYLE
  5
31
102
{ACAD_REACTORS
330
2A
102
}
330
2A
100
AcDbVisualStyle
  2
Hidden
 70
     6
177
     3
291
     0
 70
    58
 90
        1
176
     1
 90
        2
176
     1
 90
        2
176
     1
 90
        0
176
     1
 40
0.6
176
     1
 40
30.0
176
     1
 62
     7
420
 16777215
176
     1
 90
        2
176
     1
 90
        2
176
     1
 62
     7
176
     1
 62
   257
176
     1
 90
        2
176
     1
 90
        1
176
     1
 40
40.0
176
     1
 90
        0
176
     1
 62
   257
176
     1
 40
1.0
176
     1
 90
        1
176
     1
 90
        6
176
     1
 90
        2
176
     1
 62
     7
176
     1
 90
        3
176
     1
 90
        0
176
     1
 90
        0
176
     1
290
     0
176
     1
 90
        1
176
     1
 40
0.0
176
     1
 90
        0
176
     1
290
     0
176
     1
290
     1
176
     1
290
     1
176
     1
290
     0
176
     1
290
     0
176
     1
290
     0
176
     1
290
     0
176
     1
290
     0
176
     1
290
     0
176
     1
 90
       50
176
     1
 40
0.0
176
     1
 40
1.0
176
     1
 90
        0
176
     1
 62
    18
420
        0
176
     1
 90
       50
176
     1
 90
        3
176
     1
 62
     5
420
      255
176
     1
290
     0
176
     1
 90
       50
176
     1
 90
       50
176
     1
 90
       50
176
     1
290
     0
176
     1
 90
       50
176
     1
 62
   256
176
     0
 40
1.0
176
     0
 90
        2
176
     1
  1
strokes_ogs.tif
176
     1
290
     0
176
     1
 40
1.0
176
     1
 40
1.0
176
     1
  0
VISUALSTYLE
  5
3B
102
{ACAD_REACTORS
330
2A
102
}
330
2A
100
AcDbVisualStyle
  2
JitterOff
 70
    20
177
     3
291
     1
 70
    58
 90
        2
176
     0
 90
        2
176
     0
 90
        0
176
     0
 90
        0
176
     0
 40
0.6
176
     0
 40
30.0
176
     0
 62
     7
420
 16777215
176
     0
 90
        1
176
     0
 90
        4
176
     0
 62
     7
176
     0
 62
   257
176
     0
 90
        1
176
     0
 90
        1
176
     0
 40
1.0
176
     0
 90
       10
176
     2
 62
     7
176
     0
 40
1.0
176
     0
 90
        1
176
     0
 90
        6
176
     0
 90
        2
176
     0
 62
     7
176
     0
 90
        5
176
     0
 90
        0
176
     0
 90
        0
176
     0
290
     0
176
     0
 90
        1
176
     0
 40
0.0
176
     0
 90
        0
176
     0
290
     0
176
     0
290
     1
176
     0
290
     1
176
     0
290
     0
176
     0
290
     0
176
     0
290
     0
176
     0
290
     0
176
     0
290
     0
176
     0
290
     0
176
     0
 90
       50
176
     0
 40
0.0
176
     0
 40
1.0
176
     0
 90
        0
176
     0
 62
    18
420
        0
176
     0
 90
       50
176
     0
 90
        3
176
     0
 62
     5
420
      255
176
     0
290
     0
176
     0
 90
       50
176
     0
 90
       50
176
     0
 90
       50
176
     0
290
     0
176
     0
 90
       50
176
     0
 62
   256
176
     0
 40
1.0
176
     0
 90
        2
176
     0
  1
strokes_ogs.tif
176
     0
290
     0
176
     0
 40
1.0
176
     0
 40
1.0
176
     0
  0
VISUALSTYLE
  5
38
102
{ACAD_REACTORS
330
2A
102
}
330
2A
100
AcDbVisualStyle
  2
Linepattern
 70
    14
177
     3
291
     1
 70
    58
 90
        2
176
     1
 90
        2
176
     1
 90
        0
176
     1
 90
        0
176
     1
 40
0.6
176
     1
 40
30.0
176
     1
 62
     7
420
 16777215
176
     1
 90
        1
176
     1
 90
        4
176
     1
 62
     7
176
     1
 62
   257
176
     1
 90
        7
176
     1
 90
        7
176
     1
 40
1.0
176
     1
 90
        8
176
     1
 62
     7
176
     1
 40
1.0
176
     1
 90
        1
176
     1
 90
        6
176
     1
 90
        2
176
     1
 62
     7
176
     1
 90
        5
176
     1
 90
        0
176
     1
 90
        0
176
     1
290
     0
176
     1
 90
        1
176
     1
 40
0.0
176
     1
 90
        0
176
     1
290
     0
176
     1
290
     1
176
     1
290
     1
176
     1
290
     0
176
     1
290
     0
176
     1
290
     0
176
     1
290
     0
176
     1
290
     0
176
     1
290
     0
176
     1
 90
       50
176
     1
 40
0.0
176
     1
 40
1.0
176
     1
 90
        0
176
     1
 62
    18
420
        0
176
     1
 90
       50
176
     1
 90
        3
176
     1
 62
     5
420
      255
176
     1
290
     0
176
     1
 90
       50
176
     1
 90
       50
176
     1
 90
       50
176
     1
290
     0
176
     1
 90
       50
176
     1
 62
   256
176
     0
 40
1.0
176
     0
 90
        2
176
     1
  1
strokes_ogs.tif
176
     1
290
     0
176
     1
 40
1.0
176
     1
 40
1.0
176
     1
  0
VISUALSTYLE
  5
3C
102
{ACAD_REACTORS
330
2A
102
}
330
2A
100
AcDbVisualStyle
  2
OverhangOff
 70
    21
177
     3
291
     1
 70
    58
 90
        2
176
     0
 90
        2
176
     0
 90
        0
176
     0
 90
        0
176
     0
 40
0.6
176
     0
 40
30.0
176
     0
 62
     7
420
 16777215
176
     0
 90
        1
176
     0
 90
        4
176
     0
 62
     7
176
     0
 62
   257
176
     0
 90
        1
176
     0
 90
        1
176
     0
 40
1.0
176
     0
 90
        9
176
     2
 62
     7
176
     0
 40
1.0
176
     0
 90
        1
176
     0
 90
        6
176
     0
 90
        2
176
     0
 62
     7
176
     0
 90
        5
176
     0
 90
        0
176
     0
 90
        0
176
     0
290
     0
176
     0
 90
        1
176
     0
 40
0.0
176
     0
 90
        0
176
     0
290
     0
176
     0
290
     1
176
     0
290
     1
176
     0
290
     0
176
     0
290
     0
176
     0
290
     0
176
     0
290
     0
176
     0
290
     0
176
     0
290
     0
176
     0
 90
       50
176
     0
 40
0.0
176
     0
 40
1.0
176
     0
 90
        0
176
     0
 62
    18
420
        0
176
     0
 90
       50
176
     0
 90
        3
176
     0
 62
     5
420
      255
176
     0
290
     0
176
     0
 90
       50
176
     0
 90
       50
176
     0
 90
       50
176
     0
290
     0
176
     0
 90
       50
176
     0
 62
   256
176
     0
 40
1.0
176
     0
 90
        2
176
     0
  1
strokes_ogs.tif
176
     0
290
     0
176
     0
 40
1.0
176
     0
 40
1.0
176
     0
  0
VISUALSTYLE
  5
33
102
{ACAD_REACTORS
330
2A
102
}
330
2A
100
AcDbVisualStyle
  2
Realistic
 70
     8
177
     3
291
     0
 70
    58
 90
        2
176
     1
 90
        3
176
     1
 90
        0
176
     1
 90
        2
176
     1
 40
0.6
176
     1
 40
30.0
176
     1
 62
     7
420
 16777215
176
     1
 90
        0
176
     1
 90
        0
176
     1
 62
     7
176
     1
 62
   257
176
     1
 90
        1
176
     1
 90
        1
176
     1
 40
1.0
176
     1
 90
        8
176
     1
 62
   257
176
     1
 40
1.0
176
     1
 90
        1
176
     1
 90
        6
176
     1
 90
        2
176
     1
 62
     7
176
     1
 90
        3
176
     1
 90
        0
176
     1
 90
        0
176
     1
290
     0
176
     1
 90
       13
176
     1
 40
0.0
176
     1
 90
        0
176
     1
290
     0
176
     1
290
     1
176
     1
290
     1
176
     1
290
     0
176
     1
290
     0
176
     1
290
     0
176
     1
290
     0
176
     1
290
     0
176
     1
290
     0
176
     1
 90
       50
176
     1
 40
0.0
176
     1
 40
1.0
176
     1
 90
        0
176
     1
 62
    18
420
        0
176
     1
 90
       50
176
     1
 90
        3
176
     1
 62
     5
420
      255
176
     1
290
     0
176
     1
 90
       50
176
     1
 90
       50
176
     1
 90
       50
176
     1
290
     0
176
     1
 90
       50
176
     1
 62
   256
176
     0
 40
1.0
176
     0
 90
        2
176
     1
  1
strokes_ogs.tif
176
     1
290
     0
176
     1
 40
1.0
176
     1
 40
1.0
176
     1
  0
VISUALSTYLE
  5
42
102
{ACAD_REACTORS
330
2A
102
}
330
2A
100
AcDbVisualStyle
  2
Shaded
 70
    27
177
     3
291
     0
 70
    58
 90
        2
176
     1
 90
        2
176
     1
 90
        1
176
     1
 90
        2
176
     1
 40
0.6
176
     1
 40
30.0
176
     1
 62
     7
420
 16777215
176
     1
 90
        0
176
     1
 90
        4
176
     1
 62
     7
176
     1
 62
   257
176
     1
 90
        1
176
     1
 90
        1
176
     1
 40
1.0
176
     1
 90
        8
176
     1
 62
   257
176
     1
 40
1.0
176
     1
 90
        1
176
     1
 90
        6
176
     1
 90
        2
176
     1
 62
     8
420
  7895160
176
     1
 90
        3
176
     1
 90
        0
176
     1
 90
        0
176
     1
290
     0
176
     1
 90
        5
176
     1
 40
0.0
176
     1
 90
        0
176
     1
290
     0
176
     1
290
     1
176
     1
290
     1
176
     1
290
     0
176
     1
290
     0
176
     1
290
     0
176
     1
290
     0
176
     1
290
     0
176
     1
290
     0
176
     1
 90
       50
176
     1
 40
0.0
176
     1
 40
1.0
176
     1
 90
        0
176
     1
 62
    18
420
        0
176
     1
 90
       50
176
     1
 90
        3
176
     1
 62
     5
420
      255
176
     1
290
     0
176
     1
 90
       50
176
     1
 90
       50
176
     1
 90
       50
176
     1
290
     0
176
     1
 90
       50
176
     1
 62
   256
176
     0
 40
1.0
176
     0
 90
        2
176
     1
  1
strokes_ogs.tif
176
     1
290
     0
176
     1
 40
1.0
176
     1
 40
1.0
176
     1
  0
VISUALSTYLE
  5
41
102
{ACAD_REACTORS
330
2A
102
}
330
2A
100
AcDbVisualStyle
  2
Shaded with edges
 70
    26
177
     3
291
     0
 70
    58
 90
        2
176
     1
 90
        2
176
     1
 90
        1
176
     1
 90
        2
176
     1
 40
0.6
176
     1
 40
30.0
176
     1
 62
     7
420
 16777215
176
     1
 90
        1
176
     1
 90
       10
176
     1
 62
     7
176
     1
 62
   257
176
     1
 90
        2
176
     1
 90
        1
176
     1
 40
1.0
176
     1
 90
        8
176
     1
 62
   257
176
     1
 40
1.0
176
     1
 90
        1
176
     1
 90
        6
176
     1
 90
        2
176
     1
 62
     7
176
     1
 90
        3
176
     1
 90
        0
176
     1
 90
        0
176
     1
290
     0
176
     1
 90
        5
176
     1
 40
0.0
176
     1
 90
        0
176
     1
290
     0
176
     1
290
     1
176
     1
290
     1
176
     1
290
     0
176
     1
290
     0
176
     1
290
     0
176
     1
290
     0
176
     1
290
     0
176
     1
290
     0
176
     1
 90
       50
176
     1
 40
0.0
176
     1
 40
1.0
176
     1
 90
        0
176
     1
 62
    18
420
        0
176
     1
 90
       50
176
     1
 90
        3
176
     1
 62
     5
420
      255
176
     1
290
     0
176
     1
 90
       50
176
     1
 90
       50
176
     1
 90
       50
176
     1
290
     0
176
     1
 90
       50
176
     1
 62
   256
176
     0
 40
1.0
176
     0
 90
        2
176
     1
  1
strokes_ogs.tif
176
     1
290
     0
176
     1
 40
1.0
176
     1
 40
1.0
176
     1
  0
VISUALSTYLE
  5
3E
102
{ACAD_REACTORS
330
2A
102
}
330
2A
100
AcDbVisualStyle
  2
Shades of Gray
 70
    23
177
     3
291
     0
 70
    58
 90
        2
176
     1
 90
        2
176
     1
 90
        3
176
     1
 90
        0
176
     1
 40
0.6
176
     1
 40
30.0
176
     1
 62
     7
420
 16777215
176
     1
 90
        2
176
     1
 90
        2
176
     1
 62
     7
176
     1
 62
     7
176
     1
 90
        1
176
     1
 90
        1
176
     1
 40
40.0
176
     1
 90
        8
176
     1
 62
     7
176
     1
 40
1.0
176
     1
 90
        1
176
     1
 90
        6
176
     1
 90
        2
176
     1
 62
     7
176
     1
 90
        3
176
     1
 90
        0
176
     1
 90
        0
176
     1
290
     0
176
     1
 90
        1
176
     1
 40
0.0
176
     1
 90
        0
176
     1
290
     0
176
     1
290
     1
176
     1
290
     1
176
     1
290
     0
176
     1
290
     0
176
     1
290
     0
176
     1
290
     0
176
     1
290
     0
176
     1
290
     0
176
     1
 90
       50
176
     1
 40
0.0
176
     1
 40
1.0
176
     1
 90
        0
176
     1
 62
    18
420
        0
176
     1
 90
       50
176
     1
 90
        3
176
     1
 62
     5
420
      255
176
     1
290
     0
176
     1
 90
       50
176
     1
 90
       50
176
     1
 90
       50
176
     1
290
     0
176
     1
 90
       50
176
     1
 62
   256
176
     0
 40
1.0
176
     0
 90
        2
176
     1
  1
strokes_ogs.tif
176
     1
290
     0
176
     1
 40
1.0
176
     1
 40
1.0
176
     1
  0
VISUALSTYLE
  5
3F
102
{ACAD_REACTORS
330
2A
102
}
330
2A
100
AcDbVisualStyle
  2
Sketchy
 70
    24
177
     3
291
     0
 70
    58
 90
        1
176
     1
 90
        2
176
     1
 90
        2
176
     1
 90
        0
176
     1
 40
0.6
176
     1
 40
30.0
176
     1
 62
     7
420
 16777215
176
     1
 90
        2
176
     1
 90
        2
176
     1
 62
     7
176
     1
 62
     7
176
     1
 90
        1
176
     1
 90
        1
176
     1
 40
40.0
176
     1
 90
       11
176
     1
 62
     7
176
     1
 40
1.0
176
     1
 90
        1
176
     1
 90
        6
176
     1
 90
        2
176
     1
 62
     7
176
     1
 90
        6
176
     1
 90
        0
176
     1
 90
        0
176
     1
290
     0
176
     1
 90
        1
176
     1
 40
0.0
176
     1
 90
        0
176
     1
290
     0
176
     1
290
     1
176
     1
290
     1
176
     1
290
     0
176
     1
290
     0
176
     1
290
     0
176
     1
290
     0
176
     1
290
     0
176
     1
290
     0
176
     1
 90
       50
176
     1
 40
0.0
176
     1
 40
1.0
176
     1
 90
        0
176
     1
 62
    18
420
        0
176
     1
 90
       50
176
     1
 90
        3
176
     1
 62
     5
420
      255
176
     1
290
     0
176
     1
 90
       50
176
     1
 90
       50
176
     1
 90
       50
176
     1
290
     0
176
     1
 90
       50
176
     1
 62
   256
176
     0
 40
1.0
176
     0
 90
        2
176
     1
  1
strokes_ogs.tif
176
     1
290
     0
176
     1
 40
1.0
176
     1
 40
1.0
176
     1
  0
VISUALSTYLE
  5
37
102
{ACAD_REACTORS
330
2A
102
}
330
2A
100
AcDbVisualStyle
  2
Thicken
 70
    13
177
     3
291
     1
 70
    58
 90
        2
176
     1
 90
        2
176
     1
 90
        0
176
     1
 90
        0
176
     1
 40
0.6
176
     1
 40
30.0
176
     1
 62
     7
420
 16777215
176
     1
 90
        1
176
     1
 90
        4
176
     1
 62
     7
176
     1
 62
   257
176
     1
 90
        1
176
     1
 90
        1
176
     1
 40
1.0
176
     1
 90
       12
176
     1
 62
     7
176
     1
 40
1.0
176
     1
 90
        1
176
     1
 90
        6
176
     1
 90
        2
176
     1
 62
     7
176
     1
 90
        5
176
     1
 90
        0
176
     1
 90
        0
176
     1
290
     0
176
     1
 90
        1
176
     1
 40
0.0
176
     1
 90
        0
176
     1
290
     0
176
     1
290
     1
176
     1
290
     1
176
     1
290
     0
176
     1
290
     0
176
     1
290
     0
176
     1
290
     0
176
     1
290
     0
176
     1
290
     0
176
     1
 90
       50
176
     1
 40
0.0
176
     1
 40
1.0
176
     1
 90
        0
176
     1
 62
    18
420
        0
176
     1
 90
       50
176
     1
 90
        3
176
     1
 62
     5
420
      255
176
     1
290
     0
176
     1
 90
       50
176
     1
 90
       50
176
     1
 90
       50
176
     1
290
     0
176
     1
 90
       50
176
     1
 62
   256
176
     0
 40
1.0
176
     0
 90
        2
176
     1
  1
strokes_ogs.tif
176
     1
290
     0
176
     1
 40
1.0
176
     1
 40
1.0
176
     1
  0
VISUALSTYLE
  5
30
102
{ACAD_REACTORS
330
2A
102
}
330
2A
100
AcDbVisualStyle
  2
Wireframe
 70
     5
177
     3
291
     0
 70
    58
 90
        0
176
     1
 90
        2
176
     1
 90
        0
176
     1
 90
        0
176
     1
 40
0.6
176
     1
 40
30.0
176
     1
 62
     7
420
 16777215
176
     1
 90
        1
176
     1
 90
        4
176
     1
 62
     7
176
     1
 62
   257
176
     1
 90
        1
176
     1
 90
        1
176
     1
 40
1.0
176
     1
 90
        0
176
     1
 62
   257
176
     1
 40
1.0
176
     1
 90
        1
176
     1
 90
        6
176
     1
 90
        2
176
     1
 62
     7
176
     1
 90
        3
176
     1
 90
        0
176
     1
 90
        0
176
     1
290
     0
176
     1
 90
        1
176
     1
 40
0.0
176
     1
 90
        0
176
     1
290
     0
176
     1
290
     1
176
     1
290
     1
176
     1
290
     0
176
     1
290
     0
176
     1
290
     0
176
     1
290
     0
176
     1
290
     0
176
     1
290
     0
176
     1
 90
       50
176
     1
 40
0.0
176
     1
 40
1.0
176
     1
 90
        0
176
     1
 62
    18
420
        0
176
     1
 90
       50
176
     1
 90
        3
176
     1
 62
     5
420
      255
176
     1
290
     0
176
     1
 90
       50
176
     1
 90
       50
176
     1
 90
       50
176
     1
290
     0
176
     1
 90
       50
176
     1
 62
   256
176
     0
 40
1.0
176
     0
 90
        2
176
     1
  1
strokes_ogs.tif
176
     1
290
     0
176
     1
 40
1.0
176
     1
 40
1.0
176
     1
  0
VISUALSTYLE
  5
40
102
{ACAD_REACTORS
330
2A
102
}
330
2A
100
AcDbVisualStyle
  2
X-Ray
 70
    25
177
     3
291
     0
 70
    58
 90
        2
176
     1
 90
        2
176
     1
 90
        1
176
     1
 90
        1
176
     1
 40
0.5
176
     1
 40
30.0
176
     1
 62
     7
420
 16777215
176
     1
 90
        1
176
     1
 90
        0
176
     1
 62
     7
176
     1
 62
   257
176
     1
 90
        1
176
     1
 90
        1
176
     1
 40
1.0
176
     1
 90
        8
176
     1
 62
     7
176
     1
 40
1.0
176
     1
 90
        1
176
     1
 90
        6
176
     1
 90
        2
176
     1
 62
     7
176
     1
 90
        3
176
     1
 90
        0
176
     1
 90
        0
176
     1
290
     0
176
     1
 90
       13
176
     1
 40
0.0
176
     1
 90
        0
176
     1
290
     0
176
     1
290
     1
176
     1
290
     1
176
     1
290
     0
176
     1
290
     0
176
     1
290
     0
176
     1
290
     0
176
     1
290
     0
176
     1
290
     0
176
     1
 90
       50
176
     1
 40
0.0
176
     1
 40
1.0
176
     1
 90
        0
176
     1
 62
    18
420
        0
176
     1
 90
       50
176
     1
 90
        3
176
     1
 62
     5
420
      255
176
     1
290
     0
176
     1
 90
       50
176
     1
 90
       50
176
     1
 90
       50
176
     1
290
     0
176
     1
 90
       50
176
     1
 62
   256
176
     0
 40
1.0
176
     0
 90
        2
176
     1
  1
strokes_ogs.tif
176
     1
290
     0
176
     1
 40
1.0
176
     1
 40
1.0
176
     1
  0
DICTIONARYVAR
  5
1BA
102
{ACAD_REACTORS
330
1B9
102
}
330
1B9
100
DictionaryVariables
280
     0
  1
1:1
  0
DICTIONARYVAR
  5
1BF
102
{ACAD_REACTORS
330
1B9
102
}
330
1B9
100
DictionaryVariables
280
     0
  1
Standard
  0
DICTIONARYVAR
  5
1BE
102
{ACAD_REACTORS
330
1B9
102
}
330
1B9
100
DictionaryVariables
280
     0
  1
Standard
  0
DICTIONARY
  5
1BB
330
6A
100
AcDbDictionary
280
     1
281
     1
  3
ACAD_ROUNDTRIP_2008_TABLESTYLE_CELLSTYLEMAP
360
1BC
  0
CELLSTYLEMAP
  5
1BC
102
{ACAD_REACTORS
330
1BB
102
}
330
1BB
100
AcDbCellStyleMap
 90
        3
300
CELLSTYLE
  1
TABLEFORMAT_BEGIN
 90
        5
170
     1
 91
        0
 92
    32768
 62
   257
 93
        1
300
CONTENTFORMAT
  1
CONTENTFORMAT_BEGIN
 90
        0
 91
        0
 92
        4
 93
        0
300

 40
0.0
140
1.0
 94
        5
 62
     0
340
11
144
0.25
309
CONTENTFORMAT_END
171
     1
301
MARGIN
  1
CELLMARGIN_BEGIN
 40
0.06
 40
0.06
 40
0.06
 40
0.06
 40
0.06
 40
0.06
309
CELLMARGIN_END
 94
        6
 95
        1
302
GRIDFORMAT
  1
GRIDFORMAT_BEGIN
 90
        0
 91
        1
 62
     0
 92
       -2
340
14
 93
        0
 40
0.045
309
GRIDFORMAT_END
 95
        2
302
GRIDFORMAT
  1
GRIDFORMAT_BEGIN
 90
        0
 91
        1
 62
     0
 92
       -2
340
14
 93
        0
 40
0.045
309
GRIDFORMAT_END
 95
        4
302
GRIDFORMAT
  1
GRIDFORMAT_BEGIN
 90
        0
 91
        1
 62
     0
 92
       -2
340
14
 93
        0
 40
0.045
309
GRIDFORMAT_END
 95
        8
302
GRIDFORMAT
  1
GRIDFORMAT_BEGIN
 90
        0
 91
        1
 62
     0
 92
       -2
340
14
 93
        0
 40
0.045
309
GRIDFORMAT_END
 95
       16
302
GRIDFORMAT
  1
GRIDFORMAT_BEGIN
 90
        0
 91
        1
 62
     0
 92
       -2
340
14
 93
        0
 40
0.045
309
GRIDFORMAT_END
 95
       32
302
GRIDFORMAT
  1
GRIDFORMAT_BEGIN
 90
        0
 91
        1
 62
     0
 92
       -2
340
14
 93
        0
 40
0.045
309
GRIDFORMAT_END
309
TABLEFORMAT_END
  1
CELLSTYLE_BEGIN
 90
        1
 91
        1
300
_TITLE
309
CELLSTYLE_END
300
CELLSTYLE
  1
TABLEFORMAT_BEGIN
 90
        5
170
     1
 91
        0
 92
        0
 62
   257
 93
        1
300
CONTENTFORMAT
  1
CONTENTFORMAT_BEGIN
 90
        0
 91
        0
 92
        4
 93
        0
300

 40
0.0
140
1.0
 94
        5
 62
     0
340
11
144
0.18
309
CONTENTFORMAT_END
171
     1
301
MARGIN
  1
CELLMARGIN_BEGIN
 40
0.06
 40
0.06
 40
0.06
 40
0.06
 40
0.06
 40
0.06
309
CELLMARGIN_END
 94
        6
 95
        1
302
GRIDFORMAT
  1
GRIDFORMAT_BEGIN
 90
        0
 91
        1
 62
     0
 92
       -2
340
14
 93
        0
 40
0.045
309
GRIDFORMAT_END
 95
        2
302
GRIDFORMAT
  1
GRIDFORMAT_BEGIN
 90
        0
 91
        1
 62
     0
 92
       -2
340
14
 93
        0
 40
0.045
309
GRIDFORMAT_END
 95
        4
302
GRIDFORMAT
  1
GRIDFORMAT_BEGIN
 90
        0
 91
        1
 62
     0
 92
       -2
340
14
 93
        0
 40
0.045
309
GRIDFORMAT_END
 95
        8
302
GRIDFORMAT
  1
GRIDFORMAT_BEGIN
 90
        0
 91
        1
 62
     0
 92
       -2
340
14
 93
        0
 40
0.045
309
GRIDFORMAT_END
 95
       16
302
GRIDFORMAT
  1
GRIDFORMAT_BEGIN
 90
        0
 91
        1
 62
     0
 92
       -2
340
14
 93
        0
 40
0.045
309
GRIDFORMAT_END
 95
       32
302
GRIDFORMAT
  1
GRIDFORMAT_BEGIN
 90
        0
 91
        1
 62
     0
 92
       -2
340
14
 93
        0
 40
0.045
309
GRIDFORMAT_END
309
TABLEFORMAT_END
  1
CELLSTYLE_BEGIN
 90
        2
 91
        1
300
_HEADER
309
CELLSTYLE_END
300
CELLSTYLE
  1
TABLEFORMAT_BEGIN
 90
        5
170
     1
 91
        0
 92
        0
 62
   257
 93
        1
300
CONTENTFORMAT
  1
CONTENTFORMAT_BEGIN
 90
        0
 91
        0
 92
        4
 93
        0
300

 40
0.0
140
1.0
 94
        2
 62
     0
340
11
144
0.18
309
CONTENTFORMAT_END
171
     1
301
MARGIN
  1
CELLMARGIN_BEGIN
 40
0.06
 40
0.06
 40
0.06
 40
0.06
 40
0.06
 40
0.06
309
CELLMARGIN_END
 94
        6
 95
        1
302
GRIDFORMAT
  1
GRIDFORMAT_BEGIN
 90
        0
 91
        1
 62
     0
 92
       -2
340
14
 93
        0
 40
0.045
309
GRIDFORMAT_END
 95
        2
302
GRIDFORMAT
  1
GRIDFORMAT_BEGIN
 90
        0
 91
        1
 62
     0
 92
       -2
340
14
 93
        0
 40
0.045
309
GRIDFORMAT_END
 95
        4
302
GRIDFORMAT
  1
GRIDFORMAT_BEGIN
 90
        0
 91
        1
 62
     0
 92
       -2
340
14
 93
        0
 40
0.045
309
GRIDFORMAT_END
 95
        8
302
GRIDFORMAT
  1
GRIDFORMAT_BEGIN
 90
        0
 91
        1
 62
     0
 92
       -2
340
14
 93
        0
 40
0.045
309
GRIDFORMAT_END
 95
       16
302
GRIDFORMAT
  1
GRIDFORMAT_BEGIN
 90
        0
 91
        1
 62
     0
 92
       -2
340
14
 93
        0
 40
0.045
309
GRIDFORMAT_END
 95
       32
302
GRIDFORMAT
  1
GRIDFORMAT_BEGIN
 90
        0
 91
        1
 62
     0
 92
       -2
340
14
 93
        0
 40
0.045
309
GRIDFORMAT_END
309
TABLEFORMAT_END
  1
CELLSTYLE_BEGIN
 90
        3
 91
        2
300
_DATA
309
CELLSTYLE_END
  0
ENDSEC
  0
EOF